  0
SECTION
  2
HEADER
  9
$ACADVER
  1
AC1024
  9
$ACADMAINTVER
 70
     6
  9
$DWGCODEPAGE
  3
UNDEFINED
  9
$INSBASE
 10
0.0
 20
0.0
 30
0.0
  9
$EXTMIN
 10
1.000000000000000E+20
 20
1.000000000000000E+20
 30
1.000000000000000E+20
  9
$EXTMAX
 10
-1.000000000000000E+20
 20
-1.000000000000000E+20
 30
-1.000000000000000E+20
  9
$LIMMIN
 10
0.0
 20
0.0
  9
$LIMMAX
 10
12.0
 20
9.0
  9
$ORTHOMODE
 70
     0
  9
$REGENMODE
 70
     1
  9
$FILLMODE
 70
     1
  9
$QTEXTMODE
 70
     0
  9
$MIRRTEXT
 70
     1
  9
$LTSCALE
 40
1.0
  9
$ATTMODE
 70
     1
  9
$TEXTSIZE
 40
0.2
  9
$TRACEWID
 40
0.05
  9
$TEXTSTYLE
  7
Standard
  9
$CLAYER
  8
0
  9
$CELTYPE
  6
ByLayer
  9
$CECOLOR
 62
   256
  9
$CELTSCALE
 40
1.0
  9
$DISPSILH
 70
     0
  9
$DIMSCALE
 40
1.0
  9
$DIMASZ
 40
0.18
  9
$DIMEXO
 40
0.0625
  9
$DIMDLI
 40
0.38
  9
$DIMRND
 40
0.0
  9
$DIMDLE
 40
0.0
  9
$DIMEXE
 40
0.18
  9
$DIMTP
 40
0.0
  9
$DIMTM
 40
0.0
  9
$DIMTXT
 40
0.18
  9
$DIMCEN
 40
0.09
  9
$DIMTSZ
 40
0.0
  9
$DIMTOL
 70
     0
  9
$DIMLIM
 70
     0
  9
$DIMTIH
 70
     1
  9
$DIMTOH
 70
     1
  9
$DIMSE1
 70
     0
  9
$DIMSE2
 70
     0
  9
$DIMTAD
 70
     0
  9
$DIMZIN
 70
     0
  9
$DIMBLK
  1

  9
$DIMASO
 70
     1
  9
$DIMSHO
 70
     1
  9
$DIMPOST
  1

  9
$DIMAPOST
  1

  9
$DIMALT
 70
     0
  9
$DIMALTD
 70
     2
  9
$DIMALTF
 40
25.4
  9
$DIMLFAC
 40
1.0
  9
$DIMTOFL
 70
     0
  9
$DIMTVP
 40
0.0
  9
$DIMTIX
 70
     0
  9
$DIMSOXD
 70
     0
  9
$DIMSAH
 70
     0
  9
$DIMBLK1
  1

  9
$DIMBLK2
  1

  9
$DIMSTYLE
  2
Standard
  9
$DIMCLRD
 70
     0
  9
$DIMCLRE
 70
     0
  9
$DIMCLRT
 70
     0
  9
$DIMTFAC
 40
1.0
  9
$DIMGAP
 40
0.09
  9
$DIMJUST
 70
     0
  9
$DIMSD1
 70
     0
  9
$DIMSD2
 70
     0
  9
$DIMTOLJ
 70
     1
  9
$DIMTZIN
 70
     0
  9
$DIMALTZ
 70
     0
  9
$DIMALTTZ
 70
     0
  9
$DIMUPT
 70
     0
  9
$DIMDEC
 70
     4
  9
$DIMTDEC
 70
     4
  9
$DIMALTU
 70
     2
  9
$DIMALTTD
 70
     2
  9
$DIMTXSTY
  7
Standard
  9
$DIMAUNIT
 70
     0
  9
$DIMADEC
 70
     0
  9
$DIMALTRND
 40
0.0
  9
$DIMAZIN
 70
     0
  9
$DIMDSEP
 70
    46
  9
$DIMATFIT
 70
     3
  9
$DIMFRAC
 70
     0
  9
$DIMLDRBLK
  1

  9
$DIMLUNIT
 70
     2
  9
$DIMLWD
 70
    -2
  9
$DIMLWE
 70
    -2
  9
$DIMTMOVE
 70
     0
  9
$DIMFXL
 40
1.0
  9
$DIMFXLON
 70
     0
  9
$DIMJOGANG
 40
0.7853981633974483
  9
$DIMTFILL
 70
     0
  9
$DIMTFILLCLR
 70
     0
  9
$DIMARCSYM
 70
     0
  9
$DIMLTYPE
  6

  9
$DIMLTEX1
  6

  9
$DIMLTEX2
  6

  9
$DIMTXTDIRECTION
 70
     0
  9
$LUNITS
 70
     2
  9
$LUPREC
 70
     4
  9
$SKETCHINC
 40
0.1
  9
$FILLETRAD
 40
0.5
  9
$AUNITS
 70
     0
  9
$AUPREC
 70
     0
  9
$MENU
  1
.
  9
$ELEVATION
 40
0.0
  9
$PELEVATION
 40
0.0
  9
$THICKNESS
 40
0.0
  9
$LIMCHECK
 70
     0
  9
$CHAMFERA
 40
0.5
  9
$CHAMFERB
 40
0.5
  9
$CHAMFERC
 40
1.0
  9
$CHAMFERD
 40
0.0
  9
$SKPOLY
 70
     0
  9
$TDCREATE
 40
2457917.592002315
  9
$TDUCREATE
 40
2457917.217002315
  9
$TDUPDATE
 40
2457917.592002315
  9
$TDUUPDATE
 40
2457917.217002315
  9
$TDINDWG
 40
0.0000000116
  9
$TDUSRTIMER
 40
0.0000000116
  9
$USRTIMER
 70
     1
  9
$ANGBASE
 50
0.0
  9
$ANGDIR
 70
     0
  9
$PDMODE
 70
     0
  9
$PDSIZE
 40
0.0
  9
$PLINEWID
 40
0.0
  9
$SPLFRAME
 70
     0
  9
$SPLINETYPE
 70
     6
  9
$SPLINESEGS
 70
     8
  9
$HANDSEED
  5
128
  9
$SURFTAB1
 70
     6
  9
$SURFTAB2
 70
     6
  9
$SURFTYPE
 70
     6
  9
$SURFU
 70
     6
  9
$SURFV
 70
     6
  9
$UCSBASE
  2

  9
$UCSNAME
  2

  9
$UCSORG
 10
0.0
 20
0.0
 30
0.0
  9
$UCSXDIR
 10
1.0
 20
0.0
 30
0.0
  9
$UCSYDIR
 10
0.0
 20
1.0
 30
0.0
  9
$UCSORTHOREF
  2

  9
$UCSORTHOVIEW
 70
     0
  9
$UCSORGTOP
 10
0.0
 20
0.0
 30
0.0
  9
$UCSORGBOTTOM
 10
0.0
 20
0.0
 30
0.0
  9
$UCSORGLEFT
 10
0.0
 20
0.0
 30
0.0
  9
$UCSORGRIGHT
 10
0.0
 20
0.0
 30
0.0
  9
$UCSORGFRONT
 10
0.0
 20
0.0
 30
0.0
  9
$UCSORGBACK
 10
0.0
 20
0.0
 30
0.0
  9
$PUCSBASE
  2

  9
$PUCSNAME
  2

  9
$PUCSORG
 10
0.0
 20
0.0
 30
0.0
  9
$PUCSXDIR
 10
1.0
 20
0.0
 30
0.0
  9
$PUCSYDIR
 10
0.0
 20
1.0
 30
0.0
  9
$PUCSORTHOREF
  2

  9
$PUCSORTHOVIEW
 70
     0
  9
$PUCSORGTOP
 10
0.0
 20
0.0
 30
0.0
  9
$PUCSORGBOTTOM
 10
0.0
 20
0.0
 30
0.0
  9
$PUCSORGLEFT
 10
0.0
 20
0.0
 30
0.0
  9
$PUCSORGRIGHT
 10
0.0
 20
0.0
 30
0.0
  9
$PUCSORGFRONT
 10
0.0
 20
0.0
 30
0.0
  9
$PUCSORGBACK
 10
0.0
 20
0.0
 30
0.0
  9
$USERI1
 70
     0
  9
$USERI2
 70
     0
  9
$USERI3
 70
     0
  9
$USERI4
 70
     0
  9
$USERI5
 70
     0
  9
$USERR1
 40
0.0
  9
$USERR2
 40
0.0
  9
$USERR3
 40
0.0
  9
$USERR4
 40
0.0
  9
$USERR5
 40
0.0
  9
$WORLDVIEW
 70
     1
  9
$SHADEDGE
 70
     3
  9
$SHADEDIF
 70
    70
  9
$TILEMODE
 70
     1
  9
$MAXACTVP
 70
    64
  9
$PINSBASE
 10
0.0
 20
0.0
 30
0.0
  9
$PLIMCHECK
 70
     0
  9
$PEXTMIN
 10
1.000000000000000E+20
 20
1.000000000000000E+20
 30
1.000000000000000E+20
  9
$PEXTMAX
 10
-1.000000000000000E+20
 20
-1.000000000000000E+20
 30
-1.000000000000000E+20
  9
$PLIMMIN
 10
0.0
 20
0.0
  9
$PLIMMAX
 10
12.0
 20
9.0
  9
$UNITMODE
 70
     0
  9
$VISRETAIN
 70
     1
  9
$PLINEGEN
 70
     0
  9
$PSLTSCALE
 70
     1
  9
$TREEDEPTH
 70
  3020
  9
$CMLSTYLE
  2
Standard
  9
$CMLJUST
 70
     0
  9
$CMLSCALE
 40
1.0
  9
$PROXYGRAPHICS
 70
     1
  9
$MEASUREMENT
 70
     0
  9
$CELWEIGHT
370
    -1
  9
$ENDCAPS
280
     0
  9
$JOINSTYLE
280
     0
  9
$LWDISPLAY
290
     1
  9
$INSUNITS
 70
     1
  9
$HYPERLINKBASE
  1

  9
$STYLESHEET
  1

  9
$XEDIT
290
     1
  9
$CEPSNTYPE
380
     0
  9
$PSTYLEMODE
290
     1
  9
$FINGERPRINTGUID
  2
{F09DE71F-A3EF-1274-4D0E-4C1947843539}
  9
$VERSIONGUID
  2
{FAEB1C32-E019-11D5-929B-00C0DF256EC4}
  9
$EXTNAMES
290
     1
  9
$PSVPSCALE
 40
0.0
  9
$OLESTARTUP
290
     0
  9
$SORTENTS
280
   127
  9
$INDEXCTL
280
     0
  9
$HIDETEXT
280
     1
  9
$XCLIPFRAME
280
     2
  9
$HALOGAP
280
     0
  9
$OBSCOLOR
 70
   257
  9
$OBSLTYPE
280
     0
  9
$INTERSECTIONDISPLAY
280
     0
  9
$INTERSECTIONCOLOR
 70
   257
  9
$DIMASSOC
280
     2
  9
$PROJECTNAME
  1

  9
$CAMERADISPLAY
290
     0
  9
$LENSLENGTH
 40
50.0
  9
$CAMERAHEIGHT
 40
0.0
  9
$STEPSPERSEC
 40
2.0
  9
$STEPSIZE
 40
6.0
  9
$3DDWFPREC
 40
2.0
  9
$PSOLWIDTH
 40
0.25
  9
$PSOLHEIGHT
 40
4.0
  9
$LOFTANG1
 40
1.570796326794897
  9
$LOFTANG2
 40
1.570796326794897
  9
$LOFTMAG1
 40
0.0
  9
$LOFTMAG2
 40
0.0
  9
$LOFTPARAM
 70
     7
  9
$LOFTNORMALS
280
     1
  9
$LATITUDE
 40
37.795
  9
$LONGITUDE
 40
-122.394
  9
$NORTHDIRECTION
 40
0.0
  9
$TIMEZONE
 70
 -8000
  9
$LIGHTGLYPHDISPLAY
280
     1
  9
$TILEMODELIGHTSYNCH
280
     1
  9
$CMATERIAL
347
3C
  9
$SOLIDHIST
280
     1
  9
$SHOWHIST
280
     1
  9
$DWFFRAME
280
     2
  9
$DGNFRAME
280
     2
  9
$REALWORLDSCALE
290
     1
  9
$INTERFERECOLOR
 62
   256
  9
$CSHADOW
280
     0
  9
$SHADOWPLANELOCATION
 40
0.0
  0
ENDSEC
  0
SECTION
  2
CLASSES
  0
CLASS
  1
ACDBDICTIONARYWDFLT
  2
AcDbDictionaryWithDefault
  3
ObjectDBX Classes
 90
        0
 91
        4
280
     0
281
     0
  0
CLASS
  1
VISUALSTYLE
  2
AcDbVisualStyle
  3
ObjectDBX Classes
 90
     4095
 91
        4
280
     0
281
     0
  0
CLASS
  1
MATERIAL
  2
AcDbMaterial
  3
ObjectDBX Classes
 90
     1153
 91
        4
280
     0
281
     0
  0
CLASS
  1
SUN
  2
AcDbSun
  3
SCENEOE
 90
     1024
 91
        4
280
     0
281
     0
  0
ENDSEC
  0
SECTION
  2
TABLES
  0
TABLE
  2
VPORT
  5
8
330
0
100
AcDbSymbolTable
 70
     1
  0
VPORT
  5
29
330
8
100
AcDbSymbolTableRecord
100
AcDbViewportTableRecord
  2
*Active
 70
     0
 10
0.0
 20
0.0
 11
1.0
 21
1.0
 12
0.0
 22
0.0
 13
0.0
 23
0.0
 14
0.5
 24
0.5
 15
0.5
 25
0.5
 16
0.0
 26
0.0
 36
1.0
 17
91.00082462281999
 27
-128.4993055234307
 37
0.0
 40
256.9986110468615
 41
0.7081814508812795
 42
50.0
 43
0.0
 44
0.0
 50
0.0
 51
0.0
 71
     0
 72
   100
 73
     1
 74
     3
 75
     0
 76
     0
 77
     0
 78
     0
281
     0
 65
     1
110
0.0
120
0.0
130
0.0
111
1.0
121
0.0
131
0.0
112
0.0
122
1.0
132
0.0
 79
     0
146
0.0
 60
     3
 61
     5
292
     1
282
     1
141
0.0
142
0.0
 63
   250
361
3F
  0
ENDTAB
  0
TABLE
  2
LTYPE
  5
5
330
0
100
AcDbSymbolTable
 70
     1
  0
LTYPE
  5
14
330
5
100
AcDbSymbolTableRecord
100
AcDbLinetypeTableRecord
  2
ByBlock
 70
     0
  3

 72
    65
 73
     0
 40
0.0
  0
LTYPE
  5
15
330
5
100
AcDbSymbolTableRecord
100
AcDbLinetypeTableRecord
  2
ByLayer
 70
     0
  3

 72
    65
 73
     0
 40
0.0
  0
LTYPE
  5
16
330
5
100
AcDbSymbolTableRecord
100
AcDbLinetypeTableRecord
  2
Continuous
 70
     0
  3
Solid line
 72
    65
 73
     0
 40
0.0
  0
ENDTAB
  0
TABLE
  2
LAYER
  5
2
330
0
100
AcDbSymbolTable
 70
     2
  0
LAYER
  5
10
330
2
100
AcDbSymbolTableRecord
100
AcDbLayerTableRecord
  2
0
 70
     0
 62
     7
  6
Continuous
370
    -3
390
F
347
3E
  0
LAYER
  5
40
330
2
100
AcDbSymbolTableRecord
100
AcDbLayerTableRecord
  2
_U+30EC_U+30A4_U+30E4_U+30FC 1
 70
     0
 62
     7
  6
Continuous
370
    -3
390
F
347
3E
  0
ENDTAB
  0
TABLE
  2
STYLE
  5
3
330
0
100
AcDbSymbolTable
 70
     1
  0
STYLE
  5
11
330
3
100
AcDbSymbolTableRecord
100
AcDbTextStyleTableRecord
  2
Standard
 70
     0
 40
0.0
 41
1.0
 50
0.0
 71
     0
 42
0.2
  3
txt
  4

  0
ENDTAB
  0
TABLE
  2
VIEW
  5
6
330
0
100
AcDbSymbolTable
 70
     0
  0
ENDTAB
  0
TABLE
  2
UCS
  5
7
330
0
100
AcDbSymbolTable
 70
     0
  0
ENDTAB
  0
TABLE
  2
APPID
  5
9
330
0
100
AcDbSymbolTable
 70
     1
  0
APPID
  5
12
330
9
100
AcDbSymbolTableRecord
100
AcDbRegAppTableRecord
  2
ACAD
 70
     0
  0
ENDTAB
  0
TABLE
  2
DIMSTYLE
  5
A
330
0
100
AcDbSymbolTable
 70
     1
100
AcDbDimStyleTable
  0
DIMSTYLE
105
27
330
A
100
AcDbSymbolTableRecord
100
AcDbDimStyleTableRecord
  2
Standard
 70
     0
178
     0
340
11
  0
ENDTAB
  0
TABLE
  2
BLOCK_RECORD
  5
1
330
0
100
AcDbSymbolTable
 70
     8
  0
BLOCK_RECORD
  5
1F
330
1
100
AcDbSymbolTableRecord
100
AcDbBlockTableRecord
  2
*Model_Space
340
22
 70
     0
280
     1
281
     0
  0
BLOCK_RECORD
  5
1B
330
1
100
AcDbSymbolTableRecord
100
AcDbBlockTableRecord
  2
*Paper_Space
340
1E
 70
     0
280
     1
281
     0
  0
BLOCK_RECORD
  5
23
330
1
100
AcDbSymbolTableRecord
100
AcDbBlockTableRecord
  2
*Paper_Space0
340
26
 70
     0
280
     1
281
     0
  0
BLOCK_RECORD
  5
E1
330
1
100
AcDbSymbolTableRecord
100
AcDbBlockTableRecord
  2
block 2
340
0
102
{BLKREFS
331
E2
102
}
 70
     0
280
     1
281
     0
  0
BLOCK_RECORD
  5
E7
330
1
100
AcDbSymbolTableRecord
100
AcDbBlockTableRecord
  2
block 3
340
0
102
{BLKREFS
331
E8
102
}
 70
     0
280
     1
281
     0
  0
BLOCK_RECORD
  5
ED
330
1
100
AcDbSymbolTableRecord
100
AcDbBlockTableRecord
  2
block 4
340
0
102
{BLKREFS
331
EE
102
}
 70
     0
280
     1
281
     0
  0
BLOCK_RECORD
  5
F6
330
1
100
AcDbSymbolTableRecord
100
AcDbBlockTableRecord
  2
block 5
340
0
102
{BLKREFS
331
F7
102
}
 70
     0
280
     1
281
     0
  0
BLOCK_RECORD
  5
FC
330
1
100
AcDbSymbolTableRecord
100
AcDbBlockTableRecord
  2
block 6
340
0
102
{BLKREFS
331
FD
102
}
 70
     0
280
     1
281
     0
  0
BLOCK_RECORD
  5
104
330
1
100
AcDbSymbolTableRecord
100
AcDbBlockTableRecord
  2
block 7
340
0
102
{BLKREFS
331
105
102
}
 70
     0
280
     1
281
     0
  0
BLOCK_RECORD
  5
10A
330
1
100
AcDbSymbolTableRecord
100
AcDbBlockTableRecord
  2
block 8
340
0
102
{BLKREFS
331
10B
102
}
 70
     0
280
     1
281
     0
  0
ENDTAB
  0
ENDSEC
  0
SECTION
  2
BLOCKS
  0
BLOCK
  5
20
330
1F
100
AcDbEntity
  8
0
100
AcDbBlockBegin
  2
*Model_Space
 70
     0
 10
0.0
 20
0.0
 30
0.0
  3
*Model_Space
  1

  0
ENDBLK
  5
21
330
1F
100
AcDbEntity
  8
0
100
AcDbBlockEnd
  0
BLOCK
  5
1C
330
1B
100
AcDbEntity
 67
     1
  8
0
100
AcDbBlockBegin
  2
*Paper_Space
 70
     0
 10
0.0
 20
0.0
 30
0.0
  3
*Paper_Space
  1

  0
ENDBLK
  5
1D
330
1B
100
AcDbEntity
 67
     1
  8
0
100
AcDbBlockEnd
  0
BLOCK
  5
24
330
23
100
AcDbEntity
  8
0
100
AcDbBlockBegin
  2
*Paper_Space0
 70
     0
 10
0.0
 20
0.0
 30
0.0
  3
*Paper_Space0
  1

  0
ENDBLK
  5
25
330
23
100
AcDbEntity
  8
0
100
AcDbBlockEnd
  0
BLOCK
  5
E3
330
E1
100
AcDbEntity
  8
0
100
AcDbBlockBegin
  2
block 2
 70
     0
 10
0.0
 20
0.0
 30
0.0
  3
block 2
  1

  0
SPLINE
  5
E5
330
E1
100
AcDbEntity
  8
_U+30EC_U+30A4_U+30E4_U+30FC 1
370
     0
100
AcDbSpline
210
0.0
220
0.0
230
1.0
 70
    11
 71
     3
 72
    62
 73
    58
 74
     0
 42
0.0000000001
 43
0.0000000001
 12
1.0
 22
0.0
 32
0.0
 13
1.0
 23
0.0
 33
0.0
 40
0.0
 40
0.0
 40
0.0
 40
0.0
 40
1.0
 40
1.0
 40
1.0
 40
2.0
 40
2.0
 40
2.0
 40
3.0
 40
3.0
 40
3.0
 40
4.0
 40
4.0
 40
4.0
 40
5.0
 40
5.0
 40
5.0
 40
6.0
 40
6.0
 40
6.0
 40
7.0
 40
7.0
 40
7.0
 40
8.0
 40
8.0
 40
8.0
 40
9.0
 40
9.0
 40
9.0
 40
10.0
 40
10.0
 40
10.0
 40
11.0
 40
11.0
 40
11.0
 40
12.0
 40
12.0
 40
12.0
 40
13.0
 40
13.0
 40
13.0
 40
14.0
 40
14.0
 40
14.0
 40
15.0
 40
15.0
 40
15.0
 40
16.0
 40
16.0
 40
16.0
 40
17.0
 40
17.0
 40
17.0
 40
18.0
 40
18.0
 40
18.0
 40
19.0
 40
19.0
 40
19.0
 40
19.0
 10
72.86101343664586
 20
-111.6839667147005
 30
0.0
 10
72.75938311983099
 20
-111.6839667147005
 30
0.0
 10
72.5264946650281
 20
-111.6627793774663
 30
0.0
 10
72.39299721497467
 20
-111.4765719664885
 30
0.0
 10
72.3139322735882
 20
-111.3644341084436
 30
0.0
 10
72.30945364945737
 20
-111.2650431036942
 30
0.0
 10
72.30497502532654
 20
-111.1804660095313
 30
0.0
 10
72.30497502532654
 20
-111.1804660095313
 30
0.0
 10
72.53993053742057
 20
-111.1804660095313
 30
0.0
 10
72.53993053742057
 20
-111.1804660095313
 30
0.0
 10
72.54234210426026
 20
-111.2545355624642
 30
0.0
 10
72.55353866458731
 20
-111.4893188197839
 30
0.0
 10
72.85653481251504
 20
-111.4893188197839
 30
0.0
 10
73.00346813496094
 20
-111.4893188197839
 30
0.0
 10
73.16624889663899
 20
-111.4195556362076
 30
0.0
 10
73.16624889663899
 20
-111.1909735507613
 30
0.0
 10
73.16624889663899
 20
-111.0747015781341
 30
0.0
 10
73.12559676991305
 20
-111.0259534770178
 30
0.0
 10
73.09166257938334
 20
-110.9942585985535
 30
0.0
 10
73.01259763799685
 20
-110.9201890456206
 30
0.0
 10
72.88822969097933
 20
-110.9076144470995
 30
0.0
 10
72.82931855818157
 20
-110.9076144470995
 30
0.0
 10
72.80899249481858
 20
-110.9076144470995
 30
0.0
 10
72.77057968015805
 20
-110.9096815043906
 30
0.0
 10
72.74129636853343
 20
-110.9138156189729
 30
0.0
 10
72.74129636853343
 20
-110.9138156189729
 30
0.0
 10
72.74129636853343
 20
-110.7191677240563
 30
0.0
 10
72.74129636853343
 20
-110.7191677240563
 30
0.0
 10
72.78194849525937
 20
-110.725541150704
 30
0.0
 10
72.82707924611616
 20
-110.7277804627694
 30
0.0
 10
72.83396943708665
 20
-110.7277804627694
 30
0.0
 10
72.90407713021149
 20
-110.7277804627694
 30
0.0
 10
73.11646726687714
 20
-110.7065931255352
 30
0.0
 10
73.11646726687714
 20
-110.46957055615
 30
0.0
 10
73.11646726687714
 20
-110.2919758838853
 30
0.0
 10
72.97642413540173
 20
-110.2368543561213
 30
0.0
 10
72.85877412458045
 20
-110.2368543561213
 30
0.0
 10
72.5761040400157
 20
-110.2368543561213
 30
0.0
 10
72.56714679175406
 20
-110.46957055615
 30
0.0
 10
72.56266816762323
 20
-110.5415730517917
 30
0.0
 10
72.56266816762323
 20
-110.5415730517917
 30
0.0
 10
72.34562715205249
 20
-110.5415730517917
 30
0.0
 10
72.34562715205249
 20
-110.5415730517917
 30
0.0
 10
72.35458440031414
 20
-110.4166883404514
 30
0.0
 10
72.38403996671302
 20
-110.0401394039136
 30
0.0
 10
72.87238225174718
 20
-110.0401394039136
 30
0.0
 10
73.11198864274631
 20
-110.0401394039136
 30
0.0
 10
73.369681785043
 20
-110.167091172545
 30
0.0
 10
73.369681785043
 20
-110.4631971295023
 30
0.0
 10
73.369681785043
 20
-110.64940454048
 30
0.0
 10
73.26805146822812
 20
-110.7319145773517
 30
0.0
 10
73.16177027250818
 20
-110.7932372769892
 30
0.0
 10
73.22722708672792
 20
-110.8207980408712
 30
0.0
 10
73.42170272687027
 20
-110.9012410204518
 30
0.0
 10
73.42170272687027
 20
-111.1783989522401
 30
0.0
 10
73.42170272687027
 20
-111.5168795836659
 30
0.0
 10
73.15729164837735
 20
-111.6839667147005
 30
0.0
 10
72.86101343664586
 20
-111.6839667147005
 30
0.0
  0
HATCH
  5
E6
330
E1
100
AcDbEntity
  8
_U+30EC_U+30A4_U+30E4_U+30FC 1
 62
   179
420
  2234388
100
AcDbHatch
 10
0.0
 20
0.0
 30
0.0
210
0.0
220
0.0
230
1.0
  2
SOLID
 70
     1
 71
     0
 91
        1
 92
        1
 93
        1
 72
     4
 94
        3
 73
     0
 74
     1
 95
       62
 96
       58
 40
0.0
 40
0.0
 40
0.0
 40
0.0
 40
1.0
 40
1.0
 40
1.0
 40
2.0
 40
2.0
 40
2.0
 40
3.0
 40
3.0
 40
3.0
 40
4.0
 40
4.0
 40
4.0
 40
5.0
 40
5.0
 40
5.0
 40
6.0
 40
6.0
 40
6.0
 40
7.0
 40
7.0
 40
7.0
 40
8.0
 40
8.0
 40
8.0
 40
9.0
 40
9.0
 40
9.0
 40
10.0
 40
10.0
 40
10.0
 40
11.0
 40
11.0
 40
11.0
 40
12.0
 40
12.0
 40
12.0
 40
13.0
 40
13.0
 40
13.0
 40
14.0
 40
14.0
 40
14.0
 40
15.0
 40
15.0
 40
15.0
 40
16.0
 40
16.0
 40
16.0
 40
17.0
 40
17.0
 40
17.0
 40
18.0
 40
18.0
 40
18.0
 40
19.0
 40
19.0
 40
19.0
 40
19.0
 10
72.86101343664586
 20
-111.6839667147005
 10
72.75938311983099
 20
-111.6839667147005
 10
72.5264946650281
 20
-111.6627793774663
 10
72.39299721497467
 20
-111.4765719664885
 10
72.3139322735882
 20
-111.3644341084436
 10
72.30945364945737
 20
-111.2650431036942
 10
72.30497502532654
 20
-111.1804660095313
 10
72.30497502532654
 20
-111.1804660095313
 10
72.53993053742057
 20
-111.1804660095313
 10
72.53993053742057
 20
-111.1804660095313
 10
72.54234210426026
 20
-111.2545355624642
 10
72.55353866458731
 20
-111.4893188197839
 10
72.85653481251504
 20
-111.4893188197839
 10
73.00346813496094
 20
-111.4893188197839
 10
73.16624889663899
 20
-111.4195556362076
 10
73.16624889663899
 20
-111.1909735507613
 10
73.16624889663899
 20
-111.0747015781341
 10
73.12559676991305
 20
-111.0259534770178
 10
73.09166257938334
 20
-110.9942585985535
 10
73.01259763799685
 20
-110.9201890456206
 10
72.88822969097933
 20
-110.9076144470995
 10
72.82931855818157
 20
-110.9076144470995
 10
72.80899249481858
 20
-110.9076144470995
 10
72.77057968015805
 20
-110.9096815043906
 10
72.74129636853343
 20
-110.9138156189729
 10
72.74129636853343
 20
-110.9138156189729
 10
72.74129636853343
 20
-110.7191677240563
 10
72.74129636853343
 20
-110.7191677240563
 10
72.78194849525937
 20
-110.725541150704
 10
72.82707924611616
 20
-110.7277804627694
 10
72.83396943708665
 20
-110.7277804627694
 10
72.90407713021149
 20
-110.7277804627694
 10
73.11646726687714
 20
-110.7065931255352
 10
73.11646726687714
 20
-110.46957055615
 10
73.11646726687714
 20
-110.2919758838853
 10
72.97642413540173
 20
-110.2368543561213
 10
72.85877412458045
 20
-110.2368543561213
 10
72.5761040400157
 20
-110.2368543561213
 10
72.56714679175406
 20
-110.46957055615
 10
72.56266816762323
 20
-110.5415730517917
 10
72.56266816762323
 20
-110.5415730517917
 10
72.34562715205249
 20
-110.5415730517917
 10
72.34562715205249
 20
-110.5415730517917
 10
72.35458440031414
 20
-110.4166883404514
 10
72.38403996671302
 20
-110.0401394039136
 10
72.87238225174718
 20
-110.0401394039136
 10
73.11198864274631
 20
-110.0401394039136
 10
73.369681785043
 20
-110.167091172545
 10
73.369681785043
 20
-110.4631971295023
 10
73.369681785043
 20
-110.64940454048
 10
73.26805146822812
 20
-110.7319145773517
 10
73.16177027250818
 20
-110.7932372769892
 10
73.22722708672792
 20
-110.8207980408712
 10
73.42170272687027
 20
-110.9012410204518
 10
73.42170272687027
 20
-111.1783989522401
 10
73.42170272687027
 20
-111.5168795836659
 10
73.15729164837735
 20
-111.6839667147005
 10
72.86101343664586
 20
-111.6839667147005
 97
        0
 97
        0
 75
     2
 76
     1
 98
        0
  0
ENDBLK
  5
E4
330
E1
100
AcDbEntity
  8
0
100
AcDbBlockEnd
  0
BLOCK
  5
E9
330
E7
100
AcDbEntity
  8
0
100
AcDbBlockBegin
  2
block 3
 70
     0
 10
0.0
 20
0.0
 30
0.0
  3
block 3
  1

  0
SPLINE
  5
EB
330
E7
100
AcDbEntity
  8
_U+30EC_U+30A4_U+30E4_U+30FC 1
370
     0
100
AcDbSpline
210
0.0
220
0.0
230
1.0
 70
    11
 71
     3
 72
    26
 73
    22
 74
     0
 42
0.0000000001
 43
0.0000000001
 12
1.0
 22
0.0
 32
0.0
 13
1.0
 23
0.0
 33
0.0
 40
0.0
 40
0.0
 40
0.0
 40
0.0
 40
1.0
 40
1.0
 40
1.0
 40
2.0
 40
2.0
 40
2.0
 40
3.0
 40
3.0
 40
3.0
 40
4.0
 40
4.0
 40
4.0
 40
5.0
 40
5.0
 40
5.0
 40
6.0
 40
6.0
 40
6.0
 40
7.0
 40
7.0
 40
7.0
 40
7.0
 10
117.7171901832443
 20
-125.2545423406482
 30
0.0
 10
117.7171901832443
 20
-125.2545423406482
 30
0.0
 10
116.6130370802217
 20
-125.2545423406482
 30
0.0
 10
116.6130370802217
 20
-125.2545423406482
 30
0.0
 10
116.6130370802217
 20
-125.2545423406482
 30
0.0
 10
116.6130370802217
 20
-125.6073201183378
 30
0.0
 10
116.6130370802217
 20
-125.6073201183378
 30
0.0
 10
116.6130370802217
 20
-125.6073201183378
 30
0.0
 10
116.464897974356
 20
-125.6073201183378
 30
0.0
 10
116.464897974356
 20
-125.6073201183378
 30
0.0
 10
116.4500840637694
 20
-125.2523030285828
 30
0.0
 10
116.2871310473171
 20
-125.2025213988209
 30
0.0
 10
116.1727538772068
 20
-125.1709987751309
 30
0.0
 10
116.1727538772068
 20
-125.1709987751309
 30
0.0
 10
116.1727538772068
 20
-125.014935949649
 30
0.0
 10
116.1727538772068
 20
-125.014935949649
 30
0.0
 10
116.1727538772068
 20
-125.014935949649
 30
0.0
 10
117.7171901832443
 20
-125.014935949649
 30
0.0
 10
117.7171901832443
 20
-125.014935949649
 30
0.0
 10
117.7171901832443
 20
-125.014935949649
 30
0.0
 10
117.7171901832443
 20
-125.2545423406482
 30
0.0
 10
117.7171901832443
 20
-125.2545423406482
 30
0.0
  0
HATCH
  5
EC
330
E7
100
AcDbEntity
  8
_U+30EC_U+30A4_U+30E4_U+30FC 1
 62
   179
420
  2234388
100
AcDbHatch
 10
0.0
 20
0.0
 30
0.0
210
0.0
220
0.0
230
1.0
  2
SOLID
 70
     1
 71
     0
 91
        1
 92
        1
 93
        1
 72
     4
 94
        3
 73
     0
 74
     1
 95
       26
 96
       22
 40
0.0
 40
0.0
 40
0.0
 40
0.0
 40
1.0
 40
1.0
 40
1.0
 40
2.0
 40
2.0
 40
2.0
 40
3.0
 40
3.0
 40
3.0
 40
4.0
 40
4.0
 40
4.0
 40
5.0
 40
5.0
 40
5.0
 40
6.0
 40
6.0
 40
6.0
 40
7.0
 40
7.0
 40
7.0
 40
7.0
 10
117.7171901832443
 20
-125.2545423406482
 10
117.7171901832443
 20
-125.2545423406482
 10
116.6130370802217
 20
-125.2545423406482
 10
116.6130370802217
 20
-125.2545423406482
 10
116.6130370802217
 20
-125.2545423406482
 10
116.6130370802217
 20
-125.6073201183378
 10
116.6130370802217
 20
-125.6073201183378
 10
116.6130370802217
 20
-125.6073201183378
 10
116.464897974356
 20
-125.6073201183378
 10
116.464897974356
 20
-125.6073201183378
 10
116.4500840637694
 20
-125.2523030285828
 10
116.2871310473171
 20
-125.2025213988209
 10
116.1727538772068
 20
-125.1709987751309
 10
116.1727538772068
 20
-125.1709987751309
 10
116.1727538772068
 20
-125.014935949649
 10
116.1727538772068
 20
-125.014935949649
 10
116.1727538772068
 20
-125.014935949649
 10
117.7171901832443
 20
-125.014935949649
 10
117.7171901832443
 20
-125.014935949649
 10
117.7171901832443
 20
-125.014935949649
 10
117.7171901832443
 20
-125.2545423406482
 10
117.7171901832443
 20
-125.2545423406482
 97
        0
 97
        0
 75
     2
 76
     1
 98
        0
  0
ENDBLK
  5
EA
330
E7
100
AcDbEntity
  8
0
100
AcDbBlockEnd
  0
BLOCK
  5
EF
330
ED
100
AcDbEntity
  8
0
100
AcDbBlockBegin
  2
block 4
 70
     0
 10
0.0
 20
0.0
 30
0.0
  3
block 4
  1

  0
SPLINE
  5
F1
330
ED
100
AcDbEntity
  8
_U+30EC_U+30A4_U+30E4_U+30FC 1
370
     0
100
AcDbSpline
210
0.0
220
0.0
230
1.0
 70
    11
 71
     3
 72
    26
 73
    22
 74
     0
 42
0.0000000001
 43
0.0000000001
 12
1.0
 22
0.0
 32
0.0
 13
1.0
 23
0.0
 33
0.0
 40
0.0
 40
0.0
 40
0.0
 40
0.0
 40
1.0
 40
1.0
 40
1.0
 40
2.0
 40
2.0
 40
2.0
 40
3.0
 40
3.0
 40
3.0
 40
4.0
 40
4.0
 40
4.0
 40
5.0
 40
5.0
 40
5.0
 40
6.0
 40
6.0
 40
6.0
 40
7.0
 40
7.0
 40
7.0
 40
7.0
 10
117.8339789201943
 20
-133.1563856003915
 30
0.0
 10
117.8339789201943
 20
-133.1563856003915
 30
0.0
 10
116.7298258171717
 20
-133.1563856003915
 30
0.0
 10
116.7298258171717
 20
-133.1563856003915
 30
0.0
 10
116.7298258171717
 20
-133.1563856003915
 30
0.0
 10
116.7298258171717
 20
-133.509163378081
 30
0.0
 10
116.7298258171717
 20
-133.509163378081
 30
0.0
 10
116.7298258171717
 20
-133.509163378081
 30
0.0
 10
116.581686711306
 20
-133.509163378081
 30
0.0
 10
116.581686711306
 20
-133.509163378081
 30
0.0
 10
116.5668728007194
 20
-133.1543185431003
 30
0.0
 10
116.4042642938156
 20
-133.1047091681127
 30
0.0
 10
116.2898871237053
 20
-133.0730142896484
 30
0.0
 10
116.2898871237053
 20
-133.0730142896484
 30
0.0
 10
116.2898871237053
 20
-132.9169514641666
 30
0.0
 10
116.2898871237053
 20
-132.9169514641666
 30
0.0
 10
116.2898871237053
 20
-132.9169514641666
 30
0.0
 10
117.8339789201943
 20
-132.9169514641666
 30
0.0
 10
117.8339789201943
 20
-132.9169514641666
 30
0.0
 10
117.8339789201943
 20
-132.9169514641666
 30
0.0
 10
117.8339789201943
 20
-133.1563856003915
 30
0.0
 10
117.8339789201943
 20
-133.1563856003915
 30
0.0
  0
HATCH
  5
F2
330
ED
100
AcDbEntity
  8
_U+30EC_U+30A4_U+30E4_U+30FC 1
 62
   179
420
  2234388
100
AcDbHatch
 10
0.0
 20
0.0
 30
0.0
210
0.0
220
0.0
230
1.0
  2
SOLID
 70
     1
 71
     0
 91
        1
 92
        1
 93
        1
 72
     4
 94
        3
 73
     0
 74
     1
 95
       26
 96
       22
 40
0.0
 40
0.0
 40
0.0
 40
0.0
 40
1.0
 40
1.0
 40
1.0
 40
2.0
 40
2.0
 40
2.0
 40
3.0
 40
3.0
 40
3.0
 40
4.0
 40
4.0
 40
4.0
 40
5.0
 40
5.0
 40
5.0
 40
6.0
 40
6.0
 40
6.0
 40
7.0
 40
7.0
 40
7.0
 40
7.0
 10
117.8339789201943
 20
-133.1563856003915
 10
117.8339789201943
 20
-133.1563856003915
 10
116.7298258171717
 20
-133.1563856003915
 10
116.7298258171717
 20
-133.1563856003915
 10
116.7298258171717
 20
-133.1563856003915
 10
116.7298258171717
 20
-133.509163378081
 10
116.7298258171717
 20
-133.509163378081
 10
116.7298258171717
 20
-133.509163378081
 10
116.581686711306
 20
-133.509163378081
 10
116.581686711306
 20
-133.509163378081
 10
116.5668728007194
 20
-133.1543185431003
 10
116.4042642938156
 20
-133.1047091681127
 10
116.2898871237053
 20
-133.0730142896484
 10
116.2898871237053
 20
-133.0730142896484
 10
116.2898871237053
 20
-132.9169514641666
 10
116.2898871237053
 20
-132.9169514641666
 10
116.2898871237053
 20
-132.9169514641666
 10
117.8339789201943
 20
-132.9169514641666
 10
117.8339789201943
 20
-132.9169514641666
 10
117.8339789201943
 20
-132.9169514641666
 10
117.8339789201943
 20
-133.1563856003915
 10
117.8339789201943
 20
-133.1563856003915
 97
        0
 97
        0
 75
     2
 76
     1
 98
        0
  0
SPLINE
  5
F3
330
ED
100
AcDbEntity
  8
_U+30EC_U+30A4_U+30E4_U+30FC 1
370
     0
100
AcDbSpline
210
0.0
220
0.0
230
1.0
 70
    11
 71
     3
 72
    29
 73
    25
 74
     0
 42
0.0000000001
 43
0.0000000001
 12
1.0
 22
0.0
 32
0.0
 13
1.0
 23
0.0
 33
0.0
 40
0.0
 40
0.0
 40
0.0
 40
0.0
 40
1.0
 40
1.0
 40
1.0
 40
2.0
 40
2.0
 40
2.0
 40
3.0
 40
3.0
 40
3.0
 40
4.0
 40
4.0
 40
4.0
 40
5.0
 40
5.0
 40
5.0
 40
6.0
 40
6.0
 40
6.0
 40
7.0
 40
7.0
 40
7.0
 40
8.0
 40
8.0
 40
8.0
 40
8.0
 10
117.6562119931554
 20
-131.4217800235682
 30
0.0
 10
117.8656737986586
 20
-131.5371907223241
 30
0.0
 10
117.884966333376
 20
-131.7225368594305
 30
0.0
 10
117.884966333376
 20
-131.8465602968995
 30
0.0
 10
117.884966333376
 20
-132.018815071162
 30
0.0
 10
117.8384575443251
 20
-132.1700547629644
 30
0.0
 10
117.6562119931554
 20
-132.2716850797793
 30
0.0
 10
117.4619086077873
 20
-132.3826171544044
 30
0.0
 10
117.2248860384021
 20
-132.4029432177673
 30
0.0
 10
117.0619330219498
 20
-132.4029432177673
 30
0.0
 10
116.9182725402149
 20
-132.4029432177673
 30
0.0
 10
116.6664360602431
 20
-132.3846842116955
 30
0.0
 10
116.4676540507442
 20
-132.2716850797793
 30
0.0
 10
116.2643934171145
 20
-132.156618890572
 30
0.0
 10
116.2409667678148
 20
-131.984708625858
 30
0.0
 10
116.2409667678148
 20
-131.8465602968995
 30
0.0
 10
116.2409667678148
 20
-131.6770615990252
 30
0.0
 10
116.285753009123
 20
-131.523410340383
 30
0.0
 10
116.4676540507442
 20
-131.4217800235682
 30
0.0
 10
116.6598903788211
 20
-131.3153265730739
 30
0.0
 10
116.8886447190417
 20
-131.2905218855801
 30
0.0
 10
117.0619330219498
 20
-131.2905218855801
 30
0.0
 10
117.2331542675667
 20
-131.2905218855801
 30
0.0
 10
117.4639756650785
 20
-131.3132595157828
 30
0.0
 10
117.6562119931554
 20
-131.4217800235682
 30
0.0
  0
SPLINE
  5
F4
330
ED
100
AcDbEntity
  8
_U+30EC_U+30A4_U+30E4_U+30FC 1
370
     0
100
AcDbSpline
210
0.0
220
0.0
230
1.0
 70
    11
 71
     3
 72
    17
 73
    13
 74
     0
 42
0.0000000001
 43
0.0000000001
 12
1.0
 22
0.0
 32
0.0
 13
1.0
 23
0.0
 33
0.0
 40
0.0
 40
0.0
 40
0.0
 40
0.0
 40
1.0
 40
1.0
 40
1.0
 40
2.0
 40
2.0
 40
2.0
 40
3.0
 40
3.0
 40
3.0
 40
4.0
 40
4.0
 40
4.0
 40
4.0
 10
116.4338921149888
 20
-131.8465602968995
 30
0.0
 10
116.4338921149888
 20
-132.1135551970063
 30
0.0
 10
116.7170789638763
 20
-132.1635090815425
 30
0.0
 10
117.0619330219498
 20
-132.1635090815425
 30
0.0
 10
117.3812933734325
 20
-132.1635090815425
 30
0.0
 10
117.6903184384594
 20
-132.1249240121077
 30
0.0
 10
117.6903184384594
 20
-131.8465602968995
 30
0.0
 10
117.6903184384594
 20
-131.5823214731808
 30
0.0
 10
117.4088541373145
 20
-131.5303005313535
 30
0.0
 10
117.0619330219498
 20
-131.5303005313535
 30
0.0
 10
116.7425726704671
 20
-131.5303005313535
 30
0.0
 10
116.4338921149888
 20
-131.5709526580795
 30
0.0
 10
116.4338921149888
 20
-131.8465602968995
 30
0.0
  0
HATCH
  5
F5
330
ED
100
AcDbEntity
  8
_U+30EC_U+30A4_U+30E4_U+30FC 1
 62
   179
420
  2234388
100
AcDbHatch
 10
0.0
 20
0.0
 30
0.0
210
0.0
220
0.0
230
1.0
  2
SOLID
 70
     1
 71
     0
 91
        2
 92
        1
 93
        1
 72
     4
 94
        3
 73
     0
 74
     1
 95
       29
 96
       25
 40
0.0
 40
0.0
 40
0.0
 40
0.0
 40
1.0
 40
1.0
 40
1.0
 40
2.0
 40
2.0
 40
2.0
 40
3.0
 40
3.0
 40
3.0
 40
4.0
 40
4.0
 40
4.0
 40
5.0
 40
5.0
 40
5.0
 40
6.0
 40
6.0
 40
6.0
 40
7.0
 40
7.0
 40
7.0
 40
8.0
 40
8.0
 40
8.0
 40
8.0
 10
117.6562119931554
 20
-131.4217800235682
 10
117.8656737986586
 20
-131.5371907223241
 10
117.884966333376
 20
-131.7225368594305
 10
117.884966333376
 20
-131.8465602968995
 10
117.884966333376
 20
-132.018815071162
 10
117.8384575443251
 20
-132.1700547629644
 10
117.6562119931554
 20
-132.2716850797793
 10
117.4619086077873
 20
-132.3826171544044
 10
117.2248860384021
 20
-132.4029432177673
 10
117.0619330219498
 20
-132.4029432177673
 10
116.9182725402149
 20
-132.4029432177673
 10
116.6664360602431
 20
-132.3846842116955
 10
116.4676540507442
 20
-132.2716850797793
 10
116.2643934171145
 20
-132.156618890572
 10
116.2409667678148
 20
-131.984708625858
 10
116.2409667678148
 20
-131.8465602968995
 10
116.2409667678148
 20
-131.6770615990252
 10
116.285753009123
 20
-131.523410340383
 10
116.4676540507442
 20
-131.4217800235682
 10
116.6598903788211
 20
-131.3153265730739
 10
116.8886447190417
 20
-131.2905218855801
 10
117.0619330219498
 20
-131.2905218855801
 10
117.2331542675667
 20
-131.2905218855801
 10
117.4639756650785
 20
-131.3132595157828
 10
117.6562119931554
 20
-131.4217800235682
 97
        0
 97
        0
 92
        1
 93
        1
 72
     4
 94
        3
 73
     0
 74
     1
 95
       17
 96
       13
 40
0.0
 40
0.0
 40
0.0
 40
0.0
 40
1.0
 40
1.0
 40
1.0
 40
2.0
 40
2.0
 40
2.0
 40
3.0
 40
3.0
 40
3.0
 40
4.0
 40
4.0
 40
4.0
 40
4.0
 10
116.4338921149888
 20
-131.8465602968995
 10
116.4338921149888
 20
-132.1135551970063
 10
116.7170789638763
 20
-132.1635090815425
 10
117.0619330219498
 20
-132.1635090815425
 10
117.3812933734325
 20
-132.1635090815425
 10
117.6903184384594
 20
-132.1249240121077
 10
117.6903184384594
 20
-131.8465602968995
 10
117.6903184384594
 20
-131.5823214731808
 10
117.4088541373145
 20
-131.5303005313535
 10
117.0619330219498
 20
-131.5303005313535
 10
116.7425726704671
 20
-131.5303005313535
 10
116.4338921149888
 20
-131.5709526580795
 10
116.4338921149888
 20
-131.8465602968995
 97
        0
 97
        0
 75
     2
 76
     1
 98
        0
  0
ENDBLK
  5
F0
330
ED
100
AcDbEntity
  8
0
100
AcDbBlockEnd
  0
BLOCK
  5
F8
330
F6
100
AcDbEntity
  8
0
100
AcDbBlockBegin
  2
block 5
 70
     0
 10
0.0
 20
0.0
 30
0.0
  3
block 5
  1

  0
SPLINE
  5
FA
330
F6
100
AcDbEntity
  8
_U+30EC_U+30A4_U+30E4_U+30FC 1
370
     0
100
AcDbSpline
210
0.0
220
0.0
230
1.0
 70
    11
 71
     3
 72
    62
 73
    58
 74
     0
 42
0.0000000001
 43
0.0000000001
 12
1.0
 22
0.0
 32
0.0
 13
1.0
 23
0.0
 33
0.0
 40
0.0
 40
0.0
 40
0.0
 40
0.0
 40
1.0
 40
1.0
 40
1.0
 40
2.0
 40
2.0
 40
2.0
 40
3.0
 40
3.0
 40
3.0
 40
4.0
 40
4.0
 40
4.0
 40
5.0
 40
5.0
 40
5.0
 40
6.0
 40
6.0
 40
6.0
 40
7.0
 40
7.0
 40
7.0
 40
8.0
 40
8.0
 40
8.0
 40
9.0
 40
9.0
 40
9.0
 40
10.0
 40
10.0
 40
10.0
 40
11.0
 40
11.0
 40
11.0
 40
12.0
 40
12.0
 40
12.0
 40
13.0
 40
13.0
 40
13.0
 40
14.0
 40
14.0
 40
14.0
 40
15.0
 40
15.0
 40
15.0
 40
16.0
 40
16.0
 40
16.0
 40
17.0
 40
17.0
 40
17.0
 40
18.0
 40
18.0
 40
18.0
 40
19.0
 40
19.0
 40
19.0
 40
19.0
 10
117.885655352473
 20
-138.947935620645
 30
0.0
 10
117.885655352473
 20
-139.0495659374598
 30
0.0
 10
117.864640270013
 20
-139.2824543922627
 30
0.0
 10
117.6786051138095
 20
-139.4157795875419
 30
0.0
 10
117.5662950009904
 20
-139.4950167837027
 30
0.0
 10
117.4670762510152
 20
-139.4994954078335
 30
0.0
 10
117.382326902078
 20
-139.5039740319643
 30
0.0
 10
117.382326902078
 20
-139.5039740319643
 30
0.0
 10
117.382326902078
 20
-139.2690185198703
 30
0.0
 10
117.382326902078
 20
-139.2690185198703
 30
0.0
 10
117.4563964550109
 20
-139.2666069530306
 30
0.0
 10
117.6910074575564
 20
-139.2552381379292
 30
0.0
 10
117.6910074575564
 20
-138.9524142447758
 30
0.0
 10
117.6910074575564
 20
-138.8053086675556
 30
0.0
 10
117.6214165287544
 20
-138.6427001606518
 30
0.0
 10
117.3930066980823
 20
-138.6427001606518
 30
0.0
 10
117.2765624706809
 20
-138.6427001606518
 30
0.0
 10
117.2279866243388
 20
-138.6833522873778
 30
0.0
 10
117.1962917458745
 20
-138.7174587326818
 30
0.0
 10
117.1222221929417
 20
-138.796351419294
 30
0.0
 10
117.1094753396463
 20
-138.9207193663115
 30
0.0
 10
117.1094753396463
 20
-138.9796304991093
 30
0.0
 10
117.1094753396463
 20
-138.9999565624722
 30
0.0
 10
117.1115423969374
 20
-139.0381971223585
 30
0.0
 10
117.1156765115197
 20
-139.0678249435317
 30
0.0
 10
117.1156765115197
 20
-139.0678249435317
 30
0.0
 10
116.9210286166031
 20
-139.0678249435317
 30
0.0
 10
116.9210286166031
 20
-139.0678249435317
 30
0.0
 10
116.927574298025
 20
-139.0271728168057
 30
0.0
 10
116.9296413553162
 20
-138.9816975564004
 30
0.0
 10
116.9296413553162
 20
-138.9751518749785
 30
0.0
 10
116.9296413553162
 20
-138.9048719270793
 30
0.0
 10
116.9082817633077
 20
-138.6923095356394
 30
0.0
 10
116.671603703471
 20
-138.6923095356394
 30
0.0
 10
116.4938367764321
 20
-138.6923095356394
 30
0.0
 10
116.4387152486681
 20
-138.8325249218891
 30
0.0
 10
116.4387152486681
 20
-138.9500026779361
 30
0.0
 10
116.4387152486681
 20
-139.2328450172751
 30
0.0
 10
116.671603703471
 20
-139.2418022655368
 30
0.0
 10
116.7432616895642
 20
-139.2462808896676
 30
0.0
 10
116.7432616895642
 20
-139.2462808896676
 30
0.0
 10
116.7432616895642
 20
-139.4633219052383
 30
0.0
 10
116.7432616895642
 20
-139.4633219052383
 30
0.0
 10
116.6185492329981
 20
-139.4543646569767
 30
0.0
 10
116.2420002964603
 20
-139.4250813453521
 30
0.0
 10
116.2420002964603
 20
-138.9365668055436
 30
0.0
 10
116.2420002964603
 20
-138.6967881597703
 30
0.0
 10
116.3691243198661
 20
-138.4390950174736
 30
0.0
 10
116.665058022049
 20
-138.4390950174736
 30
0.0
 10
116.851437687801
 20
-138.4390950174736
 30
0.0
 10
116.9337754698985
 20
-138.541069843837
 30
0.0
 10
116.995098169536
 20
-138.6471787847827
 30
0.0
 10
117.022658933418
 20
-138.5817219705629
 30
0.0
 10
117.1029296582243
 20
-138.3870740756463
 30
0.0
 10
117.3802598447869
 20
-138.3870740756463
 30
0.0
 10
117.7185682214384
 20
-138.3870740756463
 30
0.0
 10
117.885655352473
 20
-138.6516574089135
 30
0.0
 10
117.885655352473
 20
-138.947935620645
 30
0.0
  0
HATCH
  5
FB
330
F6
100
AcDbEntity
  8
_U+30EC_U+30A4_U+30E4_U+30FC 1
 62
   179
420
  2234388
100
AcDbHatch
 10
0.0
 20
0.0
 30
0.0
210
0.0
220
0.0
230
1.0
  2
SOLID
 70
     1
 71
     0
 91
        1
 92
        1
 93
        1
 72
     4
 94
        3
 73
     0
 74
     1
 95
       62
 96
       58
 40
0.0
 40
0.0
 40
0.0
 40
0.0
 40
1.0
 40
1.0
 40
1.0
 40
2.0
 40
2.0
 40
2.0
 40
3.0
 40
3.0
 40
3.0
 40
4.0
 40
4.0
 40
4.0
 40
5.0
 40
5.0
 40
5.0
 40
6.0
 40
6.0
 40
6.0
 40
7.0
 40
7.0
 40
7.0
 40
8.0
 40
8.0
 40
8.0
 40
9.0
 40
9.0
 40
9.0
 40
10.0
 40
10.0
 40
10.0
 40
11.0
 40
11.0
 40
11.0
 40
12.0
 40
12.0
 40
12.0
 40
13.0
 40
13.0
 40
13.0
 40
14.0
 40
14.0
 40
14.0
 40
15.0
 40
15.0
 40
15.0
 40
16.0
 40
16.0
 40
16.0
 40
17.0
 40
17.0
 40
17.0
 40
18.0
 40
18.0
 40
18.0
 40
19.0
 40
19.0
 40
19.0
 40
19.0
 10
117.885655352473
 20
-138.947935620645
 10
117.885655352473
 20
-139.0495659374598
 10
117.864640270013
 20
-139.2824543922627
 10
117.6786051138095
 20
-139.4157795875419
 10
117.5662950009904
 20
-139.4950167837027
 10
117.4670762510152
 20
-139.4994954078335
 10
117.382326902078
 20
-139.5039740319643
 10
117.382326902078
 20
-139.5039740319643
 10
117.382326902078
 20
-139.2690185198703
 10
117.382326902078
 20
-139.2690185198703
 10
117.4563964550109
 20
-139.2666069530306
 10
117.6910074575564
 20
-139.2552381379292
 10
117.6910074575564
 20
-138.9524142447758
 10
117.6910074575564
 20
-138.8053086675556
 10
117.6214165287544
 20
-138.6427001606518
 10
117.3930066980823
 20
-138.6427001606518
 10
117.2765624706809
 20
-138.6427001606518
 10
117.2279866243388
 20
-138.6833522873778
 10
117.1962917458745
 20
-138.7174587326818
 10
117.1222221929417
 20
-138.796351419294
 10
117.1094753396463
 20
-138.9207193663115
 10
117.1094753396463
 20
-138.9796304991093
 10
117.1094753396463
 20
-138.9999565624722
 10
117.1115423969374
 20
-139.0381971223585
 10
117.1156765115197
 20
-139.0678249435317
 10
117.1156765115197
 20
-139.0678249435317
 10
116.9210286166031
 20
-139.0678249435317
 10
116.9210286166031
 20
-139.0678249435317
 10
116.927574298025
 20
-139.0271728168057
 10
116.9296413553162
 20
-138.9816975564004
 10
116.9296413553162
 20
-138.9751518749785
 10
116.9296413553162
 20
-138.9048719270793
 10
116.9082817633077
 20
-138.6923095356394
 10
116.671603703471
 20
-138.6923095356394
 10
116.4938367764321
 20
-138.6923095356394
 10
116.4387152486681
 20
-138.8325249218891
 10
116.4387152486681
 20
-138.9500026779361
 10
116.4387152486681
 20
-139.2328450172751
 10
116.671603703471
 20
-139.2418022655368
 10
116.7432616895642
 20
-139.2462808896676
 10
116.7432616895642
 20
-139.2462808896676
 10
116.7432616895642
 20
-139.4633219052383
 10
116.7432616895642
 20
-139.4633219052383
 10
116.6185492329981
 20
-139.4543646569767
 10
116.2420002964603
 20
-139.4250813453521
 10
116.2420002964603
 20
-138.9365668055436
 10
116.2420002964603
 20
-138.6967881597703
 10
116.3691243198661
 20
-138.4390950174736
 10
116.665058022049
 20
-138.4390950174736
 10
116.851437687801
 20
-138.4390950174736
 10
116.9337754698985
 20
-138.541069843837
 10
116.995098169536
 20
-138.6471787847827
 10
117.022658933418
 20
-138.5817219705629
 10
117.1029296582243
 20
-138.3870740756463
 10
117.3802598447869
 20
-138.3870740756463
 10
117.7185682214384
 20
-138.3870740756463
 10
117.885655352473
 20
-138.6516574089135
 10
117.885655352473
 20
-138.947935620645
 97
        0
 97
        0
 75
     2
 76
     1
 98
        0
  0
ENDBLK
  5
F9
330
F6
100
AcDbEntity
  8
0
100
AcDbBlockEnd
  0
BLOCK
  5
FE
330
FC
100
AcDbEntity
  8
0
100
AcDbBlockBegin
  2
block 6
 70
     0
 10
0.0
 20
0.0
 30
0.0
  3
block 6
  1

  0
SPLINE
  5
100
330
FC
100
AcDbEntity
  8
_U+30EC_U+30A4_U+30E4_U+30FC 1
370
     0
100
AcDbSpline
210
0.0
220
0.0
230
1.0
 70
    11
 71
     3
 72
    44
 73
    40
 74
     0
 42
0.0000000001
 43
0.0000000001
 12
1.0
 22
0.0
 32
0.0
 13
1.0
 23
0.0
 33
0.0
 40
0.0
 40
0.0
 40
0.0
 40
0.0
 40
1.0
 40
1.0
 40
1.0
 40
2.0
 40
2.0
 40
2.0
 40
3.0
 40
3.0
 40
3.0
 40
4.0
 40
4.0
 40
4.0
 40
5.0
 40
5.0
 40
5.0
 40
6.0
 40
6.0
 40
6.0
 40
7.0
 40
7.0
 40
7.0
 40
8.0
 40
8.0
 40
8.0
 40
9.0
 40
9.0
 40
9.0
 40
10.0
 40
10.0
 40
10.0
 40
11.0
 40
11.0
 40
11.0
 40
12.0
 40
12.0
 40
12.0
 40
13.0
 40
13.0
 40
13.0
 40
13.0
 10
65.37206487080977
 20
-130.5105522677196
 30
0.0
 10
65.53088377267979
 20
-130.7434407225225
 30
0.0
 10
65.60495332561266
 20
-130.8430039820462
 30
0.0
 10
65.74861380734757
 20
-130.8950249238735
 30
0.0
 10
65.74861380734757
 20
-130.8950249238735
 30
0.0
 10
65.74861380734757
 20
-130.0626898546371
 30
0.0
 10
65.74861380734757
 20
-130.0626898546371
 30
0.0
 10
65.74861380734757
 20
-130.0626898546371
 30
0.0
 10
65.95394149826846
 20
-130.0626898546371
 30
0.0
 10
65.95394149826846
 20
-130.0626898546371
 30
0.0
 10
65.95394149826846
 20
-130.0626898546371
 30
0.0
 10
65.95394149826846
 20
-131.1616753144318
 30
0.0
 10
65.95394149826846
 20
-131.1616753144318
 30
0.0
 10
65.59634058689953
 20
-131.1275688691278
 30
0.0
 10
65.51813691938436
 20
-131.0576334307773
 30
0.0
 10
65.21979165036173
 20
-130.6462890298384
 30
0.0
 10
65.0210096408628
 20
-130.3727484483096
 30
0.0
 10
64.95314125980339
 20
-130.3024685004105
 30
0.0
 10
64.81568194994192
 20
-130.3024685004105
 30
0.0
 10
64.69717066524932
 20
-130.3024685004105
 30
0.0
 10
64.56625703680983
 20
-130.3792941297316
 30
0.0
 10
64.56625703680983
 20
-130.5897894638803
 30
0.0
 10
64.56625703680983
 20
-130.86780866954
 30
0.0
 10
64.79673392477304
 20
-130.8767659178016
 30
0.0
 10
64.91317815217448
 20
-130.8812445419325
 30
0.0
 10
64.91317815217448
 20
-130.8812445419325
 30
0.0
 10
64.91317815217448
 20
-131.1210231877059
 30
0.0
 10
64.91317815217448
 20
-131.1210231877059
 30
0.0
 10
64.78605412876877
 20
-131.1120659394442
 30
0.0
 10
64.67408852549815
 20
-131.1006971243429
 30
0.0
 10
64.55557724080555
 20
-131.0145697372116
 30
0.0
 10
64.39469128164438
 20
-130.8970919811646
 30
0.0
 10
64.36092934588893
 20
-130.6983099716657
 30
0.0
 10
64.36092934588893
 20
-130.5739420246482
 30
0.0
 10
64.36092934588893
 20
-130.2776638129167
 30
0.0
 10
64.54489744480128
 20
-130.0561441732151
 30
0.0
 10
64.81774900723306
 20
-130.0561441732151
 30
0.0
 10
65.04650334745365
 20
-130.0561441732151
 30
0.0
 10
65.14572209742884
 20
-130.1805121202327
 30
0.0
 10
65.37206487080977
 20
-130.5105522677196
 30
0.0
  0
HATCH
  5
101
330
FC
100
AcDbEntity
  8
_U+30EC_U+30A4_U+30E4_U+30FC 1
 62
   179
420
  2234388
100
AcDbHatch
 10
0.0
 20
0.0
 30
0.0
210
0.0
220
0.0
230
1.0
  2
SOLID
 70
     1
 71
     0
 91
        1
 92
        1
 93
        1
 72
     4
 94
        3
 73
     0
 74
     1
 95
       44
 96
       40
 40
0.0
 40
0.0
 40
0.0
 40
0.0
 40
1.0
 40
1.0
 40
1.0
 40
2.0
 40
2.0
 40
2.0
 40
3.0
 40
3.0
 40
3.0
 40
4.0
 40
4.0
 40
4.0
 40
5.0
 40
5.0
 40
5.0
 40
6.0
 40
6.0
 40
6.0
 40
7.0
 40
7.0
 40
7.0
 40
8.0
 40
8.0
 40
8.0
 40
9.0
 40
9.0
 40
9.0
 40
10.0
 40
10.0
 40
10.0
 40
11.0
 40
11.0
 40
11.0
 40
12.0
 40
12.0
 40
12.0
 40
13.0
 40
13.0
 40
13.0
 40
13.0
 10
65.37206487080977
 20
-130.5105522677196
 10
65.53088377267979
 20
-130.7434407225225
 10
65.60495332561266
 20
-130.8430039820462
 10
65.74861380734757
 20
-130.8950249238735
 10
65.74861380734757
 20
-130.8950249238735
 10
65.74861380734757
 20
-130.0626898546371
 10
65.74861380734757
 20
-130.0626898546371
 10
65.74861380734757
 20
-130.0626898546371
 10
65.95394149826846
 20
-130.0626898546371
 10
65.95394149826846
 20
-130.0626898546371
 10
65.95394149826846
 20
-130.0626898546371
 10
65.95394149826846
 20
-131.1616753144318
 10
65.95394149826846
 20
-131.1616753144318
 10
65.59634058689953
 20
-131.1275688691278
 10
65.51813691938436
 20
-131.0576334307773
 10
65.21979165036173
 20
-130.6462890298384
 10
65.0210096408628
 20
-130.3727484483096
 10
64.95314125980339
 20
-130.3024685004105
 10
64.81568194994192
 20
-130.3024685004105
 10
64.69717066524932
 20
-130.3024685004105
 10
64.56625703680983
 20
-130.3792941297316
 10
64.56625703680983
 20
-130.5897894638803
 10
64.56625703680983
 20
-130.86780866954
 10
64.79673392477304
 20
-130.8767659178016
 10
64.91317815217448
 20
-130.8812445419325
 10
64.91317815217448
 20
-130.8812445419325
 10
64.91317815217448
 20
-131.1210231877059
 10
64.91317815217448
 20
-131.1210231877059
 10
64.78605412876877
 20
-131.1120659394442
 10
64.67408852549815
 20
-131.1006971243429
 10
64.55557724080555
 20
-131.0145697372116
 10
64.39469128164438
 20
-130.8970919811646
 10
64.36092934588893
 20
-130.6983099716657
 10
64.36092934588893
 20
-130.5739420246482
 10
64.36092934588893
 20
-130.2776638129167
 10
64.54489744480128
 20
-130.0561441732151
 10
64.81774900723306
 20
-130.0561441732151
 10
65.04650334745365
 20
-130.0561441732151
 10
65.14572209742884
 20
-130.1805121202327
 10
65.37206487080977
 20
-130.5105522677196
 97
        0
 97
        0
 75
     2
 76
     1
 98
        0
  0
SPLINE
  5
102
330
FC
100
AcDbEntity
  8
_U+30EC_U+30A4_U+30E4_U+30FC 1
370
     0
100
AcDbSpline
210
0.0
220
0.0
230
1.0
 70
    11
 71
     3
 72
    26
 73
    22
 74
     0
 42
0.0000000001
 43
0.0000000001
 12
1.0
 22
0.0
 32
0.0
 13
1.0
 23
0.0
 33
0.0
 40
0.0
 40
0.0
 40
0.0
 40
0.0
 40
1.0
 40
1.0
 40
1.0
 40
2.0
 40
2.0
 40
2.0
 40
3.0
 40
3.0
 40
3.0
 40
4.0
 40
4.0
 40
4.0
 40
5.0
 40
5.0
 40
5.0
 40
6.0
 40
6.0
 40
6.0
 40
7.0
 40
7.0
 40
7.0
 40
7.0
 10
65.95394149826846
 20
-129.4043321074059
 30
0.0
 10
65.95394149826846
 20
-129.4043321074059
 30
0.0
 10
64.8497883952459
 20
-129.4043321074059
 30
0.0
 10
64.8497883952459
 20
-129.4043321074059
 30
0.0
 10
64.8497883952459
 20
-129.4043321074059
 30
0.0
 10
64.8497883952459
 20
-129.7567653755469
 30
0.0
 10
64.8497883952459
 20
-129.7567653755469
 30
0.0
 10
64.8497883952459
 20
-129.7567653755469
 30
0.0
 10
64.70164928938014
 20
-129.7567653755469
 30
0.0
 10
64.70164928938014
 20
-129.7567653755469
 30
0.0
 10
64.68683537879357
 20
-129.4019205405662
 30
0.0
 10
64.52388236234125
 20
-129.3523111655786
 30
0.0
 10
64.40950519223097
 20
-129.3206162871143
 30
0.0
 10
64.40950519223097
 20
-129.3206162871143
 30
0.0
 10
64.40950519223097
 20
-129.1645534616325
 30
0.0
 10
64.40950519223097
 20
-129.1645534616325
 30
0.0
 10
64.40950519223097
 20
-129.1645534616325
 30
0.0
 10
65.95394149826846
 20
-129.1645534616325
 30
0.0
 10
65.95394149826846
 20
-129.1645534616325
 30
0.0
 10
65.95394149826846
 20
-129.1645534616325
 30
0.0
 10
65.95394149826846
 20
-129.4043321074059
 30
0.0
 10
65.95394149826846
 20
-129.4043321074059
 30
0.0
  0
HATCH
  5
103
330
FC
100
AcDbEntity
  8
_U+30EC_U+30A4_U+30E4_U+30FC 1
 62
   179
420
  2234388
100
AcDbHatch
 10
0.0
 20
0.0
 30
0.0
210
0.0
220
0.0
230
1.0
  2
SOLID
 70
     1
 71
     0
 91
        1
 92
        1
 93
        1
 72
     4
 94
        3
 73
     0
 74
     1
 95
       26
 96
       22
 40
0.0
 40
0.0
 40
0.0
 40
0.0
 40
1.0
 40
1.0
 40
1.0
 40
2.0
 40
2.0
 40
2.0
 40
3.0
 40
3.0
 40
3.0
 40
4.0
 40
4.0
 40
4.0
 40
5.0
 40
5.0
 40
5.0
 40
6.0
 40
6.0
 40
6.0
 40
7.0
 40
7.0
 40
7.0
 40
7.0
 10
65.95394149826846
 20
-129.4043321074059
 10
65.95394149826846
 20
-129.4043321074059
 10
64.8497883952459
 20
-129.4043321074059
 10
64.8497883952459
 20
-129.4043321074059
 10
64.8497883952459
 20
-129.4043321074059
 10
64.8497883952459
 20
-129.7567653755469
 10
64.8497883952459
 20
-129.7567653755469
 10
64.8497883952459
 20
-129.7567653755469
 10
64.70164928938014
 20
-129.7567653755469
 10
64.70164928938014
 20
-129.7567653755469
 10
64.68683537879357
 20
-129.4019205405662
 10
64.52388236234125
 20
-129.3523111655786
 10
64.40950519223097
 20
-129.3206162871143
 10
64.40950519223097
 20
-129.3206162871143
 10
64.40950519223097
 20
-129.1645534616325
 10
64.40950519223097
 20
-129.1645534616325
 10
64.40950519223097
 20
-129.1645534616325
 10
65.95394149826846
 20
-129.1645534616325
 10
65.95394149826846
 20
-129.1645534616325
 10
65.95394149826846
 20
-129.1645534616325
 10
65.95394149826846
 20
-129.4043321074059
 10
65.95394149826846
 20
-129.4043321074059
 97
        0
 97
        0
 75
     2
 76
     1
 98
        0
  0
ENDBLK
  5
FF
330
FC
100
AcDbEntity
  8
0
100
AcDbBlockEnd
  0
BLOCK
  5
106
330
104
100
AcDbEntity
  8
0
100
AcDbBlockBegin
  2
block 7
 70
     0
 10
0.0
 20
0.0
 30
0.0
  3
block 7
  1

  0
SPLINE
  5
108
330
104
100
AcDbEntity
  8
_U+30EC_U+30A4_U+30E4_U+30FC 1
370
     0
100
AcDbSpline
210
0.0
220
0.0
230
1.0
 70
    11
 71
     3
 72
    53
 73
    49
 74
     0
 42
0.0000000001
 43
0.0000000001
 12
1.0
 22
0.0
 32
0.0
 13
1.0
 23
0.0
 33
0.0
 40
0.0
 40
0.0
 40
0.0
 40
0.0
 40
1.0
 40
1.0
 40
1.0
 40
2.0
 40
2.0
 40
2.0
 40
3.0
 40
3.0
 40
3.0
 40
4.0
 40
4.0
 40
4.0
 40
5.0
 40
5.0
 40
5.0
 40
6.0
 40
6.0
 40
6.0
 40
7.0
 40
7.0
 40
7.0
 40
8.0
 40
8.0
 40
8.0
 40
9.0
 40
9.0
 40
9.0
 40
10.0
 40
10.0
 40
10.0
 40
11.0
 40
11.0
 40
11.0
 40
12.0
 40
12.0
 40
12.0
 40
13.0
 40
13.0
 40
13.0
 40
14.0
 40
14.0
 40
14.0
 40
15.0
 40
15.0
 40
15.0
 40
16.0
 40
16.0
 40
16.0
 40
16.0
 10
73.85078936955814
 20
-147.0153157184545
 30
0.0
 10
73.76707354926657
 20
-147.0153157184545
 30
0.0
 10
73.65889755102972
 20
-146.9980902410283
 30
0.0
 10
73.55003253369583
 20
-146.9347004840997
 30
0.0
 10
73.36468639658939
 20
-146.8244574285717
 30
0.0
 10
73.34229327593526
 20
-146.6935438001322
 30
0.0
 10
73.32196721257229
 20
-146.5857123114438
 30
0.0
 10
73.32196721257229
 20
-146.5857123114438
 30
0.0
 10
73.559334291506
 20
-146.5857123114438
 30
0.0
 10
73.559334291506
 20
-146.5857123114438
 30
0.0
 10
73.61790091475525
 20
-146.7844943209428
 30
0.0
 10
73.75363767687409
 20
-146.8141221421159
 30
0.0
 10
73.85320093639781
 20
-146.8141221421159
 30
0.0
 10
74.00237357090913
 20
-146.8141221421159
 30
0.0
 10
74.16532658736145
 20
-146.7149033921407
 30
0.0
 10
74.16532658736145
 20
-146.4820149373378
 30
0.0
 10
74.16532658736145
 20
-146.2260443427838
 30
0.0
 10
73.9730902592845
 20
-146.1561089044332
 30
0.0
 10
73.84424368813616
 20
-146.1561089044332
 30
0.0
 10
73.8101372428322
 20
-146.1561089044332
 30
0.0
 10
73.65889755102972
 20
-146.1561089044332
 30
0.0
 10
73.56381291563683
 20
-146.2852999851301
 30
0.0
 10
73.56381291563683
 20
-146.2852999851301
 30
0.0
 10
73.37605521169071
 20
-146.2663519599612
 30
0.0
 10
73.37605521169071
 20
-146.2663519599612
 30
0.0
 10
73.37605521169071
 20
-146.2663519599612
 30
0.0
 10
73.50490178283906
 20
-145.4202365087838
 30
0.0
 10
73.50490178283906
 20
-145.4202365087838
 30
0.0
 10
73.50490178283906
 20
-145.4202365087838
 30
0.0
 10
74.3368923425269
 20
-145.4202365087838
 30
0.0
 10
74.3368923425269
 20
-145.4202365087838
 30
0.0
 10
74.3368923425269
 20
-145.4202365087838
 30
0.0
 10
74.3368923425269
 20
-145.6145398941519
 30
0.0
 10
74.3368923425269
 20
-145.6145398941519
 30
0.0
 10
74.3368923425269
 20
-145.6145398941519
 30
0.0
 10
73.6792236143927
 20
-145.6145398941519
 30
0.0
 10
73.6792236143927
 20
-145.6145398941519
 30
0.0
 10
73.6792236143927
 20
-145.6145398941519
 30
0.0
 10
73.6089436664936
 20
-146.0375976197406
 30
0.0
 10
73.6089436664936
 20
-146.0375976197406
 30
0.0
 10
73.67440048071335
 20
-146.0038356839852
 30
0.0
 10
73.76259492513574
 20
-145.9638725763563
 30
0.0
 10
73.88937443899293
 20
-145.9638725763563
 30
0.0
 10
74.1605034536821
 20
-145.9638725763563
 30
0.0
 10
74.41371797184796
 20
-146.1499077325597
 30
0.0
 10
74.41371797184796
 20
-146.4627224026204
 30
0.0
 10
74.41371797184796
 20
-146.7803602063605
 30
0.0
 10
74.1742838356231
 20
-147.0153157184545
 30
0.0
 10
73.85078936955814
 20
-147.0153157184545
 30
0.0
  0
HATCH
  5
109
330
104
100
AcDbEntity
  8
_U+30EC_U+30A4_U+30E4_U+30FC 1
 62
   179
420
  2234388
100
AcDbHatch
 10
0.0
 20
0.0
 30
0.0
210
0.0
220
0.0
230
1.0
  2
SOLID
 70
     1
 71
     0
 91
        1
 92
        1
 93
        1
 72
     4
 94
        3
 73
     0
 74
     1
 95
       53
 96
       49
 40
0.0
 40
0.0
 40
0.0
 40
0.0
 40
1.0
 40
1.0
 40
1.0
 40
2.0
 40
2.0
 40
2.0
 40
3.0
 40
3.0
 40
3.0
 40
4.0
 40
4.0
 40
4.0
 40
5.0
 40
5.0
 40
5.0
 40
6.0
 40
6.0
 40
6.0
 40
7.0
 40
7.0
 40
7.0
 40
8.0
 40
8.0
 40
8.0
 40
9.0
 40
9.0
 40
9.0
 40
10.0
 40
10.0
 40
10.0
 40
11.0
 40
11.0
 40
11.0
 40
12.0
 40
12.0
 40
12.0
 40
13.0
 40
13.0
 40
13.0
 40
14.0
 40
14.0
 40
14.0
 40
15.0
 40
15.0
 40
15.0
 40
16.0
 40
16.0
 40
16.0
 40
16.0
 10
73.85078936955814
 20
-147.0153157184545
 10
73.76707354926657
 20
-147.0153157184545
 10
73.65889755102972
 20
-146.9980902410283
 10
73.55003253369583
 20
-146.9347004840997
 10
73.36468639658939
 20
-146.8244574285717
 10
73.34229327593526
 20
-146.6935438001322
 10
73.32196721257229
 20
-146.5857123114438
 10
73.32196721257229
 20
-146.5857123114438
 10
73.559334291506
 20
-146.5857123114438
 10
73.559334291506
 20
-146.5857123114438
 10
73.61790091475525
 20
-146.7844943209428
 10
73.75363767687409
 20
-146.8141221421159
 10
73.85320093639781
 20
-146.8141221421159
 10
74.00237357090913
 20
-146.8141221421159
 10
74.16532658736145
 20
-146.7149033921407
 10
74.16532658736145
 20
-146.4820149373378
 10
74.16532658736145
 20
-146.2260443427838
 10
73.9730902592845
 20
-146.1561089044332
 10
73.84424368813616
 20
-146.1561089044332
 10
73.8101372428322
 20
-146.1561089044332
 10
73.65889755102972
 20
-146.1561089044332
 10
73.56381291563683
 20
-146.2852999851301
 10
73.56381291563683
 20
-146.2852999851301
 10
73.37605521169071
 20
-146.2663519599612
 10
73.37605521169071
 20
-146.2663519599612
 10
73.37605521169071
 20
-146.2663519599612
 10
73.50490178283906
 20
-145.4202365087838
 10
73.50490178283906
 20
-145.4202365087838
 10
73.50490178283906
 20
-145.4202365087838
 10
74.3368923425269
 20
-145.4202365087838
 10
74.3368923425269
 20
-145.4202365087838
 10
74.3368923425269
 20
-145.4202365087838
 10
74.3368923425269
 20
-145.6145398941519
 10
74.3368923425269
 20
-145.6145398941519
 10
74.3368923425269
 20
-145.6145398941519
 10
73.6792236143927
 20
-145.6145398941519
 10
73.6792236143927
 20
-145.6145398941519
 10
73.6792236143927
 20
-145.6145398941519
 10
73.6089436664936
 20
-146.0375976197406
 10
73.6089436664936
 20
-146.0375976197406
 10
73.67440048071335
 20
-146.0038356839852
 10
73.76259492513574
 20
-145.9638725763563
 10
73.88937443899293
 20
-145.9638725763563
 10
74.1605034536821
 20
-145.9638725763563
 10
74.41371797184796
 20
-146.1499077325597
 10
74.41371797184796
 20
-146.4627224026204
 10
74.41371797184796
 20
-146.7803602063605
 10
74.1742838356231
 20
-147.0153157184545
 10
73.85078936955814
 20
-147.0153157184545
 97
        0
 97
        0
 75
     2
 76
     1
 98
        0
  0
ENDBLK
  5
107
330
104
100
AcDbEntity
  8
0
100
AcDbBlockEnd
  0
BLOCK
  5
10C
330
10A
100
AcDbEntity
  8
0
100
AcDbBlockBegin
  2
block 8
 70
     0
 10
0.0
 20
0.0
 30
0.0
  3
block 8
  1

  0
POLYLINE
  5
10E
330
10A
100
AcDbEntity
  8
_U+30EC_U+30A4_U+30E4_U+30FC 1
370
     0
100
AcDb2dPolyline
 66
     1
 10
0.0
 20
0.0
 30
0.0
  0
VERTEX
  5
10F
330
10E
100
AcDbEntity
  8
_U+30EC_U+30A4_U+30E4_U+30FC 1
370
     0
100
AcDbVertex
100
AcDb2dVertex
 10
91.0965928591703
 20
-113.9992431355627
 30
0.0
  0
VERTEX
  5
110
330
10E
100
AcDbEntity
  8
_U+30EC_U+30A4_U+30E4_U+30FC 1
370
     0
100
AcDbVertex
100
AcDb2dVertex
 10
91.0965928591703
 20
-114.3461642509274
 30
0.0
  0
VERTEX
  5
111
330
10E
100
AcDbEntity
  8
_U+30EC_U+30A4_U+30E4_U+30FC 1
370
     0
100
AcDbVertex
100
AcDb2dVertex
 10
90.86370440436741
 20
-114.3461642509274
 30
0.0
  0
VERTEX
  5
112
330
10E
100
AcDbEntity
  8
_U+30EC_U+30A4_U+30E4_U+30FC 1
370
     0
100
AcDbVertex
100
AcDb2dVertex
 10
90.86370440436741
 20
-113.9992431355627
 30
0.0
  0
VERTEX
  5
113
330
10E
100
AcDbEntity
  8
_U+30EC_U+30A4_U+30E4_U+30FC 1
370
     0
100
AcDbVertex
100
AcDb2dVertex
 10
90.16262747311907
 20
-113.9992431355627
 30
0.0
  0
VERTEX
  5
114
330
10E
100
AcDbEntity
  8
_U+30EC_U+30A4_U+30E4_U+30FC 1
370
     0
100
AcDbVertex
100
AcDb2dVertex
 10
90.16262747311907
 20
-113.7749674194729
 30
0.0
  0
VERTEX
  5
115
330
10E
100
AcDbEntity
  8
_U+30EC_U+30A4_U+30E4_U+30FC 1
370
     0
100
AcDbVertex
100
AcDb2dVertex
 10
90.88850909186121
 20
-112.8017279448898
 30
0.0
  0
VERTEX
  5
116
330
10E
100
AcDbEntity
  8
_U+30EC_U+30A4_U+30E4_U+30FC 1
370
     0
100
AcDbVertex
100
AcDb2dVertex
 10
91.0965928591703
 20
-112.8017279448898
 30
0.0
  0
VERTEX
  5
117
330
10E
100
AcDbEntity
  8
_U+30EC_U+30A4_U+30E4_U+30FC 1
370
     0
100
AcDbVertex
100
AcDb2dVertex
 10
91.0965928591703
 20
-113.8004611260638
 30
0.0
  0
VERTEX
  5
118
330
10E
100
AcDbEntity
  8
_U+30EC_U+30A4_U+30E4_U+30FC 1
370
     0
100
AcDbVertex
100
AcDb2dVertex
 10
91.31811249887187
 20
-113.8004611260638
 30
0.0
  0
VERTEX
  5
119
330
10E
100
AcDbEntity
  8
_U+30EC_U+30A4_U+30E4_U+30FC 1
370
     0
100
AcDbVertex
100
AcDb2dVertex
 10
91.31811249887187
 20
-113.9992431355627
 30
0.0
  0
VERTEX
  5
11A
330
10E
100
AcDbEntity
  8
_U+30EC_U+30A4_U+30E4_U+30FC 1
370
     0
100
AcDbVertex
100
AcDb2dVertex
 10
91.0965928591703
 20
-113.9992431355627
 30
0.0
  0
SEQEND
  5
11B
330
10E
100
AcDbEntity
  8
_U+30EC_U+30A4_U+30E4_U+30FC 1
370
     0
  0
POLYLINE
  5
11C
330
10A
100
AcDbEntity
  8
_U+30EC_U+30A4_U+30E4_U+30FC 1
370
     0
100
AcDb2dPolyline
 66
     1
 10
0.0
 20
0.0
 30
0.0
  0
VERTEX
  5
11D
330
11C
100
AcDbEntity
  8
_U+30EC_U+30A4_U+30E4_U+30FC 1
370
     0
100
AcDbVertex
100
AcDb2dVertex
 10
90.86370440436741
 20
-113.1445149456722
 30
0.0
  0
VERTEX
  5
11E
330
11C
100
AcDbEntity
  8
_U+30EC_U+30A4_U+30E4_U+30FC 1
370
     0
100
AcDbVertex
100
AcDb2dVertex
 10
90.37518986455899
 20
-113.8004611260638
 30
0.0
  0
VERTEX
  5
11F
330
11C
100
AcDbEntity
  8
_U+30EC_U+30A4_U+30E4_U+30FC 1
370
     0
100
AcDbVertex
100
AcDb2dVertex
 10
90.86370440436741
 20
-113.8004611260638
 30
0.0
  0
VERTEX
  5
120
330
11C
100
AcDbEntity
  8
_U+30EC_U+30A4_U+30E4_U+30FC 1
370
     0
100
AcDbVertex
100
AcDb2dVertex
 10
90.86370440436741
 20
-113.1445149456722
 30
0.0
  0
SEQEND
  5
121
330
11C
100
AcDbEntity
  8
_U+30EC_U+30A4_U+30E4_U+30FC 1
370
     0
  0
HATCH
  5
122
330
10A
100
AcDbEntity
  8
_U+30EC_U+30A4_U+30E4_U+30FC 1
 62
   179
420
  2234388
100
AcDbHatch
 10
0.0
 20
0.0
 30
0.0
210
0.0
220
0.0
230
1.0
  2
SOLID
 70
     1
 71
     0
 91
        2
 92
        1
 93
       11
 72
     1
 10
91.0965928591703
 20
-113.9992431355627
 11
91.0965928591703
 21
-114.3461642509274
 72
     1
 10
91.0965928591703
 20
-114.3461642509274
 11
90.86370440436741
 21
-114.3461642509274
 72
     1
 10
90.86370440436741
 20
-114.3461642509274
 11
90.86370440436741
 21
-113.9992431355627
 72
     1
 10
90.86370440436741
 20
-113.9992431355627
 11
90.16262747311907
 21
-113.9992431355627
 72
     1
 10
90.16262747311907
 20
-113.9992431355627
 11
90.16262747311907
 21
-113.7749674194729
 72
     1
 10
90.16262747311907
 20
-113.7749674194729
 11
90.88850909186121
 21
-112.8017279448898
 72
     1
 10
90.88850909186121
 20
-112.8017279448898
 11
91.0965928591703
 21
-112.8017279448898
 72
     1
 10
91.0965928591703
 20
-112.8017279448898
 11
91.0965928591703
 21
-113.8004611260638
 72
     1
 10
91.0965928591703
 20
-113.8004611260638
 11
91.31811249887187
 21
-113.8004611260638
 72
     1
 10
91.31811249887187
 20
-113.8004611260638
 11
91.31811249887187
 21
-113.9992431355627
 72
     1
 10
91.31811249887187
 20
-113.9992431355627
 11
91.0965928591703
 21
-113.9992431355627
 97
        0
 92
        1
 93
        3
 72
     1
 10
90.86370440436741
 20
-113.1445149456722
 11
90.37518986455899
 21
-113.8004611260638
 72
     1
 10
90.37518986455899
 20
-113.8004611260638
 11
90.86370440436741
 21
-113.8004611260638
 72
     1
 10
90.86370440436741
 20
-113.8004611260638
 11
90.86370440436741
 21
-113.1445149456722
 97
        0
 75
     2
 76
     1
 98
        0
  0
SPLINE
  5
123
330
10A
100
AcDbEntity
  8
_U+30EC_U+30A4_U+30E4_U+30FC 1
370
     0
100
AcDbSpline
210
0.0
220
0.0
230
1.0
 70
    11
 71
     3
 72
    29
 73
    25
 74
     0
 42
0.0000000001
 43
0.0000000001
 12
1.0
 22
0.0
 32
0.0
 13
1.0
 23
0.0
 33
0.0
 40
0.0
 40
0.0
 40
0.0
 40
0.0
 40
1.0
 40
1.0
 40
1.0
 40
2.0
 40
2.0
 40
2.0
 40
3.0
 40
3.0
 40
3.0
 40
4.0
 40
4.0
 40
4.0
 40
5.0
 40
5.0
 40
5.0
 40
6.0
 40
6.0
 40
6.0
 40
7.0
 40
7.0
 40
7.0
 40
8.0
 40
8.0
 40
8.0
 40
8.0
 10
92.4243326591856
 20
-114.1683973238885
 30
0.0
 10
92.30892196042971
 20
-114.3778591293917
 30
0.0
 10
92.12357582332328
 20
-114.3968071545605
 30
0.0
 10
91.99920787630576
 20
-114.3968071545605
 30
0.0
 10
91.82764212114031
 20
-114.3968071545605
 30
0.0
 10
91.67605791978933
 20
-114.3502983655097
 30
0.0
 10
91.57442760297445
 20
-114.1683973238885
 30
0.0
 10
91.46349552834941
 20
-113.9737494289718
 30
0.0
 10
91.44316946498644
 20
-113.7367268595867
 30
0.0
 10
91.44316946498644
 20
-113.5741183526829
 30
0.0
 10
91.44316946498644
 20
-113.4301133613994
 30
0.0
 10
91.46108396150973
 20
-113.1782768814277
 30
0.0
 10
91.57442760297445
 20
-112.9794948719287
 30
0.0
 10
91.68949379218179
 20
-112.7765787478475
 30
0.0
 10
91.86140405689576
 20
-112.7531520985478
 30
0.0
 10
91.99920787630576
 20
-112.7531520985478
 30
0.0
 10
92.16905108372858
 20
-112.7531520985478
 30
0.0
 10
92.32270234237072
 20
-112.7975938303075
 30
0.0
 10
92.4243326591856
 20
-112.9794948719287
 30
0.0
 10
92.53078610967981
 20
-113.1720757095542
 30
0.0
 10
92.55559079717361
 20
-113.4004855402263
 30
0.0
 10
92.55559079717361
 20
-113.5741183526829
 30
0.0
 10
92.55559079717361
 20
-113.7453395982998
 30
0.0
 10
92.53285316697095
 20
-113.975816486263
 30
0.0
 10
92.4243326591856
 20
-114.1683973238885
 30
0.0
  0
SPLINE
  5
124
330
10A
100
AcDbEntity
  8
_U+30EC_U+30A4_U+30E4_U+30FC 1
370
     0
100
AcDbSpline
210
0.0
220
0.0
230
1.0
 70
    11
 71
     3
 72
    17
 73
    13
 74
     0
 42
0.0000000001
 43
0.0000000001
 12
1.0
 22
0.0
 32
0.0
 13
1.0
 23
0.0
 33
0.0
 40
0.0
 40
0.0
 40
0.0
 40
0.0
 40
1.0
 40
1.0
 40
1.0
 40
2.0
 40
2.0
 40
2.0
 40
3.0
 40
3.0
 40
3.0
 40
4.0
 40
4.0
 40
4.0
 40
4.0
 10
91.99920787630576
 20
-112.9457329361733
 30
0.0
 10
91.73255748574742
 20
-112.9457329361733
 30
0.0
 10
91.68294811075982
 20
-113.2292642946094
 30
0.0
 10
91.68294811075982
 20
-113.5741183526829
 30
0.0
 10
91.68294811075982
 20
-113.8934787041655
 30
0.0
 10
91.7211886706461
 20
-114.2021592596439
 30
0.0
 10
91.99920787630576
 20
-114.2021592596439
 30
0.0
 10
92.26379120957294
 20
-114.2021592596439
 30
0.0
 10
92.31581215140022
 20
-113.9210394680475
 30
0.0
 10
92.31581215140022
 20
-113.5741183526829
 30
0.0
 10
92.31581215140022
 20
-113.2544134916517
 30
0.0
 10
92.27516002467426
 20
-112.9457329361733
 30
0.0
 10
91.99920787630576
 20
-112.9457329361733
 30
0.0
  0
HATCH
  5
125
330
10A
100
AcDbEntity
  8
_U+30EC_U+30A4_U+30E4_U+30FC 1
 62
   179
420
  2234388
100
AcDbHatch
 10
0.0
 20
0.0
 30
0.0
210
0.0
220
0.0
230
1.0
  2
SOLID
 70
     1
 71
     0
 91
        2
 92
        1
 93
        1
 72
     4
 94
        3
 73
     0
 74
     1
 95
       29
 96
       25
 40
0.0
 40
0.0
 40
0.0
 40
0.0
 40
1.0
 40
1.0
 40
1.0
 40
2.0
 40
2.0
 40
2.0
 40
3.0
 40
3.0
 40
3.0
 40
4.0
 40
4.0
 40
4.0
 40
5.0
 40
5.0
 40
5.0
 40
6.0
 40
6.0
 40
6.0
 40
7.0
 40
7.0
 40
7.0
 40
8.0
 40
8.0
 40
8.0
 40
8.0
 10
92.4243326591856
 20
-114.1683973238885
 10
92.30892196042971
 20
-114.3778591293917
 10
92.12357582332328
 20
-114.3968071545605
 10
91.99920787630576
 20
-114.3968071545605
 10
91.82764212114031
 20
-114.3968071545605
 10
91.67605791978933
 20
-114.3502983655097
 10
91.57442760297445
 20
-114.1683973238885
 10
91.46349552834941
 20
-113.9737494289718
 10
91.44316946498644
 20
-113.7367268595867
 10
91.44316946498644
 20
-113.5741183526829
 10
91.44316946498644
 20
-113.4301133613994
 10
91.46108396150973
 20
-113.1782768814277
 10
91.57442760297445
 20
-112.9794948719287
 10
91.68949379218179
 20
-112.7765787478475
 10
91.86140405689576
 20
-112.7531520985478
 10
91.99920787630576
 20
-112.7531520985478
 10
92.16905108372858
 20
-112.7531520985478
 10
92.32270234237072
 20
-112.7975938303075
 10
92.4243326591856
 20
-112.9794948719287
 10
92.53078610967981
 20
-113.1720757095542
 10
92.55559079717361
 20
-113.4004855402263
 10
92.55559079717361
 20
-113.5741183526829
 10
92.55559079717361
 20
-113.7453395982998
 10
92.53285316697095
 20
-113.975816486263
 10
92.4243326591856
 20
-114.1683973238885
 97
        0
 97
        0
 92
        1
 93
        1
 72
     4
 94
        3
 73
     0
 74
     1
 95
       17
 96
       13
 40
0.0
 40
0.0
 40
0.0
 40
0.0
 40
1.0
 40
1.0
 40
1.0
 40
2.0
 40
2.0
 40
2.0
 40
3.0
 40
3.0
 40
3.0
 40
4.0
 40
4.0
 40
4.0
 40
4.0
 10
91.99920787630576
 20
-112.9457329361733
 10
91.73255748574742
 20
-112.9457329361733
 10
91.68294811075982
 20
-113.2292642946094
 10
91.68294811075982
 20
-113.5741183526829
 10
91.68294811075982
 20
-113.8934787041655
 10
91.7211886706461
 20
-114.2021592596439
 10
91.99920787630576
 20
-114.2021592596439
 10
92.26379120957294
 20
-114.2021592596439
 10
92.31581215140022
 20
-113.9210394680475
 10
92.31581215140022
 20
-113.5741183526829
 10
92.31581215140022
 20
-113.2544134916517
 10
92.27516002467426
 20
-112.9457329361733
 10
91.99920787630576
 20
-112.9457329361733
 97
        0
 97
        0
 75
     2
 76
     1
 98
        0
  0
ENDBLK
  5
10D
330
10A
100
AcDbEntity
  8
0
100
AcDbBlockEnd
  0
ENDSEC
  0
SECTION
  2
ENTITIES
  0
SPLINE
  5
41
330
1F
100
AcDbEntity
  8
_U+30EC_U+30A4_U+30E4_U+30FC 1
 62
   179
420
  2234388
370
     9
100
AcDbSpline
210
0.0
220
0.0
230
1.0
 70
    11
 71
     3
 72
    17
 73
    13
 74
     0
 42
0.0000000001
 43
0.0000000001
 12
1.0
 22
0.0
 32
0.0
 13
1.0
 23
0.0
 33
0.0
 40
0.0
 40
0.0
 40
0.0
 40
0.0
 40
1.0
 40
1.0
 40
1.0
 40
2.0
 40
2.0
 40
2.0
 40
3.0
 40
3.0
 40
3.0
 40
4.0
 40
4.0
 40
4.0
 40
4.0
 10
71.4354167886418
 20
-112.4141558052299
 30
0.0
 10
71.49122623166242
 20
-112.4141558052299
 30
0.0
 10
71.53602900829719
 20
-112.4589585829962
 30
0.0
 10
71.53602900829719
 20
-112.5140624718715
 30
0.0
 10
71.53602900829719
 20
-112.5692016385242
 30
0.0
 10
71.49122623166242
 20
-112.6139691385131
 30
0.0
 10
71.4354167886418
 20
-112.6139691385131
 30
0.0
 10
71.38031290115873
 20
-112.6139691385131
 30
0.0
 10
71.33551012452396
 20
-112.5692016385242
 30
0.0
 10
71.33551012452396
 20
-112.5140624718715
 30
0.0
 10
71.33551012452396
 20
-112.4589585829962
 30
0.0
 10
71.38031290115873
 20
-112.4141558052299
 30
0.0
 10
71.4354167886418
 20
-112.4141558052299
 30
0.0
  0
SPLINE
  5
42
330
1F
100
AcDbEntity
  8
_U+30EC_U+30A4_U+30E4_U+30FC 1
 62
   179
420
  2234388
370
     9
100
AcDbSpline
210
0.0
220
0.0
230
1.0
 70
    11
 71
     3
 72
    17
 73
    13
 74
     0
 42
0.0000000001
 43
0.0000000001
 12
1.0
 22
0.0
 32
0.0
 13
1.0
 23
0.0
 33
0.0
 40
0.0
 40
0.0
 40
0.0
 40
0.0
 40
1.0
 40
1.0
 40
1.0
 40
2.0
 40
2.0
 40
2.0
 40
3.0
 40
3.0
 40
3.0
 40
4.0
 40
4.0
 40
4.0
 40
4.0
 10
74.44852698954872
 20
-112.3983160830116
 30
0.0
 10
74.50433643256936
 20
-112.3983160830116
 30
0.0
 10
74.54910393142724
 20
-112.4424133052228
 30
0.0
 10
74.54910393142724
 20
-112.4982227496533
 30
0.0
 10
74.54910393142724
 20
-112.5533266385285
 30
0.0
 10
74.50433643256936
 20
-112.5981294162949
 30
0.0
 10
74.44852698954872
 20
-112.5981294162949
 30
0.0
 10
74.39338782428878
 20
-112.5981294162949
 30
0.0
 10
74.34862220363522
 20
-112.5533266385285
 30
0.0
 10
74.34862220363522
 20
-112.4982227496533
 30
0.0
 10
74.34862220363522
 20
-112.4424133052228
 30
0.0
 10
74.39338782428878
 20
-112.3983160830116
 30
0.0
 10
74.44852698954872
 20
-112.3983160830116
 30
0.0
  0
POLYLINE
  5
43
330
1F
100
AcDbEntity
  8
_U+30EC_U+30A4_U+30E4_U+30FC 1
 62
   179
420
  2234388
370
    25
100
AcDb2dPolyline
 66
     1
 10
0.0
 20
0.0
 30
0.0
  0
VERTEX
  5
44
330
43
100
AcDbEntity
  8
_U+30EC_U+30A4_U+30E4_U+30FC 1
 62
   179
420
  2234388
370
    25
100
AcDbVertex
100
AcDb2dVertex
 10
76.37017805163444
 20
-140.4816849648796
 30
0.0
  0
VERTEX
  5
45
330
43
100
AcDbEntity
  8
_U+30EC_U+30A4_U+30E4_U+30FC 1
 62
   179
420
  2234388
370
    25
100
AcDbVertex
100
AcDb2dVertex
 10
71.37064679029422
 20
-140.4816849648796
 30
0.0
  0
SEQEND
  5
46
330
43
100
AcDbEntity
  8
_U+30EC_U+30A4_U+30E4_U+30FC 1
 62
   179
420
  2234388
370
    25
  0
POLYLINE
  5
47
330
1F
100
AcDbEntity
  8
_U+30EC_U+30A4_U+30E4_U+30FC 1
 62
   179
420
  2234388
370
    25
100
AcDb2dPolyline
 66
     1
 10
0.0
 20
0.0
 30
0.0
  0
VERTEX
  5
48
330
47
100
AcDbEntity
  8
_U+30EC_U+30A4_U+30E4_U+30FC 1
 62
   179
420
  2234388
370
    25
100
AcDbVertex
100
AcDb2dVertex
 10
74.3706689359795
 20
-119.4814235812408
 30
0.0
  0
VERTEX
  5
49
330
47
100
AcDbEntity
  8
_U+30EC_U+30A4_U+30E4_U+30FC 1
 62
   179
420
  2234388
370
    25
100
AcDbVertex
100
AcDb2dVertex
 10
71.37064679029422
 20
-119.4814235812408
 30
0.0
  0
SEQEND
  5
4A
330
47
100
AcDbEntity
  8
_U+30EC_U+30A4_U+30E4_U+30FC 1
 62
   179
420
  2234388
370
    25
  0
POLYLINE
  5
4B
330
1F
100
AcDbEntity
  8
_U+30EC_U+30A4_U+30E4_U+30FC 1
 62
   179
420
  2234388
370
    25
100
AcDb2dPolyline
 66
     1
 10
0.0
 20
0.0
 30
0.0
  0
VERTEX
  5
4C
330
4B
100
AcDbEntity
  8
_U+30EC_U+30A4_U+30E4_U+30FC 1
 62
   179
420
  2234388
370
    25
100
AcDbVertex
100
AcDb2dVertex
 10
111.370636325365
 20
-127.4819649681296
 30
0.0
  0
VERTEX
  5
4D
330
4B
100
AcDbEntity
  8
_U+30EC_U+30A4_U+30E4_U+30FC 1
 62
   179
420
  2234388
370
    25
100
AcDbVertex
100
AcDb2dVertex
 10
111.370636325365
 20
-126.4821927461571
 30
0.0
  0
SEQEND
  5
4E
330
4B
100
AcDbEntity
  8
_U+30EC_U+30A4_U+30E4_U+30FC 1
 62
   179
420
  2234388
370
    25
  0
POLYLINE
  5
4F
330
1F
100
AcDbEntity
  8
_U+30EC_U+30A4_U+30E4_U+30FC 1
 62
   179
420
  2234388
370
    25
100
AcDb2dPolyline
 66
     1
 10
0.0
 20
0.0
 30
0.0
  0
VERTEX
  5
50
330
4F
100
AcDbEntity
  8
_U+30EC_U+30A4_U+30E4_U+30FC 1
 62
   179
420
  2234388
370
    25
100
AcDbVertex
100
AcDb2dVertex
 10
71.37064679029422
 20
-140.4816849648796
 30
0.0
  0
VERTEX
  5
51
330
4F
100
AcDbEntity
  8
_U+30EC_U+30A4_U+30E4_U+30FC 1
 62
   179
420
  2234388
370
    25
100
AcDbVertex
100
AcDb2dVertex
 10
71.37064679029422
 20
-119.4814235812408
 30
0.0
  0
SEQEND
  5
52
330
4F
100
AcDbEntity
  8
_U+30EC_U+30A4_U+30E4_U+30FC 1
 62
   179
420
  2234388
370
    25
  0
POLYLINE
  5
53
330
1F
100
AcDbEntity
  8
_U+30EC_U+30A4_U+30E4_U+30FC 1
 62
   179
420
  2234388
370
    25
100
AcDb2dPolyline
 66
     1
 10
0.0
 20
0.0
 30
0.0
  0
VERTEX
  5
54
330
53
100
AcDbEntity
  8
_U+30EC_U+30A4_U+30E4_U+30FC 1
 62
   179
420
  2234388
370
    25
100
AcDbVertex
100
AcDb2dVertex
 10
76.44045138317495
 20
-137.4816980211852
 30
0.0
  0
VERTEX
  5
55
330
53
100
AcDbEntity
  8
_U+30EC_U+30A4_U+30E4_U+30FC 1
 62
   179
420
  2234388
370
    25
100
AcDbVertex
100
AcDb2dVertex
 10
73.44046451526654
 20
-137.4816980211852
 30
0.0
  0
SEQEND
  5
56
330
53
100
AcDbEntity
  8
_U+30EC_U+30A4_U+30E4_U+30FC 1
 62
   179
420
  2234388
370
    25
  0
POLYLINE
  5
57
330
1F
100
AcDbEntity
  8
_U+30EC_U+30A4_U+30E4_U+30FC 1
 62
   179
420
  2234388
370
    25
100
AcDb2dPolyline
 66
     1
 10
0.0
 20
0.0
 30
0.0
  0
VERTEX
  5
58
330
57
100
AcDbEntity
  8
_U+30EC_U+30A4_U+30E4_U+30FC 1
 62
   179
420
  2234388
370
    25
100
AcDbVertex
100
AcDb2dVertex
 10
111.370636325365
 20
-127.4819649681296
 30
0.0
  0
VERTEX
  5
59
330
57
100
AcDbEntity
  8
_U+30EC_U+30A4_U+30E4_U+30FC 1
 62
   179
420
  2234388
370
    25
100
AcDbVertex
100
AcDb2dVertex
 10
72.37041898701013
 20
-127.4819649681296
 30
0.0
  0
SEQEND
  5
5A
330
57
100
AcDbEntity
  8
_U+30EC_U+30A4_U+30E4_U+30FC 1
 62
   179
420
  2234388
370
    25
  0
POLYLINE
  5
5B
330
1F
100
AcDbEntity
  8
_U+30EC_U+30A4_U+30E4_U+30FC 1
 62
   179
420
  2234388
370
    25
100
AcDb2dPolyline
 66
     1
 10
0.0
 20
0.0
 30
0.0
  0
VERTEX
  5
5C
330
5B
100
AcDbEntity
  8
_U+30EC_U+30A4_U+30E4_U+30FC 1
 62
   179
420
  2234388
370
    25
100
AcDbVertex
100
AcDb2dVertex
 10
111.370636325365
 20
-126.4821927461571
 30
0.0
  0
VERTEX
  5
5D
330
5B
100
AcDbEntity
  8
_U+30EC_U+30A4_U+30E4_U+30FC 1
 62
   179
420
  2234388
370
    25
100
AcDbVertex
100
AcDb2dVertex
 10
72.37041898701013
 20
-126.4821927461571
 30
0.0
  0
SEQEND
  5
5E
330
5B
100
AcDbEntity
  8
_U+30EC_U+30A4_U+30E4_U+30FC 1
 62
   179
420
  2234388
370
    25
  0
POLYLINE
  5
5F
330
1F
100
AcDbEntity
  8
_U+30EC_U+30A4_U+30E4_U+30FC 1
 62
   179
420
  2234388
370
    25
100
AcDb2dPolyline
 66
     1
 10
0.0
 20
0.0
 30
0.0
  0
VERTEX
  5
60
330
5F
100
AcDbEntity
  8
_U+30EC_U+30A4_U+30E4_U+30FC 1
 62
   179
420
  2234388
370
    25
100
AcDbVertex
100
AcDb2dVertex
 10
72.37041898701013
 20
-139.481912742907
 30
0.0
  0
VERTEX
  5
61
330
5F
100
AcDbEntity
  8
_U+30EC_U+30A4_U+30E4_U+30FC 1
 62
   179
420
  2234388
370
    25
100
AcDbVertex
100
AcDb2dVertex
 10
72.37041898701013
 20
-127.4819649681296
 30
0.0
  0
SEQEND
  5
62
330
5F
100
AcDbEntity
  8
_U+30EC_U+30A4_U+30E4_U+30FC 1
 62
   179
420
  2234388
370
    25
  0
POLYLINE
  5
63
330
1F
100
AcDbEntity
  8
_U+30EC_U+30A4_U+30E4_U+30FC 1
 62
   179
420
  2234388
370
    25
100
AcDb2dPolyline
 66
     1
 10
0.0
 20
0.0
 30
0.0
  0
VERTEX
  5
64
330
63
100
AcDbEntity
  8
_U+30EC_U+30A4_U+30E4_U+30FC 1
 62
   179
420
  2234388
370
    25
100
AcDbVertex
100
AcDb2dVertex
 10
74.3706689359795
 20
-120.481195803213
 30
0.0
  0
VERTEX
  5
65
330
63
100
AcDbEntity
  8
_U+30EC_U+30A4_U+30E4_U+30FC 1
 62
   179
420
  2234388
370
    25
100
AcDbVertex
100
AcDb2dVertex
 10
72.37041898701013
 20
-120.481195803213
 30
0.0
  0
SEQEND
  5
66
330
63
100
AcDbEntity
  8
_U+30EC_U+30A4_U+30E4_U+30FC 1
 62
   179
420
  2234388
370
    25
  0
POLYLINE
  5
67
330
1F
100
AcDbEntity
  8
_U+30EC_U+30A4_U+30E4_U+30FC 1
 62
   179
420
  2234388
370
    25
100
AcDb2dPolyline
 66
     1
 10
0.0
 20
0.0
 30
0.0
  0
VERTEX
  5
68
330
67
100
AcDbEntity
  8
_U+30EC_U+30A4_U+30E4_U+30FC 1
 62
   179
420
  2234388
370
    25
100
AcDbVertex
100
AcDb2dVertex
 10
75.37040585491853
 20
-139.481912742907
 30
0.0
  0
VERTEX
  5
69
330
67
100
AcDbEntity
  8
_U+30EC_U+30A4_U+30E4_U+30FC 1
 62
   179
420
  2234388
370
    25
100
AcDbVertex
100
AcDb2dVertex
 10
72.37041898701013
 20
-139.481912742907
 30
0.0
  0
SEQEND
  5
6A
330
67
100
AcDbEntity
  8
_U+30EC_U+30A4_U+30E4_U+30FC 1
 62
   179
420
  2234388
370
    25
  0
POLYLINE
  5
6B
330
1F
100
AcDbEntity
  8
_U+30EC_U+30A4_U+30E4_U+30FC 1
 62
   179
420
  2234388
370
    25
100
AcDb2dPolyline
 66
     1
 10
0.0
 20
0.0
 30
0.0
  0
VERTEX
  5
6C
330
6B
100
AcDbEntity
  8
_U+30EC_U+30A4_U+30E4_U+30FC 1
 62
   179
420
  2234388
370
    25
100
AcDbVertex
100
AcDb2dVertex
 10
76.44045138317495
 20
-140.4816849648796
 30
0.0
  0
VERTEX
  5
6D
330
6B
100
AcDbEntity
  8
_U+30EC_U+30A4_U+30E4_U+30FC 1
 62
   179
420
  2234388
370
    25
100
AcDbVertex
100
AcDb2dVertex
 10
76.44045138317495
 20
-137.4816980211852
 30
0.0
  0
SEQEND
  5
6E
330
6B
100
AcDbEntity
  8
_U+30EC_U+30A4_U+30E4_U+30FC 1
 62
   179
420
  2234388
370
    25
  0
POLYLINE
  5
6F
330
1F
100
AcDbEntity
  8
_U+30EC_U+30A4_U+30E4_U+30FC 1
 62
   179
420
  2234388
370
    25
100
AcDb2dPolyline
 66
     1
 10
0.0
 20
0.0
 30
0.0
  0
VERTEX
  5
70
330
6F
100
AcDbEntity
  8
_U+30EC_U+30A4_U+30E4_U+30FC 1
 62
   179
420
  2234388
370
    25
100
AcDbVertex
100
AcDb2dVertex
 10
75.44071446423592
 20
-139.481912742907
 30
0.0
  0
VERTEX
  5
71
330
6F
100
AcDbEntity
  8
_U+30EC_U+30A4_U+30E4_U+30FC 1
 62
   179
420
  2234388
370
    25
100
AcDbVertex
100
AcDb2dVertex
 10
75.44071446423592
 20
-138.4821757987126
 30
0.0
  0
SEQEND
  5
72
330
6F
100
AcDbEntity
  8
_U+30EC_U+30A4_U+30E4_U+30FC 1
 62
   179
420
  2234388
370
    25
  0
POLYLINE
  5
73
330
1F
100
AcDbEntity
  8
_U+30EC_U+30A4_U+30E4_U+30FC 1
 62
   179
420
  2234388
370
    25
100
AcDb2dPolyline
 66
     1
 10
0.0
 20
0.0
 30
0.0
  0
VERTEX
  5
74
330
73
100
AcDbEntity
  8
_U+30EC_U+30A4_U+30E4_U+30FC 1
 62
   179
420
  2234388
370
    25
100
AcDbVertex
100
AcDb2dVertex
 10
75.44071446423592
 20
-138.4821757987126
 30
0.0
  0
VERTEX
  5
75
330
73
100
AcDbEntity
  8
_U+30EC_U+30A4_U+30E4_U+30FC 1
 62
   179
420
  2234388
370
    25
100
AcDbVertex
100
AcDb2dVertex
 10
73.44046451526654
 20
-138.4821757987126
 30
0.0
  0
SEQEND
  5
76
330
73
100
AcDbEntity
  8
_U+30EC_U+30A4_U+30E4_U+30FC 1
 62
   179
420
  2234388
370
    25
  0
POLYLINE
  5
77
330
1F
100
AcDbEntity
  8
_U+30EC_U+30A4_U+30E4_U+30FC 1
 62
   179
420
  2234388
370
    25
100
AcDb2dPolyline
 66
     1
 10
0.0
 20
0.0
 30
0.0
  0
VERTEX
  5
78
330
77
100
AcDbEntity
  8
_U+30EC_U+30A4_U+30E4_U+30FC 1
 62
   179
420
  2234388
370
    25
100
AcDbVertex
100
AcDb2dVertex
 10
73.44046451526654
 20
-138.4821757987126
 30
0.0
  0
VERTEX
  5
79
330
77
100
AcDbEntity
  8
_U+30EC_U+30A4_U+30E4_U+30FC 1
 62
   179
420
  2234388
370
    25
100
AcDbVertex
100
AcDb2dVertex
 10
73.44046451526654
 20
-137.4816980211852
 30
0.0
  0
SEQEND
  5
7A
330
77
100
AcDbEntity
  8
_U+30EC_U+30A4_U+30E4_U+30FC 1
 62
   179
420
  2234388
370
    25
  0
POLYLINE
  5
7B
330
1F
100
AcDbEntity
  8
_U+30EC_U+30A4_U+30E4_U+30FC 1
 62
   179
420
  2234388
370
    25
100
AcDb2dPolyline
 66
     1
 10
0.0
 20
0.0
 30
0.0
  0
VERTEX
  5
7C
330
7B
100
AcDbEntity
  8
_U+30EC_U+30A4_U+30E4_U+30FC 1
 62
   179
420
  2234388
370
    25
100
AcDbVertex
100
AcDb2dVertex
 10
74.3706689359795
 20
-120.481195803213
 30
0.0
  0
VERTEX
  5
7D
330
7B
100
AcDbEntity
  8
_U+30EC_U+30A4_U+30E4_U+30FC 1
 62
   179
420
  2234388
370
    25
100
AcDbVertex
100
AcDb2dVertex
 10
74.3706689359795
 20
-119.4814235812408
 30
0.0
  0
SEQEND
  5
7E
330
7B
100
AcDbEntity
  8
_U+30EC_U+30A4_U+30E4_U+30FC 1
 62
   179
420
  2234388
370
    25
  0
POLYLINE
  5
7F
330
1F
100
AcDbEntity
  8
_U+30EC_U+30A4_U+30E4_U+30FC 1
 62
   179
420
  2234388
370
    25
100
AcDb2dPolyline
 66
     1
 10
0.0
 20
0.0
 30
0.0
  0
VERTEX
  5
80
330
7F
100
AcDbEntity
  8
_U+30EC_U+30A4_U+30E4_U+30FC 1
 62
   179
420
  2234388
370
    25
100
AcDbVertex
100
AcDb2dVertex
 10
72.37041898701013
 20
-126.4821927461571
 30
0.0
  0
VERTEX
  5
81
330
7F
100
AcDbEntity
  8
_U+30EC_U+30A4_U+30E4_U+30FC 1
 62
   179
420
  2234388
370
    25
100
AcDbVertex
100
AcDb2dVertex
 10
72.37041898701013
 20
-120.481195803213
 30
0.0
  0
SEQEND
  5
82
330
7F
100
AcDbEntity
  8
_U+30EC_U+30A4_U+30E4_U+30FC 1
 62
   179
420
  2234388
370
    25
  0
SPLINE
  5
83
330
1F
100
AcDbEntity
  8
_U+30EC_U+30A4_U+30E4_U+30FC 1
 62
   179
420
  2234388
370
     9
100
AcDbSpline
210
0.0
220
0.0
230
1.0
 70
    11
 71
     3
 72
    17
 73
    13
 74
     0
 42
0.0000000001
 43
0.0000000001
 12
1.0
 22
0.0
 32
0.0
 13
1.0
 23
0.0
 33
0.0
 40
0.0
 40
0.0
 40
0.0
 40
0.0
 40
1.0
 40
1.0
 40
1.0
 40
2.0
 40
2.0
 40
2.0
 40
3.0
 40
3.0
 40
3.0
 40
4.0
 40
4.0
 40
4.0
 40
4.0
 10
115.3703953899893
 20
-137.3824969100991
 30
0.0
 10
115.4254992774724
 20
-137.3824969100991
 30
0.0
 10
115.4703020541072
 20
-137.4272644100877
 30
0.0
 10
115.4703020541072
 20
-137.4824035767408
 30
0.0
 10
115.4703020541072
 20
-137.5375074656157
 30
0.0
 10
115.4254992774724
 20
-137.5823102433824
 30
0.0
 10
115.3703953899893
 20
-137.5823102433824
 30
0.0
 10
115.3152562247294
 20
-137.5823102433824
 30
0.0
 10
115.2704916378491
 20
-137.5375074656157
 30
0.0
 10
115.2704916378491
 20
-137.4824035767408
 30
0.0
 10
115.2704916378491
 20
-137.4272644100877
 30
0.0
 10
115.3152562247294
 20
-137.3824969100991
 30
0.0
 10
115.3703953899893
 20
-137.3824969100991
 30
0.0
  0
SPLINE
  5
84
330
1F
100
AcDbEntity
  8
_U+30EC_U+30A4_U+30E4_U+30FC 1
 62
   179
420
  2234388
370
     9
100
AcDbSpline
210
0.0
220
0.0
230
1.0
 70
    11
 71
     3
 72
    17
 73
    13
 74
     0
 42
0.0000000001
 43
0.0000000001
 12
1.0
 22
0.0
 32
0.0
 13
1.0
 23
0.0
 33
0.0
 40
0.0
 40
0.0
 40
0.0
 40
0.0
 40
1.0
 40
1.0
 40
1.0
 40
2.0
 40
2.0
 40
2.0
 40
3.0
 40
3.0
 40
3.0
 40
4.0
 40
4.0
 40
4.0
 40
4.0
 10
115.3703953899893
 20
-140.3824838537934
 30
0.0
 10
115.4254992774724
 20
-140.3824838537934
 30
0.0
 10
115.4703020541072
 20
-140.427251353782
 30
0.0
 10
115.4703020541072
 20
-140.4823905204351
 30
0.0
 10
115.4703020541072
 20
-140.53749440931
 30
0.0
 10
115.4254992774724
 20
-140.5822971870767
 30
0.0
 10
115.3703953899893
 20
-140.5822971870767
 30
0.0
 10
115.3152562247294
 20
-140.5822971870767
 30
0.0
 10
115.2704916378491
 20
-140.53749440931
 30
0.0
 10
115.2704916378491
 20
-140.4823905204351
 30
0.0
 10
115.2704916378491
 20
-140.427251353782
 30
0.0
 10
115.3152562247294
 20
-140.3824838537934
 30
0.0
 10
115.3703953899893
 20
-140.3824838537934
 30
0.0
  0
SPLINE
  5
85
330
1F
100
AcDbEntity
  8
_U+30EC_U+30A4_U+30E4_U+30FC 1
 62
   179
420
  2234388
370
     9
100
AcDbSpline
210
0.0
220
0.0
230
1.0
 70
    11
 71
     3
 72
    17
 73
    13
 74
     0
 42
0.0000000001
 43
0.0000000001
 12
1.0
 22
0.0
 32
0.0
 13
1.0
 23
0.0
 33
0.0
 40
0.0
 40
0.0
 40
0.0
 40
0.0
 40
1.0
 40
1.0
 40
1.0
 40
2.0
 40
2.0
 40
2.0
 40
3.0
 40
3.0
 40
3.0
 40
4.0
 40
4.0
 40
4.0
 40
4.0
 10
115.3703953899893
 20
-127.3820583014877
 30
0.0
 10
115.4254992774724
 20
-127.3820583014877
 30
0.0
 10
115.4703020541072
 20
-127.4268610792544
 30
0.0
 10
115.4703020541072
 20
-127.4819649681296
 30
0.0
 10
115.4703020541072
 20
-127.5371041347824
 30
0.0
 10
115.4254992774724
 20
-127.5818716347713
 30
0.0
 10
115.3703953899893
 20
-127.5818716347713
 30
0.0
 10
115.3152562247294
 20
-127.5818716347713
 30
0.0
 10
115.2704916378491
 20
-127.5371041347824
 30
0.0
 10
115.2704916378491
 20
-127.4819649681296
 30
0.0
 10
115.2704916378491
 20
-127.4268610792544
 30
0.0
 10
115.3152562247294
 20
-127.3820583014877
 30
0.0
 10
115.3703953899893
 20
-127.3820583014877
 30
0.0
  0
SPLINE
  5
86
330
1F
100
AcDbEntity
  8
_U+30EC_U+30A4_U+30E4_U+30FC 1
 62
   179
420
  2234388
370
     9
100
AcDbSpline
210
0.0
220
0.0
230
1.0
 70
    11
 71
     3
 72
    17
 73
    13
 74
     0
 42
0.0000000001
 43
0.0000000001
 12
1.0
 22
0.0
 32
0.0
 13
1.0
 23
0.0
 33
0.0
 40
0.0
 40
0.0
 40
0.0
 40
0.0
 40
1.0
 40
1.0
 40
1.0
 40
2.0
 40
2.0
 40
2.0
 40
3.0
 40
3.0
 40
3.0
 40
4.0
 40
4.0
 40
4.0
 40
4.0
 10
115.3703953899893
 20
-126.3816158017378
 30
0.0
 10
115.4254992774724
 20
-126.3816158017378
 30
0.0
 10
115.4703020541072
 20
-126.4263833017267
 30
0.0
 10
115.4703020541072
 20
-126.4821927461571
 30
0.0
 10
115.4703020541072
 20
-126.5373319128102
 30
0.0
 10
115.4254992774724
 20
-126.5820994127991
 30
0.0
 10
115.3703953899893
 20
-126.5820994127991
 30
0.0
 10
115.3152562247294
 20
-126.5820994127991
 30
0.0
 10
115.2704916378491
 20
-126.5373319128102
 30
0.0
 10
115.2704916378491
 20
-126.4821927461571
 30
0.0
 10
115.2704916378491
 20
-126.4263833017267
 30
0.0
 10
115.3152562247294
 20
-126.3816158017378
 30
0.0
 10
115.3703953899893
 20
-126.3816158017378
 30
0.0
  0
SPLINE
  5
87
330
1F
100
AcDbEntity
  8
_U+30EC_U+30A4_U+30E4_U+30FC 1
 62
   179
420
  2234388
370
     9
100
AcDbSpline
210
0.0
220
0.0
230
1.0
 70
    11
 71
     3
 72
    17
 73
    13
 74
     0
 42
0.0000000001
 43
0.0000000001
 12
1.0
 22
0.0
 32
0.0
 13
1.0
 23
0.0
 33
0.0
 40
0.0
 40
0.0
 40
0.0
 40
0.0
 40
1.0
 40
1.0
 40
1.0
 40
2.0
 40
2.0
 40
2.0
 40
3.0
 40
3.0
 40
3.0
 40
4.0
 40
4.0
 40
4.0
 40
4.0
 10
111.370636325365
 20
-115.3817577489322
 30
0.0
 10
111.4257402128481
 20
-115.3817577489322
 30
0.0
 10
111.4705429894829
 20
-115.426560526699
 30
0.0
 10
111.4705429894829
 20
-115.4816644155739
 30
0.0
 10
111.4705429894829
 20
-115.536803582227
 30
0.0
 10
111.4257402128481
 20
-115.5815710822158
 30
0.0
 10
111.370636325365
 20
-115.5815710822158
 30
0.0
 10
111.3154999721714
 20
-115.5815710822158
 30
0.0
 10
111.2707296612472
 20
-115.536803582227
 30
0.0
 10
111.2707296612472
 20
-115.4816644155739
 30
0.0
 10
111.2707296612472
 20
-115.426560526699
 30
0.0
 10
111.3154999721714
 20
-115.3817577489322
 30
0.0
 10
111.370636325365
 20
-115.3817577489322
 30
0.0
  0
SPLINE
  5
88
330
1F
100
AcDbEntity
  8
_U+30EC_U+30A4_U+30E4_U+30FC 1
 62
   179
420
  2234388
370
     9
100
AcDbSpline
210
0.0
220
0.0
230
1.0
 70
    11
 71
     3
 72
    17
 73
    13
 74
     0
 42
0.0000000001
 43
0.0000000001
 12
1.0
 22
0.0
 32
0.0
 13
1.0
 23
0.0
 33
0.0
 40
0.0
 40
0.0
 40
0.0
 40
0.0
 40
1.0
 40
1.0
 40
1.0
 40
2.0
 40
2.0
 40
2.0
 40
3.0
 40
3.0
 40
3.0
 40
4.0
 40
4.0
 40
4.0
 40
4.0
 10
71.37064679029422
 20
-115.3817577489322
 30
0.0
 10
71.42578595555416
 20
-115.3817577489322
 30
0.0
 10
71.47058873218893
 20
-115.426560526699
 30
0.0
 10
71.47058873218893
 20
-115.4816644155739
 30
0.0
 10
71.47058873218893
 20
-115.536803582227
 30
0.0
 10
71.42578595555416
 20
-115.5815710822158
 30
0.0
 10
71.37064679029422
 20
-115.5815710822158
 30
0.0
 10
71.31554290281115
 20
-115.5815710822158
 30
0.0
 10
71.27074012617638
 20
-115.536803582227
 30
0.0
 10
71.27074012617638
 20
-115.4816644155739
 30
0.0
 10
71.27074012617638
 20
-115.426560526699
 30
0.0
 10
71.31554290281115
 20
-115.3817577489322
 30
0.0
 10
71.37064679029422
 20
-115.3817577489322
 30
0.0
  0
SPLINE
  5
89
330
1F
100
AcDbEntity
  8
_U+30EC_U+30A4_U+30E4_U+30FC 1
 62
   179
420
  2234388
370
     9
100
AcDbSpline
210
0.0
220
0.0
230
1.0
 70
    11
 71
     3
 72
    17
 73
    13
 74
     0
 42
0.0000000001
 43
0.0000000001
 12
1.0
 22
0.0
 32
0.0
 13
1.0
 23
0.0
 33
0.0
 40
0.0
 40
0.0
 40
0.0
 40
0.0
 40
1.0
 40
1.0
 40
1.0
 40
2.0
 40
2.0
 40
2.0
 40
3.0
 40
3.0
 40
3.0
 40
4.0
 40
4.0
 40
4.0
 40
4.0
 10
67.37021744790923
 20
-119.3815169145991
 30
0.0
 10
67.42602689092986
 20
-119.3815169145991
 30
0.0
 10
67.47082966756462
 20
-119.4263196923655
 30
0.0
 10
67.47082966756462
 20
-119.4814235812408
 30
0.0
 10
67.47082966756462
 20
-119.5365627478935
 30
0.0
 10
67.42602689092986
 20
-119.5813302478824
 30
0.0
 10
67.37021744790923
 20
-119.5813302478824
 30
0.0
 10
67.31511356042616
 20
-119.5813302478824
 30
0.0
 10
67.27031078379139
 20
-119.5365627478935
 30
0.0
 10
67.27031078379139
 20
-119.4814235812408
 30
0.0
 10
67.27031078379139
 20
-119.4263196923655
 30
0.0
 10
67.31511356042616
 20
-119.3815169145991
 30
0.0
 10
67.37021744790923
 20
-119.3815169145991
 30
0.0
  0
SPLINE
  5
8A
330
1F
100
AcDbEntity
  8
_U+30EC_U+30A4_U+30E4_U+30FC 1
 62
   179
420
  2234388
370
     9
100
AcDbSpline
210
0.0
220
0.0
230
1.0
 70
    11
 71
     3
 72
    17
 73
    13
 74
     0
 42
0.0000000001
 43
0.0000000001
 12
1.0
 22
0.0
 32
0.0
 13
1.0
 23
0.0
 33
0.0
 40
0.0
 40
0.0
 40
0.0
 40
0.0
 40
1.0
 40
1.0
 40
1.0
 40
2.0
 40
2.0
 40
2.0
 40
3.0
 40
3.0
 40
3.0
 40
4.0
 40
4.0
 40
4.0
 40
4.0
 10
67.37021744790923
 20
-140.3817782982379
 30
0.0
 10
67.42602689092986
 20
-140.3817782982379
 30
0.0
 10
67.47082966756462
 20
-140.4265810760047
 30
0.0
 10
67.47082966756462
 20
-140.4816849648796
 30
0.0
 10
67.47082966756462
 20
-140.53749440931
 30
0.0
 10
67.42602689092986
 20
-140.5822971870767
 30
0.0
 10
67.37021744790923
 20
-140.5822971870767
 30
0.0
 10
67.31511356042616
 20
-140.5822971870767
 30
0.0
 10
67.27031078379139
 20
-140.53749440931
 30
0.0
 10
67.27031078379139
 20
-140.4816849648796
 30
0.0
 10
67.27031078379139
 20
-140.4265810760047
 30
0.0
 10
67.31511356042616
 20
-140.3817782982379
 30
0.0
 10
67.37021744790923
 20
-140.3817782982379
 30
0.0
  0
SPLINE
  5
8B
330
1F
100
AcDbEntity
  8
_U+30EC_U+30A4_U+30E4_U+30FC 1
 62
   179
420
  2234388
370
     9
100
AcDbSpline
210
0.0
220
0.0
230
1.0
 70
    11
 71
     3
 72
    17
 73
    13
 74
     0
 42
0.0000000001
 43
0.0000000001
 12
1.0
 22
0.0
 32
0.0
 13
1.0
 23
0.0
 33
0.0
 40
0.0
 40
0.0
 40
0.0
 40
0.0
 40
1.0
 40
1.0
 40
1.0
 40
2.0
 40
2.0
 40
2.0
 40
3.0
 40
3.0
 40
3.0
 40
4.0
 40
4.0
 40
4.0
 40
4.0
 10
71.37064679029422
 20
-144.3822430194597
 30
0.0
 10
71.42578595555416
 20
-144.3822430194597
 30
0.0
 10
71.47058873218893
 20
-144.4270105194489
 30
0.0
 10
71.47058873218893
 20
-144.482149686102
 30
0.0
 10
71.47058873218893
 20
-144.5372535749769
 30
0.0
 10
71.42578595555416
 20
-144.5820563527436
 30
0.0
 10
71.37064679029422
 20
-144.5820563527436
 30
0.0
 10
71.31554290281115
 20
-144.5820563527436
 30
0.0
 10
71.27074012617638
 20
-144.5372535749769
 30
0.0
 10
71.27074012617638
 20
-144.482149686102
 30
0.0
 10
71.27074012617638
 20
-144.4270105194489
 30
0.0
 10
71.31554290281115
 20
-144.3822430194597
 30
0.0
 10
71.37064679029422
 20
-144.3822430194597
 30
0.0
  0
SPLINE
  5
8C
330
1F
100
AcDbEntity
  8
_U+30EC_U+30A4_U+30E4_U+30FC 1
 62
   179
420
  2234388
370
     9
100
AcDbSpline
210
0.0
220
0.0
230
1.0
 70
    11
 71
     3
 72
    17
 73
    13
 74
     0
 42
0.0000000001
 43
0.0000000001
 12
1.0
 22
0.0
 32
0.0
 13
1.0
 23
0.0
 33
0.0
 40
0.0
 40
0.0
 40
0.0
 40
0.0
 40
1.0
 40
1.0
 40
1.0
 40
2.0
 40
2.0
 40
2.0
 40
3.0
 40
3.0
 40
3.0
 40
4.0
 40
4.0
 40
4.0
 40
4.0
 10
76.50384554822429
 20
-144.3822430194597
 30
0.0
 10
76.55898471348425
 20
-144.3822430194597
 30
0.0
 10
76.60375221234213
 20
-144.4270105194489
 30
0.0
 10
76.60375221234213
 20
-144.482149686102
 30
0.0
 10
76.60375221234213
 20
-144.5372535749769
 30
0.0
 10
76.55898471348425
 20
-144.5820563527436
 30
0.0
 10
76.50384554822429
 20
-144.5820563527436
 30
0.0
 10
76.44874166074122
 20
-144.5820563527436
 30
0.0
 10
76.40393888410647
 20
-144.5372535749769
 30
0.0
 10
76.40393888410647
 20
-144.482149686102
 30
0.0
 10
76.40393888410647
 20
-144.4270105194489
 30
0.0
 10
76.44874166074122
 20
-144.3822430194597
 30
0.0
 10
76.50384554822429
 20
-144.3822430194597
 30
0.0
  0
POLYLINE
  5
8D
330
1F
100
AcDbEntity
  8
_U+30EC_U+30A4_U+30E4_U+30FC 1
 62
   179
420
  2234388
370
     9
100
AcDb2dPolyline
 66
     1
 10
0.0
 20
0.0
 30
0.0
  0
VERTEX
  5
8E
330
8D
100
AcDbEntity
  8
_U+30EC_U+30A4_U+30E4_U+30FC 1
 62
   179
420
  2234388
370
     9
100
AcDbVertex
100
AcDb2dVertex
 10
115.3703953899893
 20
-126.4821927461571
 30
0.0
  0
VERTEX
  5
8F
330
8D
100
AcDbEntity
  8
_U+30EC_U+30A4_U+30E4_U+30FC 1
 62
   179
420
  2234388
370
     9
100
AcDbVertex
100
AcDb2dVertex
 10
115.3703953899893
 20
-122.7122330248774
 30
0.0
  0
SEQEND
  5
90
330
8D
100
AcDbEntity
  8
_U+30EC_U+30A4_U+30E4_U+30FC 1
 62
   179
420
  2234388
370
     9
  0
POLYLINE
  5
91
330
1F
100
AcDbEntity
  8
_U+30EC_U+30A4_U+30E4_U+30FC 1
 62
   179
420
  2234388
370
     9
100
AcDb2dPolyline
 66
     1
 10
0.0
 20
0.0
 30
0.0
  0
VERTEX
  5
92
330
91
100
AcDbEntity
  8
_U+30EC_U+30A4_U+30E4_U+30FC 1
 62
   179
420
  2234388
370
     9
100
AcDbVertex
100
AcDb2dVertex
 10
115.3703953899893
 20
-126.4821927461571
 30
0.0
  0
VERTEX
  5
93
330
91
100
AcDbEntity
  8
_U+30EC_U+30A4_U+30E4_U+30FC 1
 62
   179
420
  2234388
370
     9
100
AcDbVertex
100
AcDb2dVertex
 10
115.3703953899893
 20
-127.4819649681296
 30
0.0
  0
SEQEND
  5
94
330
91
100
AcDbEntity
  8
_U+30EC_U+30A4_U+30E4_U+30FC 1
 62
   179
420
  2234388
370
     9
  0
POLYLINE
  5
95
330
1F
100
AcDbEntity
  8
_U+30EC_U+30A4_U+30E4_U+30FC 1
 62
   179
420
  2234388
370
     9
100
AcDb2dPolyline
 66
     1
 10
0.0
 20
0.0
 30
0.0
  0
VERTEX
  5
96
330
95
100
AcDbEntity
  8
_U+30EC_U+30A4_U+30E4_U+30FC 1
 62
   179
420
  2234388
370
     9
100
AcDbVertex
100
AcDb2dVertex
 10
113.9103540383492
 20
-126.4821927461571
 30
0.0
  0
VERTEX
  5
97
330
95
100
AcDbEntity
  8
_U+30EC_U+30A4_U+30E4_U+30FC 1
 62
   179
420
  2234388
370
     9
100
AcDbVertex
100
AcDb2dVertex
 10
116.3701675867053
 20
-126.4821927461571
 30
0.0
  0
SEQEND
  5
98
330
95
100
AcDbEntity
  8
_U+30EC_U+30A4_U+30E4_U+30FC 1
 62
   179
420
  2234388
370
     9
  0
POLYLINE
  5
99
330
1F
100
AcDbEntity
  8
_U+30EC_U+30A4_U+30E4_U+30FC 1
 62
   179
420
  2234388
370
     9
100
AcDb2dPolyline
 66
     1
 10
0.0
 20
0.0
 30
0.0
  0
VERTEX
  5
9A
330
99
100
AcDbEntity
  8
_U+30EC_U+30A4_U+30E4_U+30FC 1
 62
   179
420
  2234388
370
     9
100
AcDbVertex
100
AcDb2dVertex
 10
113.9103540383492
 20
-127.4819649681296
 30
0.0
  0
VERTEX
  5
9B
330
99
100
AcDbEntity
  8
_U+30EC_U+30A4_U+30E4_U+30FC 1
 62
   179
420
  2234388
370
     9
100
AcDbVertex
100
AcDb2dVertex
 10
116.3701675867053
 20
-127.4819649681296
 30
0.0
  0
SEQEND
  5
9C
330
99
100
AcDbEntity
  8
_U+30EC_U+30A4_U+30E4_U+30FC 1
 62
   179
420
  2234388
370
     9
  0
POLYLINE
  5
9D
330
1F
100
AcDbEntity
  8
_U+30EC_U+30A4_U+30E4_U+30FC 1
 62
   179
420
  2234388
370
     9
100
AcDb2dPolyline
 66
     1
 10
0.0
 20
0.0
 30
0.0
  0
VERTEX
  5
9E
330
9D
100
AcDbEntity
  8
_U+30EC_U+30A4_U+30E4_U+30FC 1
 62
   179
420
  2234388
370
     9
100
AcDbVertex
100
AcDb2dVertex
 10
115.3703953899893
 20
-127.4819649681296
 30
0.0
  0
VERTEX
  5
9F
330
9D
100
AcDbEntity
  8
_U+30EC_U+30A4_U+30E4_U+30FC 1
 62
   179
420
  2234388
370
     9
100
AcDbVertex
100
AcDb2dVertex
 10
115.3703953899893
 20
-137.4824035767408
 30
0.0
  0
SEQEND
  5
A0
330
9D
100
AcDbEntity
  8
_U+30EC_U+30A4_U+30E4_U+30FC 1
 62
   179
420
  2234388
370
     9
  0
POLYLINE
  5
A1
330
1F
100
AcDbEntity
  8
_U+30EC_U+30A4_U+30E4_U+30FC 1
 62
   179
420
  2234388
370
     9
100
AcDb2dPolyline
 66
     1
 10
0.0
 20
0.0
 30
0.0
  0
VERTEX
  5
A2
330
A1
100
AcDbEntity
  8
_U+30EC_U+30A4_U+30E4_U+30FC 1
 62
   179
420
  2234388
370
     9
100
AcDbVertex
100
AcDb2dVertex
 10
113.9103540383492
 20
-127.4819649681296
 30
0.0
  0
VERTEX
  5
A3
330
A1
100
AcDbEntity
  8
_U+30EC_U+30A4_U+30E4_U+30FC 1
 62
   179
420
  2234388
370
     9
100
AcDbVertex
100
AcDb2dVertex
 10
116.3701675867053
 20
-127.4819649681296
 30
0.0
  0
SEQEND
  5
A4
330
A1
100
AcDbEntity
  8
_U+30EC_U+30A4_U+30E4_U+30FC 1
 62
   179
420
  2234388
370
     9
  0
POLYLINE
  5
A5
330
1F
100
AcDbEntity
  8
_U+30EC_U+30A4_U+30E4_U+30FC 1
 62
   179
420
  2234388
370
     9
100
AcDb2dPolyline
 66
     1
 10
0.0
 20
0.0
 30
0.0
  0
VERTEX
  5
A6
330
A5
100
AcDbEntity
  8
_U+30EC_U+30A4_U+30E4_U+30FC 1
 62
   179
420
  2234388
370
     9
100
AcDbVertex
100
AcDb2dVertex
 10
83.91045008148829
 20
-137.4816980211852
 30
0.0
  0
VERTEX
  5
A7
330
A5
100
AcDbEntity
  8
_U+30EC_U+30A4_U+30E4_U+30FC 1
 62
   179
420
  2234388
370
     9
100
AcDbVertex
100
AcDb2dVertex
 10
116.3701675867053
 20
-137.4824035767408
 30
0.0
  0
SEQEND
  5
A8
330
A5
100
AcDbEntity
  8
_U+30EC_U+30A4_U+30E4_U+30FC 1
 62
   179
420
  2234388
370
     9
  0
POLYLINE
  5
A9
330
1F
100
AcDbEntity
  8
_U+30EC_U+30A4_U+30E4_U+30FC 1
 62
   179
420
  2234388
370
     9
100
AcDb2dPolyline
 66
     1
 10
0.0
 20
0.0
 30
0.0
  0
VERTEX
  5
AA
330
A9
100
AcDbEntity
  8
_U+30EC_U+30A4_U+30E4_U+30FC 1
 62
   179
420
  2234388
370
     9
100
AcDbVertex
100
AcDb2dVertex
 10
115.3703953899893
 20
-140.4823905204351
 30
0.0
  0
VERTEX
  5
AB
330
A9
100
AcDbEntity
  8
_U+30EC_U+30A4_U+30E4_U+30FC 1
 62
   179
420
  2234388
370
     9
100
AcDbVertex
100
AcDb2dVertex
 10
115.3703953899893
 20
-137.4824035767408
 30
0.0
  0
SEQEND
  5
AC
330
A9
100
AcDbEntity
  8
_U+30EC_U+30A4_U+30E4_U+30FC 1
 62
   179
420
  2234388
370
     9
  0
POLYLINE
  5
AD
330
1F
100
AcDbEntity
  8
_U+30EC_U+30A4_U+30E4_U+30FC 1
 62
   179
420
  2234388
370
     9
100
AcDb2dPolyline
 66
     1
 10
0.0
 20
0.0
 30
0.0
  0
VERTEX
  5
AE
330
AD
100
AcDbEntity
  8
_U+30EC_U+30A4_U+30E4_U+30FC 1
 62
   179
420
  2234388
370
     9
100
AcDbVertex
100
AcDb2dVertex
 10
83.91045008148829
 20
-140.4816849648796
 30
0.0
  0
VERTEX
  5
AF
330
AD
100
AcDbEntity
  8
_U+30EC_U+30A4_U+30E4_U+30FC 1
 62
   179
420
  2234388
370
     9
100
AcDbVertex
100
AcDb2dVertex
 10
116.3701675867053
 20
-140.4823905204351
 30
0.0
  0
SEQEND
  5
B0
330
AD
100
AcDbEntity
  8
_U+30EC_U+30A4_U+30E4_U+30FC 1
 62
   179
420
  2234388
370
     9
  0
POLYLINE
  5
B1
330
1F
100
AcDbEntity
  8
_U+30EC_U+30A4_U+30E4_U+30FC 1
 62
   179
420
  2234388
370
     9
100
AcDb2dPolyline
 66
     1
 10
0.0
 20
0.0
 30
0.0
  0
VERTEX
  5
B2
330
B1
100
AcDbEntity
  8
_U+30EC_U+30A4_U+30E4_U+30FC 1
 62
   179
420
  2234388
370
     9
100
AcDbVertex
100
AcDb2dVertex
 10
67.37021744790923
 20
-140.4816849648796
 30
0.0
  0
VERTEX
  5
B3
330
B1
100
AcDbEntity
  8
_U+30EC_U+30A4_U+30E4_U+30FC 1
 62
   179
420
  2234388
370
     9
100
AcDbVertex
100
AcDb2dVertex
 10
67.37021744790923
 20
-119.4814235812408
 30
0.0
  0
SEQEND
  5
B4
330
B1
100
AcDbEntity
  8
_U+30EC_U+30A4_U+30E4_U+30FC 1
 62
   179
420
  2234388
370
     9
  0
POLYLINE
  5
B5
330
1F
100
AcDbEntity
  8
_U+30EC_U+30A4_U+30E4_U+30FC 1
 62
   179
420
  2234388
370
     9
100
AcDb2dPolyline
 66
     1
 10
0.0
 20
0.0
 30
0.0
  0
VERTEX
  5
B6
330
B5
100
AcDbEntity
  8
_U+30EC_U+30A4_U+30E4_U+30FC 1
 62
   179
420
  2234388
370
     9
100
AcDbVertex
100
AcDb2dVertex
 10
68.83025879954936
 20
-140.4816849648796
 30
0.0
  0
VERTEX
  5
B7
330
B5
100
AcDbEntity
  8
_U+30EC_U+30A4_U+30E4_U+30FC 1
 62
   179
420
  2234388
370
     9
100
AcDbVertex
100
AcDb2dVertex
 10
66.37044525119332
 20
-140.4816849648796
 30
0.0
  0
SEQEND
  5
B8
330
B5
100
AcDbEntity
  8
_U+30EC_U+30A4_U+30E4_U+30FC 1
 62
   179
420
  2234388
370
     9
  0
POLYLINE
  5
B9
330
1F
100
AcDbEntity
  8
_U+30EC_U+30A4_U+30E4_U+30FC 1
 62
   179
420
  2234388
370
     9
100
AcDb2dPolyline
 66
     1
 10
0.0
 20
0.0
 30
0.0
  0
VERTEX
  5
BA
330
B9
100
AcDbEntity
  8
_U+30EC_U+30A4_U+30E4_U+30FC 1
 62
   179
420
  2234388
370
     9
100
AcDbVertex
100
AcDb2dVertex
 10
68.83025879954936
 20
-119.4814235812408
 30
0.0
  0
VERTEX
  5
BB
330
B9
100
AcDbEntity
  8
_U+30EC_U+30A4_U+30E4_U+30FC 1
 62
   179
420
  2234388
370
     9
100
AcDbVertex
100
AcDb2dVertex
 10
66.37044525119332
 20
-119.4814235812408
 30
0.0
  0
SEQEND
  5
BC
330
B9
100
AcDbEntity
  8
_U+30EC_U+30A4_U+30E4_U+30FC 1
 62
   179
420
  2234388
370
     9
  0
POLYLINE
  5
BD
330
1F
100
AcDbEntity
  8
_U+30EC_U+30A4_U+30E4_U+30FC 1
 62
   179
420
  2234388
370
     9
100
AcDb2dPolyline
 66
     1
 10
0.0
 20
0.0
 30
0.0
  0
VERTEX
  5
BE
330
BD
100
AcDbEntity
  8
_U+30EC_U+30A4_U+30E4_U+30FC 1
 62
   179
420
  2234388
370
     9
100
AcDbVertex
100
AcDb2dVertex
 10
76.37017805163444
 20
-144.482149686102
 30
0.0
  0
VERTEX
  5
BF
330
BD
100
AcDbEntity
  8
_U+30EC_U+30A4_U+30E4_U+30FC 1
 62
   179
420
  2234388
370
     9
100
AcDbVertex
100
AcDb2dVertex
 10
71.37064679029422
 20
-144.482149686102
 30
0.0
  0
SEQEND
  5
C0
330
BD
100
AcDbEntity
  8
_U+30EC_U+30A4_U+30E4_U+30FC 1
 62
   179
420
  2234388
370
     9
  0
POLYLINE
  5
C1
330
1F
100
AcDbEntity
  8
_U+30EC_U+30A4_U+30E4_U+30FC 1
 62
   179
420
  2234388
370
     9
100
AcDb2dPolyline
 66
     1
 10
0.0
 20
0.0
 30
0.0
  0
VERTEX
  5
C2
330
C1
100
AcDbEntity
  8
_U+30EC_U+30A4_U+30E4_U+30FC 1
 62
   179
420
  2234388
370
     9
100
AcDbVertex
100
AcDb2dVertex
 10
76.50384554822429
 20
-143.0221082975776
 30
0.0
  0
VERTEX
  5
C3
330
C1
100
AcDbEntity
  8
_U+30EC_U+30A4_U+30E4_U+30FC 1
 62
   179
420
  2234388
370
     9
100
AcDbVertex
100
AcDb2dVertex
 10
76.50384554822429
 20
-145.4818866302963
 30
0.0
  0
SEQEND
  5
C4
330
C1
100
AcDbEntity
  8
_U+30EC_U+30A4_U+30E4_U+30FC 1
 62
   179
420
  2234388
370
     9
  0
POLYLINE
  5
C5
330
1F
100
AcDbEntity
  8
_U+30EC_U+30A4_U+30E4_U+30FC 1
 62
   179
420
  2234388
370
     9
100
AcDb2dPolyline
 66
     1
 10
0.0
 20
0.0
 30
0.0
  0
VERTEX
  5
C6
330
C5
100
AcDbEntity
  8
_U+30EC_U+30A4_U+30E4_U+30FC 1
 62
   179
420
  2234388
370
     9
100
AcDbVertex
100
AcDb2dVertex
 10
71.37064679029422
 20
-143.0221082975776
 30
0.0
  0
VERTEX
  5
C7
330
C5
100
AcDbEntity
  8
_U+30EC_U+30A4_U+30E4_U+30FC 1
 62
   179
420
  2234388
370
     9
100
AcDbVertex
100
AcDb2dVertex
 10
71.37064679029422
 20
-145.4818866302963
 30
0.0
  0
SEQEND
  5
C8
330
C5
100
AcDbEntity
  8
_U+30EC_U+30A4_U+30E4_U+30FC 1
 62
   179
420
  2234388
370
     9
  0
POLYLINE
  5
C9
330
1F
100
AcDbEntity
  8
_U+30EC_U+30A4_U+30E4_U+30FC 1
 62
   179
420
  2234388
370
     9
100
AcDb2dPolyline
 66
     1
 10
0.0
 20
0.0
 30
0.0
  0
VERTEX
  5
CA
330
C9
100
AcDbEntity
  8
_U+30EC_U+30A4_U+30E4_U+30FC 1
 62
   179
420
  2234388
370
     9
100
AcDbVertex
100
AcDb2dVertex
 10
71.37064679029422
 20
-115.4816644155739
 30
0.0
  0
VERTEX
  5
CB
330
C9
100
AcDbEntity
  8
_U+30EC_U+30A4_U+30E4_U+30FC 1
 62
   179
420
  2234388
370
     9
100
AcDbVertex
100
AcDb2dVertex
 10
111.370636325365
 20
-115.4816644155739
 30
0.0
  0
SEQEND
  5
CC
330
C9
100
AcDbEntity
  8
_U+30EC_U+30A4_U+30E4_U+30FC 1
 62
   179
420
  2234388
370
     9
  0
POLYLINE
  5
CD
330
1F
100
AcDbEntity
  8
_U+30EC_U+30A4_U+30E4_U+30FC 1
 62
   179
420
  2234388
370
     9
100
AcDb2dPolyline
 66
     1
 10
0.0
 20
0.0
 30
0.0
  0
VERTEX
  5
CE
330
CD
100
AcDbEntity
  8
_U+30EC_U+30A4_U+30E4_U+30FC 1
 62
   179
420
  2234388
370
     9
100
AcDbVertex
100
AcDb2dVertex
 10
71.37064679029422
 20
-116.9417058040979
 30
0.0
  0
VERTEX
  5
CF
330
CD
100
AcDbEntity
  8
_U+30EC_U+30A4_U+30E4_U+30FC 1
 62
   179
420
  2234388
370
     9
100
AcDbVertex
100
AcDb2dVertex
 10
71.37064679029422
 20
-114.4812219158243
 30
0.0
  0
SEQEND
  5
D0
330
CD
100
AcDbEntity
  8
_U+30EC_U+30A4_U+30E4_U+30FC 1
 62
   179
420
  2234388
370
     9
  0
POLYLINE
  5
D1
330
1F
100
AcDbEntity
  8
_U+30EC_U+30A4_U+30E4_U+30FC 1
 62
   179
420
  2234388
370
     9
100
AcDb2dPolyline
 66
     1
 10
0.0
 20
0.0
 30
0.0
  0
VERTEX
  5
D2
330
D1
100
AcDbEntity
  8
_U+30EC_U+30A4_U+30E4_U+30FC 1
 62
   179
420
  2234388
370
     9
100
AcDbVertex
100
AcDb2dVertex
 10
111.370636325365
 20
-123.9421221912368
 30
0.0
  0
VERTEX
  5
D3
330
D1
100
AcDbEntity
  8
_U+30EC_U+30A4_U+30E4_U+30FC 1
 62
   179
420
  2234388
370
     9
100
AcDbVertex
100
AcDb2dVertex
 10
111.370636325365
 20
-114.4812219158243
 30
0.0
  0
SEQEND
  5
D4
330
D1
100
AcDbEntity
  8
_U+30EC_U+30A4_U+30E4_U+30FC 1
 62
   179
420
  2234388
370
     9
  0
POLYLINE
  5
D5
330
1F
100
AcDbEntity
  8
_U+30EC_U+30A4_U+30E4_U+30FC 1
 62
   179
420
  2234388
370
     9
100
AcDb2dPolyline
 66
     1
 10
0.0
 20
0.0
 30
0.0
  0
VERTEX
  5
D6
330
D5
100
AcDbEntity
  8
_U+30EC_U+30A4_U+30E4_U+30FC 1
 62
   179
420
  2234388
370
     9
100
AcDbVertex
100
AcDb2dVertex
 10
74.44436421187716
 20
-113.2037783050324
 30
0.0
  0
VERTEX
  5
D7
330
D5
100
AcDbEntity
  8
_U+30EC_U+30A4_U+30E4_U+30FC 1
 62
   179
420
  2234388
370
     9
100
AcDbVertex
100
AcDb2dVertex
 10
74.44436421187716
 20
-111.7926671942741
 30
0.0
  0
SEQEND
  5
D8
330
D5
100
AcDbEntity
  8
_U+30EC_U+30A4_U+30E4_U+30FC 1
 62
   179
420
  2234388
370
     9
  0
POLYLINE
  5
D9
330
1F
100
AcDbEntity
  8
_U+30EC_U+30A4_U+30E4_U+30FC 1
 62
   179
420
  2234388
370
     9
100
AcDb2dPolyline
 66
     1
 10
0.0
 20
0.0
 30
0.0
  0
VERTEX
  5
DA
330
D9
100
AcDbEntity
  8
_U+30EC_U+30A4_U+30E4_U+30FC 1
 62
   179
420
  2234388
370
     9
100
AcDbVertex
100
AcDb2dVertex
 10
71.44575317726698
 20
-113.2037783050324
 30
0.0
  0
VERTEX
  5
DB
330
D9
100
AcDbEntity
  8
_U+30EC_U+30A4_U+30E4_U+30FC 1
 62
   179
420
  2234388
370
     9
100
AcDbVertex
100
AcDb2dVertex
 10
71.44575317726698
 20
-111.7926671942741
 30
0.0
  0
SEQEND
  5
DC
330
D9
100
AcDbEntity
  8
_U+30EC_U+30A4_U+30E4_U+30FC 1
 62
   179
420
  2234388
370
     9
  0
POLYLINE
  5
DD
330
1F
100
AcDbEntity
  8
_U+30EC_U+30A4_U+30E4_U+30FC 1
 62
   179
420
  2234388
370
     9
100
AcDb2dPolyline
 66
     1
 10
0.0
 20
0.0
 30
0.0
  0
VERTEX
  5
DE
330
DD
100
AcDbEntity
  8
_U+30EC_U+30A4_U+30E4_U+30FC 1
 62
   179
420
  2234388
370
     9
100
AcDbVertex
100
AcDb2dVertex
 10
70.03464210215631
 20
-112.4982227496533
 30
0.0
  0
VERTEX
  5
DF
330
DD
100
AcDbEntity
  8
_U+30EC_U+30A4_U+30E4_U+30FC 1
 62
   179
420
  2234388
370
     9
100
AcDbVertex
100
AcDb2dVertex
 10
75.57505223858645
 20
-112.4982227496533
 30
0.0
  0
SEQEND
  5
E0
330
DD
100
AcDbEntity
  8
_U+30EC_U+30A4_U+30E4_U+30FC 1
 62
   179
420
  2234388
370
     9
  0
INSERT
  5
E2
330
1F
100
AcDbEntity
  8
_U+30EC_U+30A4_U+30E4_U+30FC 1
100
AcDbBlockReference
  2
block 2
 10
0.0
 20
0.0
 30
0.0
  0
INSERT
  5
E8
330
1F
100
AcDbEntity
  8
_U+30EC_U+30A4_U+30E4_U+30FC 1
100
AcDbBlockReference
  2
block 3
 10
0.0
 20
0.0
 30
0.0
  0
INSERT
  5
EE
330
1F
100
AcDbEntity
  8
_U+30EC_U+30A4_U+30E4_U+30FC 1
100
AcDbBlockReference
  2
block 4
 10
0.0
 20
0.0
 30
0.0
  0
INSERT
  5
F7
330
1F
100
AcDbEntity
  8
_U+30EC_U+30A4_U+30E4_U+30FC 1
100
AcDbBlockReference
  2
block 5
 10
0.0
 20
0.0
 30
0.0
  0
INSERT
  5
FD
330
1F
100
AcDbEntity
  8
_U+30EC_U+30A4_U+30E4_U+30FC 1
100
AcDbBlockReference
  2
block 6
 10
0.0
 20
0.0
 30
0.0
  0
INSERT
  5
105
330
1F
100
AcDbEntity
  8
_U+30EC_U+30A4_U+30E4_U+30FC 1
100
AcDbBlockReference
  2
block 7
 10
0.0
 20
0.0
 30
0.0
  0
INSERT
  5
10B
330
1F
100
AcDbEntity
  8
_U+30EC_U+30A4_U+30E4_U+30FC 1
100
AcDbBlockReference
  2
block 8
 10
0.0
 20
0.0
 30
0.0
  0
ENDSEC
  0
SECTION
  2
OBJECTS
  0
DICTIONARY
  5
C
330
0
100
AcDbDictionary
281
     1
  3
ACAD_GROUP
350
D
  3
ACAD_LAYOUT
350
1A
  3
ACAD_MATERIAL
350
3B
  3
ACAD_MLEADERSTYLE
350
127
  3
ACAD_MLINESTYLE
350
17
  3
ACAD_PLOTSETTINGS
350
19
  3
ACAD_PLOTSTYLENAME
350
E
  3
ACAD_TABLESTYLE
350
126
  3
ACAD_VISUALSTYLE
350
2A
  0
SUN
  5
3F
330
29
100
AcDbSun
 90
        1
290
     0
 63
     7
421
 16777215
 40
1.0
291
     1
 91
  2455826
 92
 54000000
292
     0
 70
     2
 71
   256
280
     1
  0
DICTIONARY
  5
D
102
{ACAD_REACTORS
330
C
102
}
330
C
100
AcDbDictionary
281
     1
  0
DICTIONARY
  5
1A
102
{ACAD_REACTORS
330
C
102
}
330
C
100
AcDbDictionary
281
     1
  3
Layout1
350
1E
  3
Layout2
350
26
  3
Model
350
22
  0
DICTIONARY
  5
3B
102
{ACAD_REACTORS
330
C
102
}
330
C
100
AcDbDictionary
281
     1
  3
ByBlock
350
3D
  3
ByLayer
350
3C
  3
Global
350
3E
  0
DICTIONARY
  5
127
102
{ACAD_REACTORS
330
C
102
}
330
C
100
AcDbDictionary
281
     1
  0
DICTIONARY
  5
17
102
{ACAD_REACTORS
330
C
102
}
330
C
100
AcDbDictionary
281
     1
  3
Standard
350
18
  0
DICTIONARY
  5
19
102
{ACAD_REACTORS
330
C
102
}
330
C
100
AcDbDictionary
281
     1
  0
ACDBDICTIONARYWDFLT
  5
E
102
{ACAD_REACTORS
330
C
102
}
330
C
100
AcDbDictionary
281
     1
  3
Normal
350
F
100
AcDbDictionaryWithDefault
340
F
  0
DICTIONARY
  5
126
102
{ACAD_REACTORS
330
C
102
}
330
C
100
AcDbDictionary
281
     1
  0
DICTIONARY
  5
2A
102
{ACAD_REACTORS
330
C
102
}
330
C
100
AcDbDictionary
281
     1
  3
2dWireframe
350
2F
  3
3D Hidden
350
31
  3
3dWireframe
350
30
  3
Basic
350
32
  3
Brighten
350
36
  3
ColorChange
350
3A
  3
Conceptual
350
34
  3
Dim
350
35
  3
Facepattern
350
39
  3
Flat
350
2B
  3
FlatWithEdges
350
2C
  3
Gouraud
350
2D
  3
GouraudWithEdges
350
2E
  3
Linepattern
350
38
  3
Realistic
350
33
  3
Thicken
350
37
  0
LAYOUT
  5
1E
102
{ACAD_REACTORS
330
1A
102
}
330
1A
100
AcDbPlotSettings
  1

  2
none_device
  4

  6

 40
0.0
 41
0.0
 42
0.0
 43
0.0
 44
0.0
 45
0.0
 46
0.0
 47
0.0
 48
0.0
 49
0.0
140
0.0
141
0.0
142
1.0
143
1.0
 70
   688
 72
     0
 73
     0
 74
     5
  7

 75
    16
 76
     0
 77
     2
 78
   300
147
1.0
148
0.0
149
0.0
100
AcDbLayout
  1
Layout1
 70
     1
 71
     1
 10
0.0
 20
0.0
 11
12.0
 21
9.0
 12
0.0
 22
0.0
 32
0.0
 14
1.000000000000000E+20
 24
1.000000000000000E+20
 34
1.000000000000000E+20
 15
-1.000000000000000E+20
 25
-1.000000000000000E+20
 35
-1.000000000000000E+20
146
0.0
 13
0.0
 23
0.0
 33
0.0
 16
1.0
 26
0.0
 36
0.0
 17
0.0
 27
1.0
 37
0.0
 76
     0
330
1B
  0
LAYOUT
  5
26
102
{ACAD_REACTORS
330
1A
102
}
330
1A
100
AcDbPlotSettings
  1

  2
none_device
  4

  6

 40
0.0
 41
0.0
 42
0.0
 43
0.0
 44
0.0
 45
0.0
 46
0.0
 47
0.0
 48
0.0
 49
0.0
140
0.0
141
0.0
142
1.0
143
1.0
 70
   688
 72
     0
 73
     0
 74
     5
  7

 75
    16
 76
     0
 77
     2
 78
   300
147
1.0
148
0.0
149
0.0
100
AcDbLayout
  1
Layout2
 70
     1
 71
     2
 10
0.0
 20
0.0
 11
0.0
 21
0.0
 12
0.0
 22
0.0
 32
0.0
 14
0.0
 24
0.0
 34
0.0
 15
0.0
 25
0.0
 35
0.0
146
0.0
 13
0.0
 23
0.0
 33
0.0
 16
1.0
 26
0.0
 36
0.0
 17
0.0
 27
1.0
 37
0.0
 76
     0
330
23
  0
LAYOUT
  5
22
102
{ACAD_REACTORS
330
1A
102
}
330
1A
100
AcDbPlotSettings
  1

  2
none_device
  4

  6

 40
0.0
 41
0.0
 42
0.0
 43
0.0
 44
0.0
 45
0.0
 46
0.0
 47
0.0
 48
0.0
 49
0.0
140
0.0
141
0.0
142
1.0
143
1.0
 70
  1712
 72
     0
 73
     0
 74
     0
  7

 75
     0
 76
     0
 77
     2
 78
   300
147
1.0
148
0.0
149
0.0
100
AcDbLayout
  1
Model
 70
     1
 71
     0
 10
0.0
 20
0.0
 11
12.0
 21
9.0
 12
0.0
 22
0.0
 32
0.0
 14
1.000000000000000E+20
 24
1.000000000000000E+20
 34
1.000000000000000E+20
 15
-1.000000000000000E+20
 25
-1.000000000000000E+20
 35
-1.000000000000000E+20
146
0.0
 13
0.0
 23
0.0
 33
0.0
 16
1.0
 26
0.0
 36
0.0
 17
0.0
 27
1.0
 37
0.0
 76
     0
330
1F
331
29
  0
MATERIAL
  5
3D
102
{ACAD_REACTORS
330
3B
102
}
330
3B
100
AcDbMaterial
  1
ByBlock
 72
     1
 94
      127
  0
MATERIAL
  5
3C
102
{ACAD_REACTORS
330
3B
102
}
330
3B
100
AcDbMaterial
  1
ByLayer
 72
     1
 94
      127
  0
MATERIAL
  5
3E
102
{ACAD_REACTORS
330
3B
102
}
330
3B
100
AcDbMaterial
  1
Global
 72
     1
 94
      127
  0
MLINESTYLE
  5
18
102
{ACAD_REACTORS
330
17
102
}
330
17
100
AcDbMlineStyle
  2
Standard
 70
     0
  3

 62
   256
 51
90.0
 52
90.0
 71
     2
 49
0.5
 62
   256
  6
BYLAYER
 49
-0.5
 62
   256
  6
BYLAYER
  0
ACDBPLACEHOLDER
  5
F
102
{ACAD_REACTORS
330
E
102
}
330
E
  0
VISUALSTYLE
  5
2F
102
{ACAD_REACTORS
330
2A
102
}
330
2A
100
AcDbVisualStyle
  2
2dWireframe
 70
     4
177
     2
291
     0
 71
     0
176
     1
 72
     2
176
     1
 73
     0
176
     1
 90
        0
176
     1
 40
-0.6
176
     1
 41
-30.0
176
     1
 62
     5
 63
     7
421
 16777215
176
     1
 74
     1
176
     1
 91
        4
176
     1
 64
     7
176
     1
 65
   257
176
     1
 75
     1
176
     1
175
     1
176
     1
 42
1.0
176
     1
 92
        0
176
     1
 66
   257
176
     1
 43
1.0
176
     1
 76
     1
176
     1
 77
     6
176
     1
 78
     2
176
     1
 67
     7
176
     1
 79
     5
176
     1
170
     0
176
     1
171
     0
176
     1
290
     0
176
     1
 93
        1
176
     1
 44
0.0
176
     1
173
     0
176
     1
  0
VISUALSTYLE
  5
31
102
{ACAD_REACTORS
330
2A
102
}
330
2A
100
AcDbVisualStyle
  2
3D Hidden
 70
     6
177
     2
291
     0
 71
     1
176
     1
 72
     2
176
     1
 73
     2
176
     1
 90
        0
176
     1
 40
-0.6
176
     1
 41
-30.0
176
     1
 62
     5
 63
     7
421
 16777215
176
     1
 74
     2
176
     1
 91
        2
176
     1
 64
     7
176
     1
 65
   257
176
     1
 75
     2
176
     1
175
     1
176
     1
 42
40.0
176
     1
 92
        0
176
     1
 66
   257
176
     1
 43
1.0
176
     1
 76
     1
176
     1
 77
     6
176
     1
 78
     2
176
     1
 67
     7
176
     1
 79
     3
176
     1
170
     0
176
     1
171
     0
176
     1
290
     0
176
     1
 93
        1
176
     1
 44
0.0
176
     1
173
     0
176
     1
  0
VISUALSTYLE
  5
30
102
{ACAD_REACTORS
330
2A
102
}
330
2A
100
AcDbVisualStyle
  2
3dWireframe
 70
     5
177
     2
291
     0
 71
     0
176
     1
 72
     2
176
     1
 73
     0
176
     1
 90
        0
176
     1
 40
-0.6
176
     1
 41
-30.0
176
     1
 62
     5
 63
     7
421
 16777215
176
     1
 74
     1
176
     1
 91
        4
176
     1
 64
     7
176
     1
 65
   257
176
     1
 75
     1
176
     1
175
     1
176
     1
 42
1.0
176
     1
 92
        0
176
     1
 66
   257
176
     1
 43
1.0
176
     1
 76
     1
176
     1
 77
     6
176
     1
 78
     2
176
     1
 67
     7
176
     1
 79
     5
176
     1
170
     0
176
     1
171
     0
176
     1
290
     0
176
     1
 93
        1
176
     1
 44
0.0
176
     1
173
     0
176
     1
  0
VISUALSTYLE
  5
32
102
{ACAD_REACTORS
330
2A
102
}
330
2A
100
AcDbVisualStyle
  2
Basic
 70
     7
177
     2
291
     1
 71
     1
176
     1
 72
     0
176
     1
 73
     1
176
     1
 90
        0
176
     1
 40
-0.6
176
     1
 41
-30.0
176
     1
 62
     5
 63
     7
421
 16777215
176
     1
 74
     0
176
     1
 91
        4
176
     1
 64
     7
176
     1
 65
   257
176
     1
 75
     1
176
     1
175
     1
176
     1
 42
1.0
176
     1
 92
        8
176
     1
 66
     7
176
     1
 43
1.0
176
     1
 76
     1
176
     1
 77
     6
176
     1
 78
     2
176
     1
 67
     7
176
     1
 79
     5
176
     1
170
     0
176
     1
171
     0
176
     1
290
     0
176
     1
 93
        1
176
     1
 44
0.0
176
     1
173
     0
176
     1
  0
VISUALSTYLE
  5
36
102
{ACAD_REACTORS
330
2A
102
}
330
2A
100
AcDbVisualStyle
  2
Brighten
 70
    12
177
     2
291
     1
 71
     2
176
     1
 72
     2
176
     1
 73
     0
176
     1
 90
        0
176
     1
 40
-0.6
176
     1
 41
-30.0
176
     1
 62
     5
 63
     7
421
 16777215
176
     1
 74
     1
176
     1
 91
        4
176
     1
 64
     7
176
     1
 65
   257
176
     1
 75
     1
176
     1
175
     1
176
     1
 42
1.0
176
     1
 92
        8
176
     1
 66
     7
176
     1
 43
1.0
176
     1
 76
     1
176
     1
 77
     6
176
     1
 78
     2
176
     1
 67
     7
176
     1
 79
     5
176
     1
170
     0
176
     1
171
     0
176
     1
290
     0
176
     1
 93
        1
176
     1
 44
50.0
176
     1
173
     0
176
     1
  0
VISUALSTYLE
  5
3A
102
{ACAD_REACTORS
330
2A
102
}
330
2A
100
AcDbVisualStyle
  2
ColorChange
 70
    16
177
     2
291
     1
 71
     2
176
     1
 72
     2
176
     1
 73
     3
176
     1
 90
        0
176
     1
 40
-0.6
176
     1
 41
-30.0
176
     1
 62
     5
 63
     8
421
  8421504
176
     1
 74
     1
176
     1
 91
        4
176
     1
 64
     7
176
     1
 65
   257
176
     1
 75
     1
176
     1
175
     1
176
     1
 42
1.0
176
     1
 92
        8
176
     1
 66
     8
424
  8421504
176
     1
 43
1.0
176
     1
 76
     1
176
     1
 77
     6
176
     1
 78
     2
176
     1
 67
     7
176
     1
 79
     5
176
     1
170
     0
176
     1
171
     0
176
     1
290
     0
176
     1
 93
        1
176
     1
 44
0.0
176
     1
173
     0
176
     1
  0
VISUALSTYLE
  5
34
102
{ACAD_REACTORS
330
2A
102
}
330
2A
100
AcDbVisualStyle
  2
Conceptual
 70
     9
177
     2
291
     0
 71
     3
176
     1
 72
     2
176
     1
 73
     0
176
     1
 90
        0
176
     1
 40
-0.6
176
     1
 41
-30.0
176
     1
 62
     5
 63
     7
421
 16777215
176
     1
 74
     2
176
     1
 91
        2
176
     1
 64
     7
176
     1
 65
   257
176
     1
 75
     1
176
     1
175
     1
176
     1
 42
40.0
176
     1
 92
        8
176
     1
 66
     7
176
     1
 43
1.0
176
     1
 76
     1
176
     1
 77
     6
176
     1
 78
     2
176
     1
 67
     7
176
     1
 79
     3
176
     1
170
     0
176
     1
171
     0
176
     1
290
     0
176
     1
 93
        1
176
     1
 44
0.0
176
     1
173
     0
176
     1
  0
VISUALSTYLE
  5
35
102
{ACAD_REACTORS
330
2A
102
}
330
2A
100
AcDbVisualStyle
  2
Dim
 70
    11
177
     2
291
     1
 71
     2
176
     1
 72
     2
176
     1
 73
     0
176
     1
 90
        0
176
     1
 40
-0.6
176
     1
 41
-30.0
176
     1
 62
     5
 63
     7
421
 16777215
176
     1
 74
     1
176
     1
 91
        4
176
     1
 64
     7
176
     1
 65
   257
176
     1
 75
     1
176
     1
175
     1
176
     1
 42
1.0
176
     1
 92
        8
176
     1
 66
     7
176
     1
 43
1.0
176
     1
 76
     1
176
     1
 77
     6
176
     1
 78
     2
176
     1
 67
     7
176
     1
 79
     5
176
     1
170
     0
176
     1
171
     0
176
     1
290
     0
176
     1
 93
        1
176
     1
 44
-50.0
176
     1
173
     0
176
     1
  0
VISUALSTYLE
  5
39
102
{ACAD_REACTORS
330
2A
102
}
330
2A
100
AcDbVisualStyle
  2
Facepattern
 70
    15
177
     2
291
     1
 71
     2
176
     1
 72
     2
176
     1
 73
     0
176
     1
 90
        0
176
     1
 40
-0.6
176
     1
 41
-30.0
176
     1
 62
     5
 63
     7
421
 16777215
176
     1
 74
     1
176
     1
 91
        4
176
     1
 64
     7
176
     1
 65
   257
176
     1
 75
     1
176
     1
175
     1
176
     1
 42
1.0
176
     1
 92
        8
176
     1
 66
     7
176
     1
 43
1.0
176
     1
 76
     1
176
     1
 77
     6
176
     1
 78
     2
176
     1
 67
     7
176
     1
 79
     5
176
     1
170
     0
176
     1
171
     0
176
     1
290
     0
176
     1
 93
        1
176
     1
 44
0.0
176
     1
173
     0
176
     1
  0
VISUALSTYLE
  5
2B
102
{ACAD_REACTORS
330
2A
102
}
330
2A
100
AcDbVisualStyle
  2
Flat
 70
     0
177
     2
291
     1
 71
     2
176
     1
 72
     1
176
     1
 73
     1
176
     1
 90
        2
176
     1
 40
-0.6
176
     1
 41
30.0
176
     1
 62
     5
 63
     7
421
 16777215
176
     1
 74
     0
176
     1
 91
        4
176
     1
 64
     7
176
     1
 65
   257
176
     1
 75
     1
176
     1
175
     1
176
     1
 42
1.0
176
     1
 92
        8
176
     1
 66
     7
176
     1
 43
1.0
176
     1
 76
     1
176
     1
 77
     6
176
     1
 78
     2
176
     1
 67
     7
176
     1
 79
     5
176
     1
170
     0
176
     1
171
     0
176
     1
290
     0
176
     1
 93
       13
176
     1
 44
0.0
176
     1
173
     0
176
     1
  0
VISUALSTYLE
  5
2C
102
{ACAD_REACTORS
330
2A
102
}
330
2A
100
AcDbVisualStyle
  2
FlatWithEdges
 70
     1
177
     2
291
     1
 71
     2
176
     1
 72
     1
176
     1
 73
     1
176
     1
 90
        2
176
     1
 40
-0.6
176
     1
 41
30.0
176
     1
 62
     5
 63
     7
421
 16777215
176
     1
 74
     1
176
     1
 91
        4
176
     1
 64
     7
176
     1
 65
   257
176
     1
 75
     1
176
     1
175
     1
176
     1
 42
1.0
176
     1
 92
        0
176
     1
 66
   257
176
     1
 43
1.0
176
     1
 76
     1
176
     1
 77
     6
176
     1
 78
     2
176
     1
 67
     7
176
     1
 79
     5
176
     1
170
     0
176
     1
171
     0
176
     1
290
     0
176
     1
 93
       13
176
     1
 44
0.0
176
     1
173
     0
176
     1
  0
VISUALSTYLE
  5
2D
102
{ACAD_REACTORS
330
2A
102
}
330
2A
100
AcDbVisualStyle
  2
Gouraud
 70
     2
177
     2
291
     1
 71
     2
176
     1
 72
     2
176
     1
 73
     1
176
     1
 90
        2
176
     1
 40
-0.6
176
     1
 41
30.0
176
     1
 62
     5
 63
     7
421
 16777215
176
     1
 74
     0
176
     1
 91
        4
176
     1
 64
     7
176
     1
 65
   257
176
     1
 75
     1
176
     1
175
     1
176
     1
 42
1.0
176
     1
 92
        0
176
     1
 66
     7
176
     1
 43
1.0
176
     1
 76
     1
176
     1
 77
     6
176
     1
 78
     2
176
     1
 67
     7
176
     1
 79
     5
176
     1
170
     0
176
     1
171
     0
176
     1
290
     0
176
     1
 93
       13
176
     1
 44
0.0
176
     1
173
     0
176
     1
  0
VISUALSTYLE
  5
2E
102
{ACAD_REACTORS
330
2A
102
}
330
2A
100
AcDbVisualStyle
  2
GouraudWithEdges
 70
     3
177
     2
291
     1
 71
     2
176
     1
 72
     2
176
     1
 73
     1
176
     1
 90
        2
176
     1
 40
-0.6
176
     1
 41
30.0
176
     1
 62
     5
 63
     7
421
 16777215
176
     1
 74
     1
176
     1
 91
        4
176
     1
 64
     7
176
     1
 65
   257
176
     1
 75
     1
176
     1
175
     1
176
     1
 42
1.0
176
     1
 92
        0
176
     1
 66
   257
176
     1
 43
1.0
176
     1
 76
     1
176
     1
 77
     6
176
     1
 78
     2
176
     1
 67
     7
176
     1
 79
     5
176
     1
170
     0
176
     1
171
     0
176
     1
290
     0
176
     1
 93
       13
176
     1
 44
0.0
176
     1
173
     0
176
     1
  0
VISUALSTYLE
  5
38
102
{ACAD_REACTORS
330
2A
102
}
330
2A
100
AcDbVisualStyle
  2
Linepattern
 70
    14
177
     2
291
     1
 71
     2
176
     1
 72
     2
176
     1
 73
     0
176
     1
 90
        0
176
     1
 40
-0.6
176
     1
 41
-30.0
176
     1
 62
     5
 63
     7
421
 16777215
176
     1
 74
     1
176
     1
 91
        4
176
     1
 64
     7
176
     1
 65
   257
176
     1
 75
     7
176
     1
175
     7
176
     1
 42
1.0
176
     1
 92
        8
176
     1
 66
     7
176
     1
 43
1.0
176
     1
 76
     1
176
     1
 77
     6
176
     1
 78
     2
176
     1
 67
     7
176
     1
 79
     5
176
     1
170
     0
176
     1
171
     0
176
     1
290
     0
176
     1
 93
        1
176
     1
 44
0.0
176
     1
173
     0
176
     1
  0
VISUALSTYLE
  5
33
102
{ACAD_REACTORS
330
2A
102
}
330
2A
100
AcDbVisualStyle
  2
Realistic
 70
     8
177
     2
291
     0
 71
     2
176
     1
 72
     2
176
     1
 73
     0
176
     1
 90
        0
176
     1
 40
-0.6
176
     1
 41
-30.0
176
     1
 62
     5
 63
     7
421
 16777215
176
     1
 74
     1
176
     1
 91
        0
176
     1
 64
     7
176
     1
 65
   257
176
     1
 75
     1
176
     1
175
     1
176
     1
 42
1.0
176
     1
 92
        8
176
     1
 66
     8
424
  7895160
176
     1
 43
1.0
176
     1
 76
     1
176
     1
 77
     6
176
     1
 78
     2
176
     1
 67
     7
176
     1
 79
     5
176
     1
170
     0
176
     1
171
     0
176
     1
290
     0
176
     1
 93
       13
176
     1
 44
0.0
176
     1
173
     0
176
     1
  0
VISUALSTYLE
  5
37
102
{ACAD_REACTORS
330
2A
102
}
330
2A
100
AcDbVisualStyle
  2
Thicken
 70
    13
177
     2
291
     1
 71
     2
176
     1
 72
     2
176
     1
 73
     0
176
     1
 90
        0
176
     1
 40
-0.6
176
     1
 41
-30.0
176
     1
 62
     5
 63
     7
421
 16777215
176
     1
 74
     1
176
     1
 91
        4
176
     1
 64
     7
176
     1
 65
   257
176
     1
 75
     1
176
     1
175
     1
176
     1
 42
1.0
176
     1
 92
       12
176
     1
 66
     7
176
     1
 43
1.0
176
     1
 76
     1
176
     1
 77
     6
176
     1
 78
     2
176
     1
 67
     7
176
     1
 79
     5
176
     1
170
     0
176
     1
171
     0
176
     1
290
     0
176
     1
 93
        1
176
     1
 44
0.0
176
     1
173
     0
176
     1
  0
ENDSEC
  0
EOF
