  0
SECTION
  2
HEADER
  9
$ACADVER
  1
AC1024
  9
$ACADMAINTVER
 70
     6
  9
$DWGCODEPAGE
  3
UNDEFINED
  9
$INSBASE
 10
0.0
 20
0.0
 30
0.0
  9
$EXTMIN
 10
1.000000000000000E+20
 20
1.000000000000000E+20
 30
1.000000000000000E+20
  9
$EXTMAX
 10
-1.000000000000000E+20
 20
-1.000000000000000E+20
 30
-1.000000000000000E+20
  9
$LIMMIN
 10
0.0
 20
0.0
  9
$LIMMAX
 10
12.0
 20
9.0
  9
$ORTHOMODE
 70
     0
  9
$REGENMODE
 70
     1
  9
$FILLMODE
 70
     1
  9
$QTEXTMODE
 70
     0
  9
$MIRRTEXT
 70
     1
  9
$LTSCALE
 40
1.0
  9
$ATTMODE
 70
     1
  9
$TEXTSIZE
 40
0.2
  9
$TRACEWID
 40
0.05
  9
$TEXTSTYLE
  7
Standard
  9
$CLAYER
  8
0
  9
$CELTYPE
  6
ByLayer
  9
$CECOLOR
 62
   256
  9
$CELTSCALE
 40
1.0
  9
$DISPSILH
 70
     0
  9
$DIMSCALE
 40
1.0
  9
$DIMASZ
 40
0.18
  9
$DIMEXO
 40
0.0625
  9
$DIMDLI
 40
0.38
  9
$DIMRND
 40
0.0
  9
$DIMDLE
 40
0.0
  9
$DIMEXE
 40
0.18
  9
$DIMTP
 40
0.0
  9
$DIMTM
 40
0.0
  9
$DIMTXT
 40
0.18
  9
$DIMCEN
 40
0.09
  9
$DIMTSZ
 40
0.0
  9
$DIMTOL
 70
     0
  9
$DIMLIM
 70
     0
  9
$DIMTIH
 70
     1
  9
$DIMTOH
 70
     1
  9
$DIMSE1
 70
     0
  9
$DIMSE2
 70
     0
  9
$DIMTAD
 70
     0
  9
$DIMZIN
 70
     0
  9
$DIMBLK
  1

  9
$DIMASO
 70
     1
  9
$DIMSHO
 70
     1
  9
$DIMPOST
  1

  9
$DIMAPOST
  1

  9
$DIMALT
 70
     0
  9
$DIMALTD
 70
     2
  9
$DIMALTF
 40
25.4
  9
$DIMLFAC
 40
1.0
  9
$DIMTOFL
 70
     0
  9
$DIMTVP
 40
0.0
  9
$DIMTIX
 70
     0
  9
$DIMSOXD
 70
     0
  9
$DIMSAH
 70
     0
  9
$DIMBLK1
  1

  9
$DIMBLK2
  1

  9
$DIMSTYLE
  2
Standard
  9
$DIMCLRD
 70
     0
  9
$DIMCLRE
 70
     0
  9
$DIMCLRT
 70
     0
  9
$DIMTFAC
 40
1.0
  9
$DIMGAP
 40
0.09
  9
$DIMJUST
 70
     0
  9
$DIMSD1
 70
     0
  9
$DIMSD2
 70
     0
  9
$DIMTOLJ
 70
     1
  9
$DIMTZIN
 70
     0
  9
$DIMALTZ
 70
     0
  9
$DIMALTTZ
 70
     0
  9
$DIMUPT
 70
     0
  9
$DIMDEC
 70
     4
  9
$DIMTDEC
 70
     4
  9
$DIMALTU
 70
     2
  9
$DIMALTTD
 70
     2
  9
$DIMTXSTY
  7
Standard
  9
$DIMAUNIT
 70
     0
  9
$DIMADEC
 70
     0
  9
$DIMALTRND
 40
0.0
  9
$DIMAZIN
 70
     0
  9
$DIMDSEP
 70
    46
  9
$DIMATFIT
 70
     3
  9
$DIMFRAC
 70
     0
  9
$DIMLDRBLK
  1

  9
$DIMLUNIT
 70
     2
  9
$DIMLWD
 70
    -2
  9
$DIMLWE
 70
    -2
  9
$DIMTMOVE
 70
     0
  9
$DIMFXL
 40
1.0
  9
$DIMFXLON
 70
     0
  9
$DIMJOGANG
 40
0.7853981633974483
  9
$DIMTFILL
 70
     0
  9
$DIMTFILLCLR
 70
     0
  9
$DIMARCSYM
 70
     0
  9
$DIMLTYPE
  6

  9
$DIMLTEX1
  6

  9
$DIMLTEX2
  6

  9
$DIMTXTDIRECTION
 70
     0
  9
$LUNITS
 70
     2
  9
$LUPREC
 70
     4
  9
$SKETCHINC
 40
0.1
  9
$FILLETRAD
 40
0.5
  9
$AUNITS
 70
     0
  9
$AUPREC
 70
     0
  9
$MENU
  1
.
  9
$ELEVATION
 40
0.0
  9
$PELEVATION
 40
0.0
  9
$THICKNESS
 40
0.0
  9
$LIMCHECK
 70
     0
  9
$CHAMFERA
 40
0.5
  9
$CHAMFERB
 40
0.5
  9
$CHAMFERC
 40
1.0
  9
$CHAMFERD
 40
0.0
  9
$SKPOLY
 70
     0
  9
$TDCREATE
 40
2457917.591990741
  9
$TDUCREATE
 40
2457917.216990741
  9
$TDUPDATE
 40
2457917.591990741
  9
$TDUUPDATE
 40
2457917.216990741
  9
$TDINDWG
 40
0.0000000116
  9
$TDUSRTIMER
 40
0.0000000116
  9
$USRTIMER
 70
     1
  9
$ANGBASE
 50
0.0
  9
$ANGDIR
 70
     0
  9
$PDMODE
 70
     0
  9
$PDSIZE
 40
0.0
  9
$PLINEWID
 40
0.0
  9
$SPLFRAME
 70
     0
  9
$SPLINETYPE
 70
     6
  9
$SPLINESEGS
 70
     8
  9
$HANDSEED
  5
12E
  9
$SURFTAB1
 70
     6
  9
$SURFTAB2
 70
     6
  9
$SURFTYPE
 70
     6
  9
$SURFU
 70
     6
  9
$SURFV
 70
     6
  9
$UCSBASE
  2

  9
$UCSNAME
  2

  9
$UCSORG
 10
0.0
 20
0.0
 30
0.0
  9
$UCSXDIR
 10
1.0
 20
0.0
 30
0.0
  9
$UCSYDIR
 10
0.0
 20
1.0
 30
0.0
  9
$UCSORTHOREF
  2

  9
$UCSORTHOVIEW
 70
     0
  9
$UCSORGTOP
 10
0.0
 20
0.0
 30
0.0
  9
$UCSORGBOTTOM
 10
0.0
 20
0.0
 30
0.0
  9
$UCSORGLEFT
 10
0.0
 20
0.0
 30
0.0
  9
$UCSORGRIGHT
 10
0.0
 20
0.0
 30
0.0
  9
$UCSORGFRONT
 10
0.0
 20
0.0
 30
0.0
  9
$UCSORGBACK
 10
0.0
 20
0.0
 30
0.0
  9
$PUCSBASE
  2

  9
$PUCSNAME
  2

  9
$PUCSORG
 10
0.0
 20
0.0
 30
0.0
  9
$PUCSXDIR
 10
1.0
 20
0.0
 30
0.0
  9
$PUCSYDIR
 10
0.0
 20
1.0
 30
0.0
  9
$PUCSORTHOREF
  2

  9
$PUCSORTHOVIEW
 70
     0
  9
$PUCSORGTOP
 10
0.0
 20
0.0
 30
0.0
  9
$PUCSORGBOTTOM
 10
0.0
 20
0.0
 30
0.0
  9
$PUCSORGLEFT
 10
0.0
 20
0.0
 30
0.0
  9
$PUCSORGRIGHT
 10
0.0
 20
0.0
 30
0.0
  9
$PUCSORGFRONT
 10
0.0
 20
0.0
 30
0.0
  9
$PUCSORGBACK
 10
0.0
 20
0.0
 30
0.0
  9
$USERI1
 70
     0
  9
$USERI2
 70
     0
  9
$USERI3
 70
     0
  9
$USERI4
 70
     0
  9
$USERI5
 70
     0
  9
$USERR1
 40
0.0
  9
$USERR2
 40
0.0
  9
$USERR3
 40
0.0
  9
$USERR4
 40
0.0
  9
$USERR5
 40
0.0
  9
$WORLDVIEW
 70
     1
  9
$SHADEDGE
 70
     3
  9
$SHADEDIF
 70
    70
  9
$TILEMODE
 70
     1
  9
$MAXACTVP
 70
    64
  9
$PINSBASE
 10
0.0
 20
0.0
 30
0.0
  9
$PLIMCHECK
 70
     0
  9
$PEXTMIN
 10
1.000000000000000E+20
 20
1.000000000000000E+20
 30
1.000000000000000E+20
  9
$PEXTMAX
 10
-1.000000000000000E+20
 20
-1.000000000000000E+20
 30
-1.000000000000000E+20
  9
$PLIMMIN
 10
0.0
 20
0.0
  9
$PLIMMAX
 10
12.0
 20
9.0
  9
$UNITMODE
 70
     0
  9
$VISRETAIN
 70
     1
  9
$PLINEGEN
 70
     0
  9
$PSLTSCALE
 70
     1
  9
$TREEDEPTH
 70
  3020
  9
$CMLSTYLE
  2
Standard
  9
$CMLJUST
 70
     0
  9
$CMLSCALE
 40
1.0
  9
$PROXYGRAPHICS
 70
     1
  9
$MEASUREMENT
 70
     0
  9
$CELWEIGHT
370
    -1
  9
$ENDCAPS
280
     0
  9
$JOINSTYLE
280
     0
  9
$LWDISPLAY
290
     1
  9
$INSUNITS
 70
     1
  9
$HYPERLINKBASE
  1

  9
$STYLESHEET
  1

  9
$XEDIT
290
     1
  9
$CEPSNTYPE
380
     0
  9
$PSTYLEMODE
290
     1
  9
$FINGERPRINTGUID
  2
{6ADB508C-569C-DED3-C96B-61C8FB3F7AC4}
  9
$VERSIONGUID
  2
{FAEB1C32-E019-11D5-929B-00C0DF256EC4}
  9
$EXTNAMES
290
     1
  9
$PSVPSCALE
 40
0.0
  9
$OLESTARTUP
290
     0
  9
$SORTENTS
280
   127
  9
$INDEXCTL
280
     0
  9
$HIDETEXT
280
     1
  9
$XCLIPFRAME
280
     2
  9
$HALOGAP
280
     0
  9
$OBSCOLOR
 70
   257
  9
$OBSLTYPE
280
     0
  9
$INTERSECTIONDISPLAY
280
     0
  9
$INTERSECTIONCOLOR
 70
   257
  9
$DIMASSOC
280
     2
  9
$PROJECTNAME
  1

  9
$CAMERADISPLAY
290
     0
  9
$LENSLENGTH
 40
50.0
  9
$CAMERAHEIGHT
 40
0.0
  9
$STEPSPERSEC
 40
2.0
  9
$STEPSIZE
 40
6.0
  9
$3DDWFPREC
 40
2.0
  9
$PSOLWIDTH
 40
0.25
  9
$PSOLHEIGHT
 40
4.0
  9
$LOFTANG1
 40
1.570796326794897
  9
$LOFTANG2
 40
1.570796326794897
  9
$LOFTMAG1
 40
0.0
  9
$LOFTMAG2
 40
0.0
  9
$LOFTPARAM
 70
     7
  9
$LOFTNORMALS
280
     1
  9
$LATITUDE
 40
37.795
  9
$LONGITUDE
 40
-122.394
  9
$NORTHDIRECTION
 40
0.0
  9
$TIMEZONE
 70
 -8000
  9
$LIGHTGLYPHDISPLAY
280
     1
  9
$TILEMODELIGHTSYNCH
280
     1
  9
$CMATERIAL
347
3C
  9
$SOLIDHIST
280
     1
  9
$SHOWHIST
280
     1
  9
$DWFFRAME
280
     2
  9
$DGNFRAME
280
     2
  9
$REALWORLDSCALE
290
     1
  9
$INTERFERECOLOR
 62
   256
  9
$CSHADOW
280
     0
  9
$SHADOWPLANELOCATION
 40
0.0
  0
ENDSEC
  0
SECTION
  2
CLASSES
  0
CLASS
  1
ACDBDICTIONARYWDFLT
  2
AcDbDictionaryWithDefault
  3
ObjectDBX Classes
 90
        0
 91
        4
280
     0
281
     0
  0
CLASS
  1
VISUALSTYLE
  2
AcDbVisualStyle
  3
ObjectDBX Classes
 90
     4095
 91
        4
280
     0
281
     0
  0
CLASS
  1
MATERIAL
  2
AcDbMaterial
  3
ObjectDBX Classes
 90
     1153
 91
        4
280
     0
281
     0
  0
CLASS
  1
SUN
  2
AcDbSun
  3
SCENEOE
 90
     1024
 91
        4
280
     0
281
     0
  0
ENDSEC
  0
SECTION
  2
TABLES
  0
TABLE
  2
VPORT
  5
8
330
0
100
AcDbSymbolTable
 70
     1
  0
VPORT
  5
29
330
8
100
AcDbSymbolTableRecord
100
AcDbViewportTableRecord
  2
*Active
 70
     0
 10
0.0
 20
0.0
 11
1.0
 21
1.0
 12
0.0
 22
0.0
 13
0.0
 23
0.0
 14
0.5
 24
0.5
 15
0.5
 25
0.5
 16
0.0
 26
0.0
 36
1.0
 17
91.00082462281999
 27
-128.4993055234307
 37
0.0
 40
256.9986110468615
 41
0.7081814508812795
 42
50.0
 43
0.0
 44
0.0
 50
0.0
 51
0.0
 71
     0
 72
   100
 73
     1
 74
     3
 75
     0
 76
     0
 77
     0
 78
     0
281
     0
 65
     1
110
0.0
120
0.0
130
0.0
111
1.0
121
0.0
131
0.0
112
0.0
122
1.0
132
0.0
 79
     0
146
0.0
 60
     3
 61
     5
292
     1
282
     1
141
0.0
142
0.0
 63
   250
361
3F
  0
ENDTAB
  0
TABLE
  2
LTYPE
  5
5
330
0
100
AcDbSymbolTable
 70
     1
  0
LTYPE
  5
14
330
5
100
AcDbSymbolTableRecord
100
AcDbLinetypeTableRecord
  2
ByBlock
 70
     0
  3

 72
    65
 73
     0
 40
0.0
  0
LTYPE
  5
15
330
5
100
AcDbSymbolTableRecord
100
AcDbLinetypeTableRecord
  2
ByLayer
 70
     0
  3

 72
    65
 73
     0
 40
0.0
  0
LTYPE
  5
16
330
5
100
AcDbSymbolTableRecord
100
AcDbLinetypeTableRecord
  2
Continuous
 70
     0
  3
Solid line
 72
    65
 73
     0
 40
0.0
  0
ENDTAB
  0
TABLE
  2
LAYER
  5
2
330
0
100
AcDbSymbolTable
 70
     2
  0
LAYER
  5
10
330
2
100
AcDbSymbolTableRecord
100
AcDbLayerTableRecord
  2
0
 70
     0
 62
     7
  6
Continuous
370
    -3
390
F
347
3E
  0
LAYER
  5
40
330
2
100
AcDbSymbolTableRecord
100
AcDbLayerTableRecord
  2
_U+30EC_U+30A4_U+30E4_U+30FC 1
 70
     0
 62
     7
  6
Continuous
370
    -3
390
F
347
3E
  0
ENDTAB
  0
TABLE
  2
STYLE
  5
3
330
0
100
AcDbSymbolTable
 70
     1
  0
STYLE
  5
11
330
3
100
AcDbSymbolTableRecord
100
AcDbTextStyleTableRecord
  2
Standard
 70
     0
 40
0.0
 41
1.0
 50
0.0
 71
     0
 42
0.2
  3
txt
  4

  0
ENDTAB
  0
TABLE
  2
VIEW
  5
6
330
0
100
AcDbSymbolTable
 70
     0
  0
ENDTAB
  0
TABLE
  2
UCS
  5
7
330
0
100
AcDbSymbolTable
 70
     0
  0
ENDTAB
  0
TABLE
  2
APPID
  5
9
330
0
100
AcDbSymbolTable
 70
     1
  0
APPID
  5
12
330
9
100
AcDbSymbolTableRecord
100
AcDbRegAppTableRecord
  2
ACAD
 70
     0
  0
ENDTAB
  0
TABLE
  2
DIMSTYLE
  5
A
330
0
100
AcDbSymbolTable
 70
     1
100
AcDbDimStyleTable
  0
DIMSTYLE
105
27
330
A
100
AcDbSymbolTableRecord
100
AcDbDimStyleTableRecord
  2
Standard
 70
     0
178
     0
340
11
  0
ENDTAB
  0
TABLE
  2
BLOCK_RECORD
  5
1
330
0
100
AcDbSymbolTable
 70
     8
  0
BLOCK_RECORD
  5
1F
330
1
100
AcDbSymbolTableRecord
100
AcDbBlockTableRecord
  2
*Model_Space
340
22
 70
     0
280
     1
281
     0
  0
BLOCK_RECORD
  5
1B
330
1
100
AcDbSymbolTableRecord
100
AcDbBlockTableRecord
  2
*Paper_Space
340
1E
 70
     0
280
     1
281
     0
  0
BLOCK_RECORD
  5
23
330
1
100
AcDbSymbolTableRecord
100
AcDbBlockTableRecord
  2
*Paper_Space0
340
26
 70
     0
280
     1
281
     0
  0
BLOCK_RECORD
  5
DD
330
1
100
AcDbSymbolTableRecord
100
AcDbBlockTableRecord
  2
block 2
340
0
102
{BLKREFS
331
DE
102
}
 70
     0
280
     1
281
     0
  0
BLOCK_RECORD
  5
E3
330
1
100
AcDbSymbolTableRecord
100
AcDbBlockTableRecord
  2
block 3
340
0
102
{BLKREFS
331
E4
102
}
 70
     0
280
     1
281
     0
  0
BLOCK_RECORD
  5
E9
330
1
100
AcDbSymbolTableRecord
100
AcDbBlockTableRecord
  2
block 4
340
0
102
{BLKREFS
331
EA
102
}
 70
     0
280
     1
281
     0
  0
BLOCK_RECORD
  5
EF
330
1
100
AcDbSymbolTableRecord
100
AcDbBlockTableRecord
  2
block 5
340
0
102
{BLKREFS
331
F0
102
}
 70
     0
280
     1
281
     0
  0
BLOCK_RECORD
  5
10B
330
1
100
AcDbSymbolTableRecord
100
AcDbBlockTableRecord
  2
block 6
340
0
102
{BLKREFS
331
10C
102
}
 70
     0
280
     1
281
     0
  0
BLOCK_RECORD
  5
111
330
1
100
AcDbSymbolTableRecord
100
AcDbBlockTableRecord
  2
block 7
340
0
102
{BLKREFS
331
112
102
}
 70
     0
280
     1
281
     0
  0
BLOCK_RECORD
  5
122
330
1
100
AcDbSymbolTableRecord
100
AcDbBlockTableRecord
  2
block 8
340
0
102
{BLKREFS
331
123
102
}
 70
     0
280
     1
281
     0
  0
ENDTAB
  0
ENDSEC
  0
SECTION
  2
BLOCKS
  0
BLOCK
  5
20
330
1F
100
AcDbEntity
  8
0
100
AcDbBlockBegin
  2
*Model_Space
 70
     0
 10
0.0
 20
0.0
 30
0.0
  3
*Model_Space
  1

  0
ENDBLK
  5
21
330
1F
100
AcDbEntity
  8
0
100
AcDbBlockEnd
  0
BLOCK
  5
1C
330
1B
100
AcDbEntity
 67
     1
  8
0
100
AcDbBlockBegin
  2
*Paper_Space
 70
     0
 10
0.0
 20
0.0
 30
0.0
  3
*Paper_Space
  1

  0
ENDBLK
  5
1D
330
1B
100
AcDbEntity
 67
     1
  8
0
100
AcDbBlockEnd
  0
BLOCK
  5
24
330
23
100
AcDbEntity
  8
0
100
AcDbBlockBegin
  2
*Paper_Space0
 70
     0
 10
0.0
 20
0.0
 30
0.0
  3
*Paper_Space0
  1

  0
ENDBLK
  5
25
330
23
100
AcDbEntity
  8
0
100
AcDbBlockEnd
  0
BLOCK
  5
DF
330
DD
100
AcDbEntity
  8
0
100
AcDbBlockBegin
  2
block 2
 70
     0
 10
0.0
 20
0.0
 30
0.0
  3
block 2
  1

  0
SPLINE
  5
E1
330
DD
100
AcDbEntity
  8
_U+30EC_U+30A4_U+30E4_U+30FC 1
370
     0
100
AcDbSpline
210
0.0
220
0.0
230
1.0
 70
    11
 71
     3
 72
    26
 73
    22
 74
     0
 42
0.0000000001
 43
0.0000000001
 12
1.0
 22
0.0
 32
0.0
 13
1.0
 23
0.0
 33
0.0
 40
0.0
 40
0.0
 40
0.0
 40
0.0
 40
1.0
 40
1.0
 40
1.0
 40
2.0
 40
2.0
 40
2.0
 40
3.0
 40
3.0
 40
3.0
 40
4.0
 40
4.0
 40
4.0
 40
5.0
 40
5.0
 40
5.0
 40
6.0
 40
6.0
 40
6.0
 40
7.0
 40
7.0
 40
7.0
 40
7.0
 10
117.3210042024406
 20
-126.8137925572723
 30
0.0
 10
117.3210042024406
 20
-126.8137925572723
 30
0.0
 10
116.216851099418
 20
-126.8137925572723
 30
0.0
 10
116.216851099418
 20
-126.8137925572723
 30
0.0
 10
116.216851099418
 20
-126.8137925572723
 30
0.0
 10
116.216851099418
 20
-127.1665703349618
 30
0.0
 10
116.216851099418
 20
-127.1665703349618
 30
0.0
 10
116.216851099418
 20
-127.1665703349618
 30
0.0
 10
116.0687119935523
 20
-127.1665703349618
 30
0.0
 10
116.0687119935523
 20
-127.1665703349618
 30
0.0
 10
116.0538980829657
 20
-126.8115532452068
 30
0.0
 10
115.8909450665134
 20
-126.761771615445
 30
0.0
 10
115.7765678964031
 20
-126.7302489917549
 30
0.0
 10
115.7765678964031
 20
-126.7302489917549
 30
0.0
 10
115.7765678964031
 20
-126.5741861662731
 30
0.0
 10
115.7765678964031
 20
-126.5741861662731
 30
0.0
 10
115.7765678964031
 20
-126.5741861662731
 30
0.0
 10
117.3210042024406
 20
-126.5741861662731
 30
0.0
 10
117.3210042024406
 20
-126.5741861662731
 30
0.0
 10
117.3210042024406
 20
-126.5741861662731
 30
0.0
 10
117.3210042024406
 20
-126.8137925572723
 30
0.0
 10
117.3210042024406
 20
-126.8137925572723
 30
0.0
  0
HATCH
  5
E2
330
DD
100
AcDbEntity
  8
_U+30EC_U+30A4_U+30E4_U+30FC 1
 62
   179
420
  2234388
100
AcDbHatch
 10
0.0
 20
0.0
 30
0.0
210
0.0
220
0.0
230
1.0
  2
SOLID
 70
     1
 71
     0
 91
        1
 92
        1
 93
        1
 72
     4
 94
        3
 73
     0
 74
     1
 95
       26
 96
       22
 40
0.0
 40
0.0
 40
0.0
 40
0.0
 40
1.0
 40
1.0
 40
1.0
 40
2.0
 40
2.0
 40
2.0
 40
3.0
 40
3.0
 40
3.0
 40
4.0
 40
4.0
 40
4.0
 40
5.0
 40
5.0
 40
5.0
 40
6.0
 40
6.0
 40
6.0
 40
7.0
 40
7.0
 40
7.0
 40
7.0
 10
117.3210042024406
 20
-126.8137925572723
 10
117.3210042024406
 20
-126.8137925572723
 10
116.216851099418
 20
-126.8137925572723
 10
116.216851099418
 20
-126.8137925572723
 10
116.216851099418
 20
-126.8137925572723
 10
116.216851099418
 20
-127.1665703349618
 10
116.216851099418
 20
-127.1665703349618
 10
116.216851099418
 20
-127.1665703349618
 10
116.0687119935523
 20
-127.1665703349618
 10
116.0687119935523
 20
-127.1665703349618
 10
116.0538980829657
 20
-126.8115532452068
 10
115.8909450665134
 20
-126.761771615445
 10
115.7765678964031
 20
-126.7302489917549
 10
115.7765678964031
 20
-126.7302489917549
 10
115.7765678964031
 20
-126.5741861662731
 10
115.7765678964031
 20
-126.5741861662731
 10
115.7765678964031
 20
-126.5741861662731
 10
117.3210042024406
 20
-126.5741861662731
 10
117.3210042024406
 20
-126.5741861662731
 10
117.3210042024406
 20
-126.5741861662731
 10
117.3210042024406
 20
-126.8137925572723
 10
117.3210042024406
 20
-126.8137925572723
 97
        0
 97
        0
 75
     2
 76
     1
 98
        0
  0
ENDBLK
  5
E0
330
DD
100
AcDbEntity
  8
0
100
AcDbBlockEnd
  0
BLOCK
  5
E5
330
E3
100
AcDbEntity
  8
0
100
AcDbBlockBegin
  2
block 3
 70
     0
 10
0.0
 20
0.0
 30
0.0
  3
block 3
  1

  0
SPLINE
  5
E7
330
E3
100
AcDbEntity
  8
_U+30EC_U+30A4_U+30E4_U+30FC 1
370
     0
100
AcDbSpline
210
0.0
220
0.0
230
1.0
 70
    11
 71
     3
 72
    62
 73
    58
 74
     0
 42
0.0000000001
 43
0.0000000001
 12
1.0
 22
0.0
 32
0.0
 13
1.0
 23
0.0
 33
0.0
 40
0.0
 40
0.0
 40
0.0
 40
0.0
 40
1.0
 40
1.0
 40
1.0
 40
2.0
 40
2.0
 40
2.0
 40
3.0
 40
3.0
 40
3.0
 40
4.0
 40
4.0
 40
4.0
 40
5.0
 40
5.0
 40
5.0
 40
6.0
 40
6.0
 40
6.0
 40
7.0
 40
7.0
 40
7.0
 40
8.0
 40
8.0
 40
8.0
 40
9.0
 40
9.0
 40
9.0
 40
10.0
 40
10.0
 40
10.0
 40
11.0
 40
11.0
 40
11.0
 40
12.0
 40
12.0
 40
12.0
 40
13.0
 40
13.0
 40
13.0
 40
14.0
 40
14.0
 40
14.0
 40
15.0
 40
15.0
 40
15.0
 40
16.0
 40
16.0
 40
16.0
 40
17.0
 40
17.0
 40
17.0
 40
18.0
 40
18.0
 40
18.0
 40
19.0
 40
19.0
 40
19.0
 40
19.0
 10
117.3716471060738
 20
-137.3563015064595
 30
0.0
 10
117.3716471060738
 20
-137.4579318232744
 30
0.0
 10
117.3506320236137
 20
-137.6908202780773
 30
0.0
 10
117.1645968674102
 20
-137.8241454733565
 30
0.0
 10
117.0522867545911
 20
-137.9033826695172
 30
0.0
 10
116.9530680046159
 20
-137.907861293648
 30
0.0
 10
116.8683186556788
 20
-137.9123399177789
 30
0.0
 10
116.8683186556788
 20
-137.9123399177789
 30
0.0
 10
116.8683186556788
 20
-137.6773844056848
 30
0.0
 10
116.8683186556788
 20
-137.6773844056848
 30
0.0
 10
116.9423882086116
 20
-137.6749728388452
 30
0.0
 10
117.1769992111571
 20
-137.6636040237438
 30
0.0
 10
117.1769992111571
 20
-137.3607801305904
 30
0.0
 10
117.1769992111571
 20
-137.2136745533702
 30
0.0
 10
117.1074082823551
 20
-137.0510660464664
 30
0.0
 10
116.878998451683
 20
-137.0510660464664
 30
0.0
 10
116.7625542242816
 20
-137.0510660464664
 30
0.0
 10
116.7139783779396
 20
-137.0917181731924
 30
0.0
 10
116.6822834994753
 20
-137.1258246184963
 30
0.0
 10
116.6082139465424
 20
-137.2047173051085
 30
0.0
 10
116.595467093247
 20
-137.3290852521261
 30
0.0
 10
116.595467093247
 20
-137.3879963849238
 30
0.0
 10
116.595467093247
 20
-137.4083224482868
 30
0.0
 10
116.5975341505381
 20
-137.4465630081731
 30
0.0
 10
116.6016682651204
 20
-137.4761908293462
 30
0.0
 10
116.6016682651204
 20
-137.4761908293462
 30
0.0
 10
116.4070203702038
 20
-137.4761908293462
 30
0.0
 10
116.4070203702038
 20
-137.4761908293462
 30
0.0
 10
116.4135660516258
 20
-137.4355387026203
 30
0.0
 10
116.4156331089169
 20
-137.390063442215
 30
0.0
 10
116.4156331089169
 20
-137.383517760793
 30
0.0
 10
116.4156331089169
 20
-137.3132378128939
 30
0.0
 10
116.3942735169084
 20
-137.100675421454
 30
0.0
 10
116.1575954570717
 20
-137.100675421454
 30
0.0
 10
115.9798285300328
 20
-137.100675421454
 30
0.0
 10
115.9247070022688
 20
-137.2408908077037
 30
0.0
 10
115.9247070022688
 20
-137.3583685637507
 30
0.0
 10
115.9247070022688
 20
-137.6412109030897
 30
0.0
 10
116.1575954570717
 20
-137.6501681513514
 30
0.0
 10
116.2292534431649
 20
-137.6546467754822
 30
0.0
 10
116.2292534431649
 20
-137.6546467754822
 30
0.0
 10
116.2292534431649
 20
-137.8716877910529
 30
0.0
 10
116.2292534431649
 20
-137.8716877910529
 30
0.0
 10
116.1045409865989
 20
-137.8627305427913
 30
0.0
 10
115.7279920500611
 20
-137.8334472311666
 30
0.0
 10
115.7279920500611
 20
-137.3449326913582
 30
0.0
 10
115.7279920500611
 20
-137.1051540455848
 30
0.0
 10
115.8551160734668
 20
-136.8474609032882
 30
0.0
 10
116.1510497756497
 20
-136.8474609032882
 30
0.0
 10
116.3374294414018
 20
-136.8474609032882
 30
0.0
 10
116.4197672234992
 20
-136.9494357296515
 30
0.0
 10
116.4810899231367
 20
-137.0555446705972
 30
0.0
 10
116.5086506870187
 20
-136.9900878563775
 30
0.0
 10
116.588921411825
 20
-136.7954399614609
 30
0.0
 10
116.8662515983876
 20
-136.7954399614609
 30
0.0
 10
117.2045599750391
 20
-136.7954399614609
 30
0.0
 10
117.3716471060738
 20
-137.0600232947281
 30
0.0
 10
117.3716471060738
 20
-137.3563015064595
 30
0.0
  0
HATCH
  5
E8
330
E3
100
AcDbEntity
  8
_U+30EC_U+30A4_U+30E4_U+30FC 1
 62
   179
420
  2234388
100
AcDbHatch
 10
0.0
 20
0.0
 30
0.0
210
0.0
220
0.0
230
1.0
  2
SOLID
 70
     1
 71
     0
 91
        1
 92
        1
 93
        1
 72
     4
 94
        3
 73
     0
 74
     1
 95
       62
 96
       58
 40
0.0
 40
0.0
 40
0.0
 40
0.0
 40
1.0
 40
1.0
 40
1.0
 40
2.0
 40
2.0
 40
2.0
 40
3.0
 40
3.0
 40
3.0
 40
4.0
 40
4.0
 40
4.0
 40
5.0
 40
5.0
 40
5.0
 40
6.0
 40
6.0
 40
6.0
 40
7.0
 40
7.0
 40
7.0
 40
8.0
 40
8.0
 40
8.0
 40
9.0
 40
9.0
 40
9.0
 40
10.0
 40
10.0
 40
10.0
 40
11.0
 40
11.0
 40
11.0
 40
12.0
 40
12.0
 40
12.0
 40
13.0
 40
13.0
 40
13.0
 40
14.0
 40
14.0
 40
14.0
 40
15.0
 40
15.0
 40
15.0
 40
16.0
 40
16.0
 40
16.0
 40
17.0
 40
17.0
 40
17.0
 40
18.0
 40
18.0
 40
18.0
 40
19.0
 40
19.0
 40
19.0
 40
19.0
 10
117.3716471060738
 20
-137.3563015064595
 10
117.3716471060738
 20
-137.4579318232744
 10
117.3506320236137
 20
-137.6908202780773
 10
117.1645968674102
 20
-137.8241454733565
 10
117.0522867545911
 20
-137.9033826695172
 10
116.9530680046159
 20
-137.907861293648
 10
116.8683186556788
 20
-137.9123399177789
 10
116.8683186556788
 20
-137.9123399177789
 10
116.8683186556788
 20
-137.6773844056848
 10
116.8683186556788
 20
-137.6773844056848
 10
116.9423882086116
 20
-137.6749728388452
 10
117.1769992111571
 20
-137.6636040237438
 10
117.1769992111571
 20
-137.3607801305904
 10
117.1769992111571
 20
-137.2136745533702
 10
117.1074082823551
 20
-137.0510660464664
 10
116.878998451683
 20
-137.0510660464664
 10
116.7625542242816
 20
-137.0510660464664
 10
116.7139783779396
 20
-137.0917181731924
 10
116.6822834994753
 20
-137.1258246184963
 10
116.6082139465424
 20
-137.2047173051085
 10
116.595467093247
 20
-137.3290852521261
 10
116.595467093247
 20
-137.3879963849238
 10
116.595467093247
 20
-137.4083224482868
 10
116.5975341505381
 20
-137.4465630081731
 10
116.6016682651204
 20
-137.4761908293462
 10
116.6016682651204
 20
-137.4761908293462
 10
116.4070203702038
 20
-137.4761908293462
 10
116.4070203702038
 20
-137.4761908293462
 10
116.4135660516258
 20
-137.4355387026203
 10
116.4156331089169
 20
-137.390063442215
 10
116.4156331089169
 20
-137.383517760793
 10
116.4156331089169
 20
-137.3132378128939
 10
116.3942735169084
 20
-137.100675421454
 10
116.1575954570717
 20
-137.100675421454
 10
115.9798285300328
 20
-137.100675421454
 10
115.9247070022688
 20
-137.2408908077037
 10
115.9247070022688
 20
-137.3583685637507
 10
115.9247070022688
 20
-137.6412109030897
 10
116.1575954570717
 20
-137.6501681513514
 10
116.2292534431649
 20
-137.6546467754822
 10
116.2292534431649
 20
-137.6546467754822
 10
116.2292534431649
 20
-137.8716877910529
 10
116.2292534431649
 20
-137.8716877910529
 10
116.1045409865989
 20
-137.8627305427913
 10
115.7279920500611
 20
-137.8334472311666
 10
115.7279920500611
 20
-137.3449326913582
 10
115.7279920500611
 20
-137.1051540455848
 10
115.8551160734668
 20
-136.8474609032882
 10
116.1510497756497
 20
-136.8474609032882
 10
116.3374294414018
 20
-136.8474609032882
 10
116.4197672234992
 20
-136.9494357296515
 10
116.4810899231367
 20
-137.0555446705972
 10
116.5086506870187
 20
-136.9900878563775
 10
116.588921411825
 20
-136.7954399614609
 10
116.8662515983876
 20
-136.7954399614609
 10
117.2045599750391
 20
-136.7954399614609
 10
117.3716471060738
 20
-137.0600232947281
 10
117.3716471060738
 20
-137.3563015064595
 97
        0
 97
        0
 75
     2
 76
     1
 98
        0
  0
ENDBLK
  5
E6
330
E3
100
AcDbEntity
  8
0
100
AcDbBlockEnd
  0
BLOCK
  5
EB
330
E9
100
AcDbEntity
  8
0
100
AcDbBlockBegin
  2
block 4
 70
     0
 10
0.0
 20
0.0
 30
0.0
  3
block 4
  1

  0
SPLINE
  5
ED
330
E9
100
AcDbEntity
  8
_U+30EC_U+30A4_U+30E4_U+30FC 1
370
     0
100
AcDbSpline
210
0.0
220
0.0
230
1.0
 70
    11
 71
     3
 72
    53
 73
    49
 74
     0
 42
0.0000000001
 43
0.0000000001
 12
1.0
 22
0.0
 32
0.0
 13
1.0
 23
0.0
 33
0.0
 40
0.0
 40
0.0
 40
0.0
 40
0.0
 40
1.0
 40
1.0
 40
1.0
 40
2.0
 40
2.0
 40
2.0
 40
3.0
 40
3.0
 40
3.0
 40
4.0
 40
4.0
 40
4.0
 40
5.0
 40
5.0
 40
5.0
 40
6.0
 40
6.0
 40
6.0
 40
7.0
 40
7.0
 40
7.0
 40
8.0
 40
8.0
 40
8.0
 40
9.0
 40
9.0
 40
9.0
 40
10.0
 40
10.0
 40
10.0
 40
11.0
 40
11.0
 40
11.0
 40
12.0
 40
12.0
 40
12.0
 40
13.0
 40
13.0
 40
13.0
 40
14.0
 40
14.0
 40
14.0
 40
15.0
 40
15.0
 40
15.0
 40
16.0
 40
16.0
 40
16.0
 40
16.0
 10
73.33678112315886
 20
-145.5945583403375
 30
0.0
 10
73.2530653028673
 20
-145.5945583403375
 30
0.0
 10
73.14488930463045
 20
-145.5776773724598
 30
0.0
 10
73.03602428729656
 20
-145.5142876155311
 30
0.0
 10
72.8506781501901
 20
-145.4043890695517
 30
0.0
 10
72.82828502953599
 20
-145.2731309315637
 30
0.0
 10
72.80795896617302
 20
-145.1652994428754
 30
0.0
 10
72.80795896617302
 20
-145.1652994428754
 30
0.0
 10
73.04532604510673
 20
-145.1652994428754
 30
0.0
 10
73.04532604510673
 20
-145.1652994428754
 30
0.0
 10
73.10389266835597
 20
-145.3640814523743
 30
0.0
 10
73.23962943047482
 20
-145.3937092735474
 30
0.0
 10
73.33919268999854
 20
-145.3937092735474
 30
0.0
 10
73.48836532450986
 20
-145.3937092735474
 30
0.0
 10
73.65131834096218
 20
-145.2941460140237
 30
0.0
 10
73.65131834096218
 20
-145.0616020687693
 30
0.0
 10
73.65131834096218
 20
-144.8056314742153
 30
0.0
 10
73.45908201288523
 20
-144.7360405454132
 30
0.0
 10
73.33023544173689
 20
-144.7360405454132
 30
0.0
 10
73.29612899643291
 20
-144.7360405454132
 30
0.0
 10
73.14488930463045
 20
-144.7360405454132
 30
0.0
 10
73.04980466923755
 20
-144.8648871165616
 30
0.0
 10
73.04980466923755
 20
-144.8648871165616
 30
0.0
 10
72.86204696529144
 20
-144.8455945818442
 30
0.0
 10
72.86204696529144
 20
-144.8455945818442
 30
0.0
 10
72.86204696529144
 20
-144.8455945818442
 30
0.0
 10
72.99089353643978
 20
-143.9994791306668
 30
0.0
 10
72.99089353643978
 20
-143.9994791306668
 30
0.0
 10
72.99089353643978
 20
-143.9994791306668
 30
0.0
 10
73.82288409612761
 20
-143.9994791306668
 30
0.0
 10
73.82288409612761
 20
-143.9994791306668
 30
0.0
 10
73.82288409612761
 20
-143.9994791306668
 30
0.0
 10
73.82288409612761
 20
-144.194471535132
 30
0.0
 10
73.82288409612761
 20
-144.194471535132
 30
0.0
 10
73.82288409612761
 20
-144.194471535132
 30
0.0
 10
73.16521536799343
 20
-144.194471535132
 30
0.0
 10
73.16521536799343
 20
-144.194471535132
 30
0.0
 10
73.16521536799343
 20
-144.194471535132
 30
0.0
 10
73.09493542009433
 20
-144.6175292607206
 30
0.0
 10
73.09493542009433
 20
-144.6175292607206
 30
0.0
 10
73.16039223431407
 20
-144.5834228154166
 30
0.0
 10
73.24858667873647
 20
-144.5431151982392
 30
0.0
 10
73.37536619259366
 20
-144.5431151982392
 30
0.0
 10
73.64649520728283
 20
-144.5431151982392
 30
0.0
 10
73.89970972544869
 20
-144.7294948639912
 30
0.0
 10
73.89970972544869
 20
-145.0426540436005
 30
0.0
 10
73.89970972544869
 20
-145.359947337792
 30
0.0
 10
73.66027558922383
 20
-145.5945583403375
 30
0.0
 10
73.33678112315886
 20
-145.5945583403375
 30
0.0
  0
HATCH
  5
EE
330
E9
100
AcDbEntity
  8
_U+30EC_U+30A4_U+30E4_U+30FC 1
 62
   179
420
  2234388
100
AcDbHatch
 10
0.0
 20
0.0
 30
0.0
210
0.0
220
0.0
230
1.0
  2
SOLID
 70
     1
 71
     0
 91
        1
 92
        1
 93
        1
 72
     4
 94
        3
 73
     0
 74
     1
 95
       53
 96
       49
 40
0.0
 40
0.0
 40
0.0
 40
0.0
 40
1.0
 40
1.0
 40
1.0
 40
2.0
 40
2.0
 40
2.0
 40
3.0
 40
3.0
 40
3.0
 40
4.0
 40
4.0
 40
4.0
 40
5.0
 40
5.0
 40
5.0
 40
6.0
 40
6.0
 40
6.0
 40
7.0
 40
7.0
 40
7.0
 40
8.0
 40
8.0
 40
8.0
 40
9.0
 40
9.0
 40
9.0
 40
10.0
 40
10.0
 40
10.0
 40
11.0
 40
11.0
 40
11.0
 40
12.0
 40
12.0
 40
12.0
 40
13.0
 40
13.0
 40
13.0
 40
14.0
 40
14.0
 40
14.0
 40
15.0
 40
15.0
 40
15.0
 40
16.0
 40
16.0
 40
16.0
 40
16.0
 10
73.33678112315886
 20
-145.5945583403375
 10
73.2530653028673
 20
-145.5945583403375
 10
73.14488930463045
 20
-145.5776773724598
 10
73.03602428729656
 20
-145.5142876155311
 10
72.8506781501901
 20
-145.4043890695517
 10
72.82828502953599
 20
-145.2731309315637
 10
72.80795896617302
 20
-145.1652994428754
 10
72.80795896617302
 20
-145.1652994428754
 10
73.04532604510673
 20
-145.1652994428754
 10
73.04532604510673
 20
-145.1652994428754
 10
73.10389266835597
 20
-145.3640814523743
 10
73.23962943047482
 20
-145.3937092735474
 10
73.33919268999854
 20
-145.3937092735474
 10
73.48836532450986
 20
-145.3937092735474
 10
73.65131834096218
 20
-145.2941460140237
 10
73.65131834096218
 20
-145.0616020687693
 10
73.65131834096218
 20
-144.8056314742153
 10
73.45908201288523
 20
-144.7360405454132
 10
73.33023544173689
 20
-144.7360405454132
 10
73.29612899643291
 20
-144.7360405454132
 10
73.14488930463045
 20
-144.7360405454132
 10
73.04980466923755
 20
-144.8648871165616
 10
73.04980466923755
 20
-144.8648871165616
 10
72.86204696529144
 20
-144.8455945818442
 10
72.86204696529144
 20
-144.8455945818442
 10
72.86204696529144
 20
-144.8455945818442
 10
72.99089353643978
 20
-143.9994791306668
 10
72.99089353643978
 20
-143.9994791306668
 10
72.99089353643978
 20
-143.9994791306668
 10
73.82288409612761
 20
-143.9994791306668
 10
73.82288409612761
 20
-143.9994791306668
 10
73.82288409612761
 20
-143.9994791306668
 10
73.82288409612761
 20
-144.194471535132
 10
73.82288409612761
 20
-144.194471535132
 10
73.82288409612761
 20
-144.194471535132
 10
73.16521536799343
 20
-144.194471535132
 10
73.16521536799343
 20
-144.194471535132
 10
73.16521536799343
 20
-144.194471535132
 10
73.09493542009433
 20
-144.6175292607206
 10
73.09493542009433
 20
-144.6175292607206
 10
73.16039223431407
 20
-144.5834228154166
 10
73.24858667873647
 20
-144.5431151982392
 10
73.37536619259366
 20
-144.5431151982392
 10
73.64649520728283
 20
-144.5431151982392
 10
73.89970972544869
 20
-144.7294948639912
 10
73.89970972544869
 20
-145.0426540436005
 10
73.89970972544869
 20
-145.359947337792
 10
73.66027558922383
 20
-145.5945583403375
 10
73.33678112315886
 20
-145.5945583403375
 97
        0
 97
        0
 75
     2
 76
     1
 98
        0
  0
ENDBLK
  5
EC
330
E9
100
AcDbEntity
  8
0
100
AcDbBlockEnd
  0
BLOCK
  5
F1
330
EF
100
AcDbEntity
  8
0
100
AcDbBlockBegin
  2
block 5
 70
     0
 10
0.0
 20
0.0
 30
0.0
  3
block 5
  1

  0
POLYLINE
  5
F3
330
EF
100
AcDbEntity
  8
_U+30EC_U+30A4_U+30E4_U+30FC 1
370
     0
100
AcDb2dPolyline
 66
     1
 10
0.0
 20
0.0
 30
0.0
  0
VERTEX
  5
F4
330
F3
100
AcDbEntity
  8
_U+30EC_U+30A4_U+30E4_U+30FC 1
370
     0
100
AcDbVertex
100
AcDb2dVertex
 10
90.58258461277103
 20
-115.4592746022116
 30
0.0
  0
VERTEX
  5
F5
330
F3
100
AcDbEntity
  8
_U+30EC_U+30A4_U+30E4_U+30FC 1
370
     0
100
AcDbVertex
100
AcDb2dVertex
 10
90.58258461277103
 20
-115.8061957175762
 30
0.0
  0
VERTEX
  5
F6
330
F3
100
AcDbEntity
  8
_U+30EC_U+30A4_U+30E4_U+30FC 1
370
     0
100
AcDbVertex
100
AcDb2dVertex
 10
90.34969615796814
 20
-115.8061957175762
 30
0.0
  0
VERTEX
  5
F7
330
F3
100
AcDbEntity
  8
_U+30EC_U+30A4_U+30E4_U+30FC 1
370
     0
100
AcDbVertex
100
AcDb2dVertex
 10
90.34969615796814
 20
-115.4592746022116
 30
0.0
  0
VERTEX
  5
F8
330
F3
100
AcDbEntity
  8
_U+30EC_U+30A4_U+30E4_U+30FC 1
370
     0
100
AcDbVertex
100
AcDb2dVertex
 10
89.64861922671979
 20
-115.4592746022116
 30
0.0
  0
VERTEX
  5
F9
330
F3
100
AcDbEntity
  8
_U+30EC_U+30A4_U+30E4_U+30FC 1
370
     0
100
AcDbVertex
100
AcDb2dVertex
 10
89.64861922671979
 20
-115.2349988861218
 30
0.0
  0
VERTEX
  5
FA
330
F3
100
AcDbEntity
  8
_U+30EC_U+30A4_U+30E4_U+30FC 1
370
     0
100
AcDbVertex
100
AcDb2dVertex
 10
90.37450084546194
 20
-114.2617594115387
 30
0.0
  0
VERTEX
  5
FB
330
F3
100
AcDbEntity
  8
_U+30EC_U+30A4_U+30E4_U+30FC 1
370
     0
100
AcDbVertex
100
AcDb2dVertex
 10
90.58258461277103
 20
-114.2617594115387
 30
0.0
  0
VERTEX
  5
FC
330
F3
100
AcDbEntity
  8
_U+30EC_U+30A4_U+30E4_U+30FC 1
370
     0
100
AcDbVertex
100
AcDb2dVertex
 10
90.58258461277103
 20
-115.2604925927127
 30
0.0
  0
VERTEX
  5
FD
330
F3
100
AcDbEntity
  8
_U+30EC_U+30A4_U+30E4_U+30FC 1
370
     0
100
AcDbVertex
100
AcDb2dVertex
 10
90.80410425247258
 20
-115.2604925927127
 30
0.0
  0
VERTEX
  5
FE
330
F3
100
AcDbEntity
  8
_U+30EC_U+30A4_U+30E4_U+30FC 1
370
     0
100
AcDbVertex
100
AcDb2dVertex
 10
90.80410425247258
 20
-115.4592746022116
 30
0.0
  0
VERTEX
  5
FF
330
F3
100
AcDbEntity
  8
_U+30EC_U+30A4_U+30E4_U+30FC 1
370
     0
100
AcDbVertex
100
AcDb2dVertex
 10
90.58258461277103
 20
-115.4592746022116
 30
0.0
  0
SEQEND
  5
100
330
F3
100
AcDbEntity
  8
_U+30EC_U+30A4_U+30E4_U+30FC 1
370
     0
  0
POLYLINE
  5
101
330
EF
100
AcDbEntity
  8
_U+30EC_U+30A4_U+30E4_U+30FC 1
370
     0
100
AcDb2dPolyline
 66
     1
 10
0.0
 20
0.0
 30
0.0
  0
VERTEX
  5
102
330
101
100
AcDbEntity
  8
_U+30EC_U+30A4_U+30E4_U+30FC 1
370
     0
100
AcDbVertex
100
AcDb2dVertex
 10
90.34969615796814
 20
-114.6045464123211
 30
0.0
  0
VERTEX
  5
103
330
101
100
AcDbEntity
  8
_U+30EC_U+30A4_U+30E4_U+30FC 1
370
     0
100
AcDbVertex
100
AcDb2dVertex
 10
89.8611816181597
 20
-115.2604925927127
 30
0.0
  0
VERTEX
  5
104
330
101
100
AcDbEntity
  8
_U+30EC_U+30A4_U+30E4_U+30FC 1
370
     0
100
AcDbVertex
100
AcDb2dVertex
 10
90.34969615796814
 20
-115.2604925927127
 30
0.0
  0
VERTEX
  5
105
330
101
100
AcDbEntity
  8
_U+30EC_U+30A4_U+30E4_U+30FC 1
370
     0
100
AcDbVertex
100
AcDb2dVertex
 10
90.34969615796814
 20
-114.6045464123211
 30
0.0
  0
SEQEND
  5
106
330
101
100
AcDbEntity
  8
_U+30EC_U+30A4_U+30E4_U+30FC 1
370
     0
  0
HATCH
  5
107
330
EF
100
AcDbEntity
  8
_U+30EC_U+30A4_U+30E4_U+30FC 1
 62
   179
420
  2234388
100
AcDbHatch
 10
0.0
 20
0.0
 30
0.0
210
0.0
220
0.0
230
1.0
  2
SOLID
 70
     1
 71
     0
 91
        2
 92
        1
 93
       11
 72
     1
 10
90.58258461277103
 20
-115.4592746022116
 11
90.58258461277103
 21
-115.8061957175762
 72
     1
 10
90.58258461277103
 20
-115.8061957175762
 11
90.34969615796814
 21
-115.8061957175762
 72
     1
 10
90.34969615796814
 20
-115.8061957175762
 11
90.34969615796814
 21
-115.4592746022116
 72
     1
 10
90.34969615796814
 20
-115.4592746022116
 11
89.64861922671979
 21
-115.4592746022116
 72
     1
 10
89.64861922671979
 20
-115.4592746022116
 11
89.64861922671979
 21
-115.2349988861218
 72
     1
 10
89.64861922671979
 20
-115.2349988861218
 11
90.37450084546194
 21
-114.2617594115387
 72
     1
 10
90.37450084546194
 20
-114.2617594115387
 11
90.58258461277103
 21
-114.2617594115387
 72
     1
 10
90.58258461277103
 20
-114.2617594115387
 11
90.58258461277103
 21
-115.2604925927127
 72
     1
 10
90.58258461277103
 20
-115.2604925927127
 11
90.80410425247258
 21
-115.2604925927127
 72
     1
 10
90.80410425247258
 20
-115.2604925927127
 11
90.80410425247258
 21
-115.4592746022116
 72
     1
 10
90.80410425247258
 20
-115.4592746022116
 11
90.58258461277103
 21
-115.4592746022116
 97
        0
 92
        1
 93
        3
 72
     1
 10
90.34969615796814
 20
-114.6045464123211
 11
89.8611816181597
 21
-115.2604925927127
 72
     1
 10
89.8611816181597
 20
-115.2604925927127
 11
90.34969615796814
 21
-115.2604925927127
 72
     1
 10
90.34969615796814
 20
-115.2604925927127
 11
90.34969615796814
 21
-114.6045464123211
 97
        0
 75
     2
 76
     1
 98
        0
  0
SPLINE
  5
108
330
EF
100
AcDbEntity
  8
_U+30EC_U+30A4_U+30E4_U+30FC 1
370
     0
100
AcDbSpline
210
0.0
220
0.0
230
1.0
 70
    11
 71
     3
 72
    29
 73
    25
 74
     0
 42
0.0000000001
 43
0.0000000001
 12
1.0
 22
0.0
 32
0.0
 13
1.0
 23
0.0
 33
0.0
 40
0.0
 40
0.0
 40
0.0
 40
0.0
 40
1.0
 40
1.0
 40
1.0
 40
2.0
 40
2.0
 40
2.0
 40
3.0
 40
3.0
 40
3.0
 40
4.0
 40
4.0
 40
4.0
 40
5.0
 40
5.0
 40
5.0
 40
6.0
 40
6.0
 40
6.0
 40
7.0
 40
7.0
 40
7.0
 40
8.0
 40
8.0
 40
8.0
 40
8.0
 10
91.91032441278631
 20
-115.6284287905373
 30
0.0
 10
91.79491371403044
 20
-115.8378905960405
 30
0.0
 10
91.60956757692401
 20
-115.8568386212094
 30
0.0
 10
91.48519962990648
 20
-115.8568386212094
 30
0.0
 10
91.31363387474104
 20
-115.8568386212094
 30
0.0
 10
91.16204967339004
 20
-115.8103298321585
 30
0.0
 10
91.06041935657518
 20
-115.6284287905373
 30
0.0
 10
90.94948728195013
 20
-115.4337808956207
 30
0.0
 10
90.92916121858715
 20
-115.1967583262355
 30
0.0
 10
90.92916121858715
 20
-115.0341498193317
 30
0.0
 10
90.92916121858715
 20
-114.8901448280483
 30
0.0
 10
90.94707571511046
 20
-114.6383083480765
 30
0.0
 10
91.06041935657518
 20
-114.4395263385776
 30
0.0
 10
91.17548554578252
 20
-114.2366102144964
 30
0.0
 10
91.3473958104965
 20
-114.2131835651967
 30
0.0
 10
91.48519962990648
 20
-114.2131835651967
 30
0.0
 10
91.6550428373293
 20
-114.2131835651967
 30
0.0
 10
91.80869409597145
 20
-114.2576252969564
 30
0.0
 10
91.91032441278631
 20
-114.4395263385776
 30
0.0
 10
92.01677786328054
 20
-114.6321071762031
 30
0.0
 10
92.04158255077434
 20
-114.8605170068752
 30
0.0
 10
92.04158255077434
 20
-115.0341498193317
 30
0.0
 10
92.04158255077434
 20
-115.2053710649487
 30
0.0
 10
92.01884492057168
 20
-115.4358479529119
 30
0.0
 10
91.91032441278631
 20
-115.6284287905373
 30
0.0
  0
SPLINE
  5
109
330
EF
100
AcDbEntity
  8
_U+30EC_U+30A4_U+30E4_U+30FC 1
370
     0
100
AcDbSpline
210
0.0
220
0.0
230
1.0
 70
    11
 71
     3
 72
    17
 73
    13
 74
     0
 42
0.0000000001
 43
0.0000000001
 12
1.0
 22
0.0
 32
0.0
 13
1.0
 23
0.0
 33
0.0
 40
0.0
 40
0.0
 40
0.0
 40
0.0
 40
1.0
 40
1.0
 40
1.0
 40
2.0
 40
2.0
 40
2.0
 40
3.0
 40
3.0
 40
3.0
 40
4.0
 40
4.0
 40
4.0
 40
4.0
 10
91.48519962990648
 20
-114.4057644028222
 30
0.0
 10
91.21854923934815
 20
-114.4057644028222
 30
0.0
 10
91.16893986436055
 20
-114.6892957612582
 30
0.0
 10
91.16893986436055
 20
-115.0341498193317
 30
0.0
 10
91.16893986436055
 20
-115.3535101708144
 30
0.0
 10
91.20718042424681
 20
-115.6621907262928
 30
0.0
 10
91.48519962990648
 20
-115.6621907262928
 30
0.0
 10
91.74978296317367
 20
-115.6621907262928
 30
0.0
 10
91.80180390500094
 20
-115.3810709346964
 30
0.0
 10
91.80180390500094
 20
-115.0341498193317
 30
0.0
 10
91.80180390500094
 20
-114.7144449583006
 30
0.0
 10
91.76115177827499
 20
-114.4057644028222
 30
0.0
 10
91.48519962990648
 20
-114.4057644028222
 30
0.0
  0
HATCH
  5
10A
330
EF
100
AcDbEntity
  8
_U+30EC_U+30A4_U+30E4_U+30FC 1
 62
   179
420
  2234388
100
AcDbHatch
 10
0.0
 20
0.0
 30
0.0
210
0.0
220
0.0
230
1.0
  2
SOLID
 70
     1
 71
     0
 91
        2
 92
        1
 93
        1
 72
     4
 94
        3
 73
     0
 74
     1
 95
       29
 96
       25
 40
0.0
 40
0.0
 40
0.0
 40
0.0
 40
1.0
 40
1.0
 40
1.0
 40
2.0
 40
2.0
 40
2.0
 40
3.0
 40
3.0
 40
3.0
 40
4.0
 40
4.0
 40
4.0
 40
5.0
 40
5.0
 40
5.0
 40
6.0
 40
6.0
 40
6.0
 40
7.0
 40
7.0
 40
7.0
 40
8.0
 40
8.0
 40
8.0
 40
8.0
 10
91.91032441278631
 20
-115.6284287905373
 10
91.79491371403044
 20
-115.8378905960405
 10
91.60956757692401
 20
-115.8568386212094
 10
91.48519962990648
 20
-115.8568386212094
 10
91.31363387474104
 20
-115.8568386212094
 10
91.16204967339004
 20
-115.8103298321585
 10
91.06041935657518
 20
-115.6284287905373
 10
90.94948728195013
 20
-115.4337808956207
 10
90.92916121858715
 20
-115.1967583262355
 10
90.92916121858715
 20
-115.0341498193317
 10
90.92916121858715
 20
-114.8901448280483
 10
90.94707571511046
 20
-114.6383083480765
 10
91.06041935657518
 20
-114.4395263385776
 10
91.17548554578252
 20
-114.2366102144964
 10
91.3473958104965
 20
-114.2131835651967
 10
91.48519962990648
 20
-114.2131835651967
 10
91.6550428373293
 20
-114.2131835651967
 10
91.80869409597145
 20
-114.2576252969564
 10
91.91032441278631
 20
-114.4395263385776
 10
92.01677786328054
 20
-114.6321071762031
 10
92.04158255077434
 20
-114.8605170068752
 10
92.04158255077434
 20
-115.0341498193317
 10
92.04158255077434
 20
-115.2053710649487
 10
92.01884492057168
 20
-115.4358479529119
 10
91.91032441278631
 20
-115.6284287905373
 97
        0
 97
        0
 92
        1
 93
        1
 72
     4
 94
        3
 73
     0
 74
     1
 95
       17
 96
       13
 40
0.0
 40
0.0
 40
0.0
 40
0.0
 40
1.0
 40
1.0
 40
1.0
 40
2.0
 40
2.0
 40
2.0
 40
3.0
 40
3.0
 40
3.0
 40
4.0
 40
4.0
 40
4.0
 40
4.0
 10
91.48519962990648
 20
-114.4057644028222
 10
91.21854923934815
 20
-114.4057644028222
 10
91.16893986436055
 20
-114.6892957612582
 10
91.16893986436055
 20
-115.0341498193317
 10
91.16893986436055
 20
-115.3535101708144
 10
91.20718042424681
 20
-115.6621907262928
 10
91.48519962990648
 20
-115.6621907262928
 10
91.74978296317367
 20
-115.6621907262928
 10
91.80180390500094
 20
-115.3810709346964
 10
91.80180390500094
 20
-115.0341498193317
 10
91.80180390500094
 20
-114.7144449583006
 10
91.76115177827499
 20
-114.4057644028222
 10
91.48519962990648
 20
-114.4057644028222
 97
        0
 97
        0
 75
     2
 76
     1
 98
        0
  0
ENDBLK
  5
F2
330
EF
100
AcDbEntity
  8
0
100
AcDbBlockEnd
  0
BLOCK
  5
10D
330
10B
100
AcDbEntity
  8
0
100
AcDbBlockBegin
  2
block 6
 70
     0
 10
0.0
 20
0.0
 30
0.0
  3
block 6
  1

  0
SPLINE
  5
10F
330
10B
100
AcDbEntity
  8
_U+30EC_U+30A4_U+30E4_U+30FC 1
370
     0
100
AcDbSpline
210
0.0
220
0.0
230
1.0
 70
    11
 71
     3
 72
    62
 73
    58
 74
     0
 42
0.0000000001
 43
0.0000000001
 12
1.0
 22
0.0
 32
0.0
 13
1.0
 23
0.0
 33
0.0
 40
0.0
 40
0.0
 40
0.0
 40
0.0
 40
1.0
 40
1.0
 40
1.0
 40
2.0
 40
2.0
 40
2.0
 40
3.0
 40
3.0
 40
3.0
 40
4.0
 40
4.0
 40
4.0
 40
5.0
 40
5.0
 40
5.0
 40
6.0
 40
6.0
 40
6.0
 40
7.0
 40
7.0
 40
7.0
 40
8.0
 40
8.0
 40
8.0
 40
9.0
 40
9.0
 40
9.0
 40
10.0
 40
10.0
 40
10.0
 40
11.0
 40
11.0
 40
11.0
 40
12.0
 40
12.0
 40
12.0
 40
13.0
 40
13.0
 40
13.0
 40
14.0
 40
14.0
 40
14.0
 40
15.0
 40
15.0
 40
15.0
 40
16.0
 40
16.0
 40
16.0
 40
17.0
 40
17.0
 40
17.0
 40
18.0
 40
18.0
 40
18.0
 40
19.0
 40
19.0
 40
19.0
 40
19.0
 10
72.34700519024659
 20
-113.1495103341258
 30
0.0
 10
72.24537487343171
 20
-113.1495103341258
 30
0.0
 10
72.01248641862882
 20
-113.1283229968915
 30
0.0
 10
71.8789889685754
 20
-112.9421155859138
 30
0.0
 10
71.79992402718891
 20
-112.8299777278689
 30
0.0
 10
71.79544540305808
 20
-112.7305867231194
 30
0.0
 10
71.79096677892726
 20
-112.6460096289566
 30
0.0
 10
71.79096677892726
 20
-112.6460096289566
 30
0.0
 10
72.0259222910213
 20
-112.6460096289566
 30
0.0
 10
72.0259222910213
 20
-112.6460096289566
 30
0.0
 10
72.02833385786097
 20
-112.7200791818894
 30
0.0
 10
72.03953041818804
 20
-112.9548624392092
 30
0.0
 10
72.34252656611577
 20
-112.9548624392092
 30
0.0
 10
72.48945988856167
 20
-112.9548624392092
 30
0.0
 10
72.65224065023972
 20
-112.8850992556329
 30
0.0
 10
72.65224065023972
 20
-112.6565171701866
 30
0.0
 10
72.65224065023972
 20
-112.5402451975594
 30
0.0
 10
72.61158852351377
 20
-112.4914970964431
 30
0.0
 10
72.57765433298407
 20
-112.4598022179788
 30
0.0
 10
72.49858939159758
 20
-112.3857326650459
 30
0.0
 10
72.37422144458006
 20
-112.3731580665248
 30
0.0
 10
72.31531031178228
 20
-112.3731580665248
 30
0.0
 10
72.29498424841931
 20
-112.3731580665248
 30
0.0
 10
72.25657143375878
 20
-112.3752251238159
 30
0.0
 10
72.22728812213415
 20
-112.3793592383982
 30
0.0
 10
72.22728812213415
 20
-112.3793592383982
 30
0.0
 10
72.22728812213415
 20
-112.1847113434816
 30
0.0
 10
72.22728812213415
 20
-112.1847113434816
 30
0.0
 10
72.2679402488601
 20
-112.1910847701293
 30
0.0
 10
72.31307099971687
 20
-112.1933240821947
 30
0.0
 10
72.31996119068738
 20
-112.1933240821947
 30
0.0
 10
72.3900688838122
 20
-112.1933240821947
 30
0.0
 10
72.60245902047787
 20
-112.1721367449604
 30
0.0
 10
72.60245902047787
 20
-111.9351141755753
 30
0.0
 10
72.60245902047787
 20
-111.7575195033106
 30
0.0
 10
72.46241588900246
 20
-111.7023979755466
 30
0.0
 10
72.34476587818118
 20
-111.7023979755466
 30
0.0
 10
72.06209579361642
 20
-111.7023979755466
 30
0.0
 10
72.05313854535477
 20
-111.9351141755753
 30
0.0
 10
72.04865992122394
 20
-112.007116671217
 30
0.0
 10
72.04865992122394
 20
-112.007116671217
 30
0.0
 10
71.83161890565322
 20
-112.007116671217
 30
0.0
 10
71.83161890565322
 20
-112.007116671217
 30
0.0
 10
71.84057615391485
 20
-111.8822319598767
 30
0.0
 10
71.87003172031375
 20
-111.5056830233389
 30
0.0
 10
72.35837400534791
 20
-111.5056830233389
 30
0.0
 10
72.59798039634704
 20
-111.5056830233389
 30
0.0
 10
72.85567353864373
 20
-111.6326347919703
 30
0.0
 10
72.85567353864373
 20
-111.9287407489275
 30
0.0
 10
72.85567353864373
 20
-112.1149481599053
 30
0.0
 10
72.75404322182885
 20
-112.197458196777
 30
0.0
 10
72.6477620261089
 20
-112.2587808964145
 30
0.0
 10
72.71321884032864
 20
-112.2863416602965
 30
0.0
 10
72.907694480471
 20
-112.3667846398771
 30
0.0
 10
72.907694480471
 20
-112.6439425716654
 30
0.0
 10
72.907694480471
 20
-112.9824232030912
 30
0.0
 10
72.64328340197807
 20
-113.1495103341258
 30
0.0
 10
72.34700519024659
 20
-113.1495103341258
 30
0.0
  0
HATCH
  5
110
330
10B
100
AcDbEntity
  8
_U+30EC_U+30A4_U+30E4_U+30FC 1
 62
   179
420
  2234388
100
AcDbHatch
 10
0.0
 20
0.0
 30
0.0
210
0.0
220
0.0
230
1.0
  2
SOLID
 70
     1
 71
     0
 91
        1
 92
        1
 93
        1
 72
     4
 94
        3
 73
     0
 74
     1
 95
       62
 96
       58
 40
0.0
 40
0.0
 40
0.0
 40
0.0
 40
1.0
 40
1.0
 40
1.0
 40
2.0
 40
2.0
 40
2.0
 40
3.0
 40
3.0
 40
3.0
 40
4.0
 40
4.0
 40
4.0
 40
5.0
 40
5.0
 40
5.0
 40
6.0
 40
6.0
 40
6.0
 40
7.0
 40
7.0
 40
7.0
 40
8.0
 40
8.0
 40
8.0
 40
9.0
 40
9.0
 40
9.0
 40
10.0
 40
10.0
 40
10.0
 40
11.0
 40
11.0
 40
11.0
 40
12.0
 40
12.0
 40
12.0
 40
13.0
 40
13.0
 40
13.0
 40
14.0
 40
14.0
 40
14.0
 40
15.0
 40
15.0
 40
15.0
 40
16.0
 40
16.0
 40
16.0
 40
17.0
 40
17.0
 40
17.0
 40
18.0
 40
18.0
 40
18.0
 40
19.0
 40
19.0
 40
19.0
 40
19.0
 10
72.34700519024659
 20
-113.1495103341258
 10
72.24537487343171
 20
-113.1495103341258
 10
72.01248641862882
 20
-113.1283229968915
 10
71.8789889685754
 20
-112.9421155859138
 10
71.79992402718891
 20
-112.8299777278689
 10
71.79544540305808
 20
-112.7305867231194
 10
71.79096677892726
 20
-112.6460096289566
 10
71.79096677892726
 20
-112.6460096289566
 10
72.0259222910213
 20
-112.6460096289566
 10
72.0259222910213
 20
-112.6460096289566
 10
72.02833385786097
 20
-112.7200791818894
 10
72.03953041818804
 20
-112.9548624392092
 10
72.34252656611577
 20
-112.9548624392092
 10
72.48945988856167
 20
-112.9548624392092
 10
72.65224065023972
 20
-112.8850992556329
 10
72.65224065023972
 20
-112.6565171701866
 10
72.65224065023972
 20
-112.5402451975594
 10
72.61158852351377
 20
-112.4914970964431
 10
72.57765433298407
 20
-112.4598022179788
 10
72.49858939159758
 20
-112.3857326650459
 10
72.37422144458006
 20
-112.3731580665248
 10
72.31531031178228
 20
-112.3731580665248
 10
72.29498424841931
 20
-112.3731580665248
 10
72.25657143375878
 20
-112.3752251238159
 10
72.22728812213415
 20
-112.3793592383982
 10
72.22728812213415
 20
-112.3793592383982
 10
72.22728812213415
 20
-112.1847113434816
 10
72.22728812213415
 20
-112.1847113434816
 10
72.2679402488601
 20
-112.1910847701293
 10
72.31307099971687
 20
-112.1933240821947
 10
72.31996119068738
 20
-112.1933240821947
 10
72.3900688838122
 20
-112.1933240821947
 10
72.60245902047787
 20
-112.1721367449604
 10
72.60245902047787
 20
-111.9351141755753
 10
72.60245902047787
 20
-111.7575195033106
 10
72.46241588900246
 20
-111.7023979755466
 10
72.34476587818118
 20
-111.7023979755466
 10
72.06209579361642
 20
-111.7023979755466
 10
72.05313854535477
 20
-111.9351141755753
 10
72.04865992122394
 20
-112.007116671217
 10
72.04865992122394
 20
-112.007116671217
 10
71.83161890565322
 20
-112.007116671217
 10
71.83161890565322
 20
-112.007116671217
 10
71.84057615391485
 20
-111.8822319598767
 10
71.87003172031375
 20
-111.5056830233389
 10
72.35837400534791
 20
-111.5056830233389
 10
72.59798039634704
 20
-111.5056830233389
 10
72.85567353864373
 20
-111.6326347919703
 10
72.85567353864373
 20
-111.9287407489275
 10
72.85567353864373
 20
-112.1149481599053
 10
72.75404322182885
 20
-112.197458196777
 10
72.6477620261089
 20
-112.2587808964145
 10
72.71321884032864
 20
-112.2863416602965
 10
72.907694480471
 20
-112.3667846398771
 10
72.907694480471
 20
-112.6439425716654
 10
72.907694480471
 20
-112.9824232030912
 10
72.64328340197807
 20
-113.1495103341258
 10
72.34700519024659
 20
-113.1495103341258
 97
        0
 97
        0
 75
     2
 76
     1
 98
        0
  0
ENDBLK
  5
10E
330
10B
100
AcDbEntity
  8
0
100
AcDbBlockEnd
  0
BLOCK
  5
113
330
111
100
AcDbEntity
  8
0
100
AcDbBlockBegin
  2
block 7
 70
     0
 10
0.0
 20
0.0
 30
0.0
  3
block 7
  1

  0
SPLINE
  5
115
330
111
100
AcDbEntity
  8
_U+30EC_U+30A4_U+30E4_U+30FC 1
370
     0
100
AcDbSpline
210
0.0
220
0.0
230
1.0
 70
    11
 71
     3
 72
    32
 73
    28
 74
     0
 42
0.0000000001
 43
0.0000000001
 12
1.0
 22
0.0
 32
0.0
 13
1.0
 23
0.0
 33
0.0
 40
0.0
 40
0.0
 40
0.0
 40
0.0
 40
1.0
 40
1.0
 40
1.0
 40
2.0
 40
2.0
 40
2.0
 40
3.0
 40
3.0
 40
3.0
 40
4.0
 40
4.0
 40
4.0
 40
5.0
 40
5.0
 40
5.0
 40
6.0
 40
6.0
 40
6.0
 40
7.0
 40
7.0
 40
7.0
 40
8.0
 40
8.0
 40
8.0
 40
9.0
 40
9.0
 40
9.0
 40
9.0
 10
117.3713025965252
 20
-133.4102891376544
 30
0.0
 10
117.3713025965252
 20
-133.9618489248429
 30
0.0
 10
116.8169867329485
 20
-133.9708061731045
 30
0.0
 10
116.603390812863
 20
-133.9708061731045
 30
0.0
 10
116.3725694153513
 20
-133.9708061731045
 30
0.0
 10
115.7255804832214
 20
-133.9508246192901
 30
0.0
 10
115.7255804832214
 20
-133.3696370109284
 30
0.0
 10
115.7255804832214
 20
-133.184290873822
 30
0.0
 10
115.7951714120234
 20
-132.9221191073945
 30
0.0
 10
116.1272786168015
 20
-132.8814669806685
 30
0.0
 10
116.1272786168015
 20
-132.8814669806685
 30
0.0
 10
116.1272786168015
 20
-133.1095323017921
 30
0.0
 10
116.1272786168015
 20
-133.1095323017921
 30
0.0
 10
116.0700900317464
 20
-133.1209011168934
 30
0.0
 10
115.9219509258806
 20
-133.1550075621974
 30
0.0
 10
115.9219509258806
 20
-133.3720485777681
 30
0.0
 10
115.9219509258806
 20
-133.6838297191832
 30
0.0
 10
116.2499240160764
 20
-133.7268934127488
 30
0.0
 10
116.4552517069973
 20
-133.7403292851413
 30
0.0
 10
116.3770480394821
 20
-133.6407660256176
 30
0.0
 10
116.3177923971358
 20
-133.5684190204273
 30
0.0
 10
116.3177923971358
 20
-133.3741156350593
 30
0.0
 10
116.3177923971358
 20
-133.1818793069823
 30
0.0
 10
116.4256238858242
 20
-132.8587293504659
 30
0.0
 10
116.8318006435351
 20
-132.8587293504659
 30
0.0
 10
117.1511609950178
 20
-132.8587293504659
 30
0.0
 10
117.3713025965252
 20
-133.0709472323573
 30
0.0
 10
117.3713025965252
 20
-133.4102891376544
 30
0.0
  0
SPLINE
  5
116
330
111
100
AcDbEntity
  8
_U+30EC_U+30A4_U+30E4_U+30FC 1
370
     0
100
AcDbSpline
210
0.0
220
0.0
230
1.0
 70
    11
 71
     3
 72
    17
 73
    13
 74
     0
 42
0.0000000001
 43
0.0000000001
 12
1.0
 22
0.0
 32
0.0
 13
1.0
 23
0.0
 33
0.0
 40
0.0
 40
0.0
 40
0.0
 40
0.0
 40
1.0
 40
1.0
 40
1.0
 40
2.0
 40
2.0
 40
2.0
 40
3.0
 40
3.0
 40
3.0
 40
4.0
 40
4.0
 40
4.0
 40
4.0
 10
116.5124402920524
 20
-133.3920301315825
 30
0.0
 10
116.5124402920524
 20
-133.6724609040819
 30
0.0
 10
116.7239691548468
 20
-133.7131130308078
 30
0.0
 10
116.8404133822482
 20
-133.7131130308078
 30
0.0
 10
117.0157687424474
 20
-133.7131130308078
 30
0.0
 10
117.1787217588998
 20
-133.611482713993
 30
0.0
 10
117.1787217588998
 20
-133.4147677617852
 30
0.0
 10
117.1787217588998
 20
-133.2859211906369
 30
0.0
 10
117.1194661165535
 20
-133.0985079962393
 30
0.0
 10
116.8338677008263
 20
-133.0985079962393
 30
0.0
 10
116.6095919847365
 20
-133.0985079962393
 30
0.0
 10
116.5124402920524
 20
-133.2473361212021
 30
0.0
 10
116.5124402920524
 20
-133.3920301315825
 30
0.0
  0
HATCH
  5
117
330
111
100
AcDbEntity
  8
_U+30EC_U+30A4_U+30E4_U+30FC 1
 62
   179
420
  2234388
100
AcDbHatch
 10
0.0
 20
0.0
 30
0.0
210
0.0
220
0.0
230
1.0
  2
SOLID
 70
     1
 71
     0
 91
        2
 92
        1
 93
        1
 72
     4
 94
        3
 73
     0
 74
     1
 95
       32
 96
       28
 40
0.0
 40
0.0
 40
0.0
 40
0.0
 40
1.0
 40
1.0
 40
1.0
 40
2.0
 40
2.0
 40
2.0
 40
3.0
 40
3.0
 40
3.0
 40
4.0
 40
4.0
 40
4.0
 40
5.0
 40
5.0
 40
5.0
 40
6.0
 40
6.0
 40
6.0
 40
7.0
 40
7.0
 40
7.0
 40
8.0
 40
8.0
 40
8.0
 40
9.0
 40
9.0
 40
9.0
 40
9.0
 10
117.3713025965252
 20
-133.4102891376544
 10
117.3713025965252
 20
-133.9618489248429
 10
116.8169867329485
 20
-133.9708061731045
 10
116.603390812863
 20
-133.9708061731045
 10
116.3725694153513
 20
-133.9708061731045
 10
115.7255804832214
 20
-133.9508246192901
 10
115.7255804832214
 20
-133.3696370109284
 10
115.7255804832214
 20
-133.184290873822
 10
115.7951714120234
 20
-132.9221191073945
 10
116.1272786168015
 20
-132.8814669806685
 10
116.1272786168015
 20
-132.8814669806685
 10
116.1272786168015
 20
-133.1095323017921
 10
116.1272786168015
 20
-133.1095323017921
 10
116.0700900317464
 20
-133.1209011168934
 10
115.9219509258806
 20
-133.1550075621974
 10
115.9219509258806
 20
-133.3720485777681
 10
115.9219509258806
 20
-133.6838297191832
 10
116.2499240160764
 20
-133.7268934127488
 10
116.4552517069973
 20
-133.7403292851413
 10
116.3770480394821
 20
-133.6407660256176
 10
116.3177923971358
 20
-133.5684190204273
 10
116.3177923971358
 20
-133.3741156350593
 10
116.3177923971358
 20
-133.1818793069823
 10
116.4256238858242
 20
-132.8587293504659
 10
116.8318006435351
 20
-132.8587293504659
 10
117.1511609950178
 20
-132.8587293504659
 10
117.3713025965252
 20
-133.0709472323573
 10
117.3713025965252
 20
-133.4102891376544
 97
        0
 97
        0
 92
        1
 93
        1
 72
     4
 94
        3
 73
     0
 74
     1
 95
       17
 96
       13
 40
0.0
 40
0.0
 40
0.0
 40
0.0
 40
1.0
 40
1.0
 40
1.0
 40
2.0
 40
2.0
 40
2.0
 40
3.0
 40
3.0
 40
3.0
 40
4.0
 40
4.0
 40
4.0
 40
4.0
 10
116.5124402920524
 20
-133.3920301315825
 10
116.5124402920524
 20
-133.6724609040819
 10
116.7239691548468
 20
-133.7131130308078
 10
116.8404133822482
 20
-133.7131130308078
 10
117.0157687424474
 20
-133.7131130308078
 10
117.1787217588998
 20
-133.611482713993
 10
117.1787217588998
 20
-133.4147677617852
 10
117.1787217588998
 20
-133.2859211906369
 10
117.1194661165535
 20
-133.0985079962393
 10
116.8338677008263
 20
-133.0985079962393
 10
116.6095919847365
 20
-133.0985079962393
 10
116.5124402920524
 20
-133.2473361212021
 10
116.5124402920524
 20
-133.3920301315825
 97
        0
 97
        0
 75
     2
 76
     1
 98
        0
  0
POLYLINE
  5
118
330
111
100
AcDbEntity
  8
_U+30EC_U+30A4_U+30E4_U+30FC 1
370
     0
100
AcDb2dPolyline
 66
     1
 10
0.0
 20
0.0
 30
0.0
  0
VERTEX
  5
119
330
118
100
AcDbEntity
  8
_U+30EC_U+30A4_U+30E4_U+30FC 1
370
     0
100
AcDbVertex
100
AcDb2dVertex
 10
117.3206596928921
 20
-132.6272189338571
 30
0.0
  0
VERTEX
  5
11A
330
118
100
AcDbEntity
  8
_U+30EC_U+30A4_U+30E4_U+30FC 1
370
     0
100
AcDbVertex
100
AcDb2dVertex
 10
117.0688232129203
 20
-132.6272189338571
 30
0.0
  0
VERTEX
  5
11B
330
118
100
AcDbEntity
  8
_U+30EC_U+30A4_U+30E4_U+30FC 1
370
     0
100
AcDbVertex
100
AcDb2dVertex
 10
117.0688232129203
 20
-132.3581569764591
 30
0.0
  0
VERTEX
  5
11C
330
118
100
AcDbEntity
  8
_U+30EC_U+30A4_U+30E4_U+30FC 1
370
     0
100
AcDbVertex
100
AcDb2dVertex
 10
117.3206596928921
 20
-132.3581569764591
 30
0.0
  0
VERTEX
  5
11D
330
118
100
AcDbEntity
  8
_U+30EC_U+30A4_U+30E4_U+30FC 1
370
     0
100
AcDbVertex
100
AcDb2dVertex
 10
117.3206596928921
 20
-132.6272189338571
 30
0.0
  0
SEQEND
  5
11E
330
118
100
AcDbEntity
  8
_U+30EC_U+30A4_U+30E4_U+30FC 1
370
     0
  0
HATCH
  5
11F
330
111
100
AcDbEntity
  8
_U+30EC_U+30A4_U+30E4_U+30FC 1
 62
   179
420
  2234388
100
AcDbHatch
 10
0.0
 20
0.0
 30
0.0
210
0.0
220
0.0
230
1.0
  2
SOLID
 70
     1
 71
     0
 91
        1
 92
        1
 93
        4
 72
     1
 10
117.3206596928921
 20
-132.6272189338571
 11
117.0688232129203
 21
-132.6272189338571
 72
     1
 10
117.0688232129203
 20
-132.6272189338571
 11
117.0688232129203
 21
-132.3581569764591
 72
     1
 10
117.0688232129203
 20
-132.3581569764591
 11
117.3206596928921
 21
-132.3581569764591
 72
     1
 10
117.3206596928921
 20
-132.3581569764591
 11
117.3206596928921
 21
-132.6272189338571
 97
        0
 75
     2
 76
     1
 98
        0
  0
SPLINE
  5
120
330
111
100
AcDbEntity
  8
_U+30EC_U+30A4_U+30E4_U+30FC 1
370
     0
100
AcDbSpline
210
0.0
220
0.0
230
1.0
 70
    11
 71
     3
 72
    53
 73
    49
 74
     0
 42
0.0000000001
 43
0.0000000001
 12
1.0
 22
0.0
 32
0.0
 13
1.0
 23
0.0
 33
0.0
 40
0.0
 40
0.0
 40
0.0
 40
0.0
 40
1.0
 40
1.0
 40
1.0
 40
2.0
 40
2.0
 40
2.0
 40
3.0
 40
3.0
 40
3.0
 40
4.0
 40
4.0
 40
4.0
 40
5.0
 40
5.0
 40
5.0
 40
6.0
 40
6.0
 40
6.0
 40
7.0
 40
7.0
 40
7.0
 40
8.0
 40
8.0
 40
8.0
 40
9.0
 40
9.0
 40
9.0
 40
10.0
 40
10.0
 40
10.0
 40
11.0
 40
11.0
 40
11.0
 40
12.0
 40
12.0
 40
12.0
 40
13.0
 40
13.0
 40
13.0
 40
14.0
 40
14.0
 40
14.0
 40
15.0
 40
15.0
 40
15.0
 40
16.0
 40
16.0
 40
16.0
 40
16.0
 10
117.3713025965252
 20
-131.5912787214425
 30
0.0
 10
117.3713025965252
 20
-131.674994541734
 30
0.0
 10
117.3544216286475
 20
-131.7835150495194
 30
0.0
 10
117.2910318717189
 20
-131.8920355573048
 30
0.0
 10
117.1807888161909
 20
-132.0773816944112
 30
0.0
 10
117.0498751877514
 20
-132.1001193246139
 30
0.0
 10
116.9416991895146
 20
-132.1204453879768
 30
0.0
 10
116.9416991895146
 20
-132.1204453879768
 30
0.0
 10
116.9416991895146
 20
-131.8830783090431
 30
0.0
 10
116.9416991895146
 20
-131.8830783090431
 30
0.0
 10
117.140825708562
 20
-131.8241671762453
 30
0.0
 10
117.1704535297352
 20
-131.688774923675
 30
0.0
 10
117.1704535297352
 20
-131.5888671546028
 30
0.0
 10
117.1704535297352
 20
-131.44003902964
 30
0.0
 10
117.0708902702115
 20
-131.2770860131877
 30
0.0
 10
116.8383463249571
 20
-131.2770860131877
 30
0.0
 10
116.5820312208545
 20
-131.2770860131877
 30
0.0
 10
116.5124402920524
 20
-131.4693223412646
 30
0.0
 10
116.5124402920524
 20
-131.598168912413
 30
0.0
 10
116.5124402920524
 20
-131.6322753577169
 30
0.0
 10
116.5124402920524
 20
-131.7835150495194
 30
0.0
 10
116.6412868632008
 20
-131.8782551753638
 30
0.0
 10
116.6412868632008
 20
-131.8782551753638
 30
0.0
 10
116.6223388380319
 20
-132.0663573888584
 30
0.0
 10
116.6223388380319
 20
-132.0663573888584
 30
0.0
 10
116.6223388380319
 20
-132.0663573888584
 30
0.0
 10
115.7762233868546
 20
-131.9371663081616
 30
0.0
 10
115.7762233868546
 20
-131.9371663081616
 30
0.0
 10
115.7762233868546
 20
-131.9371663081616
 30
0.0
 10
115.7762233868546
 20
-131.1051757484737
 30
0.0
 10
115.7762233868546
 20
-131.1051757484737
 30
0.0
 10
115.7762233868546
 20
-131.1051757484737
 30
0.0
 10
115.9708712817712
 20
-131.1051757484737
 30
0.0
 10
115.9708712817712
 20
-131.1051757484737
 30
0.0
 10
115.9708712817712
 20
-131.1051757484737
 30
0.0
 10
115.9708712817712
 20
-131.7631889861564
 30
0.0
 10
115.9708712817712
 20
-131.7631889861564
 30
0.0
 10
115.9708712817712
 20
-131.7631889861564
 30
0.0
 10
116.3939290073599
 20
-131.8334689340555
 30
0.0
 10
116.3939290073599
 20
-131.8334689340555
 30
0.0
 10
116.3601670716044
 20
-131.7676676102872
 30
0.0
 10
116.319859454427
 20
-131.6794731658649
 30
0.0
 10
116.319859454427
 20
-131.5530381615562
 30
0.0
 10
116.319859454427
 20
-131.2815646373185
 30
0.0
 10
116.506239120179
 20
-131.0283501191526
 30
0.0
 10
116.8190537902397
 20
-131.0283501191526
 30
0.0
 10
117.1366915939797
 20
-131.0283501191526
 30
0.0
 10
117.3713025965252
 20
-131.268128764926
 30
0.0
 10
117.3713025965252
 20
-131.5912787214425
 30
0.0
  0
HATCH
  5
121
330
111
100
AcDbEntity
  8
_U+30EC_U+30A4_U+30E4_U+30FC 1
 62
   179
420
  2234388
100
AcDbHatch
 10
0.0
 20
0.0
 30
0.0
210
0.0
220
0.0
230
1.0
  2
SOLID
 70
     1
 71
     0
 91
        1
 92
        1
 93
        1
 72
     4
 94
        3
 73
     0
 74
     1
 95
       53
 96
       49
 40
0.0
 40
0.0
 40
0.0
 40
0.0
 40
1.0
 40
1.0
 40
1.0
 40
2.0
 40
2.0
 40
2.0
 40
3.0
 40
3.0
 40
3.0
 40
4.0
 40
4.0
 40
4.0
 40
5.0
 40
5.0
 40
5.0
 40
6.0
 40
6.0
 40
6.0
 40
7.0
 40
7.0
 40
7.0
 40
8.0
 40
8.0
 40
8.0
 40
9.0
 40
9.0
 40
9.0
 40
10.0
 40
10.0
 40
10.0
 40
11.0
 40
11.0
 40
11.0
 40
12.0
 40
12.0
 40
12.0
 40
13.0
 40
13.0
 40
13.0
 40
14.0
 40
14.0
 40
14.0
 40
15.0
 40
15.0
 40
15.0
 40
16.0
 40
16.0
 40
16.0
 40
16.0
 10
117.3713025965252
 20
-131.5912787214425
 10
117.3713025965252
 20
-131.674994541734
 10
117.3544216286475
 20
-131.7835150495194
 10
117.2910318717189
 20
-131.8920355573048
 10
117.1807888161909
 20
-132.0773816944112
 10
117.0498751877514
 20
-132.1001193246139
 10
116.9416991895146
 20
-132.1204453879768
 10
116.9416991895146
 20
-132.1204453879768
 10
116.9416991895146
 20
-131.8830783090431
 10
116.9416991895146
 20
-131.8830783090431
 10
117.140825708562
 20
-131.8241671762453
 10
117.1704535297352
 20
-131.688774923675
 10
117.1704535297352
 20
-131.5888671546028
 10
117.1704535297352
 20
-131.44003902964
 10
117.0708902702115
 20
-131.2770860131877
 10
116.8383463249571
 20
-131.2770860131877
 10
116.5820312208545
 20
-131.2770860131877
 10
116.5124402920524
 20
-131.4693223412646
 10
116.5124402920524
 20
-131.598168912413
 10
116.5124402920524
 20
-131.6322753577169
 10
116.5124402920524
 20
-131.7835150495194
 10
116.6412868632008
 20
-131.8782551753638
 10
116.6412868632008
 20
-131.8782551753638
 10
116.6223388380319
 20
-132.0663573888584
 10
116.6223388380319
 20
-132.0663573888584
 10
116.6223388380319
 20
-132.0663573888584
 10
115.7762233868546
 20
-131.9371663081616
 10
115.7762233868546
 20
-131.9371663081616
 10
115.7762233868546
 20
-131.9371663081616
 10
115.7762233868546
 20
-131.1051757484737
 10
115.7762233868546
 20
-131.1051757484737
 10
115.7762233868546
 20
-131.1051757484737
 10
115.9708712817712
 20
-131.1051757484737
 10
115.9708712817712
 20
-131.1051757484737
 10
115.9708712817712
 20
-131.1051757484737
 10
115.9708712817712
 20
-131.7631889861564
 10
115.9708712817712
 20
-131.7631889861564
 10
115.9708712817712
 20
-131.7631889861564
 10
116.3939290073599
 20
-131.8334689340555
 10
116.3939290073599
 20
-131.8334689340555
 10
116.3601670716044
 20
-131.7676676102872
 10
116.319859454427
 20
-131.6794731658649
 10
116.319859454427
 20
-131.5530381615562
 10
116.319859454427
 20
-131.2815646373185
 10
116.506239120179
 20
-131.0283501191526
 10
116.8190537902397
 20
-131.0283501191526
 10
117.1366915939797
 20
-131.0283501191526
 10
117.3713025965252
 20
-131.268128764926
 10
117.3713025965252
 20
-131.5912787214425
 97
        0
 97
        0
 75
     2
 76
     1
 98
        0
  0
ENDBLK
  5
114
330
111
100
AcDbEntity
  8
0
100
AcDbBlockEnd
  0
BLOCK
  5
124
330
122
100
AcDbEntity
  8
0
100
AcDbBlockBegin
  2
block 8
 70
     0
 10
0.0
 20
0.0
 30
0.0
  3
block 8
  1

  0
SPLINE
  5
126
330
122
100
AcDbEntity
  8
_U+30EC_U+30A4_U+30E4_U+30FC 1
370
     0
100
AcDbSpline
210
0.0
220
0.0
230
1.0
 70
    11
 71
     3
 72
    26
 73
    22
 74
     0
 42
0.0000000001
 43
0.0000000001
 12
1.0
 22
0.0
 32
0.0
 13
1.0
 23
0.0
 33
0.0
 40
0.0
 40
0.0
 40
0.0
 40
0.0
 40
1.0
 40
1.0
 40
1.0
 40
2.0
 40
2.0
 40
2.0
 40
3.0
 40
3.0
 40
3.0
 40
4.0
 40
4.0
 40
4.0
 40
5.0
 40
5.0
 40
5.0
 40
6.0
 40
6.0
 40
6.0
 40
7.0
 40
7.0
 40
7.0
 40
7.0
 10
65.91122231425136
 20
-130.571874967357
 30
0.0
 10
65.91122231425136
 20
-130.571874967357
 30
0.0
 10
64.8070692112288
 20
-130.571874967357
 30
0.0
 10
64.8070692112288
 20
-130.571874967357
 30
0.0
 10
64.8070692112288
 20
-130.571874967357
 30
0.0
 10
64.8070692112288
 20
-130.9243082354981
 30
0.0
 10
64.8070692112288
 20
-130.9243082354981
 30
0.0
 10
64.8070692112288
 20
-130.9243082354981
 30
0.0
 10
64.65893010536305
 20
-130.9243082354981
 30
0.0
 10
64.65893010536305
 20
-130.9243082354981
 30
0.0
 10
64.64411619477647
 20
-130.5694634005173
 30
0.0
 10
64.48116317832415
 20
-130.5198540255298
 30
0.0
 10
64.36678600821386
 20
-130.4881591470655
 30
0.0
 10
64.36678600821386
 20
-130.4881591470655
 30
0.0
 10
64.36678600821386
 20
-130.3320963215836
 30
0.0
 10
64.36678600821386
 20
-130.3320963215836
 30
0.0
 10
64.36678600821386
 20
-130.3320963215836
 30
0.0
 10
65.91122231425136
 20
-130.3320963215836
 30
0.0
 10
65.91122231425136
 20
-130.3320963215836
 30
0.0
 10
65.91122231425136
 20
-130.3320963215836
 30
0.0
 10
65.91122231425136
 20
-130.571874967357
 30
0.0
 10
65.91122231425136
 20
-130.571874967357
 30
0.0
  0
HATCH
  5
127
330
122
100
AcDbEntity
  8
_U+30EC_U+30A4_U+30E4_U+30FC 1
 62
   179
420
  2234388
100
AcDbHatch
 10
0.0
 20
0.0
 30
0.0
210
0.0
220
0.0
230
1.0
  2
SOLID
 70
     1
 71
     0
 91
        1
 92
        1
 93
        1
 72
     4
 94
        3
 73
     0
 74
     1
 95
       26
 96
       22
 40
0.0
 40
0.0
 40
0.0
 40
0.0
 40
1.0
 40
1.0
 40
1.0
 40
2.0
 40
2.0
 40
2.0
 40
3.0
 40
3.0
 40
3.0
 40
4.0
 40
4.0
 40
4.0
 40
5.0
 40
5.0
 40
5.0
 40
6.0
 40
6.0
 40
6.0
 40
7.0
 40
7.0
 40
7.0
 40
7.0
 10
65.91122231425136
 20
-130.571874967357
 10
65.91122231425136
 20
-130.571874967357
 10
64.8070692112288
 20
-130.571874967357
 10
64.8070692112288
 20
-130.571874967357
 10
64.8070692112288
 20
-130.571874967357
 10
64.8070692112288
 20
-130.9243082354981
 10
64.8070692112288
 20
-130.9243082354981
 10
64.8070692112288
 20
-130.9243082354981
 10
64.65893010536305
 20
-130.9243082354981
 10
64.65893010536305
 20
-130.9243082354981
 10
64.64411619477647
 20
-130.5694634005173
 10
64.48116317832415
 20
-130.5198540255298
 10
64.36678600821386
 20
-130.4881591470655
 10
64.36678600821386
 20
-130.4881591470655
 10
64.36678600821386
 20
-130.3320963215836
 10
64.36678600821386
 20
-130.3320963215836
 10
64.36678600821386
 20
-130.3320963215836
 10
65.91122231425136
 20
-130.3320963215836
 10
65.91122231425136
 20
-130.3320963215836
 10
65.91122231425136
 20
-130.3320963215836
 10
65.91122231425136
 20
-130.571874967357
 10
65.91122231425136
 20
-130.571874967357
 97
        0
 97
        0
 75
     2
 76
     1
 98
        0
  0
SPLINE
  5
128
330
122
100
AcDbEntity
  8
_U+30EC_U+30A4_U+30E4_U+30FC 1
370
     0
100
AcDbSpline
210
0.0
220
0.0
230
1.0
 70
    11
 71
     3
 72
    29
 73
    25
 74
     0
 42
0.0000000001
 43
0.0000000001
 12
1.0
 22
0.0
 32
0.0
 13
1.0
 23
0.0
 33
0.0
 40
0.0
 40
0.0
 40
0.0
 40
0.0
 40
1.0
 40
1.0
 40
1.0
 40
2.0
 40
2.0
 40
2.0
 40
3.0
 40
3.0
 40
3.0
 40
4.0
 40
4.0
 40
4.0
 40
5.0
 40
5.0
 40
5.0
 40
6.0
 40
6.0
 40
6.0
 40
7.0
 40
7.0
 40
7.0
 40
8.0
 40
8.0
 40
8.0
 40
8.0
 10
65.96186521788454
 20
-129.262049663865
 30
0.0
 10
65.96186521788454
 20
-129.5466145509467
 30
0.0
 10
65.82440590802307
 20
-129.8180880751844
 30
0.0
 10
65.47541773536726
 20
-129.8180880751844
 30
0.0
 10
65.2194471408132
 20
-129.8180880751844
 30
0.0
 10
65.12436250542031
 20
-129.6665038738334
 30
0.0
 10
65.06303980578285
 20
-129.5535047419172
 30
0.0
 10
65.00378416343656
 20
-129.6868299371964
 30
0.0
 10
64.88940699332626
 20
-129.7684787001968
 30
0.0
 10
64.7285210341651
 20
-129.7684787001968
 30
0.0
 10
64.45360241444216
 20
-129.7684787001968
 30
0.0
 10
64.31821016187185
 20
-129.5559163087568
 30
0.0
 10
64.31821016187185
 20
-129.262049663865
 30
0.0
 10
64.31821016187185
 20
-128.9588812611631
 30
0.0
 10
64.46221515315528
 20
-128.7556206275333
 30
0.0
 10
64.7285210341651
 20
-128.7556206275333
 30
0.0
 10
64.88940699332626
 20
-128.7556206275333
 30
0.0
 10
65.00378416343656
 20
-128.8389919382764
 30
0.0
 10
65.06303980578285
 20
-128.9726616431041
 30
0.0
 10
65.11368270941603
 20
-128.8775770077112
 30
0.0
 10
65.20876734480892
 20
-128.7080783098369
 30
0.0
 10
65.47128362078496
 20
-128.7080783098369
 30
0.0
 10
65.84576550003162
 20
-128.7080783098369
 30
0.0
 10
65.96186521788454
 20
-129.0064235788595
 30
0.0
 10
65.96186521788454
 20
-129.262049663865
 30
0.0
  0
SPLINE
  5
129
330
122
100
AcDbEntity
  8
_U+30EC_U+30A4_U+30E4_U+30FC 1
370
     0
100
AcDbSpline
210
0.0
220
0.0
230
1.0
 70
    11
 71
     3
 72
    17
 73
    13
 74
     0
 42
0.0000000001
 43
0.0000000001
 12
1.0
 22
0.0
 32
0.0
 13
1.0
 23
0.0
 33
0.0
 40
0.0
 40
0.0
 40
0.0
 40
0.0
 40
1.0
 40
1.0
 40
1.0
 40
2.0
 40
2.0
 40
2.0
 40
3.0
 40
3.0
 40
3.0
 40
4.0
 40
4.0
 40
4.0
 40
4.0
 10
64.5107909994973
 20
-129.262049663865
 30
0.0
 10
64.5107909994973
 20
-129.4384385527098
 30
0.0
 10
64.6058756348902
 20
-129.5287000544234
 30
0.0
 10
64.74126788746052
 20
-129.5287000544234
 30
0.0
 10
64.86391328673541
 20
-129.5287000544234
 30
0.0
 10
64.98242457142801
 20
-129.4518744251023
 30
0.0
 10
64.98242457142801
 20
-129.262049663865
 30
0.0
 10
64.98242457142801
 20
-129.0718803930793
 30
0.0
 10
64.86391328673541
 20
-128.9950547637582
 30
0.0
 10
64.74126788746052
 20
-128.9950547637582
 30
0.0
 10
64.6058756348902
 20
-128.9950547637582
 30
0.0
 10
64.5107909994973
 20
-129.0877278323114
 30
0.0
 10
64.5107909994973
 20
-129.262049663865
 30
0.0
  0
SPLINE
  5
12A
330
122
100
AcDbEntity
  8
_U+30EC_U+30A4_U+30E4_U+30FC 1
370
     0
100
AcDbSpline
210
0.0
220
0.0
230
1.0
 70
    11
 71
     3
 72
    17
 73
    13
 74
     0
 42
0.0000000001
 43
0.0000000001
 12
1.0
 22
0.0
 32
0.0
 13
1.0
 23
0.0
 33
0.0
 40
0.0
 40
0.0
 40
0.0
 40
0.0
 40
1.0
 40
1.0
 40
1.0
 40
2.0
 40
2.0
 40
2.0
 40
3.0
 40
3.0
 40
3.0
 40
4.0
 40
4.0
 40
4.0
 40
4.0
 10
65.17087129447117
 20
-129.262049663865
 30
0.0
 10
65.17087129447117
 20
-129.4157009225072
 30
0.0
 10
65.25768770069946
 20
-129.578309429411
 30
0.0
 10
65.46060382478069
 20
-129.578309429411
 30
0.0
 10
65.66593151570157
 20
-129.578309429411
 30
0.0
 10
65.76721732296792
 20
-129.4429171768407
 30
0.0
 10
65.76721732296792
 20
-129.262049663865
 30
0.0
 10
65.76721732296792
 20
-129.0629231448176
 30
0.0
 10
65.64457192369302
 20
-128.9454453887706
 30
0.0
 10
65.46680499665413
 20
-128.9454453887706
 30
0.0
 10
65.24494084740405
 20
-128.9454453887706
 30
0.0
 10
65.17087129447117
 20
-129.1194227107757
 30
0.0
 10
65.17087129447117
 20
-129.262049663865
 30
0.0
  0
HATCH
  5
12B
330
122
100
AcDbEntity
  8
_U+30EC_U+30A4_U+30E4_U+30FC 1
 62
   179
420
  2234388
100
AcDbHatch
 10
0.0
 20
0.0
 30
0.0
210
0.0
220
0.0
230
1.0
  2
SOLID
 70
     1
 71
     0
 91
        3
 92
        1
 93
        1
 72
     4
 94
        3
 73
     0
 74
     1
 95
       29
 96
       25
 40
0.0
 40
0.0
 40
0.0
 40
0.0
 40
1.0
 40
1.0
 40
1.0
 40
2.0
 40
2.0
 40
2.0
 40
3.0
 40
3.0
 40
3.0
 40
4.0
 40
4.0
 40
4.0
 40
5.0
 40
5.0
 40
5.0
 40
6.0
 40
6.0
 40
6.0
 40
7.0
 40
7.0
 40
7.0
 40
8.0
 40
8.0
 40
8.0
 40
8.0
 10
65.96186521788454
 20
-129.262049663865
 10
65.96186521788454
 20
-129.5466145509467
 10
65.82440590802307
 20
-129.8180880751844
 10
65.47541773536726
 20
-129.8180880751844
 10
65.2194471408132
 20
-129.8180880751844
 10
65.12436250542031
 20
-129.6665038738334
 10
65.06303980578285
 20
-129.5535047419172
 10
65.00378416343656
 20
-129.6868299371964
 10
64.88940699332626
 20
-129.7684787001968
 10
64.7285210341651
 20
-129.7684787001968
 10
64.45360241444216
 20
-129.7684787001968
 10
64.31821016187185
 20
-129.5559163087568
 10
64.31821016187185
 20
-129.262049663865
 10
64.31821016187185
 20
-128.9588812611631
 10
64.46221515315528
 20
-128.7556206275333
 10
64.7285210341651
 20
-128.7556206275333
 10
64.88940699332626
 20
-128.7556206275333
 10
65.00378416343656
 20
-128.8389919382764
 10
65.06303980578285
 20
-128.9726616431041
 10
65.11368270941603
 20
-128.8775770077112
 10
65.20876734480892
 20
-128.7080783098369
 10
65.47128362078496
 20
-128.7080783098369
 10
65.84576550003162
 20
-128.7080783098369
 10
65.96186521788454
 20
-129.0064235788595
 10
65.96186521788454
 20
-129.262049663865
 97
        0
 97
        0
 92
        1
 93
        1
 72
     4
 94
        3
 73
     0
 74
     1
 95
       17
 96
       13
 40
0.0
 40
0.0
 40
0.0
 40
0.0
 40
1.0
 40
1.0
 40
1.0
 40
2.0
 40
2.0
 40
2.0
 40
3.0
 40
3.0
 40
3.0
 40
4.0
 40
4.0
 40
4.0
 40
4.0
 10
64.5107909994973
 20
-129.262049663865
 10
64.5107909994973
 20
-129.4384385527098
 10
64.6058756348902
 20
-129.5287000544234
 10
64.74126788746052
 20
-129.5287000544234
 10
64.86391328673541
 20
-129.5287000544234
 10
64.98242457142801
 20
-129.4518744251023
 10
64.98242457142801
 20
-129.262049663865
 10
64.98242457142801
 20
-129.0718803930793
 10
64.86391328673541
 20
-128.9950547637582
 10
64.74126788746052
 20
-128.9950547637582
 10
64.6058756348902
 20
-128.9950547637582
 10
64.5107909994973
 20
-129.0877278323114
 10
64.5107909994973
 20
-129.262049663865
 97
        0
 97
        0
 92
        1
 93
        1
 72
     4
 94
        3
 73
     0
 74
     1
 95
       17
 96
       13
 40
0.0
 40
0.0
 40
0.0
 40
0.0
 40
1.0
 40
1.0
 40
1.0
 40
2.0
 40
2.0
 40
2.0
 40
3.0
 40
3.0
 40
3.0
 40
4.0
 40
4.0
 40
4.0
 40
4.0
 10
65.17087129447117
 20
-129.262049663865
 10
65.17087129447117
 20
-129.4157009225072
 10
65.25768770069946
 20
-129.578309429411
 10
65.46060382478069
 20
-129.578309429411
 10
65.66593151570157
 20
-129.578309429411
 10
65.76721732296792
 20
-129.4429171768407
 10
65.76721732296792
 20
-129.262049663865
 10
65.76721732296792
 20
-129.0629231448176
 10
65.64457192369302
 20
-128.9454453887706
 10
65.46680499665413
 20
-128.9454453887706
 10
65.24494084740405
 20
-128.9454453887706
 10
65.17087129447117
 20
-129.1194227107757
 10
65.17087129447117
 20
-129.262049663865
 97
        0
 97
        0
 75
     2
 76
     1
 98
        0
  0
ENDBLK
  5
125
330
122
100
AcDbEntity
  8
0
100
AcDbBlockEnd
  0
ENDSEC
  0
SECTION
  2
ENTITIES
  0
POLYLINE
  5
41
330
1F
100
AcDbEntity
  8
_U+30EC_U+30A4_U+30E4_U+30FC 1
 62
   179
420
  2234388
370
    25
100
AcDb2dPolyline
 66
     1
 10
0.0
 20
0.0
 30
0.0
  0
VERTEX
  5
42
330
41
100
AcDbEntity
  8
_U+30EC_U+30A4_U+30E4_U+30FC 1
 62
   179
420
  2234388
370
    25
100
AcDbVertex
100
AcDb2dVertex
 10
75.85685112028605
 20
-138.8900574652778
 30
0.0
  0
VERTEX
  5
43
330
41
100
AcDbEntity
  8
_U+30EC_U+30A4_U+30E4_U+30FC 1
 62
   179
420
  2234388
370
    25
100
AcDbVertex
100
AcDb2dVertex
 10
70.85664958118515
 20
-138.8900574652778
 30
0.0
  0
SEQEND
  5
44
330
41
100
AcDbEntity
  8
_U+30EC_U+30A4_U+30E4_U+30FC 1
 62
   179
420
  2234388
370
    25
  0
POLYLINE
  5
45
330
1F
100
AcDbEntity
  8
_U+30EC_U+30A4_U+30E4_U+30FC 1
 62
   179
420
  2234388
370
    25
100
AcDb2dPolyline
 66
     1
 10
0.0
 20
0.0
 30
0.0
  0
VERTEX
  5
46
330
45
100
AcDbEntity
  8
_U+30EC_U+30A4_U+30E4_U+30FC 1
 62
   179
420
  2234388
370
    25
100
AcDbVertex
100
AcDb2dVertex
 10
73.85663644909356
 20
-120.8894302475556
 30
0.0
  0
VERTEX
  5
47
330
45
100
AcDbEntity
  8
_U+30EC_U+30A4_U+30E4_U+30FC 1
 62
   179
420
  2234388
370
    25
100
AcDbVertex
100
AcDb2dVertex
 10
70.85664958118515
 20
-120.8894302475556
 30
0.0
  0
SEQEND
  5
48
330
45
100
AcDbEntity
  8
_U+30EC_U+30A4_U+30E4_U+30FC 1
 62
   179
420
  2234388
370
    25
  0
POLYLINE
  5
49
330
1F
100
AcDbEntity
  8
_U+30EC_U+30A4_U+30E4_U+30FC 1
 62
   179
420
  2234388
370
    25
100
AcDb2dPolyline
 66
     1
 10
0.0
 20
0.0
 30
0.0
  0
VERTEX
  5
4A
330
49
100
AcDbEntity
  8
_U+30EC_U+30A4_U+30E4_U+30FC 1
 62
   179
420
  2234388
370
    25
100
AcDbVertex
100
AcDb2dVertex
 10
110.856639116256
 20
-129.3898577454304
 30
0.0
  0
VERTEX
  5
4B
330
49
100
AcDbEntity
  8
_U+30EC_U+30A4_U+30E4_U+30FC 1
 62
   179
420
  2234388
370
    25
100
AcDbVertex
100
AcDb2dVertex
 10
110.856639116256
 20
-128.3894152456805
 30
0.0
  0
SEQEND
  5
4C
330
49
100
AcDbEntity
  8
_U+30EC_U+30A4_U+30E4_U+30FC 1
 62
   179
420
  2234388
370
    25
  0
POLYLINE
  5
4D
330
1F
100
AcDbEntity
  8
_U+30EC_U+30A4_U+30E4_U+30FC 1
 62
   179
420
  2234388
370
    25
100
AcDb2dPolyline
 66
     1
 10
0.0
 20
0.0
 30
0.0
  0
VERTEX
  5
4E
330
4D
100
AcDbEntity
  8
_U+30EC_U+30A4_U+30E4_U+30FC 1
 62
   179
420
  2234388
370
    25
100
AcDbVertex
100
AcDb2dVertex
 10
70.85664958118515
 20
-138.8900574652778
 30
0.0
  0
VERTEX
  5
4F
330
4D
100
AcDbEntity
  8
_U+30EC_U+30A4_U+30E4_U+30FC 1
 62
   179
420
  2234388
370
    25
100
AcDbVertex
100
AcDb2dVertex
 10
70.85664958118515
 20
-120.8894302475556
 30
0.0
  0
SEQEND
  5
50
330
4D
100
AcDbEntity
  8
_U+30EC_U+30A4_U+30E4_U+30FC 1
 62
   179
420
  2234388
370
    25
  0
POLYLINE
  5
51
330
1F
100
AcDbEntity
  8
_U+30EC_U+30A4_U+30E4_U+30FC 1
 62
   179
420
  2234388
370
    25
100
AcDb2dPolyline
 66
     1
 10
0.0
 20
0.0
 30
0.0
  0
VERTEX
  5
52
330
51
100
AcDbEntity
  8
_U+30EC_U+30A4_U+30E4_U+30FC 1
 62
   179
420
  2234388
370
    25
100
AcDbVertex
100
AcDb2dVertex
 10
76.0063936164709
 20
-135.8900705215828
 30
0.0
  0
VERTEX
  5
53
330
51
100
AcDbEntity
  8
_U+30EC_U+30A4_U+30E4_U+30FC 1
 62
   179
420
  2234388
370
    25
100
AcDbVertex
100
AcDb2dVertex
 10
73.00570119302495
 20
-135.8900705215828
 30
0.0
  0
SEQEND
  5
54
330
51
100
AcDbEntity
  8
_U+30EC_U+30A4_U+30E4_U+30FC 1
 62
   179
420
  2234388
370
    25
  0
POLYLINE
  5
55
330
1F
100
AcDbEntity
  8
_U+30EC_U+30A4_U+30E4_U+30FC 1
 62
   179
420
  2234388
370
    25
100
AcDb2dPolyline
 66
     1
 10
0.0
 20
0.0
 30
0.0
  0
VERTEX
  5
56
330
55
100
AcDbEntity
  8
_U+30EC_U+30A4_U+30E4_U+30FC 1
 62
   179
420
  2234388
370
    25
100
AcDbVertex
100
AcDb2dVertex
 10
110.856639116256
 20
-129.3898577454304
 30
0.0
  0
VERTEX
  5
57
330
55
100
AcDbEntity
  8
_U+30EC_U+30A4_U+30E4_U+30FC 1
 62
   179
420
  2234388
370
    25
100
AcDbVertex
100
AcDb2dVertex
 10
71.85642177790106
 20
-129.3898577454304
 30
0.0
  0
SEQEND
  5
58
330
55
100
AcDbEntity
  8
_U+30EC_U+30A4_U+30E4_U+30FC 1
 62
   179
420
  2234388
370
    25
  0
POLYLINE
  5
59
330
1F
100
AcDbEntity
  8
_U+30EC_U+30A4_U+30E4_U+30FC 1
 62
   179
420
  2234388
370
    25
100
AcDb2dPolyline
 66
     1
 10
0.0
 20
0.0
 30
0.0
  0
VERTEX
  5
5A
330
59
100
AcDbEntity
  8
_U+30EC_U+30A4_U+30E4_U+30FC 1
 62
   179
420
  2234388
370
    25
100
AcDbVertex
100
AcDb2dVertex
 10
110.856639116256
 20
-128.3894152456805
 30
0.0
  0
VERTEX
  5
5B
330
59
100
AcDbEntity
  8
_U+30EC_U+30A4_U+30E4_U+30FC 1
 62
   179
420
  2234388
370
    25
100
AcDbVertex
100
AcDb2dVertex
 10
71.85642177790106
 20
-128.3894152456805
 30
0.0
  0
SEQEND
  5
5C
330
59
100
AcDbEntity
  8
_U+30EC_U+30A4_U+30E4_U+30FC 1
 62
   179
420
  2234388
370
    25
  0
POLYLINE
  5
5D
330
1F
100
AcDbEntity
  8
_U+30EC_U+30A4_U+30E4_U+30FC 1
 62
   179
420
  2234388
370
    25
100
AcDb2dPolyline
 66
     1
 10
0.0
 20
0.0
 30
0.0
  0
VERTEX
  5
5E
330
5D
100
AcDbEntity
  8
_U+30EC_U+30A4_U+30E4_U+30FC 1
 62
   179
420
  2234388
370
    25
100
AcDbVertex
100
AcDb2dVertex
 10
71.85642177790106
 20
-137.8896149655279
 30
0.0
  0
VERTEX
  5
5F
330
5D
100
AcDbEntity
  8
_U+30EC_U+30A4_U+30E4_U+30FC 1
 62
   179
420
  2234388
370
    25
100
AcDbVertex
100
AcDb2dVertex
 10
71.85642177790106
 20
-129.3898577454304
 30
0.0
  0
SEQEND
  5
60
330
5D
100
AcDbEntity
  8
_U+30EC_U+30A4_U+30E4_U+30FC 1
 62
   179
420
  2234388
370
    25
  0
POLYLINE
  5
61
330
1F
100
AcDbEntity
  8
_U+30EC_U+30A4_U+30E4_U+30FC 1
 62
   179
420
  2234388
370
    25
100
AcDb2dPolyline
 66
     1
 10
0.0
 20
0.0
 30
0.0
  0
VERTEX
  5
62
330
61
100
AcDbEntity
  8
_U+30EC_U+30A4_U+30E4_U+30FC 1
 62
   179
420
  2234388
370
    25
100
AcDbVertex
100
AcDb2dVertex
 10
73.85663644909356
 20
-121.8898727473055
 30
0.0
  0
VERTEX
  5
63
330
61
100
AcDbEntity
  8
_U+30EC_U+30A4_U+30E4_U+30FC 1
 62
   179
420
  2234388
370
    25
100
AcDbVertex
100
AcDb2dVertex
 10
71.85642177790106
 20
-121.8898727473055
 30
0.0
  0
SEQEND
  5
64
330
61
100
AcDbEntity
  8
_U+30EC_U+30A4_U+30E4_U+30FC 1
 62
   179
420
  2234388
370
    25
  0
POLYLINE
  5
65
330
1F
100
AcDbEntity
  8
_U+30EC_U+30A4_U+30E4_U+30FC 1
 62
   179
420
  2234388
370
    25
100
AcDb2dPolyline
 66
     1
 10
0.0
 20
0.0
 30
0.0
  0
VERTEX
  5
66
330
65
100
AcDbEntity
  8
_U+30EC_U+30A4_U+30E4_U+30FC 1
 62
   179
420
  2234388
370
    25
100
AcDbVertex
100
AcDb2dVertex
 10
74.85640864580947
 20
-137.8896149655279
 30
0.0
  0
VERTEX
  5
67
330
65
100
AcDbEntity
  8
_U+30EC_U+30A4_U+30E4_U+30FC 1
 62
   179
420
  2234388
370
    25
100
AcDbVertex
100
AcDb2dVertex
 10
71.85642177790106
 20
-137.8896149655279
 30
0.0
  0
SEQEND
  5
68
330
65
100
AcDbEntity
  8
_U+30EC_U+30A4_U+30E4_U+30FC 1
 62
   179
420
  2234388
370
    25
  0
POLYLINE
  5
69
330
1F
100
AcDbEntity
  8
_U+30EC_U+30A4_U+30E4_U+30FC 1
 62
   179
420
  2234388
370
    25
100
AcDb2dPolyline
 66
     1
 10
0.0
 20
0.0
 30
0.0
  0
VERTEX
  5
6A
330
69
100
AcDbEntity
  8
_U+30EC_U+30A4_U+30E4_U+30FC 1
 62
   179
420
  2234388
370
    25
100
AcDbVertex
100
AcDb2dVertex
 10
76.0063936164709
 20
-138.8900574652778
 30
0.0
  0
VERTEX
  5
6B
330
69
100
AcDbEntity
  8
_U+30EC_U+30A4_U+30E4_U+30FC 1
 62
   179
420
  2234388
370
    25
100
AcDbVertex
100
AcDb2dVertex
 10
76.0063936164709
 20
-135.8900705215828
 30
0.0
  0
SEQEND
  5
6C
330
69
100
AcDbEntity
  8
_U+30EC_U+30A4_U+30E4_U+30FC 1
 62
   179
420
  2234388
370
    25
  0
POLYLINE
  5
6D
330
1F
100
AcDbEntity
  8
_U+30EC_U+30A4_U+30E4_U+30FC 1
 62
   179
420
  2234388
370
    25
100
AcDb2dPolyline
 66
     1
 10
0.0
 20
0.0
 30
0.0
  0
VERTEX
  5
6E
330
6D
100
AcDbEntity
  8
_U+30EC_U+30A4_U+30E4_U+30FC 1
 62
   179
420
  2234388
370
    25
100
AcDbVertex
100
AcDb2dVertex
 10
75.00591586421744
 20
-137.8896149655279
 30
0.0
  0
VERTEX
  5
6F
330
6D
100
AcDbEntity
  8
_U+30EC_U+30A4_U+30E4_U+30FC 1
 62
   179
420
  2234388
370
    25
100
AcDbVertex
100
AcDb2dVertex
 10
75.00591586421744
 20
-136.8898427435553
 30
0.0
  0
SEQEND
  5
70
330
6D
100
AcDbEntity
  8
_U+30EC_U+30A4_U+30E4_U+30FC 1
 62
   179
420
  2234388
370
    25
  0
POLYLINE
  5
71
330
1F
100
AcDbEntity
  8
_U+30EC_U+30A4_U+30E4_U+30FC 1
 62
   179
420
  2234388
370
    25
100
AcDb2dPolyline
 66
     1
 10
0.0
 20
0.0
 30
0.0
  0
VERTEX
  5
72
330
71
100
AcDbEntity
  8
_U+30EC_U+30A4_U+30E4_U+30FC 1
 62
   179
420
  2234388
370
    25
100
AcDbVertex
100
AcDb2dVertex
 10
75.00591586421744
 20
-136.8898427435553
 30
0.0
  0
VERTEX
  5
73
330
71
100
AcDbEntity
  8
_U+30EC_U+30A4_U+30E4_U+30FC 1
 62
   179
420
  2234388
370
    25
100
AcDbVertex
100
AcDb2dVertex
 10
73.00570119302495
 20
-136.8898427435553
 30
0.0
  0
SEQEND
  5
74
330
71
100
AcDbEntity
  8
_U+30EC_U+30A4_U+30E4_U+30FC 1
 62
   179
420
  2234388
370
    25
  0
POLYLINE
  5
75
330
1F
100
AcDbEntity
  8
_U+30EC_U+30A4_U+30E4_U+30FC 1
 62
   179
420
  2234388
370
    25
100
AcDb2dPolyline
 66
     1
 10
0.0
 20
0.0
 30
0.0
  0
VERTEX
  5
76
330
75
100
AcDbEntity
  8
_U+30EC_U+30A4_U+30E4_U+30FC 1
 62
   179
420
  2234388
370
    25
100
AcDbVertex
100
AcDb2dVertex
 10
73.00570119302495
 20
-136.8898427435553
 30
0.0
  0
VERTEX
  5
77
330
75
100
AcDbEntity
  8
_U+30EC_U+30A4_U+30E4_U+30FC 1
 62
   179
420
  2234388
370
    25
100
AcDbVertex
100
AcDb2dVertex
 10
73.00570119302495
 20
-135.8900705215828
 30
0.0
  0
SEQEND
  5
78
330
75
100
AcDbEntity
  8
_U+30EC_U+30A4_U+30E4_U+30FC 1
 62
   179
420
  2234388
370
    25
  0
POLYLINE
  5
79
330
1F
100
AcDbEntity
  8
_U+30EC_U+30A4_U+30E4_U+30FC 1
 62
   179
420
  2234388
370
    25
100
AcDb2dPolyline
 66
     1
 10
0.0
 20
0.0
 30
0.0
  0
VERTEX
  5
7A
330
79
100
AcDbEntity
  8
_U+30EC_U+30A4_U+30E4_U+30FC 1
 62
   179
420
  2234388
370
    25
100
AcDbVertex
100
AcDb2dVertex
 10
73.85663644909356
 20
-121.8898727473055
 30
0.0
  0
VERTEX
  5
7B
330
79
100
AcDbEntity
  8
_U+30EC_U+30A4_U+30E4_U+30FC 1
 62
   179
420
  2234388
370
    25
100
AcDbVertex
100
AcDb2dVertex
 10
73.85663644909356
 20
-120.8894302475556
 30
0.0
  0
SEQEND
  5
7C
330
79
100
AcDbEntity
  8
_U+30EC_U+30A4_U+30E4_U+30FC 1
 62
   179
420
  2234388
370
    25
  0
POLYLINE
  5
7D
330
1F
100
AcDbEntity
  8
_U+30EC_U+30A4_U+30E4_U+30FC 1
 62
   179
420
  2234388
370
    25
100
AcDb2dPolyline
 66
     1
 10
0.0
 20
0.0
 30
0.0
  0
VERTEX
  5
7E
330
7D
100
AcDbEntity
  8
_U+30EC_U+30A4_U+30E4_U+30FC 1
 62
   179
420
  2234388
370
    25
100
AcDbVertex
100
AcDb2dVertex
 10
71.85642177790106
 20
-128.3894152456805
 30
0.0
  0
VERTEX
  5
7F
330
7D
100
AcDbEntity
  8
_U+30EC_U+30A4_U+30E4_U+30FC 1
 62
   179
420
  2234388
370
    25
100
AcDbVertex
100
AcDb2dVertex
 10
71.85642177790106
 20
-121.8898727473055
 30
0.0
  0
SEQEND
  5
80
330
7D
100
AcDbEntity
  8
_U+30EC_U+30A4_U+30E4_U+30FC 1
 62
   179
420
  2234388
370
    25
  0
SPLINE
  5
81
330
1F
100
AcDbEntity
  8
_U+30EC_U+30A4_U+30E4_U+30FC 1
 62
   179
420
  2234388
370
     9
100
AcDbSpline
210
0.0
220
0.0
230
1.0
 70
    11
 71
     3
 72
    17
 73
    13
 74
     0
 42
0.0000000001
 43
0.0000000001
 12
1.0
 22
0.0
 32
0.0
 13
1.0
 23
0.0
 33
0.0
 40
0.0
 40
0.0
 40
0.0
 40
0.0
 40
1.0
 40
1.0
 40
1.0
 40
2.0
 40
2.0
 40
2.0
 40
3.0
 40
3.0
 40
3.0
 40
4.0
 40
4.0
 40
4.0
 40
4.0
 10
114.8567156808722
 20
-135.7901638549412
 30
0.0
 10
114.9118548461321
 20
-135.7901638549412
 30
0.0
 10
114.95662234499
 20
-135.8349313549304
 30
0.0
 10
114.95662234499
 20
-135.8900705215828
 30
0.0
 10
114.95662234499
 20
-135.9451744104583
 30
0.0
 10
114.9118548461321
 20
-135.9899771882244
 30
0.0
 10
114.8567156808722
 20
-135.9899771882244
 30
0.0
 10
114.8012590156203
 20
-135.9899771882244
 30
0.0
 10
114.7564562389856
 20
-135.9451744104583
 30
0.0
 10
114.7564562389856
 20
-135.8900705215828
 30
0.0
 10
114.7564562389856
 20
-135.8349313549304
 30
0.0
 10
114.8012590156203
 20
-135.7901638549412
 30
0.0
 10
114.8567156808722
 20
-135.7901638549412
 30
0.0
  0
SPLINE
  5
82
330
1F
100
AcDbEntity
  8
_U+30EC_U+30A4_U+30E4_U+30FC 1
 62
   179
420
  2234388
370
     9
100
AcDbSpline
210
0.0
220
0.0
230
1.0
 70
    11
 71
     3
 72
    17
 73
    13
 74
     0
 42
0.0000000001
 43
0.0000000001
 12
1.0
 22
0.0
 32
0.0
 13
1.0
 23
0.0
 33
0.0
 40
0.0
 40
0.0
 40
0.0
 40
0.0
 40
1.0
 40
1.0
 40
1.0
 40
2.0
 40
2.0
 40
2.0
 40
3.0
 40
3.0
 40
3.0
 40
4.0
 40
4.0
 40
4.0
 40
4.0
 10
114.8567156808722
 20
-138.7901507986355
 30
0.0
 10
114.9118548461321
 20
-138.7901507986355
 30
0.0
 10
114.95662234499
 20
-138.8349535764022
 30
0.0
 10
114.95662234499
 20
-138.8900574652778
 30
0.0
 10
114.95662234499
 20
-138.9451966319302
 30
0.0
 10
114.9118548461321
 20
-138.9899641319194
 30
0.0
 10
114.8567156808722
 20
-138.9899641319194
 30
0.0
 10
114.8012590156203
 20
-138.9899641319194
 30
0.0
 10
114.7564562389856
 20
-138.9451966319302
 30
0.0
 10
114.7564562389856
 20
-138.8900574652778
 30
0.0
 10
114.7564562389856
 20
-138.8349535764022
 30
0.0
 10
114.8012590156203
 20
-138.7901507986355
 30
0.0
 10
114.8567156808722
 20
-138.7901507986355
 30
0.0
  0
SPLINE
  5
83
330
1F
100
AcDbEntity
  8
_U+30EC_U+30A4_U+30E4_U+30FC 1
 62
   179
420
  2234388
370
     9
100
AcDbSpline
210
0.0
220
0.0
230
1.0
 70
    11
 71
     3
 72
    17
 73
    13
 74
     0
 42
0.0000000001
 43
0.0000000001
 12
1.0
 22
0.0
 32
0.0
 13
1.0
 23
0.0
 33
0.0
 40
0.0
 40
0.0
 40
0.0
 40
0.0
 40
1.0
 40
1.0
 40
1.0
 40
2.0
 40
2.0
 40
2.0
 40
3.0
 40
3.0
 40
3.0
 40
4.0
 40
4.0
 40
4.0
 40
4.0
 10
114.8567156808722
 20
-129.2899510787888
 30
0.0
 10
114.9118548461321
 20
-129.2899510787888
 30
0.0
 10
114.95662234499
 20
-129.3347538565555
 30
0.0
 10
114.95662234499
 20
-129.3898577454304
 30
0.0
 10
114.95662234499
 20
-129.4449969120835
 30
0.0
 10
114.9118548461321
 20
-129.489764412072
 30
0.0
 10
114.8567156808722
 20
-129.489764412072
 30
0.0
 10
114.8012590156203
 20
-129.489764412072
 30
0.0
 10
114.7564562389856
 20
-129.4449969120835
 30
0.0
 10
114.7564562389856
 20
-129.3898577454304
 30
0.0
 10
114.7564562389856
 20
-129.3347538565555
 30
0.0
 10
114.8012590156203
 20
-129.2899510787888
 30
0.0
 10
114.8567156808722
 20
-129.2899510787888
 30
0.0
  0
SPLINE
  5
84
330
1F
100
AcDbEntity
  8
_U+30EC_U+30A4_U+30E4_U+30FC 1
 62
   179
420
  2234388
370
     9
100
AcDbSpline
210
0.0
220
0.0
230
1.0
 70
    11
 71
     3
 72
    17
 73
    13
 74
     0
 42
0.0000000001
 43
0.0000000001
 12
1.0
 22
0.0
 32
0.0
 13
1.0
 23
0.0
 33
0.0
 40
0.0
 40
0.0
 40
0.0
 40
0.0
 40
1.0
 40
1.0
 40
1.0
 40
2.0
 40
2.0
 40
2.0
 40
3.0
 40
3.0
 40
3.0
 40
4.0
 40
4.0
 40
4.0
 40
4.0
 10
114.8567156808722
 20
-128.2895085790389
 30
0.0
 10
114.9118548461321
 20
-128.2895085790389
 30
0.0
 10
114.95662234499
 20
-128.3342760790274
 30
0.0
 10
114.95662234499
 20
-128.3894152456805
 30
0.0
 10
114.95662234499
 20
-128.4445191345554
 30
0.0
 10
114.9118548461321
 20
-128.4893219123221
 30
0.0
 10
114.8567156808722
 20
-128.4893219123221
 30
0.0
 10
114.8012590156203
 20
-128.4893219123221
 30
0.0
 10
114.7564562389856
 20
-128.4445191345554
 30
0.0
 10
114.7564562389856
 20
-128.3894152456805
 30
0.0
 10
114.7564562389856
 20
-128.3342760790274
 30
0.0
 10
114.8012590156203
 20
-128.2895085790389
 30
0.0
 10
114.8567156808722
 20
-128.2895085790389
 30
0.0
  0
SPLINE
  5
85
330
1F
100
AcDbEntity
  8
_U+30EC_U+30A4_U+30E4_U+30FC 1
 62
   179
420
  2234388
370
     9
100
AcDbSpline
210
0.0
220
0.0
230
1.0
 70
    11
 71
     3
 72
    17
 73
    13
 74
     0
 42
0.0000000001
 43
0.0000000001
 12
1.0
 22
0.0
 32
0.0
 13
1.0
 23
0.0
 33
0.0
 40
0.0
 40
0.0
 40
0.0
 40
0.0
 40
1.0
 40
1.0
 40
1.0
 40
2.0
 40
2.0
 40
2.0
 40
3.0
 40
3.0
 40
3.0
 40
4.0
 40
4.0
 40
4.0
 40
4.0
 10
110.856639116256
 20
-116.789764415247
 30
0.0
 10
110.911743003739
 20
-116.789764415247
 30
0.0
 10
110.9565457803738
 20
-116.8345671930134
 30
0.0
 10
110.9565457803738
 20
-116.8896710818887
 30
0.0
 10
110.9565457803738
 20
-116.9448102485414
 30
0.0
 10
110.911743003739
 20
-116.9895777485303
 30
0.0
 10
110.856639116256
 20
-116.9895777485303
 30
0.0
 10
110.8015027500776
 20
-116.9895777485303
 30
0.0
 10
110.7567324521381
 20
-116.9448102485414
 30
0.0
 10
110.7567324521381
 20
-116.8896710818887
 30
0.0
 10
110.7567324521381
 20
-116.8345671930134
 30
0.0
 10
110.8015027500776
 20
-116.789764415247
 30
0.0
 10
110.856639116256
 20
-116.789764415247
 30
0.0
  0
SPLINE
  5
86
330
1F
100
AcDbEntity
  8
_U+30EC_U+30A4_U+30E4_U+30FC 1
 62
   179
420
  2234388
370
     9
100
AcDbSpline
210
0.0
220
0.0
230
1.0
 70
    11
 71
     3
 72
    17
 73
    13
 74
     0
 42
0.0000000001
 43
0.0000000001
 12
1.0
 22
0.0
 32
0.0
 13
1.0
 23
0.0
 33
0.0
 40
0.0
 40
0.0
 40
0.0
 40
0.0
 40
1.0
 40
1.0
 40
1.0
 40
2.0
 40
2.0
 40
2.0
 40
3.0
 40
3.0
 40
3.0
 40
4.0
 40
4.0
 40
4.0
 40
4.0
 10
70.85664958118515
 20
-116.789764415247
 30
0.0
 10
70.91178874644511
 20
-116.789764415247
 30
0.0
 10
70.95655624530299
 20
-116.8345671930134
 30
0.0
 10
70.95655624530299
 20
-116.8896710818887
 30
0.0
 10
70.95655624530299
 20
-116.9448102485414
 30
0.0
 10
70.91178874644511
 20
-116.9895777485303
 30
0.0
 10
70.85664958118515
 20
-116.9895777485303
 30
0.0
 10
70.80154569370208
 20
-116.9895777485303
 30
0.0
 10
70.75674291706733
 20
-116.9448102485414
 30
0.0
 10
70.75674291706733
 20
-116.8896710818887
 30
0.0
 10
70.75674291706733
 20
-116.8345671930134
 30
0.0
 10
70.80154569370208
 20
-116.789764415247
 30
0.0
 10
70.85664958118515
 20
-116.789764415247
 30
0.0
  0
SPLINE
  5
87
330
1F
100
AcDbEntity
  8
_U+30EC_U+30A4_U+30E4_U+30FC 1
 62
   179
420
  2234388
370
     9
100
AcDbSpline
210
0.0
220
0.0
230
1.0
 70
    11
 71
     3
 72
    17
 73
    13
 74
     0
 42
0.0000000001
 43
0.0000000001
 12
1.0
 22
0.0
 32
0.0
 13
1.0
 23
0.0
 33
0.0
 40
0.0
 40
0.0
 40
0.0
 40
0.0
 40
1.0
 40
1.0
 40
1.0
 40
2.0
 40
2.0
 40
2.0
 40
3.0
 40
3.0
 40
3.0
 40
4.0
 40
4.0
 40
4.0
 40
4.0
 10
66.85622023880016
 20
-120.7895235809136
 30
0.0
 10
66.9120296818208
 20
-120.7895235809136
 30
0.0
 10
66.95679718067868
 20
-120.8343263586803
 30
0.0
 10
66.95679718067868
 20
-120.8894302475556
 30
0.0
 10
66.95679718067868
 20
-120.9445694142083
 30
0.0
 10
66.9120296818208
 20
-120.9893369141972
 30
0.0
 10
66.85622023880016
 20
-120.9893369141972
 30
0.0
 10
66.80108107354022
 20
-120.9893369141972
 30
0.0
 10
66.75631357468234
 20
-120.9445694142083
 30
0.0
 10
66.75631357468234
 20
-120.8894302475556
 30
0.0
 10
66.75631357468234
 20
-120.8343263586803
 30
0.0
 10
66.80108107354022
 20
-120.7895235809136
 30
0.0
 10
66.85622023880016
 20
-120.7895235809136
 30
0.0
  0
SPLINE
  5
88
330
1F
100
AcDbEntity
  8
_U+30EC_U+30A4_U+30E4_U+30FC 1
 62
   179
420
  2234388
370
     9
100
AcDbSpline
210
0.0
220
0.0
230
1.0
 70
    11
 71
     3
 72
    17
 73
    13
 74
     0
 42
0.0000000001
 43
0.0000000001
 12
1.0
 22
0.0
 32
0.0
 13
1.0
 23
0.0
 33
0.0
 40
0.0
 40
0.0
 40
0.0
 40
0.0
 40
1.0
 40
1.0
 40
1.0
 40
2.0
 40
2.0
 40
2.0
 40
3.0
 40
3.0
 40
3.0
 40
4.0
 40
4.0
 40
4.0
 40
4.0
 10
66.85622023880016
 20
-138.7901507986355
 30
0.0
 10
66.9120296818208
 20
-138.7901507986355
 30
0.0
 10
66.95679718067868
 20
-138.8342480208467
 30
0.0
 10
66.95679718067868
 20
-138.8900574652778
 30
0.0
 10
66.95679718067868
 20
-138.9451966319302
 30
0.0
 10
66.9120296818208
 20
-138.9899641319194
 30
0.0
 10
66.85622023880016
 20
-138.9899641319194
 30
0.0
 10
66.80108107354022
 20
-138.9899641319194
 30
0.0
 10
66.75631357468234
 20
-138.9451966319302
 30
0.0
 10
66.75631357468234
 20
-138.8900574652778
 30
0.0
 10
66.75631357468234
 20
-138.8342480208467
 30
0.0
 10
66.80108107354022
 20
-138.7901507986355
 30
0.0
 10
66.85622023880016
 20
-138.7901507986355
 30
0.0
  0
SPLINE
  5
89
330
1F
100
AcDbEntity
  8
_U+30EC_U+30A4_U+30E4_U+30FC 1
 62
   179
420
  2234388
370
     9
100
AcDbSpline
210
0.0
220
0.0
230
1.0
 70
    11
 71
     3
 72
    17
 73
    13
 74
     0
 42
0.0000000001
 43
0.0000000001
 12
1.0
 22
0.0
 32
0.0
 13
1.0
 23
0.0
 33
0.0
 40
0.0
 40
0.0
 40
0.0
 40
0.0
 40
1.0
 40
1.0
 40
1.0
 40
2.0
 40
2.0
 40
2.0
 40
3.0
 40
3.0
 40
3.0
 40
4.0
 40
4.0
 40
4.0
 40
4.0
 10
70.9420923567831
 20
-114.2734710825427
 30
0.0
 10
70.99790179980373
 20
-114.2734710825427
 30
0.0
 10
71.0427045764385
 20
-114.3182738603094
 30
0.0
 10
71.0427045764385
 20
-114.3733777491843
 30
0.0
 10
71.0427045764385
 20
-114.4285169158374
 30
0.0
 10
70.99790179980373
 20
-114.4732844158263
 30
0.0
 10
70.9420923567831
 20
-114.4732844158263
 30
0.0
 10
70.88698846930004
 20
-114.4732844158263
 30
0.0
 10
70.84218569266527
 20
-114.4285169158374
 30
0.0
 10
70.84218569266527
 20
-114.3733777491843
 30
0.0
 10
70.84218569266527
 20
-114.3182738603094
 30
0.0
 10
70.88698846930004
 20
-114.2734710825427
 30
0.0
 10
70.9420923567831
 20
-114.2734710825427
 30
0.0
  0
SPLINE
  5
8A
330
1F
100
AcDbEntity
  8
_U+30EC_U+30A4_U+30E4_U+30FC 1
 62
   179
420
  2234388
370
     9
100
AcDbSpline
210
0.0
220
0.0
230
1.0
 70
    11
 71
     3
 72
    17
 73
    13
 74
     0
 42
0.0000000001
 43
0.0000000001
 12
1.0
 22
0.0
 32
0.0
 13
1.0
 23
0.0
 33
0.0
 40
0.0
 40
0.0
 40
0.0
 40
0.0
 40
1.0
 40
1.0
 40
1.0
 40
2.0
 40
2.0
 40
2.0
 40
3.0
 40
3.0
 40
3.0
 40
4.0
 40
4.0
 40
4.0
 40
4.0
 10
73.92969672500742
 20
-114.2713896936543
 30
0.0
 10
73.98550616802804
 20
-114.2713896936543
 30
0.0
 10
74.03027366688593
 20
-114.316192471421
 30
0.0
 10
74.03027366688593
 20
-114.3712963602962
 30
0.0
 10
74.03027366688593
 20
-114.426435526949
 30
0.0
 10
73.98550616802804
 20
-114.4712383047154
 30
0.0
 10
73.92969672500742
 20
-114.4712383047154
 30
0.0
 10
73.87455755974746
 20
-114.4712383047154
 30
0.0
 10
73.82979006088958
 20
-114.426435526949
 30
0.0
 10
73.82979006088958
 20
-114.3712963602962
 30
0.0
 10
73.82979006088958
 20
-114.316192471421
 30
0.0
 10
73.87455755974746
 20
-114.2713896936543
 30
0.0
 10
73.92969672500742
 20
-114.2713896936543
 30
0.0
  0
SPLINE
  5
8B
330
1F
100
AcDbEntity
  8
_U+30EC_U+30A4_U+30E4_U+30FC 1
 62
   179
420
  2234388
370
     9
100
AcDbSpline
210
0.0
220
0.0
230
1.0
 70
    11
 71
     3
 72
    17
 73
    13
 74
     0
 42
0.0000000001
 43
0.0000000001
 12
1.0
 22
0.0
 32
0.0
 13
1.0
 23
0.0
 33
0.0
 40
0.0
 40
0.0
 40
0.0
 40
0.0
 40
1.0
 40
1.0
 40
1.0
 40
2.0
 40
2.0
 40
2.0
 40
3.0
 40
3.0
 40
3.0
 40
4.0
 40
4.0
 40
4.0
 40
4.0
 10
70.85664958118515
 20
-142.7899099643024
 30
0.0
 10
70.91178874644511
 20
-142.7899099643024
 30
0.0
 10
70.95655624530299
 20
-142.8346774642916
 30
0.0
 10
70.95655624530299
 20
-142.889816630944
 30
0.0
 10
70.95655624530299
 20
-142.9449205198196
 30
0.0
 10
70.91178874644511
 20
-142.9897232975857
 30
0.0
 10
70.85664958118515
 20
-142.9897232975857
 30
0.0
 10
70.80154569370208
 20
-142.9897232975857
 30
0.0
 10
70.75674291706733
 20
-142.9449205198196
 30
0.0
 10
70.75674291706733
 20
-142.889816630944
 30
0.0
 10
70.75674291706733
 20
-142.8346774642916
 30
0.0
 10
70.80154569370208
 20
-142.7899099643024
 30
0.0
 10
70.85664958118515
 20
-142.7899099643024
 30
0.0
  0
SPLINE
  5
8C
330
1F
100
AcDbEntity
  8
_U+30EC_U+30A4_U+30E4_U+30FC 1
 62
   179
420
  2234388
370
     9
100
AcDbSpline
210
0.0
220
0.0
230
1.0
 70
    11
 71
     3
 72
    17
 73
    13
 74
     0
 42
0.0000000001
 43
0.0000000001
 12
1.0
 22
0.0
 32
0.0
 13
1.0
 23
0.0
 33
0.0
 40
0.0
 40
0.0
 40
0.0
 40
0.0
 40
1.0
 40
1.0
 40
1.0
 40
2.0
 40
2.0
 40
2.0
 40
3.0
 40
3.0
 40
3.0
 40
4.0
 40
4.0
 40
4.0
 40
4.0
 10
75.90511111905484
 20
-142.7899099643024
 30
0.0
 10
75.96021500653791
 20
-142.7899099643024
 30
0.0
 10
76.00501778317268
 20
-142.8346774642916
 30
0.0
 10
76.00501778317268
 20
-142.889816630944
 30
0.0
 10
76.00501778317268
 20
-142.9449205198196
 30
0.0
 10
75.96021500653791
 20
-142.9897232975857
 30
0.0
 10
75.90511111905484
 20
-142.9897232975857
 30
0.0
 10
75.84930167603422
 20
-142.9897232975857
 30
0.0
 10
75.805204454937
 20
-142.9449205198196
 30
0.0
 10
75.805204454937
 20
-142.889816630944
 30
0.0
 10
75.805204454937
 20
-142.8346774642916
 30
0.0
 10
75.84930167603422
 20
-142.7899099643024
 30
0.0
 10
75.90511111905484
 20
-142.7899099643024
 30
0.0
  0
POLYLINE
  5
8D
330
1F
100
AcDbEntity
  8
_U+30EC_U+30A4_U+30E4_U+30FC 1
 62
   179
420
  2234388
370
     9
100
AcDb2dPolyline
 66
     1
 10
0.0
 20
0.0
 30
0.0
  0
VERTEX
  5
8E
330
8D
100
AcDbEntity
  8
_U+30EC_U+30A4_U+30E4_U+30FC 1
 62
   179
420
  2234388
370
     9
100
AcDbVertex
100
AcDb2dVertex
 10
114.8567156808722
 20
-128.3894152456805
 30
0.0
  0
VERTEX
  5
8F
330
8D
100
AcDbEntity
  8
_U+30EC_U+30A4_U+30E4_U+30FC 1
 62
   179
420
  2234388
370
     9
100
AcDbVertex
100
AcDb2dVertex
 10
114.8567156808722
 20
-124.6191027466231
 30
0.0
  0
SEQEND
  5
90
330
8D
100
AcDbEntity
  8
_U+30EC_U+30A4_U+30E4_U+30FC 1
 62
   179
420
  2234388
370
     9
  0
POLYLINE
  5
91
330
1F
100
AcDbEntity
  8
_U+30EC_U+30A4_U+30E4_U+30FC 1
 62
   179
420
  2234388
370
     9
100
AcDb2dPolyline
 66
     1
 10
0.0
 20
0.0
 30
0.0
  0
VERTEX
  5
92
330
91
100
AcDbEntity
  8
_U+30EC_U+30A4_U+30E4_U+30FC 1
 62
   179
420
  2234388
370
     9
100
AcDbVertex
100
AcDb2dVertex
 10
114.8567156808722
 20
-128.3894152456805
 30
0.0
  0
VERTEX
  5
93
330
91
100
AcDbEntity
  8
_U+30EC_U+30A4_U+30E4_U+30FC 1
 62
   179
420
  2234388
370
     9
100
AcDbVertex
100
AcDb2dVertex
 10
114.8567156808722
 20
-129.3898577454304
 30
0.0
  0
SEQEND
  5
94
330
91
100
AcDbEntity
  8
_U+30EC_U+30A4_U+30E4_U+30FC 1
 62
   179
420
  2234388
370
     9
  0
POLYLINE
  5
95
330
1F
100
AcDbEntity
  8
_U+30EC_U+30A4_U+30E4_U+30FC 1
 62
   179
420
  2234388
370
     9
100
AcDb2dPolyline
 66
     1
 10
0.0
 20
0.0
 30
0.0
  0
VERTEX
  5
96
330
95
100
AcDbEntity
  8
_U+30EC_U+30A4_U+30E4_U+30FC 1
 62
   179
420
  2234388
370
     9
100
AcDbVertex
100
AcDb2dVertex
 10
113.3967096070089
 20
-128.3894152456805
 30
0.0
  0
VERTEX
  5
97
330
95
100
AcDbEntity
  8
_U+30EC_U+30A4_U+30E4_U+30FC 1
 62
   179
420
  2234388
370
     9
100
AcDbVertex
100
AcDb2dVertex
 10
115.8568406553569
 20
-128.3894152456805
 30
0.0
  0
SEQEND
  5
98
330
95
100
AcDbEntity
  8
_U+30EC_U+30A4_U+30E4_U+30FC 1
 62
   179
420
  2234388
370
     9
  0
POLYLINE
  5
99
330
1F
100
AcDbEntity
  8
_U+30EC_U+30A4_U+30E4_U+30FC 1
 62
   179
420
  2234388
370
     9
100
AcDb2dPolyline
 66
     1
 10
0.0
 20
0.0
 30
0.0
  0
VERTEX
  5
9A
330
99
100
AcDbEntity
  8
_U+30EC_U+30A4_U+30E4_U+30FC 1
 62
   179
420
  2234388
370
     9
100
AcDbVertex
100
AcDb2dVertex
 10
113.3967096070089
 20
-129.3898577454304
 30
0.0
  0
VERTEX
  5
9B
330
99
100
AcDbEntity
  8
_U+30EC_U+30A4_U+30E4_U+30FC 1
 62
   179
420
  2234388
370
     9
100
AcDbVertex
100
AcDb2dVertex
 10
115.8568406553569
 20
-129.3898577454304
 30
0.0
  0
SEQEND
  5
9C
330
99
100
AcDbEntity
  8
_U+30EC_U+30A4_U+30E4_U+30FC 1
 62
   179
420
  2234388
370
     9
  0
POLYLINE
  5
9D
330
1F
100
AcDbEntity
  8
_U+30EC_U+30A4_U+30E4_U+30FC 1
 62
   179
420
  2234388
370
     9
100
AcDb2dPolyline
 66
     1
 10
0.0
 20
0.0
 30
0.0
  0
VERTEX
  5
9E
330
9D
100
AcDbEntity
  8
_U+30EC_U+30A4_U+30E4_U+30FC 1
 62
   179
420
  2234388
370
     9
100
AcDbVertex
100
AcDb2dVertex
 10
114.8567156808722
 20
-138.8900574652778
 30
0.0
  0
VERTEX
  5
9F
330
9D
100
AcDbEntity
  8
_U+30EC_U+30A4_U+30E4_U+30FC 1
 62
   179
420
  2234388
370
     9
100
AcDbVertex
100
AcDb2dVertex
 10
114.8567156808722
 20
-135.8900705215828
 30
0.0
  0
SEQEND
  5
A0
330
9D
100
AcDbEntity
  8
_U+30EC_U+30A4_U+30E4_U+30FC 1
 62
   179
420
  2234388
370
     9
  0
POLYLINE
  5
A1
330
1F
100
AcDbEntity
  8
_U+30EC_U+30A4_U+30E4_U+30FC 1
 62
   179
420
  2234388
370
     9
100
AcDb2dPolyline
 66
     1
 10
0.0
 20
0.0
 30
0.0
  0
VERTEX
  5
A2
330
A1
100
AcDbEntity
  8
_U+30EC_U+30A4_U+30E4_U+30FC 1
 62
   179
420
  2234388
370
     9
100
AcDbVertex
100
AcDb2dVertex
 10
83.39680565014801
 20
-138.8900574652778
 30
0.0
  0
VERTEX
  5
A3
330
A1
100
AcDbEntity
  8
_U+30EC_U+30A4_U+30E4_U+30FC 1
 62
   179
420
  2234388
370
     9
100
AcDbVertex
100
AcDb2dVertex
 10
115.8568406553569
 20
-138.8900574652778
 30
0.0
  0
SEQEND
  5
A4
330
A1
100
AcDbEntity
  8
_U+30EC_U+30A4_U+30E4_U+30FC 1
 62
   179
420
  2234388
370
     9
  0
POLYLINE
  5
A5
330
1F
100
AcDbEntity
  8
_U+30EC_U+30A4_U+30E4_U+30FC 1
 62
   179
420
  2234388
370
     9
100
AcDb2dPolyline
 66
     1
 10
0.0
 20
0.0
 30
0.0
  0
VERTEX
  5
A6
330
A5
100
AcDbEntity
  8
_U+30EC_U+30A4_U+30E4_U+30FC 1
 62
   179
420
  2234388
370
     9
100
AcDbVertex
100
AcDb2dVertex
 10
75.85685112028605
 20
-142.889816630944
 30
0.0
  0
VERTEX
  5
A7
330
A5
100
AcDbEntity
  8
_U+30EC_U+30A4_U+30E4_U+30FC 1
 62
   179
420
  2234388
370
     9
100
AcDbVertex
100
AcDb2dVertex
 10
70.85664958118515
 20
-142.889816630944
 30
0.0
  0
SEQEND
  5
A8
330
A5
100
AcDbEntity
  8
_U+30EC_U+30A4_U+30E4_U+30FC 1
 62
   179
420
  2234388
370
     9
  0
POLYLINE
  5
A9
330
1F
100
AcDbEntity
  8
_U+30EC_U+30A4_U+30E4_U+30FC 1
 62
   179
420
  2234388
370
     9
100
AcDb2dPolyline
 66
     1
 10
0.0
 20
0.0
 30
0.0
  0
VERTEX
  5
AA
330
A9
100
AcDbEntity
  8
_U+30EC_U+30A4_U+30E4_U+30FC 1
 62
   179
420
  2234388
370
     9
100
AcDbVertex
100
AcDb2dVertex
 10
75.90511111905484
 20
-141.4297752424203
 30
0.0
  0
VERTEX
  5
AB
330
A9
100
AcDbEntity
  8
_U+30EC_U+30A4_U+30E4_U+30FC 1
 62
   179
420
  2234388
370
     9
100
AcDbVertex
100
AcDb2dVertex
 10
75.90511111905484
 20
-143.8895888529166
 30
0.0
  0
SEQEND
  5
AC
330
A9
100
AcDbEntity
  8
_U+30EC_U+30A4_U+30E4_U+30FC 1
 62
   179
420
  2234388
370
     9
  0
POLYLINE
  5
AD
330
1F
100
AcDbEntity
  8
_U+30EC_U+30A4_U+30E4_U+30FC 1
 62
   179
420
  2234388
370
     9
100
AcDb2dPolyline
 66
     1
 10
0.0
 20
0.0
 30
0.0
  0
VERTEX
  5
AE
330
AD
100
AcDbEntity
  8
_U+30EC_U+30A4_U+30E4_U+30FC 1
 62
   179
420
  2234388
370
     9
100
AcDbVertex
100
AcDb2dVertex
 10
70.85664958118515
 20
-141.4297752424203
 30
0.0
  0
VERTEX
  5
AF
330
AD
100
AcDbEntity
  8
_U+30EC_U+30A4_U+30E4_U+30FC 1
 62
   179
420
  2234388
370
     9
100
AcDbVertex
100
AcDb2dVertex
 10
70.85664958118515
 20
-143.8895888529166
 30
0.0
  0
SEQEND
  5
B0
330
AD
100
AcDbEntity
  8
_U+30EC_U+30A4_U+30E4_U+30FC 1
 62
   179
420
  2234388
370
     9
  0
POLYLINE
  5
B1
330
1F
100
AcDbEntity
  8
_U+30EC_U+30A4_U+30E4_U+30FC 1
 62
   179
420
  2234388
370
     9
100
AcDb2dPolyline
 66
     1
 10
0.0
 20
0.0
 30
0.0
  0
VERTEX
  5
B2
330
B1
100
AcDbEntity
  8
_U+30EC_U+30A4_U+30E4_U+30FC 1
 62
   179
420
  2234388
370
     9
100
AcDbVertex
100
AcDb2dVertex
 10
70.85664958118515
 20
-116.8896710818887
 30
0.0
  0
VERTEX
  5
B3
330
B1
100
AcDbEntity
  8
_U+30EC_U+30A4_U+30E4_U+30FC 1
 62
   179
420
  2234388
370
     9
100
AcDbVertex
100
AcDb2dVertex
 10
110.856639116256
 20
-116.8896710818887
 30
0.0
  0
SEQEND
  5
B4
330
B1
100
AcDbEntity
  8
_U+30EC_U+30A4_U+30E4_U+30FC 1
 62
   179
420
  2234388
370
     9
  0
POLYLINE
  5
B5
330
1F
100
AcDbEntity
  8
_U+30EC_U+30A4_U+30E4_U+30FC 1
 62
   179
420
  2234388
370
     9
100
AcDb2dPolyline
 66
     1
 10
0.0
 20
0.0
 30
0.0
  0
VERTEX
  5
B6
330
B5
100
AcDbEntity
  8
_U+30EC_U+30A4_U+30E4_U+30FC 1
 62
   179
420
  2234388
370
     9
100
AcDbVertex
100
AcDb2dVertex
 10
70.85664958118515
 20
-118.3497124704127
 30
0.0
  0
VERTEX
  5
B7
330
B5
100
AcDbEntity
  8
_U+30EC_U+30A4_U+30E4_U+30FC 1
 62
   179
420
  2234388
370
     9
100
AcDbVertex
100
AcDb2dVertex
 10
70.85664958118515
 20
-115.8892285821388
 30
0.0
  0
SEQEND
  5
B8
330
B5
100
AcDbEntity
  8
_U+30EC_U+30A4_U+30E4_U+30FC 1
 62
   179
420
  2234388
370
     9
  0
POLYLINE
  5
B9
330
1F
100
AcDbEntity
  8
_U+30EC_U+30A4_U+30E4_U+30FC 1
 62
   179
420
  2234388
370
     9
100
AcDb2dPolyline
 66
     1
 10
0.0
 20
0.0
 30
0.0
  0
VERTEX
  5
BA
330
B9
100
AcDbEntity
  8
_U+30EC_U+30A4_U+30E4_U+30FC 1
 62
   179
420
  2234388
370
     9
100
AcDbVertex
100
AcDb2dVertex
 10
110.856639116256
 20
-126.849434412732
 30
0.0
  0
VERTEX
  5
BB
330
B9
100
AcDbEntity
  8
_U+30EC_U+30A4_U+30E4_U+30FC 1
 62
   179
420
  2234388
370
     9
100
AcDbVertex
100
AcDb2dVertex
 10
110.856639116256
 20
-115.8892285821388
 30
0.0
  0
SEQEND
  5
BC
330
B9
100
AcDbEntity
  8
_U+30EC_U+30A4_U+30E4_U+30FC 1
 62
   179
420
  2234388
370
     9
  0
POLYLINE
  5
BD
330
1F
100
AcDbEntity
  8
_U+30EC_U+30A4_U+30E4_U+30FC 1
 62
   179
420
  2234388
370
     9
100
AcDb2dPolyline
 66
     1
 10
0.0
 20
0.0
 30
0.0
  0
VERTEX
  5
BE
330
BD
100
AcDbEntity
  8
_U+30EC_U+30A4_U+30E4_U+30FC 1
 62
   179
420
  2234388
370
     9
100
AcDbVertex
100
AcDb2dVertex
 10
114.8567156808722
 20
-135.8900705215828
 30
0.0
  0
VERTEX
  5
BF
330
BD
100
AcDbEntity
  8
_U+30EC_U+30A4_U+30E4_U+30FC 1
 62
   179
420
  2234388
370
     9
100
AcDbVertex
100
AcDb2dVertex
 10
114.8567156808722
 20
-129.3898577454304
 30
0.0
  0
SEQEND
  5
C0
330
BD
100
AcDbEntity
  8
_U+30EC_U+30A4_U+30E4_U+30FC 1
 62
   179
420
  2234388
370
     9
  0
POLYLINE
  5
C1
330
1F
100
AcDbEntity
  8
_U+30EC_U+30A4_U+30E4_U+30FC 1
 62
   179
420
  2234388
370
     9
100
AcDb2dPolyline
 66
     1
 10
0.0
 20
0.0
 30
0.0
  0
VERTEX
  5
C2
330
C1
100
AcDbEntity
  8
_U+30EC_U+30A4_U+30E4_U+30FC 1
 62
   179
420
  2234388
370
     9
100
AcDbVertex
100
AcDb2dVertex
 10
83.39680565014801
 20
-135.8900705215828
 30
0.0
  0
VERTEX
  5
C3
330
C1
100
AcDbEntity
  8
_U+30EC_U+30A4_U+30E4_U+30FC 1
 62
   179
420
  2234388
370
     9
100
AcDbVertex
100
AcDb2dVertex
 10
115.8568406553569
 20
-135.8900705215828
 30
0.0
  0
SEQEND
  5
C4
330
C1
100
AcDbEntity
  8
_U+30EC_U+30A4_U+30E4_U+30FC 1
 62
   179
420
  2234388
370
     9
  0
POLYLINE
  5
C5
330
1F
100
AcDbEntity
  8
_U+30EC_U+30A4_U+30E4_U+30FC 1
 62
   179
420
  2234388
370
     9
100
AcDb2dPolyline
 66
     1
 10
0.0
 20
0.0
 30
0.0
  0
VERTEX
  5
C6
330
C5
100
AcDbEntity
  8
_U+30EC_U+30A4_U+30E4_U+30FC 1
 62
   179
420
  2234388
370
     9
100
AcDbVertex
100
AcDb2dVertex
 10
66.85622023880016
 20
-138.8900574652778
 30
0.0
  0
VERTEX
  5
C7
330
C5
100
AcDbEntity
  8
_U+30EC_U+30A4_U+30E4_U+30FC 1
 62
   179
420
  2234388
370
     9
100
AcDbVertex
100
AcDb2dVertex
 10
66.85622023880016
 20
-120.8894302475556
 30
0.0
  0
SEQEND
  5
C8
330
C5
100
AcDbEntity
  8
_U+30EC_U+30A4_U+30E4_U+30FC 1
 62
   179
420
  2234388
370
     9
  0
POLYLINE
  5
C9
330
1F
100
AcDbEntity
  8
_U+30EC_U+30A4_U+30E4_U+30FC 1
 62
   179
420
  2234388
370
     9
100
AcDb2dPolyline
 66
     1
 10
0.0
 20
0.0
 30
0.0
  0
VERTEX
  5
CA
330
C9
100
AcDbEntity
  8
_U+30EC_U+30A4_U+30E4_U+30FC 1
 62
   179
420
  2234388
370
     9
100
AcDbVertex
100
AcDb2dVertex
 10
68.31622631266342
 20
-138.8900574652778
 30
0.0
  0
VERTEX
  5
CB
330
C9
100
AcDbEntity
  8
_U+30EC_U+30A4_U+30E4_U+30FC 1
 62
   179
420
  2234388
370
     9
100
AcDbVertex
100
AcDb2dVertex
 10
65.85644804208425
 20
-138.8900574652778
 30
0.0
  0
SEQEND
  5
CC
330
C9
100
AcDbEntity
  8
_U+30EC_U+30A4_U+30E4_U+30FC 1
 62
   179
420
  2234388
370
     9
  0
POLYLINE
  5
CD
330
1F
100
AcDbEntity
  8
_U+30EC_U+30A4_U+30E4_U+30FC 1
 62
   179
420
  2234388
370
     9
100
AcDb2dPolyline
 66
     1
 10
0.0
 20
0.0
 30
0.0
  0
VERTEX
  5
CE
330
CD
100
AcDbEntity
  8
_U+30EC_U+30A4_U+30E4_U+30FC 1
 62
   179
420
  2234388
370
     9
100
AcDbVertex
100
AcDb2dVertex
 10
68.31622631266342
 20
-120.8894302475556
 30
0.0
  0
VERTEX
  5
CF
330
CD
100
AcDbEntity
  8
_U+30EC_U+30A4_U+30E4_U+30FC 1
 62
   179
420
  2234388
370
     9
100
AcDbVertex
100
AcDb2dVertex
 10
65.85644804208425
 20
-120.8894302475556
 30
0.0
  0
SEQEND
  5
D0
330
CD
100
AcDbEntity
  8
_U+30EC_U+30A4_U+30E4_U+30FC 1
 62
   179
420
  2234388
370
     9
  0
POLYLINE
  5
D1
330
1F
100
AcDbEntity
  8
_U+30EC_U+30A4_U+30E4_U+30FC 1
 62
   179
420
  2234388
370
     9
100
AcDb2dPolyline
 66
     1
 10
0.0
 20
0.0
 30
0.0
  0
VERTEX
  5
D2
330
D1
100
AcDbEntity
  8
_U+30EC_U+30A4_U+30E4_U+30FC 1
 62
   179
420
  2234388
370
     9
100
AcDbVertex
100
AcDb2dVertex
 10
73.93107255830564
 20
-115.0768519156754
 30
0.0
  0
VERTEX
  5
D3
330
D1
100
AcDbEntity
  8
_U+30EC_U+30A4_U+30E4_U+30FC 1
 62
   179
420
  2234388
370
     9
100
AcDbVertex
100
AcDb2dVertex
 10
73.93107255830564
 20
-113.665740804917
 30
0.0
  0
SEQEND
  5
D4
330
D1
100
AcDbEntity
  8
_U+30EC_U+30A4_U+30E4_U+30FC 1
 62
   179
420
  2234388
370
     9
  0
POLYLINE
  5
D5
330
1F
100
AcDbEntity
  8
_U+30EC_U+30A4_U+30E4_U+30FC 1
 62
   179
420
  2234388
370
     9
100
AcDb2dPolyline
 66
     1
 10
0.0
 20
0.0
 30
0.0
  0
VERTEX
  5
D6
330
D5
100
AcDbEntity
  8
_U+30EC_U+30A4_U+30E4_U+30FC 1
 62
   179
420
  2234388
370
     9
100
AcDbVertex
100
AcDb2dVertex
 10
70.93246152369548
 20
-115.0768519156754
 30
0.0
  0
VERTEX
  5
D7
330
D5
100
AcDbEntity
  8
_U+30EC_U+30A4_U+30E4_U+30FC 1
 62
   179
420
  2234388
370
     9
100
AcDbVertex
100
AcDb2dVertex
 10
70.93246152369548
 20
-113.665740804917
 30
0.0
  0
SEQEND
  5
D8
330
D5
100
AcDbEntity
  8
_U+30EC_U+30A4_U+30E4_U+30FC 1
 62
   179
420
  2234388
370
     9
  0
POLYLINE
  5
D9
330
1F
100
AcDbEntity
  8
_U+30EC_U+30A4_U+30E4_U+30FC 1
 62
   179
420
  2234388
370
     9
100
AcDb2dPolyline
 66
     1
 10
0.0
 20
0.0
 30
0.0
  0
VERTEX
  5
DA
330
D9
100
AcDbEntity
  8
_U+30EC_U+30A4_U+30E4_U+30FC 1
 62
   179
420
  2234388
370
     9
100
AcDbVertex
100
AcDb2dVertex
 10
69.67085766699279
 20
-114.3712963602962
 30
0.0
  0
VERTEX
  5
DB
330
D9
100
AcDbEntity
  8
_U+30EC_U+30A4_U+30E4_U+30FC 1
 62
   179
420
  2234388
370
     9
100
AcDbVertex
100
AcDb2dVertex
 10
75.03967669668947
 20
-114.3712963602962
 30
0.0
  0
SEQEND
  5
DC
330
D9
100
AcDbEntity
  8
_U+30EC_U+30A4_U+30E4_U+30FC 1
 62
   179
420
  2234388
370
     9
  0
INSERT
  5
DE
330
1F
100
AcDbEntity
  8
_U+30EC_U+30A4_U+30E4_U+30FC 1
100
AcDbBlockReference
  2
block 2
 10
0.0
 20
0.0
 30
0.0
  0
INSERT
  5
E4
330
1F
100
AcDbEntity
  8
_U+30EC_U+30A4_U+30E4_U+30FC 1
100
AcDbBlockReference
  2
block 3
 10
0.0
 20
0.0
 30
0.0
  0
INSERT
  5
EA
330
1F
100
AcDbEntity
  8
_U+30EC_U+30A4_U+30E4_U+30FC 1
100
AcDbBlockReference
  2
block 4
 10
0.0
 20
0.0
 30
0.0
  0
INSERT
  5
F0
330
1F
100
AcDbEntity
  8
_U+30EC_U+30A4_U+30E4_U+30FC 1
100
AcDbBlockReference
  2
block 5
 10
0.0
 20
0.0
 30
0.0
  0
INSERT
  5
10C
330
1F
100
AcDbEntity
  8
_U+30EC_U+30A4_U+30E4_U+30FC 1
100
AcDbBlockReference
  2
block 6
 10
0.0
 20
0.0
 30
0.0
  0
INSERT
  5
112
330
1F
100
AcDbEntity
  8
_U+30EC_U+30A4_U+30E4_U+30FC 1
100
AcDbBlockReference
  2
block 7
 10
0.0
 20
0.0
 30
0.0
  0
INSERT
  5
123
330
1F
100
AcDbEntity
  8
_U+30EC_U+30A4_U+30E4_U+30FC 1
100
AcDbBlockReference
  2
block 8
 10
0.0
 20
0.0
 30
0.0
  0
ENDSEC
  0
SECTION
  2
OBJECTS
  0
DICTIONARY
  5
C
330
0
100
AcDbDictionary
281
     1
  3
ACAD_GROUP
350
D
  3
ACAD_LAYOUT
350
1A
  3
ACAD_MATERIAL
350
3B
  3
ACAD_MLEADERSTYLE
350
12D
  3
ACAD_MLINESTYLE
350
17
  3
ACAD_PLOTSETTINGS
350
19
  3
ACAD_PLOTSTYLENAME
350
E
  3
ACAD_TABLESTYLE
350
12C
  3
ACAD_VISUALSTYLE
350
2A
  0
SUN
  5
3F
330
29
100
AcDbSun
 90
        1
290
     0
 63
     7
421
 16777215
 40
1.0
291
     1
 91
  2455826
 92
 54000000
292
     0
 70
     2
 71
   256
280
     1
  0
DICTIONARY
  5
D
102
{ACAD_REACTORS
330
C
102
}
330
C
100
AcDbDictionary
281
     1
  0
DICTIONARY
  5
1A
102
{ACAD_REACTORS
330
C
102
}
330
C
100
AcDbDictionary
281
     1
  3
Layout1
350
1E
  3
Layout2
350
26
  3
Model
350
22
  0
DICTIONARY
  5
3B
102
{ACAD_REACTORS
330
C
102
}
330
C
100
AcDbDictionary
281
     1
  3
ByBlock
350
3D
  3
ByLayer
350
3C
  3
Global
350
3E
  0
DICTIONARY
  5
12D
102
{ACAD_REACTORS
330
C
102
}
330
C
100
AcDbDictionary
281
     1
  0
DICTIONARY
  5
17
102
{ACAD_REACTORS
330
C
102
}
330
C
100
AcDbDictionary
281
     1
  3
Standard
350
18
  0
DICTIONARY
  5
19
102
{ACAD_REACTORS
330
C
102
}
330
C
100
AcDbDictionary
281
     1
  0
ACDBDICTIONARYWDFLT
  5
E
102
{ACAD_REACTORS
330
C
102
}
330
C
100
AcDbDictionary
281
     1
  3
Normal
350
F
100
AcDbDictionaryWithDefault
340
F
  0
DICTIONARY
  5
12C
102
{ACAD_REACTORS
330
C
102
}
330
C
100
AcDbDictionary
281
     1
  0
DICTIONARY
  5
2A
102
{ACAD_REACTORS
330
C
102
}
330
C
100
AcDbDictionary
281
     1
  3
2dWireframe
350
2F
  3
3D Hidden
350
31
  3
3dWireframe
350
30
  3
Basic
350
32
  3
Brighten
350
36
  3
ColorChange
350
3A
  3
Conceptual
350
34
  3
Dim
350
35
  3
Facepattern
350
39
  3
Flat
350
2B
  3
FlatWithEdges
350
2C
  3
Gouraud
350
2D
  3
GouraudWithEdges
350
2E
  3
Linepattern
350
38
  3
Realistic
350
33
  3
Thicken
350
37
  0
LAYOUT
  5
1E
102
{ACAD_REACTORS
330
1A
102
}
330
1A
100
AcDbPlotSettings
  1

  2
none_device
  4

  6

 40
0.0
 41
0.0
 42
0.0
 43
0.0
 44
0.0
 45
0.0
 46
0.0
 47
0.0
 48
0.0
 49
0.0
140
0.0
141
0.0
142
1.0
143
1.0
 70
   688
 72
     0
 73
     0
 74
     5
  7

 75
    16
 76
     0
 77
     2
 78
   300
147
1.0
148
0.0
149
0.0
100
AcDbLayout
  1
Layout1
 70
     1
 71
     1
 10
0.0
 20
0.0
 11
12.0
 21
9.0
 12
0.0
 22
0.0
 32
0.0
 14
1.000000000000000E+20
 24
1.000000000000000E+20
 34
1.000000000000000E+20
 15
-1.000000000000000E+20
 25
-1.000000000000000E+20
 35
-1.000000000000000E+20
146
0.0
 13
0.0
 23
0.0
 33
0.0
 16
1.0
 26
0.0
 36
0.0
 17
0.0
 27
1.0
 37
0.0
 76
     0
330
1B
  0
LAYOUT
  5
26
102
{ACAD_REACTORS
330
1A
102
}
330
1A
100
AcDbPlotSettings
  1

  2
none_device
  4

  6

 40
0.0
 41
0.0
 42
0.0
 43
0.0
 44
0.0
 45
0.0
 46
0.0
 47
0.0
 48
0.0
 49
0.0
140
0.0
141
0.0
142
1.0
143
1.0
 70
   688
 72
     0
 73
     0
 74
     5
  7

 75
    16
 76
     0
 77
     2
 78
   300
147
1.0
148
0.0
149
0.0
100
AcDbLayout
  1
Layout2
 70
     1
 71
     2
 10
0.0
 20
0.0
 11
0.0
 21
0.0
 12
0.0
 22
0.0
 32
0.0
 14
0.0
 24
0.0
 34
0.0
 15
0.0
 25
0.0
 35
0.0
146
0.0
 13
0.0
 23
0.0
 33
0.0
 16
1.0
 26
0.0
 36
0.0
 17
0.0
 27
1.0
 37
0.0
 76
     0
330
23
  0
LAYOUT
  5
22
102
{ACAD_REACTORS
330
1A
102
}
330
1A
100
AcDbPlotSettings
  1

  2
none_device
  4

  6

 40
0.0
 41
0.0
 42
0.0
 43
0.0
 44
0.0
 45
0.0
 46
0.0
 47
0.0
 48
0.0
 49
0.0
140
0.0
141
0.0
142
1.0
143
1.0
 70
  1712
 72
     0
 73
     0
 74
     0
  7

 75
     0
 76
     0
 77
     2
 78
   300
147
1.0
148
0.0
149
0.0
100
AcDbLayout
  1
Model
 70
     1
 71
     0
 10
0.0
 20
0.0
 11
12.0
 21
9.0
 12
0.0
 22
0.0
 32
0.0
 14
1.000000000000000E+20
 24
1.000000000000000E+20
 34
1.000000000000000E+20
 15
-1.000000000000000E+20
 25
-1.000000000000000E+20
 35
-1.000000000000000E+20
146
0.0
 13
0.0
 23
0.0
 33
0.0
 16
1.0
 26
0.0
 36
0.0
 17
0.0
 27
1.0
 37
0.0
 76
     0
330
1F
331
29
  0
MATERIAL
  5
3D
102
{ACAD_REACTORS
330
3B
102
}
330
3B
100
AcDbMaterial
  1
ByBlock
 72
     1
 94
      127
  0
MATERIAL
  5
3C
102
{ACAD_REACTORS
330
3B
102
}
330
3B
100
AcDbMaterial
  1
ByLayer
 72
     1
 94
      127
  0
MATERIAL
  5
3E
102
{ACAD_REACTORS
330
3B
102
}
330
3B
100
AcDbMaterial
  1
Global
 72
     1
 94
      127
  0
MLINESTYLE
  5
18
102
{ACAD_REACTORS
330
17
102
}
330
17
100
AcDbMlineStyle
  2
Standard
 70
     0
  3

 62
   256
 51
90.0
 52
90.0
 71
     2
 49
0.5
 62
   256
  6
BYLAYER
 49
-0.5
 62
   256
  6
BYLAYER
  0
ACDBPLACEHOLDER
  5
F
102
{ACAD_REACTORS
330
E
102
}
330
E
  0
VISUALSTYLE
  5
2F
102
{ACAD_REACTORS
330
2A
102
}
330
2A
100
AcDbVisualStyle
  2
2dWireframe
 70
     4
177
     2
291
     0
 71
     0
176
     1
 72
     2
176
     1
 73
     0
176
     1
 90
        0
176
     1
 40
-0.6
176
     1
 41
-30.0
176
     1
 62
     5
 63
     7
421
 16777215
176
     1
 74
     1
176
     1
 91
        4
176
     1
 64
     7
176
     1
 65
   257
176
     1
 75
     1
176
     1
175
     1
176
     1
 42
1.0
176
     1
 92
        0
176
     1
 66
   257
176
     1
 43
1.0
176
     1
 76
     1
176
     1
 77
     6
176
     1
 78
     2
176
     1
 67
     7
176
     1
 79
     5
176
     1
170
     0
176
     1
171
     0
176
     1
290
     0
176
     1
 93
        1
176
     1
 44
0.0
176
     1
173
     0
176
     1
  0
VISUALSTYLE
  5
31
102
{ACAD_REACTORS
330
2A
102
}
330
2A
100
AcDbVisualStyle
  2
3D Hidden
 70
     6
177
     2
291
     0
 71
     1
176
     1
 72
     2
176
     1
 73
     2
176
     1
 90
        0
176
     1
 40
-0.6
176
     1
 41
-30.0
176
     1
 62
     5
 63
     7
421
 16777215
176
     1
 74
     2
176
     1
 91
        2
176
     1
 64
     7
176
     1
 65
   257
176
     1
 75
     2
176
     1
175
     1
176
     1
 42
40.0
176
     1
 92
        0
176
     1
 66
   257
176
     1
 43
1.0
176
     1
 76
     1
176
     1
 77
     6
176
     1
 78
     2
176
     1
 67
     7
176
     1
 79
     3
176
     1
170
     0
176
     1
171
     0
176
     1
290
     0
176
     1
 93
        1
176
     1
 44
0.0
176
     1
173
     0
176
     1
  0
VISUALSTYLE
  5
30
102
{ACAD_REACTORS
330
2A
102
}
330
2A
100
AcDbVisualStyle
  2
3dWireframe
 70
     5
177
     2
291
     0
 71
     0
176
     1
 72
     2
176
     1
 73
     0
176
     1
 90
        0
176
     1
 40
-0.6
176
     1
 41
-30.0
176
     1
 62
     5
 63
     7
421
 16777215
176
     1
 74
     1
176
     1
 91
        4
176
     1
 64
     7
176
     1
 65
   257
176
     1
 75
     1
176
     1
175
     1
176
     1
 42
1.0
176
     1
 92
        0
176
     1
 66
   257
176
     1
 43
1.0
176
     1
 76
     1
176
     1
 77
     6
176
     1
 78
     2
176
     1
 67
     7
176
     1
 79
     5
176
     1
170
     0
176
     1
171
     0
176
     1
290
     0
176
     1
 93
        1
176
     1
 44
0.0
176
     1
173
     0
176
     1
  0
VISUALSTYLE
  5
32
102
{ACAD_REACTORS
330
2A
102
}
330
2A
100
AcDbVisualStyle
  2
Basic
 70
     7
177
     2
291
     1
 71
     1
176
     1
 72
     0
176
     1
 73
     1
176
     1
 90
        0
176
     1
 40
-0.6
176
     1
 41
-30.0
176
     1
 62
     5
 63
     7
421
 16777215
176
     1
 74
     0
176
     1
 91
        4
176
     1
 64
     7
176
     1
 65
   257
176
     1
 75
     1
176
     1
175
     1
176
     1
 42
1.0
176
     1
 92
        8
176
     1
 66
     7
176
     1
 43
1.0
176
     1
 76
     1
176
     1
 77
     6
176
     1
 78
     2
176
     1
 67
     7
176
     1
 79
     5
176
     1
170
     0
176
     1
171
     0
176
     1
290
     0
176
     1
 93
        1
176
     1
 44
0.0
176
     1
173
     0
176
     1
  0
VISUALSTYLE
  5
36
102
{ACAD_REACTORS
330
2A
102
}
330
2A
100
AcDbVisualStyle
  2
Brighten
 70
    12
177
     2
291
     1
 71
     2
176
     1
 72
     2
176
     1
 73
     0
176
     1
 90
        0
176
     1
 40
-0.6
176
     1
 41
-30.0
176
     1
 62
     5
 63
     7
421
 16777215
176
     1
 74
     1
176
     1
 91
        4
176
     1
 64
     7
176
     1
 65
   257
176
     1
 75
     1
176
     1
175
     1
176
     1
 42
1.0
176
     1
 92
        8
176
     1
 66
     7
176
     1
 43
1.0
176
     1
 76
     1
176
     1
 77
     6
176
     1
 78
     2
176
     1
 67
     7
176
     1
 79
     5
176
     1
170
     0
176
     1
171
     0
176
     1
290
     0
176
     1
 93
        1
176
     1
 44
50.0
176
     1
173
     0
176
     1
  0
VISUALSTYLE
  5
3A
102
{ACAD_REACTORS
330
2A
102
}
330
2A
100
AcDbVisualStyle
  2
ColorChange
 70
    16
177
     2
291
     1
 71
     2
176
     1
 72
     2
176
     1
 73
     3
176
     1
 90
        0
176
     1
 40
-0.6
176
     1
 41
-30.0
176
     1
 62
     5
 63
     8
421
  8421504
176
     1
 74
     1
176
     1
 91
        4
176
     1
 64
     7
176
     1
 65
   257
176
     1
 75
     1
176
     1
175
     1
176
     1
 42
1.0
176
     1
 92
        8
176
     1
 66
     8
424
  8421504
176
     1
 43
1.0
176
     1
 76
     1
176
     1
 77
     6
176
     1
 78
     2
176
     1
 67
     7
176
     1
 79
     5
176
     1
170
     0
176
     1
171
     0
176
     1
290
     0
176
     1
 93
        1
176
     1
 44
0.0
176
     1
173
     0
176
     1
  0
VISUALSTYLE
  5
34
102
{ACAD_REACTORS
330
2A
102
}
330
2A
100
AcDbVisualStyle
  2
Conceptual
 70
     9
177
     2
291
     0
 71
     3
176
     1
 72
     2
176
     1
 73
     0
176
     1
 90
        0
176
     1
 40
-0.6
176
     1
 41
-30.0
176
     1
 62
     5
 63
     7
421
 16777215
176
     1
 74
     2
176
     1
 91
        2
176
     1
 64
     7
176
     1
 65
   257
176
     1
 75
     1
176
     1
175
     1
176
     1
 42
40.0
176
     1
 92
        8
176
     1
 66
     7
176
     1
 43
1.0
176
     1
 76
     1
176
     1
 77
     6
176
     1
 78
     2
176
     1
 67
     7
176
     1
 79
     3
176
     1
170
     0
176
     1
171
     0
176
     1
290
     0
176
     1
 93
        1
176
     1
 44
0.0
176
     1
173
     0
176
     1
  0
VISUALSTYLE
  5
35
102
{ACAD_REACTORS
330
2A
102
}
330
2A
100
AcDbVisualStyle
  2
Dim
 70
    11
177
     2
291
     1
 71
     2
176
     1
 72
     2
176
     1
 73
     0
176
     1
 90
        0
176
     1
 40
-0.6
176
     1
 41
-30.0
176
     1
 62
     5
 63
     7
421
 16777215
176
     1
 74
     1
176
     1
 91
        4
176
     1
 64
     7
176
     1
 65
   257
176
     1
 75
     1
176
     1
175
     1
176
     1
 42
1.0
176
     1
 92
        8
176
     1
 66
     7
176
     1
 43
1.0
176
     1
 76
     1
176
     1
 77
     6
176
     1
 78
     2
176
     1
 67
     7
176
     1
 79
     5
176
     1
170
     0
176
     1
171
     0
176
     1
290
     0
176
     1
 93
        1
176
     1
 44
-50.0
176
     1
173
     0
176
     1
  0
VISUALSTYLE
  5
39
102
{ACAD_REACTORS
330
2A
102
}
330
2A
100
AcDbVisualStyle
  2
Facepattern
 70
    15
177
     2
291
     1
 71
     2
176
     1
 72
     2
176
     1
 73
     0
176
     1
 90
        0
176
     1
 40
-0.6
176
     1
 41
-30.0
176
     1
 62
     5
 63
     7
421
 16777215
176
     1
 74
     1
176
     1
 91
        4
176
     1
 64
     7
176
     1
 65
   257
176
     1
 75
     1
176
     1
175
     1
176
     1
 42
1.0
176
     1
 92
        8
176
     1
 66
     7
176
     1
 43
1.0
176
     1
 76
     1
176
     1
 77
     6
176
     1
 78
     2
176
     1
 67
     7
176
     1
 79
     5
176
     1
170
     0
176
     1
171
     0
176
     1
290
     0
176
     1
 93
        1
176
     1
 44
0.0
176
     1
173
     0
176
     1
  0
VISUALSTYLE
  5
2B
102
{ACAD_REACTORS
330
2A
102
}
330
2A
100
AcDbVisualStyle
  2
Flat
 70
     0
177
     2
291
     1
 71
     2
176
     1
 72
     1
176
     1
 73
     1
176
     1
 90
        2
176
     1
 40
-0.6
176
     1
 41
30.0
176
     1
 62
     5
 63
     7
421
 16777215
176
     1
 74
     0
176
     1
 91
        4
176
     1
 64
     7
176
     1
 65
   257
176
     1
 75
     1
176
     1
175
     1
176
     1
 42
1.0
176
     1
 92
        8
176
     1
 66
     7
176
     1
 43
1.0
176
     1
 76
     1
176
     1
 77
     6
176
     1
 78
     2
176
     1
 67
     7
176
     1
 79
     5
176
     1
170
     0
176
     1
171
     0
176
     1
290
     0
176
     1
 93
       13
176
     1
 44
0.0
176
     1
173
     0
176
     1
  0
VISUALSTYLE
  5
2C
102
{ACAD_REACTORS
330
2A
102
}
330
2A
100
AcDbVisualStyle
  2
FlatWithEdges
 70
     1
177
     2
291
     1
 71
     2
176
     1
 72
     1
176
     1
 73
     1
176
     1
 90
        2
176
     1
 40
-0.6
176
     1
 41
30.0
176
     1
 62
     5
 63
     7
421
 16777215
176
     1
 74
     1
176
     1
 91
        4
176
     1
 64
     7
176
     1
 65
   257
176
     1
 75
     1
176
     1
175
     1
176
     1
 42
1.0
176
     1
 92
        0
176
     1
 66
   257
176
     1
 43
1.0
176
     1
 76
     1
176
     1
 77
     6
176
     1
 78
     2
176
     1
 67
     7
176
     1
 79
     5
176
     1
170
     0
176
     1
171
     0
176
     1
290
     0
176
     1
 93
       13
176
     1
 44
0.0
176
     1
173
     0
176
     1
  0
VISUALSTYLE
  5
2D
102
{ACAD_REACTORS
330
2A
102
}
330
2A
100
AcDbVisualStyle
  2
Gouraud
 70
     2
177
     2
291
     1
 71
     2
176
     1
 72
     2
176
     1
 73
     1
176
     1
 90
        2
176
     1
 40
-0.6
176
     1
 41
30.0
176
     1
 62
     5
 63
     7
421
 16777215
176
     1
 74
     0
176
     1
 91
        4
176
     1
 64
     7
176
     1
 65
   257
176
     1
 75
     1
176
     1
175
     1
176
     1
 42
1.0
176
     1
 92
        0
176
     1
 66
     7
176
     1
 43
1.0
176
     1
 76
     1
176
     1
 77
     6
176
     1
 78
     2
176
     1
 67
     7
176
     1
 79
     5
176
     1
170
     0
176
     1
171
     0
176
     1
290
     0
176
     1
 93
       13
176
     1
 44
0.0
176
     1
173
     0
176
     1
  0
VISUALSTYLE
  5
2E
102
{ACAD_REACTORS
330
2A
102
}
330
2A
100
AcDbVisualStyle
  2
GouraudWithEdges
 70
     3
177
     2
291
     1
 71
     2
176
     1
 72
     2
176
     1
 73
     1
176
     1
 90
        2
176
     1
 40
-0.6
176
     1
 41
30.0
176
     1
 62
     5
 63
     7
421
 16777215
176
     1
 74
     1
176
     1
 91
        4
176
     1
 64
     7
176
     1
 65
   257
176
     1
 75
     1
176
     1
175
     1
176
     1
 42
1.0
176
     1
 92
        0
176
     1
 66
   257
176
     1
 43
1.0
176
     1
 76
     1
176
     1
 77
     6
176
     1
 78
     2
176
     1
 67
     7
176
     1
 79
     5
176
     1
170
     0
176
     1
171
     0
176
     1
290
     0
176
     1
 93
       13
176
     1
 44
0.0
176
     1
173
     0
176
     1
  0
VISUALSTYLE
  5
38
102
{ACAD_REACTORS
330
2A
102
}
330
2A
100
AcDbVisualStyle
  2
Linepattern
 70
    14
177
     2
291
     1
 71
     2
176
     1
 72
     2
176
     1
 73
     0
176
     1
 90
        0
176
     1
 40
-0.6
176
     1
 41
-30.0
176
     1
 62
     5
 63
     7
421
 16777215
176
     1
 74
     1
176
     1
 91
        4
176
     1
 64
     7
176
     1
 65
   257
176
     1
 75
     7
176
     1
175
     7
176
     1
 42
1.0
176
     1
 92
        8
176
     1
 66
     7
176
     1
 43
1.0
176
     1
 76
     1
176
     1
 77
     6
176
     1
 78
     2
176
     1
 67
     7
176
     1
 79
     5
176
     1
170
     0
176
     1
171
     0
176
     1
290
     0
176
     1
 93
        1
176
     1
 44
0.0
176
     1
173
     0
176
     1
  0
VISUALSTYLE
  5
33
102
{ACAD_REACTORS
330
2A
102
}
330
2A
100
AcDbVisualStyle
  2
Realistic
 70
     8
177
     2
291
     0
 71
     2
176
     1
 72
     2
176
     1
 73
     0
176
     1
 90
        0
176
     1
 40
-0.6
176
     1
 41
-30.0
176
     1
 62
     5
 63
     7
421
 16777215
176
     1
 74
     1
176
     1
 91
        0
176
     1
 64
     7
176
     1
 65
   257
176
     1
 75
     1
176
     1
175
     1
176
     1
 42
1.0
176
     1
 92
        8
176
     1
 66
     8
424
  7895160
176
     1
 43
1.0
176
     1
 76
     1
176
     1
 77
     6
176
     1
 78
     2
176
     1
 67
     7
176
     1
 79
     5
176
     1
170
     0
176
     1
171
     0
176
     1
290
     0
176
     1
 93
       13
176
     1
 44
0.0
176
     1
173
     0
176
     1
  0
VISUALSTYLE
  5
37
102
{ACAD_REACTORS
330
2A
102
}
330
2A
100
AcDbVisualStyle
  2
Thicken
 70
    13
177
     2
291
     1
 71
     2
176
     1
 72
     2
176
     1
 73
     0
176
     1
 90
        0
176
     1
 40
-0.6
176
     1
 41
-30.0
176
     1
 62
     5
 63
     7
421
 16777215
176
     1
 74
     1
176
     1
 91
        4
176
     1
 64
     7
176
     1
 65
   257
176
     1
 75
     1
176
     1
175
     1
176
     1
 42
1.0
176
     1
 92
       12
176
     1
 66
     7
176
     1
 43
1.0
176
     1
 76
     1
176
     1
 77
     6
176
     1
 78
     2
176
     1
 67
     7
176
     1
 79
     5
176
     1
170
     0
176
     1
171
     0
176
     1
290
     0
176
     1
 93
        1
176
     1
 44
0.0
176
     1
173
     0
176
     1
  0
ENDSEC
  0
EOF
