  0
SECTION
  2
HEADER
  9
$ACADVER
  1
AC1024
  9
$ACADMAINTVER
 70
     6
  9
$DWGCODEPAGE
  3
UNDEFINED
  9
$INSBASE
 10
0.0
 20
0.0
 30
0.0
  9
$EXTMIN
 10
1.000000000000000E+20
 20
1.000000000000000E+20
 30
1.000000000000000E+20
  9
$EXTMAX
 10
-1.000000000000000E+20
 20
-1.000000000000000E+20
 30
-1.000000000000000E+20
  9
$LIMMIN
 10
0.0
 20
0.0
  9
$LIMMAX
 10
12.0
 20
9.0
  9
$ORTHOMODE
 70
     0
  9
$REGENMODE
 70
     1
  9
$FILLMODE
 70
     1
  9
$QTEXTMODE
 70
     0
  9
$MIRRTEXT
 70
     1
  9
$LTSCALE
 40
1.0
  9
$ATTMODE
 70
     1
  9
$TEXTSIZE
 40
0.2
  9
$TRACEWID
 40
0.05
  9
$TEXTSTYLE
  7
Standard
  9
$CLAYER
  8
0
  9
$CELTYPE
  6
ByLayer
  9
$CECOLOR
 62
   256
  9
$CELTSCALE
 40
1.0
  9
$DISPSILH
 70
     0
  9
$DIMSCALE
 40
1.0
  9
$DIMASZ
 40
0.18
  9
$DIMEXO
 40
0.0625
  9
$DIMDLI
 40
0.38
  9
$DIMRND
 40
0.0
  9
$DIMDLE
 40
0.0
  9
$DIMEXE
 40
0.18
  9
$DIMTP
 40
0.0
  9
$DIMTM
 40
0.0
  9
$DIMTXT
 40
0.18
  9
$DIMCEN
 40
0.09
  9
$DIMTSZ
 40
0.0
  9
$DIMTOL
 70
     0
  9
$DIMLIM
 70
     0
  9
$DIMTIH
 70
     1
  9
$DIMTOH
 70
     1
  9
$DIMSE1
 70
     0
  9
$DIMSE2
 70
     0
  9
$DIMTAD
 70
     0
  9
$DIMZIN
 70
     0
  9
$DIMBLK
  1

  9
$DIMASO
 70
     1
  9
$DIMSHO
 70
     1
  9
$DIMPOST
  1

  9
$DIMAPOST
  1

  9
$DIMALT
 70
     0
  9
$DIMALTD
 70
     2
  9
$DIMALTF
 40
25.4
  9
$DIMLFAC
 40
1.0
  9
$DIMTOFL
 70
     0
  9
$DIMTVP
 40
0.0
  9
$DIMTIX
 70
     0
  9
$DIMSOXD
 70
     0
  9
$DIMSAH
 70
     0
  9
$DIMBLK1
  1

  9
$DIMBLK2
  1

  9
$DIMSTYLE
  2
Standard
  9
$DIMCLRD
 70
     0
  9
$DIMCLRE
 70
     0
  9
$DIMCLRT
 70
     0
  9
$DIMTFAC
 40
1.0
  9
$DIMGAP
 40
0.09
  9
$DIMJUST
 70
     0
  9
$DIMSD1
 70
     0
  9
$DIMSD2
 70
     0
  9
$DIMTOLJ
 70
     1
  9
$DIMTZIN
 70
     0
  9
$DIMALTZ
 70
     0
  9
$DIMALTTZ
 70
     0
  9
$DIMUPT
 70
     0
  9
$DIMDEC
 70
     4
  9
$DIMTDEC
 70
     4
  9
$DIMALTU
 70
     2
  9
$DIMALTTD
 70
     2
  9
$DIMTXSTY
  7
Standard
  9
$DIMAUNIT
 70
     0
  9
$DIMADEC
 70
     0
  9
$DIMALTRND
 40
0.0
  9
$DIMAZIN
 70
     0
  9
$DIMDSEP
 70
    46
  9
$DIMATFIT
 70
     3
  9
$DIMFRAC
 70
     0
  9
$DIMLDRBLK
  1

  9
$DIMLUNIT
 70
     2
  9
$DIMLWD
 70
    -2
  9
$DIMLWE
 70
    -2
  9
$DIMTMOVE
 70
     0
  9
$DIMFXL
 40
1.0
  9
$DIMFXLON
 70
     0
  9
$DIMJOGANG
 40
0.7853981633974483
  9
$DIMTFILL
 70
     0
  9
$DIMTFILLCLR
 70
     0
  9
$DIMARCSYM
 70
     0
  9
$DIMLTYPE
  6

  9
$DIMLTEX1
  6

  9
$DIMLTEX2
  6

  9
$DIMTXTDIRECTION
 70
     0
  9
$LUNITS
 70
     2
  9
$LUPREC
 70
     4
  9
$SKETCHINC
 40
0.1
  9
$FILLETRAD
 40
0.5
  9
$AUNITS
 70
     0
  9
$AUPREC
 70
     0
  9
$MENU
  1
.
  9
$ELEVATION
 40
0.0
  9
$PELEVATION
 40
0.0
  9
$THICKNESS
 40
0.0
  9
$LIMCHECK
 70
     0
  9
$CHAMFERA
 40
0.5
  9
$CHAMFERB
 40
0.5
  9
$CHAMFERC
 40
1.0
  9
$CHAMFERD
 40
0.0
  9
$SKPOLY
 70
     0
  9
$TDCREATE
 40
2457917.591944444
  9
$TDUCREATE
 40
2457917.216944444
  9
$TDUPDATE
 40
2457917.591944444
  9
$TDUUPDATE
 40
2457917.216944444
  9
$TDINDWG
 40
0.0000000116
  9
$TDUSRTIMER
 40
0.0000000116
  9
$USRTIMER
 70
     1
  9
$ANGBASE
 50
0.0
  9
$ANGDIR
 70
     0
  9
$PDMODE
 70
     0
  9
$PDSIZE
 40
0.0
  9
$PLINEWID
 40
0.0
  9
$SPLFRAME
 70
     0
  9
$SPLINETYPE
 70
     6
  9
$SPLINESEGS
 70
     8
  9
$HANDSEED
  5
BF
  9
$SURFTAB1
 70
     6
  9
$SURFTAB2
 70
     6
  9
$SURFTYPE
 70
     6
  9
$SURFU
 70
     6
  9
$SURFV
 70
     6
  9
$UCSBASE
  2

  9
$UCSNAME
  2

  9
$UCSORG
 10
0.0
 20
0.0
 30
0.0
  9
$UCSXDIR
 10
1.0
 20
0.0
 30
0.0
  9
$UCSYDIR
 10
0.0
 20
1.0
 30
0.0
  9
$UCSORTHOREF
  2

  9
$UCSORTHOVIEW
 70
     0
  9
$UCSORGTOP
 10
0.0
 20
0.0
 30
0.0
  9
$UCSORGBOTTOM
 10
0.0
 20
0.0
 30
0.0
  9
$UCSORGLEFT
 10
0.0
 20
0.0
 30
0.0
  9
$UCSORGRIGHT
 10
0.0
 20
0.0
 30
0.0
  9
$UCSORGFRONT
 10
0.0
 20
0.0
 30
0.0
  9
$UCSORGBACK
 10
0.0
 20
0.0
 30
0.0
  9
$PUCSBASE
  2

  9
$PUCSNAME
  2

  9
$PUCSORG
 10
0.0
 20
0.0
 30
0.0
  9
$PUCSXDIR
 10
1.0
 20
0.0
 30
0.0
  9
$PUCSYDIR
 10
0.0
 20
1.0
 30
0.0
  9
$PUCSORTHOREF
  2

  9
$PUCSORTHOVIEW
 70
     0
  9
$PUCSORGTOP
 10
0.0
 20
0.0
 30
0.0
  9
$PUCSORGBOTTOM
 10
0.0
 20
0.0
 30
0.0
  9
$PUCSORGLEFT
 10
0.0
 20
0.0
 30
0.0
  9
$PUCSORGRIGHT
 10
0.0
 20
0.0
 30
0.0
  9
$PUCSORGFRONT
 10
0.0
 20
0.0
 30
0.0
  9
$PUCSORGBACK
 10
0.0
 20
0.0
 30
0.0
  9
$USERI1
 70
     0
  9
$USERI2
 70
     0
  9
$USERI3
 70
     0
  9
$USERI4
 70
     0
  9
$USERI5
 70
     0
  9
$USERR1
 40
0.0
  9
$USERR2
 40
0.0
  9
$USERR3
 40
0.0
  9
$USERR4
 40
0.0
  9
$USERR5
 40
0.0
  9
$WORLDVIEW
 70
     1
  9
$SHADEDGE
 70
     3
  9
$SHADEDIF
 70
    70
  9
$TILEMODE
 70
     1
  9
$MAXACTVP
 70
    64
  9
$PINSBASE
 10
0.0
 20
0.0
 30
0.0
  9
$PLIMCHECK
 70
     0
  9
$PEXTMIN
 10
1.000000000000000E+20
 20
1.000000000000000E+20
 30
1.000000000000000E+20
  9
$PEXTMAX
 10
-1.000000000000000E+20
 20
-1.000000000000000E+20
 30
-1.000000000000000E+20
  9
$PLIMMIN
 10
0.0
 20
0.0
  9
$PLIMMAX
 10
12.0
 20
9.0
  9
$UNITMODE
 70
     0
  9
$VISRETAIN
 70
     1
  9
$PLINEGEN
 70
     0
  9
$PSLTSCALE
 70
     1
  9
$TREEDEPTH
 70
  3020
  9
$CMLSTYLE
  2
Standard
  9
$CMLJUST
 70
     0
  9
$CMLSCALE
 40
1.0
  9
$PROXYGRAPHICS
 70
     1
  9
$MEASUREMENT
 70
     0
  9
$CELWEIGHT
370
    -1
  9
$ENDCAPS
280
     0
  9
$JOINSTYLE
280
     0
  9
$LWDISPLAY
290
     1
  9
$INSUNITS
 70
     1
  9
$HYPERLINKBASE
  1

  9
$STYLESHEET
  1

  9
$XEDIT
290
     1
  9
$CEPSNTYPE
380
     0
  9
$PSTYLEMODE
290
     1
  9
$FINGERPRINTGUID
  2
{EF1B3CDD-7D6B-F8FB-04B0-2AF0080359B6}
  9
$VERSIONGUID
  2
{FAEB1C32-E019-11D5-929B-00C0DF256EC4}
  9
$EXTNAMES
290
     1
  9
$PSVPSCALE
 40
0.0
  9
$OLESTARTUP
290
     0
  9
$SORTENTS
280
   127
  9
$INDEXCTL
280
     0
  9
$HIDETEXT
280
     1
  9
$XCLIPFRAME
280
     2
  9
$HALOGAP
280
     0
  9
$OBSCOLOR
 70
   257
  9
$OBSLTYPE
280
     0
  9
$INTERSECTIONDISPLAY
280
     0
  9
$INTERSECTIONCOLOR
 70
   257
  9
$DIMASSOC
280
     2
  9
$PROJECTNAME
  1

  9
$CAMERADISPLAY
290
     0
  9
$LENSLENGTH
 40
50.0
  9
$CAMERAHEIGHT
 40
0.0
  9
$STEPSPERSEC
 40
2.0
  9
$STEPSIZE
 40
6.0
  9
$3DDWFPREC
 40
2.0
  9
$PSOLWIDTH
 40
0.25
  9
$PSOLHEIGHT
 40
4.0
  9
$LOFTANG1
 40
1.570796326794897
  9
$LOFTANG2
 40
1.570796326794897
  9
$LOFTMAG1
 40
0.0
  9
$LOFTMAG2
 40
0.0
  9
$LOFTPARAM
 70
     7
  9
$LOFTNORMALS
280
     1
  9
$LATITUDE
 40
37.795
  9
$LONGITUDE
 40
-122.394
  9
$NORTHDIRECTION
 40
0.0
  9
$TIMEZONE
 70
 -8000
  9
$LIGHTGLYPHDISPLAY
280
     1
  9
$TILEMODELIGHTSYNCH
280
     1
  9
$CMATERIAL
347
3C
  9
$SOLIDHIST
280
     1
  9
$SHOWHIST
280
     1
  9
$DWFFRAME
280
     2
  9
$DGNFRAME
280
     2
  9
$REALWORLDSCALE
290
     1
  9
$INTERFERECOLOR
 62
   256
  9
$CSHADOW
280
     0
  9
$SHADOWPLANELOCATION
 40
0.0
  0
ENDSEC
  0
SECTION
  2
CLASSES
  0
CLASS
  1
ACDBDICTIONARYWDFLT
  2
AcDbDictionaryWithDefault
  3
ObjectDBX Classes
 90
        0
 91
        4
280
     0
281
     0
  0
CLASS
  1
VISUALSTYLE
  2
AcDbVisualStyle
  3
ObjectDBX Classes
 90
     4095
 91
        4
280
     0
281
     0
  0
CLASS
  1
MATERIAL
  2
AcDbMaterial
  3
ObjectDBX Classes
 90
     1153
 91
        4
280
     0
281
     0
  0
CLASS
  1
SUN
  2
AcDbSun
  3
SCENEOE
 90
     1024
 91
        4
280
     0
281
     0
  0
ENDSEC
  0
SECTION
  2
TABLES
  0
TABLE
  2
VPORT
  5
8
330
0
100
AcDbSymbolTable
 70
     1
  0
VPORT
  5
29
330
8
100
AcDbSymbolTableRecord
100
AcDbViewportTableRecord
  2
*Active
 70
     0
 10
0.0
 20
0.0
 11
1.0
 21
1.0
 12
0.0
 22
0.0
 13
0.0
 23
0.0
 14
0.5
 24
0.5
 15
0.5
 25
0.5
 16
0.0
 26
0.0
 36
1.0
 17
91.00082462281999
 27
-128.4993055234307
 37
0.0
 40
256.9986110468615
 41
0.7081814508812795
 42
50.0
 43
0.0
 44
0.0
 50
0.0
 51
0.0
 71
     0
 72
   100
 73
     1
 74
     3
 75
     0
 76
     0
 77
     0
 78
     0
281
     0
 65
     1
110
0.0
120
0.0
130
0.0
111
1.0
121
0.0
131
0.0
112
0.0
122
1.0
132
0.0
 79
     0
146
0.0
 60
     3
 61
     5
292
     1
282
     1
141
0.0
142
0.0
 63
   250
361
3F
  0
ENDTAB
  0
TABLE
  2
LTYPE
  5
5
330
0
100
AcDbSymbolTable
 70
     1
  0
LTYPE
  5
14
330
5
100
AcDbSymbolTableRecord
100
AcDbLinetypeTableRecord
  2
ByBlock
 70
     0
  3

 72
    65
 73
     0
 40
0.0
  0
LTYPE
  5
15
330
5
100
AcDbSymbolTableRecord
100
AcDbLinetypeTableRecord
  2
ByLayer
 70
     0
  3

 72
    65
 73
     0
 40
0.0
  0
LTYPE
  5
16
330
5
100
AcDbSymbolTableRecord
100
AcDbLinetypeTableRecord
  2
Continuous
 70
     0
  3
Solid line
 72
    65
 73
     0
 40
0.0
  0
ENDTAB
  0
TABLE
  2
LAYER
  5
2
330
0
100
AcDbSymbolTable
 70
     2
  0
LAYER
  5
10
330
2
100
AcDbSymbolTableRecord
100
AcDbLayerTableRecord
  2
0
 70
     0
 62
     7
  6
Continuous
370
    -3
390
F
347
3E
  0
LAYER
  5
40
330
2
100
AcDbSymbolTableRecord
100
AcDbLayerTableRecord
  2
_U+30EC_U+30A4_U+30E4_U+30FC 1
 70
     0
 62
     7
  6
Continuous
370
    -3
390
F
347
3E
  0
ENDTAB
  0
TABLE
  2
STYLE
  5
3
330
0
100
AcDbSymbolTable
 70
     1
  0
STYLE
  5
11
330
3
100
AcDbSymbolTableRecord
100
AcDbTextStyleTableRecord
  2
Standard
 70
     0
 40
0.0
 41
1.0
 50
0.0
 71
     0
 42
0.2
  3
txt
  4

  0
ENDTAB
  0
TABLE
  2
VIEW
  5
6
330
0
100
AcDbSymbolTable
 70
     0
  0
ENDTAB
  0
TABLE
  2
UCS
  5
7
330
0
100
AcDbSymbolTable
 70
     0
  0
ENDTAB
  0
TABLE
  2
APPID
  5
9
330
0
100
AcDbSymbolTable
 70
     1
  0
APPID
  5
12
330
9
100
AcDbSymbolTableRecord
100
AcDbRegAppTableRecord
  2
ACAD
 70
     0
  0
ENDTAB
  0
TABLE
  2
DIMSTYLE
  5
A
330
0
100
AcDbSymbolTable
 70
     1
100
AcDbDimStyleTable
  0
DIMSTYLE
105
27
330
A
100
AcDbSymbolTableRecord
100
AcDbDimStyleTableRecord
  2
Standard
 70
     0
178
     0
340
11
  0
ENDTAB
  0
TABLE
  2
BLOCK_RECORD
  5
1
330
0
100
AcDbSymbolTable
 70
     6
  0
BLOCK_RECORD
  5
1F
330
1
100
AcDbSymbolTableRecord
100
AcDbBlockTableRecord
  2
*Model_Space
340
22
 70
     0
280
     1
281
     0
  0
BLOCK_RECORD
  5
1B
330
1
100
AcDbSymbolTableRecord
100
AcDbBlockTableRecord
  2
*Paper_Space
340
1E
 70
     0
280
     1
281
     0
  0
BLOCK_RECORD
  5
23
330
1
100
AcDbSymbolTableRecord
100
AcDbBlockTableRecord
  2
*Paper_Space0
340
26
 70
     0
280
     1
281
     0
  0
BLOCK_RECORD
  5
63
330
1
100
AcDbSymbolTableRecord
100
AcDbBlockTableRecord
  2
block 2
340
0
102
{BLKREFS
331
64
102
}
 70
     0
280
     1
281
     0
  0
BLOCK_RECORD
  5
78
330
1
100
AcDbSymbolTableRecord
100
AcDbBlockTableRecord
  2
block 3
340
0
102
{BLKREFS
331
79
102
}
 70
     0
280
     1
281
     0
  0
BLOCK_RECORD
  5
8B
330
1
100
AcDbSymbolTableRecord
100
AcDbBlockTableRecord
  2
block 4
340
0
102
{BLKREFS
331
8C
102
}
 70
     0
280
     1
281
     0
  0
BLOCK_RECORD
  5
91
330
1
100
AcDbSymbolTableRecord
100
AcDbBlockTableRecord
  2
block 5
340
0
102
{BLKREFS
331
92
102
}
 70
     0
280
     1
281
     0
  0
BLOCK_RECORD
  5
B5
330
1
100
AcDbSymbolTableRecord
100
AcDbBlockTableRecord
  2
block 6
340
0
102
{BLKREFS
331
B6
102
}
 70
     0
280
     1
281
     0
  0
ENDTAB
  0
ENDSEC
  0
SECTION
  2
BLOCKS
  0
BLOCK
  5
20
330
1F
100
AcDbEntity
  8
0
100
AcDbBlockBegin
  2
*Model_Space
 70
     0
 10
0.0
 20
0.0
 30
0.0
  3
*Model_Space
  1

  0
ENDBLK
  5
21
330
1F
100
AcDbEntity
  8
0
100
AcDbBlockEnd
  0
BLOCK
  5
1C
330
1B
100
AcDbEntity
 67
     1
  8
0
100
AcDbBlockBegin
  2
*Paper_Space
 70
     0
 10
0.0
 20
0.0
 30
0.0
  3
*Paper_Space
  1

  0
ENDBLK
  5
1D
330
1B
100
AcDbEntity
 67
     1
  8
0
100
AcDbBlockEnd
  0
BLOCK
  5
24
330
23
100
AcDbEntity
  8
0
100
AcDbBlockBegin
  2
*Paper_Space0
 70
     0
 10
0.0
 20
0.0
 30
0.0
  3
*Paper_Space0
  1

  0
ENDBLK
  5
25
330
23
100
AcDbEntity
  8
0
100
AcDbBlockEnd
  0
BLOCK
  5
65
330
63
100
AcDbEntity
  8
0
100
AcDbBlockBegin
  2
block 2
 70
     0
 10
0.0
 20
0.0
 30
0.0
  3
block 2
  1

  0
SPLINE
  5
67
330
63
100
AcDbEntity
  8
_U+30EC_U+30A4_U+30E4_U+30FC 1
370
     0
100
AcDbSpline
210
0.0
220
0.0
230
1.0
 70
    11
 71
     3
 72
    26
 73
    22
 74
     0
 42
0.0000000001
 43
0.0000000001
 12
1.0
 22
0.0
 32
0.0
 13
1.0
 23
0.0
 33
0.0
 40
0.0
 40
0.0
 40
0.0
 40
0.0
 40
1.0
 40
1.0
 40
1.0
 40
2.0
 40
2.0
 40
2.0
 40
3.0
 40
3.0
 40
3.0
 40
4.0
 40
4.0
 40
4.0
 40
5.0
 40
5.0
 40
5.0
 40
6.0
 40
6.0
 40
6.0
 40
7.0
 40
7.0
 40
7.0
 40
7.0
 10
81.76761879466227
 20
-139.2958902646552
 30
0.0
 10
81.76761879466227
 20
-139.2958902646552
 30
0.0
 10
81.76761879466227
 20
-138.1917371616326
 30
0.0
 10
81.76761879466227
 20
-138.1917371616326
 30
0.0
 10
81.76761879466227
 20
-138.1917371616326
 30
0.0
 10
81.43757864717533
 20
-138.1917371616326
 30
0.0
 10
81.43757864717533
 20
-138.1917371616326
 30
0.0
 10
81.43757864717533
 20
-138.1917371616326
 30
0.0
 10
81.43757864717533
 20
-138.0435980557669
 30
0.0
 10
81.43757864717533
 20
-138.0435980557669
 30
0.0
 10
81.76968585195341
 20
-138.0287841451803
 30
0.0
 10
81.81619464100429
 20
-137.865831128728
 30
0.0
 10
81.84582246217744
 20
-137.7514539586177
 30
0.0
 10
81.84582246217744
 20
-137.7514539586177
 30
0.0
 10
81.99189451075203
 20
-137.7514539586177
 30
0.0
 10
81.99189451075203
 20
-137.7514539586177
 30
0.0
 10
81.99189451075203
 20
-137.7514539586177
 30
0.0
 10
81.99189451075203
 20
-139.2958902646552
 30
0.0
 10
81.99189451075203
 20
-139.2958902646552
 30
0.0
 10
81.99189451075203
 20
-139.2958902646552
 30
0.0
 10
81.76761879466227
 20
-139.2958902646552
 30
0.0
 10
81.76761879466227
 20
-139.2958902646552
 30
0.0
  0
HATCH
  5
68
330
63
100
AcDbEntity
  8
_U+30EC_U+30A4_U+30E4_U+30FC 1
 62
   179
420
  2234388
100
AcDbHatch
 10
0.0
 20
0.0
 30
0.0
210
0.0
220
0.0
230
1.0
  2
SOLID
 70
     1
 71
     0
 91
        1
 92
        1
 93
        1
 72
     4
 94
        3
 73
     0
 74
     1
 95
       26
 96
       22
 40
0.0
 40
0.0
 40
0.0
 40
0.0
 40
1.0
 40
1.0
 40
1.0
 40
2.0
 40
2.0
 40
2.0
 40
3.0
 40
3.0
 40
3.0
 40
4.0
 40
4.0
 40
4.0
 40
5.0
 40
5.0
 40
5.0
 40
6.0
 40
6.0
 40
6.0
 40
7.0
 40
7.0
 40
7.0
 40
7.0
 10
81.76761879466227
 20
-139.2958902646552
 10
81.76761879466227
 20
-139.2958902646552
 10
81.76761879466227
 20
-138.1917371616326
 10
81.76761879466227
 20
-138.1917371616326
 10
81.76761879466227
 20
-138.1917371616326
 10
81.43757864717533
 20
-138.1917371616326
 10
81.43757864717533
 20
-138.1917371616326
 10
81.43757864717533
 20
-138.1917371616326
 10
81.43757864717533
 20
-138.0435980557669
 10
81.43757864717533
 20
-138.0435980557669
 10
81.76968585195341
 20
-138.0287841451803
 10
81.81619464100429
 20
-137.865831128728
 10
81.84582246217744
 20
-137.7514539586177
 10
81.84582246217744
 20
-137.7514539586177
 10
81.99189451075203
 20
-137.7514539586177
 10
81.99189451075203
 20
-137.7514539586177
 10
81.99189451075203
 20
-137.7514539586177
 10
81.99189451075203
 20
-139.2958902646552
 10
81.99189451075203
 20
-139.2958902646552
 10
81.99189451075203
 20
-139.2958902646552
 10
81.76761879466227
 20
-139.2958902646552
 10
81.76761879466227
 20
-139.2958902646552
 97
        0
 97
        0
 75
     2
 76
     1
 98
        0
  0
SPLINE
  5
69
330
63
100
AcDbEntity
  8
_U+30EC_U+30A4_U+30E4_U+30FC 1
370
     0
100
AcDbSpline
210
0.0
220
0.0
230
1.0
 70
    11
 71
     3
 72
    29
 73
    25
 74
     0
 42
0.0000000001
 43
0.0000000001
 12
1.0
 22
0.0
 32
0.0
 13
1.0
 23
0.0
 33
0.0
 40
0.0
 40
0.0
 40
0.0
 40
0.0
 40
1.0
 40
1.0
 40
1.0
 40
2.0
 40
2.0
 40
2.0
 40
3.0
 40
3.0
 40
3.0
 40
4.0
 40
4.0
 40
4.0
 40
5.0
 40
5.0
 40
5.0
 40
6.0
 40
6.0
 40
6.0
 40
7.0
 40
7.0
 40
7.0
 40
8.0
 40
8.0
 40
8.0
 40
8.0
 10
83.39094778731199
 20
-139.1181233376163
 30
0.0
 10
83.28277178907514
 20
-139.3275851431195
 30
0.0
 10
83.10948348616708
 20
-139.3465331682884
 30
0.0
 10
82.99303925876563
 20
-139.3465331682884
 30
0.0
 10
82.83215329960447
 20
-139.3465331682884
 30
0.0
 10
82.6905598751607
 20
-139.3000243792375
 30
0.0
 10
82.59547523976781
 20
-139.1181233376163
 30
0.0
 10
82.49177786566179
 20
-138.9234754426997
 30
0.0
 10
82.4728298404929
 20
-138.686797382863
 30
0.0
 10
82.4728298404929
 20
-138.5238443664107
 30
0.0
 10
82.4728298404929
 20
-138.3798393751273
 30
0.0
 10
82.48971080837063
 20
-138.1280028951555
 30
0.0
 10
82.59547523976781
 20
-137.9292208856566
 30
0.0
 10
82.70330672845613
 20
-137.7263047615754
 30
0.0
 10
82.86419268761729
 20
-137.7028781122757
 30
0.0
 10
82.99303925876563
 20
-137.7028781122757
 30
0.0
 10
83.15185816063565
 20
-137.7028781122757
 30
0.0
 10
83.29551864237057
 20
-137.7473198440354
 30
0.0
 10
83.39094778731199
 20
-137.9292208856566
 30
0.0
 10
83.49016653728718
 20
-138.1218017232821
 30
0.0
 10
83.51359318658689
 20
-138.3502115539541
 30
0.0
 10
83.51359318658689
 20
-138.5238443664107
 30
0.0
 10
83.51359318658689
 20
-138.6950656120276
 30
0.0
 10
83.49223359457834
 20
-138.9255424999909
 30
0.0
 10
83.39094778731199
 20
-139.1181233376163
 30
0.0
  0
SPLINE
  5
6A
330
63
100
AcDbEntity
  8
_U+30EC_U+30A4_U+30E4_U+30FC 1
370
     0
100
AcDbSpline
210
0.0
220
0.0
230
1.0
 70
    11
 71
     3
 72
    17
 73
    13
 74
     0
 42
0.0000000001
 43
0.0000000001
 12
1.0
 22
0.0
 32
0.0
 13
1.0
 23
0.0
 33
0.0
 40
0.0
 40
0.0
 40
0.0
 40
0.0
 40
1.0
 40
1.0
 40
1.0
 40
2.0
 40
2.0
 40
2.0
 40
3.0
 40
3.0
 40
3.0
 40
4.0
 40
4.0
 40
4.0
 40
4.0
 10
82.99303925876563
 20
-137.8954589499012
 30
0.0
 10
82.74361434563355
 20
-137.8954589499012
 30
0.0
 10
82.69676104703414
 20
-138.1789903083372
 30
0.0
 10
82.69676104703414
 20
-138.5238443664107
 30
0.0
 10
82.69676104703414
 20
-138.8432047178934
 30
0.0
 10
82.73293454962926
 20
-139.1518852733718
 30
0.0
 10
82.99303925876563
 20
-139.1518852733718
 30
0.0
 10
83.24074162415509
 20
-139.1518852733718
 30
0.0
 10
83.28931747049712
 20
-138.8707654817754
 30
0.0
 10
83.28931747049712
 20
-138.5238443664107
 30
0.0
 10
83.28931747049712
 20
-138.2041395053795
 30
0.0
 10
83.25107691061085
 20
-137.8954589499012
 30
0.0
 10
82.99303925876563
 20
-137.8954589499012
 30
0.0
  0
HATCH
  5
6B
330
63
100
AcDbEntity
  8
_U+30EC_U+30A4_U+30E4_U+30FC 1
 62
   179
420
  2234388
100
AcDbHatch
 10
0.0
 20
0.0
 30
0.0
210
0.0
220
0.0
230
1.0
  2
SOLID
 70
     1
 71
     0
 91
        2
 92
        1
 93
        1
 72
     4
 94
        3
 73
     0
 74
     1
 95
       29
 96
       25
 40
0.0
 40
0.0
 40
0.0
 40
0.0
 40
1.0
 40
1.0
 40
1.0
 40
2.0
 40
2.0
 40
2.0
 40
3.0
 40
3.0
 40
3.0
 40
4.0
 40
4.0
 40
4.0
 40
5.0
 40
5.0
 40
5.0
 40
6.0
 40
6.0
 40
6.0
 40
7.0
 40
7.0
 40
7.0
 40
8.0
 40
8.0
 40
8.0
 40
8.0
 10
83.39094778731199
 20
-139.1181233376163
 10
83.28277178907514
 20
-139.3275851431195
 10
83.10948348616708
 20
-139.3465331682884
 10
82.99303925876563
 20
-139.3465331682884
 10
82.83215329960447
 20
-139.3465331682884
 10
82.6905598751607
 20
-139.3000243792375
 10
82.59547523976781
 20
-139.1181233376163
 10
82.49177786566179
 20
-138.9234754426997
 10
82.4728298404929
 20
-138.686797382863
 10
82.4728298404929
 20
-138.5238443664107
 10
82.4728298404929
 20
-138.3798393751273
 10
82.48971080837063
 20
-138.1280028951555
 10
82.59547523976781
 20
-137.9292208856566
 10
82.70330672845613
 20
-137.7263047615754
 10
82.86419268761729
 20
-137.7028781122757
 10
82.99303925876563
 20
-137.7028781122757
 10
83.15185816063565
 20
-137.7028781122757
 10
83.29551864237057
 20
-137.7473198440354
 10
83.39094778731199
 20
-137.9292208856566
 10
83.49016653728718
 20
-138.1218017232821
 10
83.51359318658689
 20
-138.3502115539541
 10
83.51359318658689
 20
-138.5238443664107
 10
83.51359318658689
 20
-138.6950656120276
 10
83.49223359457834
 20
-138.9255424999909
 10
83.39094778731199
 20
-139.1181233376163
 97
        0
 97
        0
 92
        1
 93
        1
 72
     4
 94
        3
 73
     0
 74
     1
 95
       17
 96
       13
 40
0.0
 40
0.0
 40
0.0
 40
0.0
 40
1.0
 40
1.0
 40
1.0
 40
2.0
 40
2.0
 40
2.0
 40
3.0
 40
3.0
 40
3.0
 40
4.0
 40
4.0
 40
4.0
 40
4.0
 10
82.99303925876563
 20
-137.8954589499012
 10
82.74361434563355
 20
-137.8954589499012
 10
82.69676104703414
 20
-138.1789903083372
 10
82.69676104703414
 20
-138.5238443664107
 10
82.69676104703414
 20
-138.8432047178934
 10
82.73293454962926
 20
-139.1518852733718
 10
82.99303925876563
 20
-139.1518852733718
 10
83.24074162415509
 20
-139.1518852733718
 10
83.28931747049712
 20
-138.8707654817754
 10
83.28931747049712
 20
-138.5238443664107
 10
83.28931747049712
 20
-138.2041395053795
 10
83.25107691061085
 20
-137.8954589499012
 10
82.99303925876563
 20
-137.8954589499012
 97
        0
 97
        0
 75
     2
 76
     1
 98
        0
  0
ENDBLK
  5
66
330
63
100
AcDbEntity
  8
0
100
AcDbBlockEnd
  0
BLOCK
  5
7A
330
78
100
AcDbEntity
  8
0
100
AcDbBlockBegin
  2
block 3
 70
     0
 10
0.0
 20
0.0
 30
0.0
  3
block 3
  1

  0
SPLINE
  5
7C
330
78
100
AcDbEntity
  8
_U+30EC_U+30A4_U+30E4_U+30FC 1
370
     0
100
AcDbSpline
210
0.0
220
0.0
230
1.0
 70
    11
 71
     3
 72
    32
 73
    28
 74
     0
 42
0.0000000001
 43
0.0000000001
 12
1.0
 22
0.0
 32
0.0
 13
1.0
 23
0.0
 33
0.0
 40
0.0
 40
0.0
 40
0.0
 40
0.0
 40
1.0
 40
1.0
 40
1.0
 40
2.0
 40
2.0
 40
2.0
 40
3.0
 40
3.0
 40
3.0
 40
4.0
 40
4.0
 40
4.0
 40
5.0
 40
5.0
 40
5.0
 40
6.0
 40
6.0
 40
6.0
 40
7.0
 40
7.0
 40
7.0
 40
8.0
 40
8.0
 40
8.0
 40
9.0
 40
9.0
 40
9.0
 40
9.0
 10
102.9894069838013
 20
-129.081526660438
 30
0.0
 10
102.9894069838013
 20
-129.254814963346
 30
0.0
 10
102.9194715454507
 20
-129.5004502714444
 30
0.0
 10
102.5873643406726
 20
-129.5383463217821
 30
0.0
 10
102.5873643406726
 20
-129.5383463217821
 30
0.0
 10
102.5873643406726
 20
-129.3247504016966
 30
0.0
 10
102.5873643406726
 20
-129.3247504016966
 30
0.0
 10
102.6466199830189
 20
-129.3140706056923
 30
0.0
 10
102.7947590888846
 20
-129.282375727228
 30
0.0
 10
102.7947590888846
 20
-129.0794596031468
 30
0.0
 10
102.7947590888846
 20
-128.7873155059976
 30
0.0
 10
102.4647189413977
 20
-128.7492472008856
 30
0.0
 10
102.2593912504768
 20
-128.7366726023645
 30
0.0
 10
102.3400064848317
 20
-128.827623123175
 30
0.0
 10
102.3971950698868
 20
-128.8954915042345
 30
0.0
 10
102.3971950698868
 20
-129.0773925458556
 30
0.0
 10
102.3971950698868
 20
-129.2572265301857
 30
0.0
 10
102.2910861289411
 20
-129.5597059137906
 30
0.0
 10
101.8852538807787
 20
-129.5597059137906
 30
0.0
 10
101.5655490197475
 20
-129.5597059137906
 30
0.0
 10
101.3457519277886
 20
-129.3605793947432
 30
0.0
 10
101.3457519277886
 20
-129.0432861005517
 30
0.0
 10
101.3457519277886
 20
-128.5292778541524
 30
0.0
 10
101.8997232818167
 20
-128.5187703129224
 30
0.0
 10
102.1133192019022
 20
-128.5187703129224
 30
0.0
 10
102.344140599414
 20
-128.5187703129224
 30
0.0
 10
102.9894069838013
 20
-128.5377183380913
 30
0.0
 10
102.9894069838013
 20
-129.081526660438
 30
0.0
  0
SPLINE
  5
7D
330
78
100
AcDbEntity
  8
_U+30EC_U+30A4_U+30E4_U+30FC 1
370
     0
100
AcDbSpline
210
0.0
220
0.0
230
1.0
 70
    11
 71
     3
 72
    17
 73
    13
 74
     0
 42
0.0000000001
 43
0.0000000001
 12
1.0
 22
0.0
 32
0.0
 13
1.0
 23
0.0
 33
0.0
 40
0.0
 40
0.0
 40
0.0
 40
0.0
 40
1.0
 40
1.0
 40
1.0
 40
2.0
 40
2.0
 40
2.0
 40
3.0
 40
3.0
 40
3.0
 40
4.0
 40
4.0
 40
4.0
 40
4.0
 10
101.5379882558655
 20
-129.0412190432605
 30
0.0
 10
101.5379882558655
 20
-129.1597303279531
 30
0.0
 10
101.5951768409207
 20
-129.3350856881523
 30
0.0
 10
101.8807752566479
 20
-129.3350856881523
 30
0.0
 10
102.1071180300288
 20
-129.3350856881523
 30
0.0
 10
102.2022026654217
 20
-129.1959038305482
 30
0.0
 10
102.2022026654217
 20
-129.0601670684294
 30
0.0
 10
102.2022026654217
 20
-128.7979953020019
 30
0.0
 10
101.9927408599185
 20
-128.7599269968899
 30
0.0
 10
101.8766411420656
 20
-128.7599269968899
 30
0.0
 10
101.7009412723178
 20
-128.7599269968899
 30
0.0
 10
101.5379882558655
 20
-128.8548393775085
 30
0.0
 10
101.5379882558655
 20
-129.0412190432605
 30
0.0
  0
HATCH
  5
7E
330
78
100
AcDbEntity
  8
_U+30EC_U+30A4_U+30E4_U+30FC 1
 62
   179
420
  2234388
100
AcDbHatch
 10
0.0
 20
0.0
 30
0.0
210
0.0
220
0.0
230
1.0
  2
SOLID
 70
     1
 71
     0
 91
        2
 92
        1
 93
        1
 72
     4
 94
        3
 73
     0
 74
     1
 95
       32
 96
       28
 40
0.0
 40
0.0
 40
0.0
 40
0.0
 40
1.0
 40
1.0
 40
1.0
 40
2.0
 40
2.0
 40
2.0
 40
3.0
 40
3.0
 40
3.0
 40
4.0
 40
4.0
 40
4.0
 40
5.0
 40
5.0
 40
5.0
 40
6.0
 40
6.0
 40
6.0
 40
7.0
 40
7.0
 40
7.0
 40
8.0
 40
8.0
 40
8.0
 40
9.0
 40
9.0
 40
9.0
 40
9.0
 10
102.9894069838013
 20
-129.081526660438
 10
102.9894069838013
 20
-129.254814963346
 10
102.9194715454507
 20
-129.5004502714444
 10
102.5873643406726
 20
-129.5383463217821
 10
102.5873643406726
 20
-129.5383463217821
 10
102.5873643406726
 20
-129.3247504016966
 10
102.5873643406726
 20
-129.3247504016966
 10
102.6466199830189
 20
-129.3140706056923
 10
102.7947590888846
 20
-129.282375727228
 10
102.7947590888846
 20
-129.0794596031468
 10
102.7947590888846
 20
-128.7873155059976
 10
102.4647189413977
 20
-128.7492472008856
 10
102.2593912504768
 20
-128.7366726023645
 10
102.3400064848317
 20
-128.827623123175
 10
102.3971950698868
 20
-128.8954915042345
 10
102.3971950698868
 20
-129.0773925458556
 10
102.3971950698868
 20
-129.2572265301857
 10
102.2910861289411
 20
-129.5597059137906
 10
101.8852538807787
 20
-129.5597059137906
 10
101.5655490197475
 20
-129.5597059137906
 10
101.3457519277886
 20
-129.3605793947432
 10
101.3457519277886
 20
-129.0432861005517
 10
101.3457519277886
 20
-128.5292778541524
 10
101.8997232818167
 20
-128.5187703129224
 10
102.1133192019022
 20
-128.5187703129224
 10
102.344140599414
 20
-128.5187703129224
 10
102.9894069838013
 20
-128.5377183380913
 10
102.9894069838013
 20
-129.081526660438
 97
        0
 97
        0
 92
        1
 93
        1
 72
     4
 94
        3
 73
     0
 74
     1
 95
       17
 96
       13
 40
0.0
 40
0.0
 40
0.0
 40
0.0
 40
1.0
 40
1.0
 40
1.0
 40
2.0
 40
2.0
 40
2.0
 40
3.0
 40
3.0
 40
3.0
 40
4.0
 40
4.0
 40
4.0
 40
4.0
 10
101.5379882558655
 20
-129.0412190432605
 10
101.5379882558655
 20
-129.1597303279531
 10
101.5951768409207
 20
-129.3350856881523
 10
101.8807752566479
 20
-129.3350856881523
 10
102.1071180300288
 20
-129.3350856881523
 10
102.2022026654217
 20
-129.1959038305482
 10
102.2022026654217
 20
-129.0601670684294
 10
102.2022026654217
 20
-128.7979953020019
 10
101.9927408599185
 20
-128.7599269968899
 10
101.8766411420656
 20
-128.7599269968899
 10
101.7009412723178
 20
-128.7599269968899
 10
101.5379882558655
 20
-128.8548393775085
 10
101.5379882558655
 20
-129.0412190432605
 97
        0
 97
        0
 75
     2
 76
     1
 98
        0
  0
POLYLINE
  5
7F
330
78
100
AcDbEntity
  8
_U+30EC_U+30A4_U+30E4_U+30FC 1
370
     0
100
AcDb2dPolyline
 66
     1
 10
0.0
 20
0.0
 30
0.0
  0
VERTEX
  5
80
330
7F
100
AcDbEntity
  8
_U+30EC_U+30A4_U+30E4_U+30FC 1
370
     0
100
AcDbVertex
100
AcDb2dVertex
 10
102.9387640801681
 20
-128.3022460616745
 30
0.0
  0
VERTEX
  5
81
330
7F
100
AcDbEntity
  8
_U+30EC_U+30A4_U+30E4_U+30FC 1
370
     0
100
AcDbVertex
100
AcDb2dVertex
 10
102.6869276001963
 20
-128.3022460616745
 30
0.0
  0
VERTEX
  5
82
330
7F
100
AcDbEntity
  8
_U+30EC_U+30A4_U+30E4_U+30FC 1
370
     0
100
AcDbVertex
100
AcDb2dVertex
 10
102.6869276001963
 20
-128.0505818364769
 30
0.0
  0
VERTEX
  5
83
330
7F
100
AcDbEntity
  8
_U+30EC_U+30A4_U+30E4_U+30FC 1
370
     0
100
AcDbVertex
100
AcDb2dVertex
 10
102.9387640801681
 20
-128.0505818364769
 30
0.0
  0
VERTEX
  5
84
330
7F
100
AcDbEntity
  8
_U+30EC_U+30A4_U+30E4_U+30FC 1
370
     0
100
AcDbVertex
100
AcDb2dVertex
 10
102.9387640801681
 20
-128.3022460616745
 30
0.0
  0
SEQEND
  5
85
330
7F
100
AcDbEntity
  8
_U+30EC_U+30A4_U+30E4_U+30FC 1
370
     0
  0
HATCH
  5
86
330
78
100
AcDbEntity
  8
_U+30EC_U+30A4_U+30E4_U+30FC 1
 62
   179
420
  2234388
100
AcDbHatch
 10
0.0
 20
0.0
 30
0.0
210
0.0
220
0.0
230
1.0
  2
SOLID
 70
     1
 71
     0
 91
        1
 92
        1
 93
        4
 72
     1
 10
102.9387640801681
 20
-128.3022460616745
 11
102.6869276001963
 21
-128.3022460616745
 72
     1
 10
102.6869276001963
 20
-128.3022460616745
 11
102.6869276001963
 21
-128.0505818364769
 72
     1
 10
102.6869276001963
 20
-128.0505818364769
 11
102.9387640801681
 21
-128.0505818364769
 72
     1
 10
102.9387640801681
 20
-128.0505818364769
 11
102.9387640801681
 21
-128.3022460616745
 97
        0
 75
     2
 76
     1
 98
        0
  0
SPLINE
  5
87
330
78
100
AcDbEntity
  8
_U+30EC_U+30A4_U+30E4_U+30FC 1
370
     0
100
AcDbSpline
210
0.0
220
0.0
230
1.0
 70
    11
 71
     3
 72
    29
 73
    25
 74
     0
 42
0.0000000001
 43
0.0000000001
 12
1.0
 22
0.0
 32
0.0
 13
1.0
 23
0.0
 33
0.0
 40
0.0
 40
0.0
 40
0.0
 40
0.0
 40
1.0
 40
1.0
 40
1.0
 40
2.0
 40
2.0
 40
2.0
 40
3.0
 40
3.0
 40
3.0
 40
4.0
 40
4.0
 40
4.0
 40
5.0
 40
5.0
 40
5.0
 40
6.0
 40
6.0
 40
6.0
 40
7.0
 40
7.0
 40
7.0
 40
8.0
 40
8.0
 40
8.0
 40
8.0
 10
102.9894069838013
 20
-127.3140204217305
 30
0.0
 10
102.9894069838013
 20
-127.5804985575146
 30
0.0
 10
102.8519476739398
 20
-127.8344020947775
 30
0.0
 10
102.5026149917355
 20
-127.8344020947775
 30
0.0
 10
102.2469889067299
 20
-127.8344020947775
 30
0.0
 10
102.1515597617885
 20
-127.6926364155595
 30
0.0
 10
102.0902370621511
 20
-127.5868719841623
 30
0.0
 10
102.0309814198048
 20
-127.7117566955026
 30
0.0
 10
101.916948759243
 20
-127.7878933057266
 30
0.0
 10
101.7560628000818
 20
-127.7878933057266
 30
0.0
 10
101.4807996708104
 20
-127.7878933057266
 30
0.0
 10
101.3457519277886
 20
-127.5889390414535
 30
0.0
 10
101.3457519277886
 20
-127.3140204217305
 30
0.0
 10
101.3457519277886
 20
-127.0304890632945
 30
0.0
 10
101.4894124095235
 20
-126.8401475377344
 30
0.0
 10
101.7560628000818
 20
-126.8401475377344
 30
0.0
 10
101.916948759243
 20
-126.8401475377344
 30
0.0
 10
102.0309814198048
 20
-126.9183512052496
 30
0.0
 10
102.0902370621511
 20
-127.0432359165899
 30
0.0
 10
102.1408799657842
 20
-126.9543524530704
 30
0.0
 10
102.2363091107257
 20
-126.7957058059747
 30
0.0
 10
102.4984808771532
 20
-126.7957058059747
 30
0.0
 10
102.8729627563998
 20
-126.7957058059747
 30
0.0
 10
102.9894069838013
 20
-127.0749307950542
 30
0.0
 10
102.9894069838013
 20
-127.3140204217305
 30
0.0
  0
SPLINE
  5
88
330
78
100
AcDbEntity
  8
_U+30EC_U+30A4_U+30E4_U+30FC 1
370
     0
100
AcDbSpline
210
0.0
220
0.0
230
1.0
 70
    11
 71
     3
 72
    17
 73
    13
 74
     0
 42
0.0000000001
 43
0.0000000001
 12
1.0
 22
0.0
 32
0.0
 13
1.0
 23
0.0
 33
0.0
 40
0.0
 40
0.0
 40
0.0
 40
0.0
 40
1.0
 40
1.0
 40
1.0
 40
2.0
 40
2.0
 40
2.0
 40
3.0
 40
3.0
 40
3.0
 40
4.0
 40
4.0
 40
4.0
 40
4.0
 10
101.5379882558655
 20
-127.3140204217305
 30
0.0
 10
101.5379882558655
 20
-127.479040495474
 30
0.0
 10
101.6330728912584
 20
-127.5636175896369
 30
0.0
 10
101.7688096533772
 20
-127.5636175896369
 30
0.0
 10
101.8914550526521
 20
-127.5636175896369
 30
0.0
 10
102.0099663373447
 20
-127.4916150939952
 30
0.0
 10
102.0099663373447
 20
-127.3140204217305
 30
0.0
 10
102.0099663373447
 20
-127.1362534946916
 30
0.0
 10
101.8914550526521
 20
-127.0644232538242
 30
0.0
 10
101.7688096533772
 20
-127.0644232538242
 30
0.0
 10
101.6330728912584
 20
-127.0644232538242
 30
0.0
 10
101.5379882558655
 20
-127.1510674052782
 30
0.0
 10
101.5379882558655
 20
-127.3140204217305
 30
0.0
  0
SPLINE
  5
89
330
78
100
AcDbEntity
  8
_U+30EC_U+30A4_U+30E4_U+30FC 1
370
     0
100
AcDbSpline
210
0.0
220
0.0
230
1.0
 70
    11
 71
     3
 72
    17
 73
    13
 74
     0
 42
0.0000000001
 43
0.0000000001
 12
1.0
 22
0.0
 32
0.0
 13
1.0
 23
0.0
 33
0.0
 40
0.0
 40
0.0
 40
0.0
 40
0.0
 40
1.0
 40
1.0
 40
1.0
 40
2.0
 40
2.0
 40
2.0
 40
3.0
 40
3.0
 40
3.0
 40
4.0
 40
4.0
 40
4.0
 40
4.0
 10
102.1980685508394
 20
-127.3140204217305
 30
0.0
 10
102.1980685508394
 20
-127.4578531582397
 30
0.0
 10
102.2848849570677
 20
-127.6101263786878
 30
0.0
 10
102.4881455906974
 20
-127.6101263786878
 30
0.0
 10
102.6931287720698
 20
-127.6101263786878
 30
0.0
 10
102.7947590888846
 20
-127.4831746100563
 30
0.0
 10
102.7947590888846
 20
-127.3140204217305
 30
0.0
 10
102.7947590888846
 20
-127.1278130107528
 30
0.0
 10
102.6721136896098
 20
-127.017742209999
 30
0.0
 10
102.4943467625709
 20
-127.017742209999
 30
0.0
 10
102.2721381037722
 20
-127.017742209999
 30
0.0
 10
102.1980685508394
 20
-127.1806952264514
 30
0.0
 10
102.1980685508394
 20
-127.3140204217305
 30
0.0
  0
HATCH
  5
8A
330
78
100
AcDbEntity
  8
_U+30EC_U+30A4_U+30E4_U+30FC 1
 62
   179
420
  2234388
100
AcDbHatch
 10
0.0
 20
0.0
 30
0.0
210
0.0
220
0.0
230
1.0
  2
SOLID
 70
     1
 71
     0
 91
        3
 92
        1
 93
        1
 72
     4
 94
        3
 73
     0
 74
     1
 95
       29
 96
       25
 40
0.0
 40
0.0
 40
0.0
 40
0.0
 40
1.0
 40
1.0
 40
1.0
 40
2.0
 40
2.0
 40
2.0
 40
3.0
 40
3.0
 40
3.0
 40
4.0
 40
4.0
 40
4.0
 40
5.0
 40
5.0
 40
5.0
 40
6.0
 40
6.0
 40
6.0
 40
7.0
 40
7.0
 40
7.0
 40
8.0
 40
8.0
 40
8.0
 40
8.0
 10
102.9894069838013
 20
-127.3140204217305
 10
102.9894069838013
 20
-127.5804985575146
 10
102.8519476739398
 20
-127.8344020947775
 10
102.5026149917355
 20
-127.8344020947775
 10
102.2469889067299
 20
-127.8344020947775
 10
102.1515597617885
 20
-127.6926364155595
 10
102.0902370621511
 20
-127.5868719841623
 10
102.0309814198048
 20
-127.7117566955026
 10
101.916948759243
 20
-127.7878933057266
 10
101.7560628000818
 20
-127.7878933057266
 10
101.4807996708104
 20
-127.7878933057266
 10
101.3457519277886
 20
-127.5889390414535
 10
101.3457519277886
 20
-127.3140204217305
 10
101.3457519277886
 20
-127.0304890632945
 10
101.4894124095235
 20
-126.8401475377344
 10
101.7560628000818
 20
-126.8401475377344
 10
101.916948759243
 20
-126.8401475377344
 10
102.0309814198048
 20
-126.9183512052496
 10
102.0902370621511
 20
-127.0432359165899
 10
102.1408799657842
 20
-126.9543524530704
 10
102.2363091107257
 20
-126.7957058059747
 10
102.4984808771532
 20
-126.7957058059747
 10
102.8729627563998
 20
-126.7957058059747
 10
102.9894069838013
 20
-127.0749307950542
 10
102.9894069838013
 20
-127.3140204217305
 97
        0
 97
        0
 92
        1
 93
        1
 72
     4
 94
        3
 73
     0
 74
     1
 95
       17
 96
       13
 40
0.0
 40
0.0
 40
0.0
 40
0.0
 40
1.0
 40
1.0
 40
1.0
 40
2.0
 40
2.0
 40
2.0
 40
3.0
 40
3.0
 40
3.0
 40
4.0
 40
4.0
 40
4.0
 40
4.0
 10
101.5379882558655
 20
-127.3140204217305
 10
101.5379882558655
 20
-127.479040495474
 10
101.6330728912584
 20
-127.5636175896369
 10
101.7688096533772
 20
-127.5636175896369
 10
101.8914550526521
 20
-127.5636175896369
 10
102.0099663373447
 20
-127.4916150939952
 10
102.0099663373447
 20
-127.3140204217305
 10
102.0099663373447
 20
-127.1362534946916
 10
101.8914550526521
 20
-127.0644232538242
 10
101.7688096533772
 20
-127.0644232538242
 10
101.6330728912584
 20
-127.0644232538242
 10
101.5379882558655
 20
-127.1510674052782
 10
101.5379882558655
 20
-127.3140204217305
 97
        0
 97
        0
 92
        1
 93
        1
 72
     4
 94
        3
 73
     0
 74
     1
 95
       17
 96
       13
 40
0.0
 40
0.0
 40
0.0
 40
0.0
 40
1.0
 40
1.0
 40
1.0
 40
2.0
 40
2.0
 40
2.0
 40
3.0
 40
3.0
 40
3.0
 40
4.0
 40
4.0
 40
4.0
 40
4.0
 10
102.1980685508394
 20
-127.3140204217305
 10
102.1980685508394
 20
-127.4578531582397
 10
102.2848849570677
 20
-127.6101263786878
 10
102.4881455906974
 20
-127.6101263786878
 10
102.6931287720698
 20
-127.6101263786878
 10
102.7947590888846
 20
-127.4831746100563
 10
102.7947590888846
 20
-127.3140204217305
 10
102.7947590888846
 20
-127.1278130107528
 10
102.6721136896098
 20
-127.017742209999
 10
102.4943467625709
 20
-127.017742209999
 10
102.2721381037722
 20
-127.017742209999
 10
102.1980685508394
 20
-127.1806952264514
 10
102.1980685508394
 20
-127.3140204217305
 97
        0
 97
        0
 75
     2
 76
     1
 98
        0
  0
ENDBLK
  5
7B
330
78
100
AcDbEntity
  8
0
100
AcDbBlockEnd
  0
BLOCK
  5
8D
330
8B
100
AcDbEntity
  8
0
100
AcDbBlockBegin
  2
block 4
 70
     0
 10
0.0
 20
0.0
 30
0.0
  3
block 4
  1

  0
SPLINE
  5
8F
330
8B
100
AcDbEntity
  8
_U+30EC_U+30A4_U+30E4_U+30FC 1
370
     0
100
AcDbSpline
210
0.0
220
0.0
230
1.0
 70
    11
 71
     3
 72
    62
 73
    58
 74
     0
 42
0.0000000001
 43
0.0000000001
 12
1.0
 22
0.0
 32
0.0
 13
1.0
 23
0.0
 33
0.0
 40
0.0
 40
0.0
 40
0.0
 40
0.0
 40
1.0
 40
1.0
 40
1.0
 40
2.0
 40
2.0
 40
2.0
 40
3.0
 40
3.0
 40
3.0
 40
4.0
 40
4.0
 40
4.0
 40
5.0
 40
5.0
 40
5.0
 40
6.0
 40
6.0
 40
6.0
 40
7.0
 40
7.0
 40
7.0
 40
8.0
 40
8.0
 40
8.0
 40
9.0
 40
9.0
 40
9.0
 40
10.0
 40
10.0
 40
10.0
 40
11.0
 40
11.0
 40
11.0
 40
12.0
 40
12.0
 40
12.0
 40
13.0
 40
13.0
 40
13.0
 40
14.0
 40
14.0
 40
14.0
 40
15.0
 40
15.0
 40
15.0
 40
16.0
 40
16.0
 40
16.0
 40
17.0
 40
17.0
 40
17.0
 40
18.0
 40
18.0
 40
18.0
 40
19.0
 40
19.0
 40
19.0
 40
19.0
 10
102.9894069838013
 20
-134.3973089941784
 30
0.0
 10
102.9894069838013
 20
-134.4923936295714
 30
0.0
 10
102.9683919013412
 20
-134.7104681737877
 30
0.0
 10
102.7820122355892
 20
-134.8351806303537
 30
0.0
 10
102.6700466323186
 20
-134.9092501832866
 30
0.0
 10
102.5704833727949
 20
-134.9133842978689
 30
0.0
 10
102.4860785334063
 20
-134.9175184124512
 30
0.0
 10
102.4860785334063
 20
-134.9175184124512
 30
0.0
 10
102.4860785334063
 20
-134.6977213204922
 30
0.0
 10
102.4860785334063
 20
-134.6977213204922
 30
0.0
 10
102.5598035767906
 20
-134.6956542632011
 30
0.0
 10
102.7947590888846
 20
-134.6849744671968
 30
0.0
 10
102.7947590888846
 20
-134.4014431087608
 30
0.0
 10
102.7947590888846
 20
-134.2639837988993
 30
0.0
 10
102.7251681600826
 20
-134.1117105784512
 30
0.0
 10
102.496413819862
 20
-134.1117105784512
 30
0.0
 10
102.3799695924606
 20
-134.1117105784512
 30
0.0
 10
102.3313937461186
 20
-134.1499511383375
 30
0.0
 10
102.2996988676542
 20
-134.1816460168018
 30
0.0
 10
102.2256293147214
 20
-134.2553710601861
 30
0.0
 10
102.2132269709745
 20
-134.3718152875876
 30
0.0
 10
102.2132269709745
 20
-134.4269368153516
 30
0.0
 10
102.2132269709745
 20
-134.4458848405205
 30
0.0
 10
102.2152940282656
 20
-134.4820583431156
 30
0.0
 10
102.2194281428479
 20
-134.5096191069976
 30
0.0
 10
102.2194281428479
 20
-134.5096191069976
 30
0.0
 10
102.0247802479313
 20
-134.5096191069976
 30
0.0
 10
102.0247802479313
 20
-134.5096191069976
 30
0.0
 10
102.0309814198048
 20
-134.4713785471113
 30
0.0
 10
102.0333929866444
 20
-134.4290038726428
 30
0.0
 10
102.0333929866444
 20
-134.4228027007693
 30
0.0
 10
102.0333929866444
 20
-134.3573458865496
 30
0.0
 10
102.0120333946359
 20
-134.1582193675021
 30
0.0
 10
101.7750108252507
 20
-134.1582193675021
 30
0.0
 10
101.5972438982118
 20
-134.1582193675021
 30
0.0
 10
101.5421223704478
 20
-134.2894775054901
 30
0.0
 10
101.5421223704478
 20
-134.3993760514696
 30
0.0
 10
101.5421223704478
 20
-134.6639593847368
 30
0.0
 10
101.7750108252507
 20
-134.6722276139014
 30
0.0
 10
101.8470133208924
 20
-134.6763617284837
 30
0.0
 10
101.8470133208924
 20
-134.6763617284837
 30
0.0
 10
101.8470133208924
 20
-134.8796223621134
 30
0.0
 10
101.8470133208924
 20
-134.8796223621134
 30
0.0
 10
101.7219563547778
 20
-134.8713541329488
 30
0.0
 10
101.3457519277886
 20
-134.8437933690668
 30
0.0
 10
101.3457519277886
 20
-134.3869737077227
 30
0.0
 10
101.3457519277886
 20
-134.1623534820844
 30
0.0
 10
101.4725314416458
 20
-133.9211967981169
 30
0.0
 10
101.7688096533772
 20
-133.9211967981169
 30
0.0
 10
101.9548448095807
 20
-133.9211967981169
 30
0.0
 10
102.0375271012267
 20
-134.0162814335098
 30
0.0
 10
102.0988498008642
 20
-134.1161892025821
 30
0.0
 10
102.1264105647462
 20
-134.0545219933961
 30
0.0
 10
102.2066812895525
 20
-133.8726209517749
 30
0.0
 10
102.4840114761151
 20
-133.8726209517749
 30
0.0
 10
102.8223198527667
 20
-133.8726209517749
 30
0.0
 10
102.9894069838013
 20
-134.1203233171644
 30
0.0
 10
102.9894069838013
 20
-134.3973089941784
 30
0.0
  0
HATCH
  5
90
330
8B
100
AcDbEntity
  8
_U+30EC_U+30A4_U+30E4_U+30FC 1
 62
   179
420
  2234388
100
AcDbHatch
 10
0.0
 20
0.0
 30
0.0
210
0.0
220
0.0
230
1.0
  2
SOLID
 70
     1
 71
     0
 91
        1
 92
        1
 93
        1
 72
     4
 94
        3
 73
     0
 74
     1
 95
       62
 96
       58
 40
0.0
 40
0.0
 40
0.0
 40
0.0
 40
1.0
 40
1.0
 40
1.0
 40
2.0
 40
2.0
 40
2.0
 40
3.0
 40
3.0
 40
3.0
 40
4.0
 40
4.0
 40
4.0
 40
5.0
 40
5.0
 40
5.0
 40
6.0
 40
6.0
 40
6.0
 40
7.0
 40
7.0
 40
7.0
 40
8.0
 40
8.0
 40
8.0
 40
9.0
 40
9.0
 40
9.0
 40
10.0
 40
10.0
 40
10.0
 40
11.0
 40
11.0
 40
11.0
 40
12.0
 40
12.0
 40
12.0
 40
13.0
 40
13.0
 40
13.0
 40
14.0
 40
14.0
 40
14.0
 40
15.0
 40
15.0
 40
15.0
 40
16.0
 40
16.0
 40
16.0
 40
17.0
 40
17.0
 40
17.0
 40
18.0
 40
18.0
 40
18.0
 40
19.0
 40
19.0
 40
19.0
 40
19.0
 10
102.9894069838013
 20
-134.3973089941784
 10
102.9894069838013
 20
-134.4923936295714
 10
102.9683919013412
 20
-134.7104681737877
 10
102.7820122355892
 20
-134.8351806303537
 10
102.6700466323186
 20
-134.9092501832866
 10
102.5704833727949
 20
-134.9133842978689
 10
102.4860785334063
 20
-134.9175184124512
 10
102.4860785334063
 20
-134.9175184124512
 10
102.4860785334063
 20
-134.6977213204922
 10
102.4860785334063
 20
-134.6977213204922
 10
102.5598035767906
 20
-134.6956542632011
 10
102.7947590888846
 20
-134.6849744671968
 10
102.7947590888846
 20
-134.4014431087608
 10
102.7947590888846
 20
-134.2639837988993
 10
102.7251681600826
 20
-134.1117105784512
 10
102.496413819862
 20
-134.1117105784512
 10
102.3799695924606
 20
-134.1117105784512
 10
102.3313937461186
 20
-134.1499511383375
 10
102.2996988676542
 20
-134.1816460168018
 10
102.2256293147214
 20
-134.2553710601861
 10
102.2132269709745
 20
-134.3718152875876
 10
102.2132269709745
 20
-134.4269368153516
 10
102.2132269709745
 20
-134.4458848405205
 10
102.2152940282656
 20
-134.4820583431156
 10
102.2194281428479
 20
-134.5096191069976
 10
102.2194281428479
 20
-134.5096191069976
 10
102.0247802479313
 20
-134.5096191069976
 10
102.0247802479313
 20
-134.5096191069976
 10
102.0309814198048
 20
-134.4713785471113
 10
102.0333929866444
 20
-134.4290038726428
 10
102.0333929866444
 20
-134.4228027007693
 10
102.0333929866444
 20
-134.3573458865496
 10
102.0120333946359
 20
-134.1582193675021
 10
101.7750108252507
 20
-134.1582193675021
 10
101.5972438982118
 20
-134.1582193675021
 10
101.5421223704478
 20
-134.2894775054901
 10
101.5421223704478
 20
-134.3993760514696
 10
101.5421223704478
 20
-134.6639593847368
 10
101.7750108252507
 20
-134.6722276139014
 10
101.8470133208924
 20
-134.6763617284837
 10
101.8470133208924
 20
-134.6763617284837
 10
101.8470133208924
 20
-134.8796223621134
 10
101.8470133208924
 20
-134.8796223621134
 10
101.7219563547778
 20
-134.8713541329488
 10
101.3457519277886
 20
-134.8437933690668
 10
101.3457519277886
 20
-134.3869737077227
 10
101.3457519277886
 20
-134.1623534820844
 10
101.4725314416458
 20
-133.9211967981169
 10
101.7688096533772
 20
-133.9211967981169
 10
101.9548448095807
 20
-133.9211967981169
 10
102.0375271012267
 20
-134.0162814335098
 10
102.0988498008642
 20
-134.1161892025821
 10
102.1264105647462
 20
-134.0545219933961
 10
102.2066812895525
 20
-133.8726209517749
 10
102.4840114761151
 20
-133.8726209517749
 10
102.8223198527667
 20
-133.8726209517749
 10
102.9894069838013
 20
-134.1203233171644
 10
102.9894069838013
 20
-134.3973089941784
 97
        0
 97
        0
 75
     2
 76
     1
 98
        0
  0
ENDBLK
  5
8E
330
8B
100
AcDbEntity
  8
0
100
AcDbBlockEnd
  0
BLOCK
  5
93
330
91
100
AcDbEntity
  8
0
100
AcDbBlockBegin
  2
block 5
 70
     0
 10
0.0
 20
0.0
 30
0.0
  3
block 5
  1

  0
SPLINE
  5
95
330
91
100
AcDbEntity
  8
_U+30EC_U+30A4_U+30E4_U+30FC 1
370
     0
100
AcDbSpline
210
0.0
220
0.0
230
1.0
 70
    11
 71
     3
 72
    26
 73
    22
 74
     0
 42
0.0000000001
 43
0.0000000001
 12
1.0
 22
0.0
 32
0.0
 13
1.0
 23
0.0
 33
0.0
 40
0.0
 40
0.0
 40
0.0
 40
0.0
 40
1.0
 40
1.0
 40
1.0
 40
2.0
 40
2.0
 40
2.0
 40
3.0
 40
3.0
 40
3.0
 40
4.0
 40
4.0
 40
4.0
 40
5.0
 40
5.0
 40
5.0
 40
6.0
 40
6.0
 40
6.0
 40
7.0
 40
7.0
 40
7.0
 40
7.0
 10
102.9387640801681
 20
-119.2748901069
 30
0.0
 10
102.9387640801681
 20
-119.2748901069
 30
0.0
 10
101.834266467597
 20
-119.2748901069
 30
0.0
 10
101.834266467597
 20
-119.2748901069
 30
0.0
 10
101.834266467597
 20
-119.2748901069
 30
0.0
 10
101.834266467597
 20
-119.604930254387
 30
0.0
 10
101.834266467597
 20
-119.604930254387
 30
0.0
 10
101.834266467597
 20
-119.604930254387
 30
0.0
 10
101.6861273617313
 20
-119.604930254387
 30
0.0
 10
101.6861273617313
 20
-119.604930254387
 30
0.0
 10
101.6716579606932
 20
-119.2728230496089
 30
0.0
 10
101.5083604346924
 20
-119.226314260558
 30
0.0
 10
101.3943277741306
 20
-119.1966864393849
 30
0.0
 10
101.3943277741306
 20
-119.1966864393849
 30
0.0
 10
101.3943277741306
 20
-119.0506143908103
 30
0.0
 10
101.3943277741306
 20
-119.0506143908103
 30
0.0
 10
101.3943277741306
 20
-119.0506143908103
 30
0.0
 10
102.9387640801681
 20
-119.0506143908103
 30
0.0
 10
102.9387640801681
 20
-119.0506143908103
 30
0.0
 10
102.9387640801681
 20
-119.0506143908103
 30
0.0
 10
102.9387640801681
 20
-119.2748901069
 30
0.0
 10
102.9387640801681
 20
-119.2748901069
 30
0.0
  0
HATCH
  5
96
330
91
100
AcDbEntity
  8
_U+30EC_U+30A4_U+30E4_U+30FC 1
 62
   179
420
  2234388
100
AcDbHatch
 10
0.0
 20
0.0
 30
0.0
210
0.0
220
0.0
230
1.0
  2
SOLID
 70
     1
 71
     0
 91
        1
 92
        1
 93
        1
 72
     4
 94
        3
 73
     0
 74
     1
 95
       26
 96
       22
 40
0.0
 40
0.0
 40
0.0
 40
0.0
 40
1.0
 40
1.0
 40
1.0
 40
2.0
 40
2.0
 40
2.0
 40
3.0
 40
3.0
 40
3.0
 40
4.0
 40
4.0
 40
4.0
 40
5.0
 40
5.0
 40
5.0
 40
6.0
 40
6.0
 40
6.0
 40
7.0
 40
7.0
 40
7.0
 40
7.0
 10
102.9387640801681
 20
-119.2748901069
 10
102.9387640801681
 20
-119.2748901069
 10
101.834266467597
 20
-119.2748901069
 10
101.834266467597
 20
-119.2748901069
 10
101.834266467597
 20
-119.2748901069
 10
101.834266467597
 20
-119.604930254387
 10
101.834266467597
 20
-119.604930254387
 10
101.834266467597
 20
-119.604930254387
 10
101.6861273617313
 20
-119.604930254387
 10
101.6861273617313
 20
-119.604930254387
 10
101.6716579606932
 20
-119.2728230496089
 10
101.5083604346924
 20
-119.226314260558
 10
101.3943277741306
 20
-119.1966864393849
 10
101.3943277741306
 20
-119.1966864393849
 10
101.3943277741306
 20
-119.0506143908103
 10
101.3943277741306
 20
-119.0506143908103
 10
101.3943277741306
 20
-119.0506143908103
 10
102.9387640801681
 20
-119.0506143908103
 10
102.9387640801681
 20
-119.0506143908103
 10
102.9387640801681
 20
-119.0506143908103
 10
102.9387640801681
 20
-119.2748901069
 10
102.9387640801681
 20
-119.2748901069
 97
        0
 97
        0
 75
     2
 76
     1
 98
        0
  0
ENDBLK
  5
94
330
91
100
AcDbEntity
  8
0
100
AcDbBlockEnd
  0
BLOCK
  5
B7
330
B5
100
AcDbEntity
  8
0
100
AcDbBlockBegin
  2
block 6
 70
     0
 10
0.0
 20
0.0
 30
0.0
  3
block 6
  1

  0
SPLINE
  5
B9
330
B5
100
AcDbEntity
  8
_U+30EC_U+30A4_U+30E4_U+30FC 1
370
     0
100
AcDbSpline
210
0.0
220
0.0
230
1.0
 70
    11
 71
     3
 72
    44
 73
    40
 74
     0
 42
0.0000000001
 43
0.0000000001
 12
1.0
 22
0.0
 32
0.0
 13
1.0
 23
0.0
 33
0.0
 40
0.0
 40
0.0
 40
0.0
 40
0.0
 40
1.0
 40
1.0
 40
1.0
 40
2.0
 40
2.0
 40
2.0
 40
3.0
 40
3.0
 40
3.0
 40
4.0
 40
4.0
 40
4.0
 40
5.0
 40
5.0
 40
5.0
 40
6.0
 40
6.0
 40
6.0
 40
7.0
 40
7.0
 40
7.0
 40
8.0
 40
8.0
 40
8.0
 40
9.0
 40
9.0
 40
9.0
 40
10.0
 40
10.0
 40
10.0
 40
11.0
 40
11.0
 40
11.0
 40
12.0
 40
12.0
 40
12.0
 40
13.0
 40
13.0
 40
13.0
 40
13.0
 10
88.45523815062926
 20
-117.7382052657043
 30
0.0
 10
88.23733586118719
 20
-117.8970241675744
 30
0.0
 10
88.14414602831118
 20
-117.9710937205072
 30
0.0
 10
88.09557018196917
 20
-118.1147542022422
 30
0.0
 10
88.09557018196917
 20
-118.1147542022422
 30
0.0
 10
88.87398950686136
 20
-118.1147542022422
 30
0.0
 10
88.87398950686136
 20
-118.1147542022422
 30
0.0
 10
88.87398950686136
 20
-118.1147542022422
 30
0.0
 10
88.87398950686136
 20
-118.320081893163
 30
0.0
 10
88.87398950686136
 20
-118.320081893163
 30
0.0
 10
88.87398950686136
 20
-118.320081893163
 30
0.0
 10
87.84597301406282
 20
-118.320081893163
 30
0.0
 10
87.84597301406282
 20
-118.320081893163
 30
0.0
 10
87.87766789252711
 20
-117.9624809817941
 30
0.0
 10
87.94329696152113
 20
-117.8842773142789
 30
0.0
 10
88.3282863819978
 20
-117.5859320452563
 30
0.0
 10
88.58425697655186
 20
-117.3871500357574
 30
0.0
 10
88.6497137907716
 20
-117.319281654698
 30
0.0
 10
88.6497137907716
 20
-117.1818223448365
 30
0.0
 10
88.6497137907716
 20
-117.0633110601439
 30
0.0
 10
88.57788354990414
 20
-116.9323974317044
 30
0.0
 10
88.38116859769637
 20
-116.9323974317044
 30
0.0
 10
88.12089163378576
 20
-116.9323974317044
 30
0.0
 10
88.11245114984689
 20
-117.1628743196676
 30
0.0
 10
88.10814478049033
 20
-117.2793185470691
 30
0.0
 10
88.10814478049033
 20
-117.2793185470691
 30
0.0
 10
87.88404131917483
 20
-117.2793185470691
 30
0.0
 10
87.88404131917483
 20
-117.2793185470691
 30
0.0
 10
87.89248180311368
 20
-117.1521945236633
 30
0.0
 10
87.9029893443437
 20
-117.0402289203927
 30
0.0
 10
87.98343232392429
 20
-116.9217176357001
 30
0.0
 10
88.09333086990375
 20
-116.760831676539
 30
0.0
 10
88.27953828088151
 20
-116.7270697407835
 30
0.0
 10
88.39598250828296
 20
-116.7270697407835
 30
0.0
 10
88.67314044007131
 20
-116.7270697407835
 30
0.0
 10
88.88036293350908
 20
-116.9110378396959
 30
0.0
 10
88.88036293350908
 20
-117.1838894021276
 30
0.0
 10
88.88036293350908
 20
-117.4126437423482
 30
0.0
 10
88.7640909608819
 20
-117.5118624923234
 30
0.0
 10
88.45523815062926
 20
-117.7382052657043
 30
0.0
  0
HATCH
  5
BA
330
B5
100
AcDbEntity
  8
_U+30EC_U+30A4_U+30E4_U+30FC 1
 62
   179
420
  2234388
100
AcDbHatch
 10
0.0
 20
0.0
 30
0.0
210
0.0
220
0.0
230
1.0
  2
SOLID
 70
     1
 71
     0
 91
        1
 92
        1
 93
        1
 72
     4
 94
        3
 73
     0
 74
     1
 95
       44
 96
       40
 40
0.0
 40
0.0
 40
0.0
 40
0.0
 40
1.0
 40
1.0
 40
1.0
 40
2.0
 40
2.0
 40
2.0
 40
3.0
 40
3.0
 40
3.0
 40
4.0
 40
4.0
 40
4.0
 40
5.0
 40
5.0
 40
5.0
 40
6.0
 40
6.0
 40
6.0
 40
7.0
 40
7.0
 40
7.0
 40
8.0
 40
8.0
 40
8.0
 40
9.0
 40
9.0
 40
9.0
 40
10.0
 40
10.0
 40
10.0
 40
11.0
 40
11.0
 40
11.0
 40
12.0
 40
12.0
 40
12.0
 40
13.0
 40
13.0
 40
13.0
 40
13.0
 10
88.45523815062926
 20
-117.7382052657043
 10
88.23733586118719
 20
-117.8970241675744
 10
88.14414602831118
 20
-117.9710937205072
 10
88.09557018196917
 20
-118.1147542022422
 10
88.09557018196917
 20
-118.1147542022422
 10
88.87398950686136
 20
-118.1147542022422
 10
88.87398950686136
 20
-118.1147542022422
 10
88.87398950686136
 20
-118.1147542022422
 10
88.87398950686136
 20
-118.320081893163
 10
88.87398950686136
 20
-118.320081893163
 10
88.87398950686136
 20
-118.320081893163
 10
87.84597301406282
 20
-118.320081893163
 10
87.84597301406282
 20
-118.320081893163
 10
87.87766789252711
 20
-117.9624809817941
 10
87.94329696152113
 20
-117.8842773142789
 10
88.3282863819978
 20
-117.5859320452563
 10
88.58425697655186
 20
-117.3871500357574
 10
88.6497137907716
 20
-117.319281654698
 10
88.6497137907716
 20
-117.1818223448365
 10
88.6497137907716
 20
-117.0633110601439
 10
88.57788354990414
 20
-116.9323974317044
 10
88.38116859769637
 20
-116.9323974317044
 10
88.12089163378576
 20
-116.9323974317044
 10
88.11245114984689
 20
-117.1628743196676
 10
88.10814478049033
 20
-117.2793185470691
 10
88.10814478049033
 20
-117.2793185470691
 10
87.88404131917483
 20
-117.2793185470691
 10
87.88404131917483
 20
-117.2793185470691
 10
87.89248180311368
 20
-117.1521945236633
 10
87.9029893443437
 20
-117.0402289203927
 10
87.98343232392429
 20
-116.9217176357001
 10
88.09333086990375
 20
-116.760831676539
 10
88.27953828088151
 20
-116.7270697407835
 10
88.39598250828296
 20
-116.7270697407835
 10
88.67314044007131
 20
-116.7270697407835
 10
88.88036293350908
 20
-116.9110378396959
 10
88.88036293350908
 20
-117.1838894021276
 10
88.88036293350908
 20
-117.4126437423482
 10
88.7640909608819
 20
-117.5118624923234
 10
88.45523815062926
 20
-117.7382052657043
 97
        0
 97
        0
 75
     2
 76
     1
 98
        0
  0
SPLINE
  5
BB
330
B5
100
AcDbEntity
  8
_U+30EC_U+30A4_U+30E4_U+30FC 1
370
     0
100
AcDbSpline
210
0.0
220
0.0
230
1.0
 70
    11
 71
     3
 72
    26
 73
    22
 74
     0
 42
0.0000000001
 43
0.0000000001
 12
1.0
 22
0.0
 32
0.0
 13
1.0
 23
0.0
 33
0.0
 40
0.0
 40
0.0
 40
0.0
 40
0.0
 40
1.0
 40
1.0
 40
1.0
 40
2.0
 40
2.0
 40
2.0
 40
3.0
 40
3.0
 40
3.0
 40
4.0
 40
4.0
 40
4.0
 40
5.0
 40
5.0
 40
5.0
 40
6.0
 40
6.0
 40
6.0
 40
7.0
 40
7.0
 40
7.0
 40
7.0
 10
89.49031708917256
 20
-118.320081893163
 30
0.0
 10
89.49031708917256
 20
-118.320081893163
 30
0.0
 10
89.49031708917256
 20
-117.2159287901405
 30
0.0
 10
89.49031708917256
 20
-117.2159287901405
 30
0.0
 10
89.49031708917256
 20
-117.2159287901405
 30
0.0
 10
89.16027694168562
 20
-117.2159287901405
 30
0.0
 10
89.16027694168562
 20
-117.2159287901405
 30
0.0
 10
89.16027694168562
 20
-117.2159287901405
 30
0.0
 10
89.16027694168562
 20
-117.0677896842747
 30
0.0
 10
89.16027694168562
 20
-117.0677896842747
 30
0.0
 10
89.49238414646372
 20
-117.0529757736881
 30
0.0
 10
89.53889293551458
 20
-116.8900227572358
 30
0.0
 10
89.56852075668773
 20
-116.7756455871255
 30
0.0
 10
89.56852075668773
 20
-116.7756455871255
 30
0.0
 10
89.71459280526233
 20
-116.7756455871255
 30
0.0
 10
89.71459280526233
 20
-116.7756455871255
 30
0.0
 10
89.71459280526233
 20
-116.7756455871255
 30
0.0
 10
89.71459280526233
 20
-118.320081893163
 30
0.0
 10
89.71459280526233
 20
-118.320081893163
 30
0.0
 10
89.71459280526233
 20
-118.320081893163
 30
0.0
 10
89.49031708917256
 20
-118.320081893163
 30
0.0
 10
89.49031708917256
 20
-118.320081893163
 30
0.0
  0
HATCH
  5
BC
330
B5
100
AcDbEntity
  8
_U+30EC_U+30A4_U+30E4_U+30FC 1
 62
   179
420
  2234388
100
AcDbHatch
 10
0.0
 20
0.0
 30
0.0
210
0.0
220
0.0
230
1.0
  2
SOLID
 70
     1
 71
     0
 91
        1
 92
        1
 93
        1
 72
     4
 94
        3
 73
     0
 74
     1
 95
       26
 96
       22
 40
0.0
 40
0.0
 40
0.0
 40
0.0
 40
1.0
 40
1.0
 40
1.0
 40
2.0
 40
2.0
 40
2.0
 40
3.0
 40
3.0
 40
3.0
 40
4.0
 40
4.0
 40
4.0
 40
5.0
 40
5.0
 40
5.0
 40
6.0
 40
6.0
 40
6.0
 40
7.0
 40
7.0
 40
7.0
 40
7.0
 10
89.49031708917256
 20
-118.320081893163
 10
89.49031708917256
 20
-118.320081893163
 10
89.49031708917256
 20
-117.2159287901405
 10
89.49031708917256
 20
-117.2159287901405
 10
89.49031708917256
 20
-117.2159287901405
 10
89.16027694168562
 20
-117.2159287901405
 10
89.16027694168562
 20
-117.2159287901405
 10
89.16027694168562
 20
-117.2159287901405
 10
89.16027694168562
 20
-117.0677896842747
 10
89.16027694168562
 20
-117.0677896842747
 10
89.49238414646372
 20
-117.0529757736881
 10
89.53889293551458
 20
-116.8900227572358
 10
89.56852075668773
 20
-116.7756455871255
 10
89.56852075668773
 20
-116.7756455871255
 10
89.71459280526233
 20
-116.7756455871255
 10
89.71459280526233
 20
-116.7756455871255
 10
89.71459280526233
 20
-116.7756455871255
 10
89.71459280526233
 20
-118.320081893163
 10
89.71459280526233
 20
-118.320081893163
 10
89.71459280526233
 20
-118.320081893163
 10
89.49031708917256
 20
-118.320081893163
 10
89.49031708917256
 20
-118.320081893163
 97
        0
 97
        0
 75
     2
 76
     1
 98
        0
  0
ENDBLK
  5
B8
330
B5
100
AcDbEntity
  8
0
100
AcDbBlockEnd
  0
ENDSEC
  0
SECTION
  2
ENTITIES
  0
POLYLINE
  5
41
330
1F
100
AcDbEntity
  8
_U+30EC_U+30A4_U+30E4_U+30FC 1
 62
   179
420
  2234388
370
    25
100
AcDb2dPolyline
 66
     1
 10
0.0
 20
0.0
 30
0.0
  0
VERTEX
  5
42
330
41
100
AcDbEntity
  8
_U+30EC_U+30A4_U+30E4_U+30FC 1
 62
   179
420
  2234388
370
    25
100
AcDbVertex
100
AcDb2dVertex
 10
79.43493491789042
 20
-132.893188022332
 30
0.0
  0
VERTEX
  5
43
330
41
100
AcDbEntity
  8
_U+30EC_U+30A4_U+30E4_U+30FC 1
 62
   179
420
  2234388
370
    25
100
AcDbVertex
100
AcDb2dVertex
 10
87.42962220036493
 20
-132.89385830011
 30
0.0
  0
VERTEX
  5
44
330
41
100
AcDbEntity
  8
_U+30EC_U+30A4_U+30E4_U+30FC 1
 62
   179
420
  2234388
370
    25
100
AcDbVertex
100
AcDb2dVertex
 10
87.42962220036493
 20
-135.893174966027
 30
0.0
  0
VERTEX
  5
45
330
41
100
AcDbEntity
  8
_U+30EC_U+30A4_U+30E4_U+30FC 1
 62
   179
420
  2234388
370
    25
100
AcDbVertex
100
AcDb2dVertex
 10
77.42988719126568
 20
-135.893174966027
 30
0.0
  0
SEQEND
  5
46
330
41
100
AcDbEntity
  8
_U+30EC_U+30A4_U+30E4_U+30FC 1
 62
   179
420
  2234388
370
    25
  0
POLYLINE
  5
47
330
1F
100
AcDbEntity
  8
_U+30EC_U+30A4_U+30E4_U+30FC 1
 62
   179
420
  2234388
370
    25
100
AcDb2dPolyline
 66
     1
 10
0.0
 20
0.0
 30
0.0
  0
VERTEX
  5
48
330
47
100
AcDbEntity
  8
_U+30EC_U+30A4_U+30E4_U+30FC 1
 62
   179
420
  2234388
370
    25
100
AcDbVertex
100
AcDb2dVertex
 10
78.4331166101156
 20
-132.8918121889991
 30
0.0
  0
VERTEX
  5
49
330
47
100
AcDbEntity
  8
_U+30EC_U+30A4_U+30E4_U+30FC 1
 62
   179
420
  2234388
370
    25
100
AcDbVertex
100
AcDb2dVertex
 10
78.93264993070478
 20
-133.892254688749
 30
0.0
  0
VERTEX
  5
4A
330
47
100
AcDbEntity
  8
_U+30EC_U+30A4_U+30E4_U+30FC 1
 62
   179
420
  2234388
370
    25
100
AcDbVertex
100
AcDb2dVertex
 10
79.43288880683151
 20
-132.8918121889991
 30
0.0
  0
VERTEX
  5
4B
330
47
100
AcDbEntity
  8
_U+30EC_U+30A4_U+30E4_U+30FC 1
 62
   179
420
  2234388
370
    25
100
AcDbVertex
100
AcDb2dVertex
 10
79.43288880683151
 20
-123.0918924692271
 30
0.0
  0
VERTEX
  5
4C
330
47
100
AcDbEntity
  8
_U+30EC_U+30A4_U+30E4_U+30FC 1
 62
   179
420
  2234388
370
    25
100
AcDbVertex
100
AcDb2dVertex
 10
99.43302468547442
 20
-123.0918924692271
 30
0.0
  0
VERTEX
  5
4D
330
47
100
AcDbEntity
  8
_U+30EC_U+30A4_U+30E4_U+30FC 1
 62
   179
420
  2234388
370
    25
100
AcDbVertex
100
AcDb2dVertex
 10
99.43302468547442
 20
-122.091943858366
 30
0.0
  0
VERTEX
  5
4E
330
47
100
AcDbEntity
  8
_U+30EC_U+30A4_U+30E4_U+30FC 1
 62
   179
420
  2234388
370
    25
100
AcDbVertex
100
AcDb2dVertex
 10
78.4331166101156
 20
-122.091943858366
 30
0.0
  0
VERTEX
  5
4F
330
47
100
AcDbEntity
  8
_U+30EC_U+30A4_U+30E4_U+30FC 1
 62
   179
420
  2234388
370
    25
100
AcDbVertex
100
AcDb2dVertex
 10
78.4331166101156
 20
-132.8918121889991
 30
0.0
  0
SEQEND
  5
50
330
47
100
AcDbEntity
  8
_U+30EC_U+30A4_U+30E4_U+30FC 1
 62
   179
420
  2234388
370
    25
  0
POLYLINE
  5
51
330
1F
100
AcDbEntity
  8
_U+30EC_U+30A4_U+30E4_U+30FC 1
 62
   179
420
  2234388
370
    25
100
AcDb2dPolyline
 66
     1
 10
0.0
 20
0.0
 30
0.0
  0
VERTEX
  5
52
330
51
100
AcDbEntity
  8
_U+30EC_U+30A4_U+30E4_U+30FC 1
 62
   179
420
  2234388
370
    25
100
AcDbVertex
100
AcDb2dVertex
 10
78.4331166101156
 20
-132.8918121889991
 30
0.0
  0
VERTEX
  5
53
330
51
100
AcDbEntity
  8
_U+30EC_U+30A4_U+30E4_U+30FC 1
 62
   179
420
  2234388
370
    25
100
AcDbVertex
100
AcDb2dVertex
 10
77.42988719126568
 20
-135.893174966027
 30
0.0
  0
SEQEND
  5
54
330
51
100
AcDbEntity
  8
_U+30EC_U+30A4_U+30E4_U+30FC 1
 62
   179
420
  2234388
370
    25
  0
SPLINE
  5
55
330
1F
100
AcDbEntity
  8
_U+30EC_U+30A4_U+30E4_U+30FC 1
 62
   179
420
  2234388
370
     9
100
AcDbSpline
210
0.0
220
0.0
230
1.0
 70
    11
 71
     3
 72
    17
 73
    13
 74
     0
 42
0.0000000001
 43
0.0000000001
 12
1.0
 22
0.0
 32
0.0
 13
1.0
 23
0.0
 33
0.0
 40
0.0
 40
0.0
 40
0.0
 40
0.0
 40
1.0
 40
1.0
 40
1.0
 40
2.0
 40
2.0
 40
2.0
 40
3.0
 40
3.0
 40
3.0
 40
4.0
 40
4.0
 40
4.0
 40
4.0
 10
87.52952665582463
 20
-139.8929341316932
 30
0.0
 10
87.52952665582463
 20
-139.8377949650408
 30
0.0
 10
87.48475915696675
 20
-139.7930274650516
 30
0.0
 10
87.42962220036493
 20
-139.7930274650516
 30
0.0
 10
87.37518638198439
 20
-139.7930274650516
 30
0.0
 10
87.32971332758895
 20
-139.8377949650408
 30
0.0
 10
87.32971332758895
 20
-139.8929341316932
 30
0.0
 10
87.32971332758895
 20
-139.9480380205688
 30
0.0
 10
87.37518638198439
 20
-139.9928407983349
 30
0.0
 10
87.42962220036493
 20
-139.9928407983349
 30
0.0
 10
87.48475915696675
 20
-139.9928407983349
 30
0.0
 10
87.52952665582463
 20
-139.9480380205688
 30
0.0
 10
87.52952665582463
 20
-139.8929341316932
 30
0.0
  0
SPLINE
  5
56
330
1F
100
AcDbEntity
  8
_U+30EC_U+30A4_U+30E4_U+30FC 1
 62
   179
420
  2234388
370
     9
100
AcDbSpline
210
0.0
220
0.0
230
1.0
 70
    11
 71
     3
 72
    17
 73
    13
 74
     0
 42
0.0000000001
 43
0.0000000001
 12
1.0
 22
0.0
 32
0.0
 13
1.0
 23
0.0
 33
0.0
 40
0.0
 40
0.0
 40
0.0
 40
0.0
 40
1.0
 40
1.0
 40
1.0
 40
2.0
 40
2.0
 40
2.0
 40
3.0
 40
3.0
 40
3.0
 40
4.0
 40
4.0
 40
4.0
 40
4.0
 10
77.53049941092107
 20
-139.8929341316932
 30
0.0
 10
77.53049941092107
 20
-139.8377949650408
 30
0.0
 10
77.4856966342863
 20
-139.7930274650516
 30
0.0
 10
77.42988719126568
 20
-139.7930274650516
 30
0.0
 10
77.3747833037826
 20
-139.7930274650516
 30
0.0
 10
77.32998052714784
 20
-139.8377949650408
 30
0.0
 10
77.32998052714784
 20
-139.8929341316932
 30
0.0
 10
77.32998052714784
 20
-139.9480380205688
 30
0.0
 10
77.3747833037826
 20
-139.9928407983349
 30
0.0
 10
77.42988719126568
 20
-139.9928407983349
 30
0.0
 10
77.4856966342863
 20
-139.9928407983349
 30
0.0
 10
77.53049941092107
 20
-139.9480380205688
 30
0.0
 10
77.53049941092107
 20
-139.8929341316932
 30
0.0
  0
POLYLINE
  5
57
330
1F
100
AcDbEntity
  8
_U+30EC_U+30A4_U+30E4_U+30FC 1
 62
   179
420
  2234388
370
     9
100
AcDb2dPolyline
 66
     1
 10
0.0
 20
0.0
 30
0.0
  0
VERTEX
  5
58
330
57
100
AcDbEntity
  8
_U+30EC_U+30A4_U+30E4_U+30FC 1
 62
   179
420
  2234388
370
     9
100
AcDbVertex
100
AcDb2dVertex
 10
77.42988719126568
 20
-139.8929341316932
 30
0.0
  0
VERTEX
  5
59
330
57
100
AcDbEntity
  8
_U+30EC_U+30A4_U+30E4_U+30FC 1
 62
   179
420
  2234388
370
     9
100
AcDbVertex
100
AcDb2dVertex
 10
87.42962220036493
 20
-139.8929341316932
 30
0.0
  0
SEQEND
  5
5A
330
57
100
AcDbEntity
  8
_U+30EC_U+30A4_U+30E4_U+30FC 1
 62
   179
420
  2234388
370
     9
  0
POLYLINE
  5
5B
330
1F
100
AcDbEntity
  8
_U+30EC_U+30A4_U+30E4_U+30FC 1
 62
   179
420
  2234388
370
     9
100
AcDb2dPolyline
 66
     1
 10
0.0
 20
0.0
 30
0.0
  0
VERTEX
  5
5C
330
5B
100
AcDbEntity
  8
_U+30EC_U+30A4_U+30E4_U+30FC 1
 62
   179
420
  2234388
370
     9
100
AcDbVertex
100
AcDb2dVertex
 10
77.42988719126568
 20
-137.4317446878641
 30
0.0
  0
VERTEX
  5
5D
330
5B
100
AcDbEntity
  8
_U+30EC_U+30A4_U+30E4_U+30FC 1
 62
   179
420
  2234388
370
     9
100
AcDbVertex
100
AcDb2dVertex
 10
77.42988719126568
 20
-140.8927063536657
 30
0.0
  0
SEQEND
  5
5E
330
5B
100
AcDbEntity
  8
_U+30EC_U+30A4_U+30E4_U+30FC 1
 62
   179
420
  2234388
370
     9
  0
POLYLINE
  5
5F
330
1F
100
AcDbEntity
  8
_U+30EC_U+30A4_U+30E4_U+30FC 1
 62
   179
420
  2234388
370
     9
100
AcDb2dPolyline
 66
     1
 10
0.0
 20
0.0
 30
0.0
  0
VERTEX
  5
60
330
5F
100
AcDbEntity
  8
_U+30EC_U+30A4_U+30E4_U+30FC 1
 62
   179
420
  2234388
370
     9
100
AcDbVertex
100
AcDb2dVertex
 10
87.42962220036493
 20
-137.4317446878641
 30
0.0
  0
VERTEX
  5
61
330
5F
100
AcDbEntity
  8
_U+30EC_U+30A4_U+30E4_U+30FC 1
 62
   179
420
  2234388
370
     9
100
AcDbVertex
100
AcDb2dVertex
 10
87.42962220036493
 20
-140.8927063536657
 30
0.0
  0
SEQEND
  5
62
330
5F
100
AcDbEntity
  8
_U+30EC_U+30A4_U+30E4_U+30FC 1
 62
   179
420
  2234388
370
     9
  0
INSERT
  5
64
330
1F
100
AcDbEntity
  8
_U+30EC_U+30A4_U+30E4_U+30FC 1
100
AcDbBlockReference
  2
block 2
 10
0.0
 20
0.0
 30
0.0
  0
POLYLINE
  5
6C
330
1F
100
AcDbEntity
  8
_U+30EC_U+30A4_U+30E4_U+30FC 1
 62
   179
420
  2234388
370
     9
100
AcDb2dPolyline
 66
     1
 10
0.0
 20
0.0
 30
0.0
  0
VERTEX
  5
6D
330
6C
100
AcDbEntity
  8
_U+30EC_U+30A4_U+30E4_U+30FC 1
 62
   179
420
  2234388
370
     9
100
AcDbVertex
100
AcDb2dVertex
 10
104.6812995515798
 20
-132.8918121889991
 30
0.0
  0
VERTEX
  5
6E
330
6C
100
AcDbEntity
  8
_U+30EC_U+30A4_U+30E4_U+30FC 1
 62
   179
420
  2234388
370
     9
100
AcDbVertex
100
AcDb2dVertex
 10
88.57960496236824
 20
-132.8918121889991
 30
0.0
  0
SEQEND
  5
6F
330
6C
100
AcDbEntity
  8
_U+30EC_U+30A4_U+30E4_U+30FC 1
 62
   179
420
  2234388
370
     9
  0
POLYLINE
  5
70
330
1F
100
AcDbEntity
  8
_U+30EC_U+30A4_U+30E4_U+30FC 1
 62
   179
420
  2234388
370
     9
100
AcDb2dPolyline
 66
     1
 10
0.0
 20
0.0
 30
0.0
  0
VERTEX
  5
71
330
70
100
AcDbEntity
  8
_U+30EC_U+30A4_U+30E4_U+30FC 1
 62
   179
420
  2234388
370
     9
100
AcDbVertex
100
AcDb2dVertex
 10
104.6812995515798
 20
-123.0918924692271
 30
0.0
  0
VERTEX
  5
72
330
70
100
AcDbEntity
  8
_U+30EC_U+30A4_U+30E4_U+30FC 1
 62
   179
420
  2234388
370
     9
100
AcDbVertex
100
AcDb2dVertex
 10
100.6153971970686
 20
-123.0918924692271
 30
0.0
  0
SEQEND
  5
73
330
70
100
AcDbEntity
  8
_U+30EC_U+30A4_U+30E4_U+30FC 1
 62
   179
420
  2234388
370
     9
  0
POLYLINE
  5
74
330
1F
100
AcDbEntity
  8
_U+30EC_U+30A4_U+30E4_U+30FC 1
 62
   179
420
  2234388
370
     9
100
AcDb2dPolyline
 66
     1
 10
0.0
 20
0.0
 30
0.0
  0
VERTEX
  5
75
330
74
100
AcDbEntity
  8
_U+30EC_U+30A4_U+30E4_U+30FC 1
 62
   179
420
  2234388
370
     9
100
AcDbVertex
100
AcDb2dVertex
 10
104.6812995515798
 20
-122.1506813583511
 30
0.0
  0
VERTEX
  5
76
330
74
100
AcDbEntity
  8
_U+30EC_U+30A4_U+30E4_U+30FC 1
 62
   179
420
  2234388
370
     9
100
AcDbVertex
100
AcDb2dVertex
 10
100.6153971970686
 20
-122.1506813583511
 30
0.0
  0
SEQEND
  5
77
330
74
100
AcDbEntity
  8
_U+30EC_U+30A4_U+30E4_U+30FC 1
 62
   179
420
  2234388
370
     9
  0
INSERT
  5
79
330
1F
100
AcDbEntity
  8
_U+30EC_U+30A4_U+30E4_U+30FC 1
100
AcDbBlockReference
  2
block 3
 10
0.0
 20
0.0
 30
0.0
  0
INSERT
  5
8C
330
1F
100
AcDbEntity
  8
_U+30EC_U+30A4_U+30E4_U+30FC 1
100
AcDbBlockReference
  2
block 4
 10
0.0
 20
0.0
 30
0.0
  0
INSERT
  5
92
330
1F
100
AcDbEntity
  8
_U+30EC_U+30A4_U+30E4_U+30FC 1
100
AcDbBlockReference
  2
block 5
 10
0.0
 20
0.0
 30
0.0
  0
SPLINE
  5
97
330
1F
100
AcDbEntity
  8
_U+30EC_U+30A4_U+30E4_U+30FC 1
 62
   179
420
  2234388
370
     9
100
AcDbSpline
210
0.0
220
0.0
230
1.0
 70
    11
 71
     3
 72
    17
 73
    13
 74
     0
 42
0.0000000001
 43
0.0000000001
 12
1.0
 22
0.0
 32
0.0
 13
1.0
 23
0.0
 33
0.0
 40
0.0
 40
0.0
 40
0.0
 40
0.0
 40
1.0
 40
1.0
 40
1.0
 40
2.0
 40
2.0
 40
2.0
 40
3.0
 40
3.0
 40
3.0
 40
4.0
 40
4.0
 40
4.0
 40
4.0
 10
103.7814340189817
 20
-132.8828516334463
 30
0.0
 10
103.7814340189817
 20
-132.9379555223212
 30
0.0
 10
103.7366312423469
 20
-132.9827583000879
 30
0.0
 10
103.6815273548639
 20
-132.9827583000879
 30
0.0
 10
103.6263881896039
 20
-132.9827583000879
 30
0.0
 10
103.581620690746
 20
-132.9379555223212
 30
0.0
 10
103.581620690746
 20
-132.8828516334463
 30
0.0
 10
103.581620690746
 20
-132.8277124667932
 30
0.0
 10
103.6263881896039
 20
-132.782944966804
 30
0.0
 10
103.6815273548639
 20
-132.782944966804
 30
0.0
 10
103.7366312423469
 20
-132.782944966804
 30
0.0
 10
103.7814340189817
 20
-132.8277124667932
 30
0.0
 10
103.7814340189817
 20
-132.8828516334463
 30
0.0
  0
HATCH
  5
98
330
1F
100
AcDbEntity
  8
_U+30EC_U+30A4_U+30E4_U+30FC 1
 62
   179
420
  2234388
100
AcDbHatch
 10
0.0
 20
0.0
 30
0.0
210
0.0
220
0.0
230
1.0
  2
SOLID
 70
     1
 71
     0
 91
        1
 92
        1
 93
        1
 72
     4
 94
        3
 73
     0
 74
     1
 95
       17
 96
       13
 40
0.0
 40
0.0
 40
0.0
 40
0.0
 40
1.0
 40
1.0
 40
1.0
 40
2.0
 40
2.0
 40
2.0
 40
3.0
 40
3.0
 40
3.0
 40
4.0
 40
4.0
 40
4.0
 40
4.0
 10
103.7814340189817
 20
-132.8828516334463
 10
103.7814340189817
 20
-132.9379555223212
 10
103.7366312423469
 20
-132.9827583000879
 10
103.6815273548639
 20
-132.9827583000879
 10
103.6263881896039
 20
-132.9827583000879
 10
103.581620690746
 20
-132.9379555223212
 10
103.581620690746
 20
-132.8828516334463
 10
103.581620690746
 20
-132.8277124667932
 10
103.6263881896039
 20
-132.782944966804
 10
103.6815273548639
 20
-132.782944966804
 10
103.7366312423469
 20
-132.782944966804
 10
103.7814340189817
 20
-132.8277124667932
 10
103.7814340189817
 20
-132.8828516334463
 97
        0
 97
        0
 75
     2
 76
     1
 98
        0
  0
POLYLINE
  5
99
330
1F
100
AcDbEntity
  8
_U+30EC_U+30A4_U+30E4_U+30FC 1
 62
   179
420
  2234388
370
     9
100
AcDb2dPolyline
 66
     1
 10
0.0
 20
0.0
 30
0.0
  0
VERTEX
  5
9A
330
99
100
AcDbEntity
  8
_U+30EC_U+30A4_U+30E4_U+30FC 1
 62
   179
420
  2234388
370
     9
100
AcDbVertex
100
AcDb2dVertex
 10
103.6815273548639
 20
-135.883508854918
 30
0.0
  0
VERTEX
  5
9B
330
99
100
AcDbEntity
  8
_U+30EC_U+30A4_U+30E4_U+30FC 1
 62
   179
420
  2234388
370
     9
100
AcDbVertex
100
AcDb2dVertex
 10
103.6815273548639
 20
-118.3803688592937
 30
0.0
  0
SEQEND
  5
9C
330
99
100
AcDbEntity
  8
_U+30EC_U+30A4_U+30E4_U+30FC 1
 62
   179
420
  2234388
370
     9
  0
POLYLINE
  5
9D
330
1F
100
AcDbEntity
  8
_U+30EC_U+30A4_U+30E4_U+30FC 1
 62
   179
420
  2234388
370
     9
100
AcDb2dPolyline
 66
     1
 10
0.0
 20
0.0
 30
0.0
  0
VERTEX
  5
9E
330
9D
100
AcDbEntity
  8
_U+30EC_U+30A4_U+30E4_U+30FC 1
 62
   179
420
  2234388
370
     9
100
AcDbVertex
100
AcDb2dVertex
 10
104.6812995515798
 20
-135.8924694104714
 30
0.0
  0
VERTEX
  5
9F
330
9D
100
AcDbEntity
  8
_U+30EC_U+30A4_U+30E4_U+30FC 1
 62
   179
420
  2234388
370
     9
100
AcDbVertex
100
AcDb2dVertex
 10
88.57960496236824
 20
-135.8924694104714
 30
0.0
  0
SEQEND
  5
A0
330
9D
100
AcDbEntity
  8
_U+30EC_U+30A4_U+30E4_U+30FC 1
 62
   179
420
  2234388
370
     9
  0
SPLINE
  5
A1
330
1F
100
AcDbEntity
  8
_U+30EC_U+30A4_U+30E4_U+30FC 1
 62
   179
420
  2234388
370
     9
100
AcDbSpline
210
0.0
220
0.0
230
1.0
 70
    11
 71
     3
 72
    17
 73
    13
 74
     0
 42
0.0000000001
 43
0.0000000001
 12
1.0
 22
0.0
 32
0.0
 13
1.0
 23
0.0
 33
0.0
 40
0.0
 40
0.0
 40
0.0
 40
0.0
 40
1.0
 40
1.0
 40
1.0
 40
2.0
 40
2.0
 40
2.0
 40
3.0
 40
3.0
 40
3.0
 40
4.0
 40
4.0
 40
4.0
 40
4.0
 10
103.7814340189817
 20
-135.883508854918
 30
0.0
 10
103.7814340189817
 20
-135.9386480215711
 30
0.0
 10
103.7366312423469
 20
-135.9834155215596
 30
0.0
 10
103.6815273548639
 20
-135.9834155215596
 30
0.0
 10
103.6263881896039
 20
-135.9834155215596
 30
0.0
 10
103.581620690746
 20
-135.9386480215711
 30
0.0
 10
103.581620690746
 20
-135.883508854918
 30
0.0
 10
103.581620690746
 20
-135.8284049660431
 30
0.0
 10
103.6263881896039
 20
-135.7836021882763
 30
0.0
 10
103.6815273548639
 20
-135.7836021882763
 30
0.0
 10
103.7366312423469
 20
-135.7836021882763
 30
0.0
 10
103.7814340189817
 20
-135.8284049660431
 30
0.0
 10
103.7814340189817
 20
-135.883508854918
 30
0.0
  0
HATCH
  5
A2
330
1F
100
AcDbEntity
  8
_U+30EC_U+30A4_U+30E4_U+30FC 1
 62
   179
420
  2234388
100
AcDbHatch
 10
0.0
 20
0.0
 30
0.0
210
0.0
220
0.0
230
1.0
  2
SOLID
 70
     1
 71
     0
 91
        1
 92
        1
 93
        1
 72
     4
 94
        3
 73
     0
 74
     1
 95
       17
 96
       13
 40
0.0
 40
0.0
 40
0.0
 40
0.0
 40
1.0
 40
1.0
 40
1.0
 40
2.0
 40
2.0
 40
2.0
 40
3.0
 40
3.0
 40
3.0
 40
4.0
 40
4.0
 40
4.0
 40
4.0
 10
103.7814340189817
 20
-135.883508854918
 10
103.7814340189817
 20
-135.9386480215711
 10
103.7366312423469
 20
-135.9834155215596
 10
103.6815273548639
 20
-135.9834155215596
 10
103.6263881896039
 20
-135.9834155215596
 10
103.581620690746
 20
-135.9386480215711
 10
103.581620690746
 20
-135.883508854918
 10
103.581620690746
 20
-135.8284049660431
 10
103.6263881896039
 20
-135.7836021882763
 10
103.6815273548639
 20
-135.7836021882763
 10
103.7366312423469
 20
-135.7836021882763
 10
103.7814340189817
 20
-135.8284049660431
 10
103.7814340189817
 20
-135.883508854918
 97
        0
 97
        0
 75
     2
 76
     1
 98
        0
  0
SPLINE
  5
A3
330
1F
100
AcDbEntity
  8
_U+30EC_U+30A4_U+30E4_U+30FC 1
 62
   179
420
  2234388
370
     9
100
AcDbSpline
210
0.0
220
0.0
230
1.0
 70
    11
 71
     3
 72
    17
 73
    13
 74
     0
 42
0.0000000001
 43
0.0000000001
 12
1.0
 22
0.0
 32
0.0
 13
1.0
 23
0.0
 33
0.0
 40
0.0
 40
0.0
 40
0.0
 40
0.0
 40
1.0
 40
1.0
 40
1.0
 40
2.0
 40
2.0
 40
2.0
 40
3.0
 40
3.0
 40
3.0
 40
4.0
 40
4.0
 40
4.0
 40
4.0
 10
103.7814340189817
 20
-123.0918924692271
 30
0.0
 10
103.7814340189817
 20
-123.146996358102
 30
0.0
 10
103.7366312423469
 20
-123.1917991358688
 30
0.0
 10
103.6815273548639
 20
-123.1917991358688
 30
0.0
 10
103.6263881896039
 20
-123.1917991358688
 30
0.0
 10
103.581620690746
 20
-123.146996358102
 30
0.0
 10
103.581620690746
 20
-123.0918924692271
 30
0.0
 10
103.581620690746
 20
-123.0367533025741
 30
0.0
 10
103.6263881896039
 20
-122.9919858025855
 30
0.0
 10
103.6815273548639
 20
-122.9919858025855
 30
0.0
 10
103.7366312423469
 20
-122.9919858025855
 30
0.0
 10
103.7814340189817
 20
-123.0367533025741
 30
0.0
 10
103.7814340189817
 20
-123.0918924692271
 30
0.0
  0
HATCH
  5
A4
330
1F
100
AcDbEntity
  8
_U+30EC_U+30A4_U+30E4_U+30FC 1
 62
   179
420
  2234388
100
AcDbHatch
 10
0.0
 20
0.0
 30
0.0
210
0.0
220
0.0
230
1.0
  2
SOLID
 70
     1
 71
     0
 91
        1
 92
        1
 93
        1
 72
     4
 94
        3
 73
     0
 74
     1
 95
       17
 96
       13
 40
0.0
 40
0.0
 40
0.0
 40
0.0
 40
1.0
 40
1.0
 40
1.0
 40
2.0
 40
2.0
 40
2.0
 40
3.0
 40
3.0
 40
3.0
 40
4.0
 40
4.0
 40
4.0
 40
4.0
 10
103.7814340189817
 20
-123.0918924692271
 10
103.7814340189817
 20
-123.146996358102
 10
103.7366312423469
 20
-123.1917991358688
 10
103.6815273548639
 20
-123.1917991358688
 10
103.6263881896039
 20
-123.1917991358688
 10
103.581620690746
 20
-123.146996358102
 10
103.581620690746
 20
-123.0918924692271
 10
103.581620690746
 20
-123.0367533025741
 10
103.6263881896039
 20
-122.9919858025855
 10
103.6815273548639
 20
-122.9919858025855
 10
103.7366312423469
 20
-122.9919858025855
 10
103.7814340189817
 20
-123.0367533025741
 10
103.7814340189817
 20
-123.0918924692271
 97
        0
 97
        0
 75
     2
 76
     1
 98
        0
  0
SPLINE
  5
A5
330
1F
100
AcDbEntity
  8
_U+30EC_U+30A4_U+30E4_U+30FC 1
 62
   179
420
  2234388
370
     9
100
AcDbSpline
210
0.0
220
0.0
230
1.0
 70
    11
 71
     3
 72
    17
 73
    13
 74
     0
 42
0.0000000001
 43
0.0000000001
 12
1.0
 22
0.0
 32
0.0
 13
1.0
 23
0.0
 33
0.0
 40
0.0
 40
0.0
 40
0.0
 40
0.0
 40
1.0
 40
1.0
 40
1.0
 40
2.0
 40
2.0
 40
2.0
 40
3.0
 40
3.0
 40
3.0
 40
4.0
 40
4.0
 40
4.0
 40
4.0
 10
103.7814340189817
 20
-122.1506813583511
 30
0.0
 10
103.7814340189817
 20
-122.2058205250042
 30
0.0
 10
103.7366312423469
 20
-122.2505880249928
 30
0.0
 10
103.6815273548639
 20
-122.2505880249928
 30
0.0
 10
103.6263881896039
 20
-122.2505880249928
 30
0.0
 10
103.581620690746
 20
-122.2058205250042
 30
0.0
 10
103.581620690746
 20
-122.1506813583511
 30
0.0
 10
103.581620690746
 20
-122.0955774694762
 30
0.0
 10
103.6263881896039
 20
-122.0507746917095
 30
0.0
 10
103.6815273548639
 20
-122.0507746917095
 30
0.0
 10
103.7366312423469
 20
-122.0507746917095
 30
0.0
 10
103.7814340189817
 20
-122.0955774694762
 30
0.0
 10
103.7814340189817
 20
-122.1506813583511
 30
0.0
  0
HATCH
  5
A6
330
1F
100
AcDbEntity
  8
_U+30EC_U+30A4_U+30E4_U+30FC 1
 62
   179
420
  2234388
100
AcDbHatch
 10
0.0
 20
0.0
 30
0.0
210
0.0
220
0.0
230
1.0
  2
SOLID
 70
     1
 71
     0
 91
        1
 92
        1
 93
        1
 72
     4
 94
        3
 73
     0
 74
     1
 95
       17
 96
       13
 40
0.0
 40
0.0
 40
0.0
 40
0.0
 40
1.0
 40
1.0
 40
1.0
 40
2.0
 40
2.0
 40
2.0
 40
3.0
 40
3.0
 40
3.0
 40
4.0
 40
4.0
 40
4.0
 40
4.0
 10
103.7814340189817
 20
-122.1506813583511
 10
103.7814340189817
 20
-122.2058205250042
 10
103.7366312423469
 20
-122.2505880249928
 10
103.6815273548639
 20
-122.2505880249928
 10
103.6263881896039
 20
-122.2505880249928
 10
103.581620690746
 20
-122.2058205250042
 10
103.581620690746
 20
-122.1506813583511
 10
103.581620690746
 20
-122.0955774694762
 10
103.6263881896039
 20
-122.0507746917095
 10
103.6815273548639
 20
-122.0507746917095
 10
103.7366312423469
 20
-122.0507746917095
 10
103.7814340189817
 20
-122.0955774694762
 10
103.7814340189817
 20
-122.1506813583511
 97
        0
 97
        0
 75
     2
 76
     1
 98
        0
  0
SPLINE
  5
A7
330
1F
100
AcDbEntity
  8
_U+30EC_U+30A4_U+30E4_U+30FC 1
 62
   179
420
  2234388
370
     9
100
AcDbSpline
210
0.0
220
0.0
230
1.0
 70
    11
 71
     3
 72
    17
 73
    13
 74
     0
 42
0.0000000001
 43
0.0000000001
 12
1.0
 22
0.0
 32
0.0
 13
1.0
 23
0.0
 33
0.0
 40
0.0
 40
0.0
 40
0.0
 40
0.0
 40
1.0
 40
1.0
 40
1.0
 40
2.0
 40
2.0
 40
2.0
 40
3.0
 40
3.0
 40
3.0
 40
4.0
 40
4.0
 40
4.0
 40
4.0
 10
78.53302327423344
 20
-118.9162383036043
 30
0.0
 10
78.53302327423344
 20
-118.8611344147293
 30
0.0
 10
78.48822049759868
 20
-118.8163316369626
 30
0.0
 10
78.4331166101156
 20
-118.8163316369626
 30
0.0
 10
78.37797744485566
 20
-118.8163316369626
 30
0.0
 10
78.33320994599777
 20
-118.8611344147293
 30
0.0
 10
78.33320994599777
 20
-118.9162383036043
 30
0.0
 10
78.33320994599777
 20
-118.9713774702573
 30
0.0
 10
78.37797744485566
 20
-119.0161802480237
 30
0.0
 10
78.4331166101156
 20
-119.0161802480237
 30
0.0
 10
78.48822049759868
 20
-119.0161802480237
 30
0.0
 10
78.53302327423344
 20
-118.9713774702573
 30
0.0
 10
78.53302327423344
 20
-118.9162383036043
 30
0.0
  0
POLYLINE
  5
A8
330
1F
100
AcDbEntity
  8
_U+30EC_U+30A4_U+30E4_U+30FC 1
 62
   179
420
  2234388
370
     9
100
AcDb2dPolyline
 66
     1
 10
0.0
 20
0.0
 30
0.0
  0
VERTEX
  5
A9
330
A8
100
AcDbEntity
  8
_U+30EC_U+30A4_U+30E4_U+30FC 1
 62
   179
420
  2234388
370
     9
100
AcDbVertex
100
AcDb2dVertex
 10
78.4331166101156
 20
-120.3762796921283
 30
0.0
  0
VERTEX
  5
AA
330
A8
100
AcDbEntity
  8
_U+30EC_U+30A4_U+30E4_U+30FC 1
 62
   179
420
  2234388
370
     9
100
AcDbVertex
100
AcDb2dVertex
 10
78.4331166101156
 20
-117.9165013594099
 30
0.0
  0
SEQEND
  5
AB
330
A8
100
AcDbEntity
  8
_U+30EC_U+30A4_U+30E4_U+30FC 1
 62
   179
420
  2234388
370
     9
  0
SPLINE
  5
AC
330
1F
100
AcDbEntity
  8
_U+30EC_U+30A4_U+30E4_U+30FC 1
 62
   179
420
  2234388
370
     9
100
AcDbSpline
210
0.0
220
0.0
230
1.0
 70
    11
 71
     3
 72
    17
 73
    13
 74
     0
 42
0.0000000001
 43
0.0000000001
 12
1.0
 22
0.0
 32
0.0
 13
1.0
 23
0.0
 33
0.0
 40
0.0
 40
0.0
 40
0.0
 40
0.0
 40
1.0
 40
1.0
 40
1.0
 40
2.0
 40
2.0
 40
2.0
 40
3.0
 40
3.0
 40
3.0
 40
4.0
 40
4.0
 40
4.0
 40
4.0
 10
99.53293134959226
 20
-118.9162383036043
 30
0.0
 10
99.53293134959226
 20
-118.8611344147293
 30
0.0
 10
99.48816385073437
 20
-118.8163316369626
 30
0.0
 10
99.43302468547442
 20
-118.8163316369626
 30
0.0
 10
99.37792079799135
 20
-118.8163316369626
 30
0.0
 10
99.33311802135658
 20
-118.8611344147293
 30
0.0
 10
99.33311802135658
 20
-118.9162383036043
 30
0.0
 10
99.33311802135658
 20
-118.9713774702573
 30
0.0
 10
99.37792079799135
 20
-119.0161802480237
 30
0.0
 10
99.43302468547442
 20
-119.0161802480237
 30
0.0
 10
99.48816385073437
 20
-119.0161802480237
 30
0.0
 10
99.53293134959226
 20
-118.9713774702573
 30
0.0
 10
99.53293134959226
 20
-118.9162383036043
 30
0.0
  0
POLYLINE
  5
AD
330
1F
100
AcDbEntity
  8
_U+30EC_U+30A4_U+30E4_U+30FC 1
 62
   179
420
  2234388
370
     9
100
AcDb2dPolyline
 66
     1
 10
0.0
 20
0.0
 30
0.0
  0
VERTEX
  5
AE
330
AD
100
AcDbEntity
  8
_U+30EC_U+30A4_U+30E4_U+30FC 1
 62
   179
420
  2234388
370
     9
100
AcDbVertex
100
AcDb2dVertex
 10
99.43302468547442
 20
-120.3762796921283
 30
0.0
  0
VERTEX
  5
AF
330
AD
100
AcDbEntity
  8
_U+30EC_U+30A4_U+30E4_U+30FC 1
 62
   179
420
  2234388
370
     9
100
AcDbVertex
100
AcDb2dVertex
 10
99.43302468547442
 20
-117.9165013594099
 30
0.0
  0
SEQEND
  5
B0
330
AD
100
AcDbEntity
  8
_U+30EC_U+30A4_U+30E4_U+30FC 1
 62
   179
420
  2234388
370
     9
  0
POLYLINE
  5
B1
330
1F
100
AcDbEntity
  8
_U+30EC_U+30A4_U+30E4_U+30FC 1
 62
   179
420
  2234388
370
     9
100
AcDb2dPolyline
 66
     1
 10
0.0
 20
0.0
 30
0.0
  0
VERTEX
  5
B2
330
B1
100
AcDbEntity
  8
_U+30EC_U+30A4_U+30E4_U+30FC 1
 62
   179
420
  2234388
370
     9
100
AcDbVertex
100
AcDb2dVertex
 10
78.43378886928056
 20
-118.9162383036043
 30
0.0
  0
VERTEX
  5
B3
330
B1
100
AcDbEntity
  8
_U+30EC_U+30A4_U+30E4_U+30FC 1
 62
   179
420
  2234388
370
     9
100
AcDbVertex
100
AcDb2dVertex
 10
99.43302468547442
 20
-118.9162383036043
 30
0.0
  0
SEQEND
  5
B4
330
B1
100
AcDbEntity
  8
_U+30EC_U+30A4_U+30E4_U+30FC 1
 62
   179
420
  2234388
370
     9
  0
INSERT
  5
B6
330
1F
100
AcDbEntity
  8
_U+30EC_U+30A4_U+30E4_U+30FC 1
100
AcDbBlockReference
  2
block 6
 10
0.0
 20
0.0
 30
0.0
  0
ENDSEC
  0
SECTION
  2
OBJECTS
  0
DICTIONARY
  5
C
330
0
100
AcDbDictionary
281
     1
  3
ACAD_GROUP
350
D
  3
ACAD_LAYOUT
350
1A
  3
ACAD_MATERIAL
350
3B
  3
ACAD_MLEADERSTYLE
350
BE
  3
ACAD_MLINESTYLE
350
17
  3
ACAD_PLOTSETTINGS
350
19
  3
ACAD_PLOTSTYLENAME
350
E
  3
ACAD_TABLESTYLE
350
BD
  3
ACAD_VISUALSTYLE
350
2A
  0
SUN
  5
3F
330
29
100
AcDbSun
 90
        1
290
     0
 63
     7
421
 16777215
 40
1.0
291
     1
 91
  2455826
 92
 54000000
292
     0
 70
     2
 71
   256
280
     1
  0
DICTIONARY
  5
D
102
{ACAD_REACTORS
330
C
102
}
330
C
100
AcDbDictionary
281
     1
  0
DICTIONARY
  5
1A
102
{ACAD_REACTORS
330
C
102
}
330
C
100
AcDbDictionary
281
     1
  3
Layout1
350
1E
  3
Layout2
350
26
  3
Model
350
22
  0
DICTIONARY
  5
3B
102
{ACAD_REACTORS
330
C
102
}
330
C
100
AcDbDictionary
281
     1
  3
ByBlock
350
3D
  3
ByLayer
350
3C
  3
Global
350
3E
  0
DICTIONARY
  5
BE
102
{ACAD_REACTORS
330
C
102
}
330
C
100
AcDbDictionary
281
     1
  0
DICTIONARY
  5
17
102
{ACAD_REACTORS
330
C
102
}
330
C
100
AcDbDictionary
281
     1
  3
Standard
350
18
  0
DICTIONARY
  5
19
102
{ACAD_REACTORS
330
C
102
}
330
C
100
AcDbDictionary
281
     1
  0
ACDBDICTIONARYWDFLT
  5
E
102
{ACAD_REACTORS
330
C
102
}
330
C
100
AcDbDictionary
281
     1
  3
Normal
350
F
100
AcDbDictionaryWithDefault
340
F
  0
DICTIONARY
  5
BD
102
{ACAD_REACTORS
330
C
102
}
330
C
100
AcDbDictionary
281
     1
  0
DICTIONARY
  5
2A
102
{ACAD_REACTORS
330
C
102
}
330
C
100
AcDbDictionary
281
     1
  3
2dWireframe
350
2F
  3
3D Hidden
350
31
  3
3dWireframe
350
30
  3
Basic
350
32
  3
Brighten
350
36
  3
ColorChange
350
3A
  3
Conceptual
350
34
  3
Dim
350
35
  3
Facepattern
350
39
  3
Flat
350
2B
  3
FlatWithEdges
350
2C
  3
Gouraud
350
2D
  3
GouraudWithEdges
350
2E
  3
Linepattern
350
38
  3
Realistic
350
33
  3
Thicken
350
37
  0
LAYOUT
  5
1E
102
{ACAD_REACTORS
330
1A
102
}
330
1A
100
AcDbPlotSettings
  1

  2
none_device
  4

  6

 40
0.0
 41
0.0
 42
0.0
 43
0.0
 44
0.0
 45
0.0
 46
0.0
 47
0.0
 48
0.0
 49
0.0
140
0.0
141
0.0
142
1.0
143
1.0
 70
   688
 72
     0
 73
     0
 74
     5
  7

 75
    16
 76
     0
 77
     2
 78
   300
147
1.0
148
0.0
149
0.0
100
AcDbLayout
  1
Layout1
 70
     1
 71
     1
 10
0.0
 20
0.0
 11
12.0
 21
9.0
 12
0.0
 22
0.0
 32
0.0
 14
1.000000000000000E+20
 24
1.000000000000000E+20
 34
1.000000000000000E+20
 15
-1.000000000000000E+20
 25
-1.000000000000000E+20
 35
-1.000000000000000E+20
146
0.0
 13
0.0
 23
0.0
 33
0.0
 16
1.0
 26
0.0
 36
0.0
 17
0.0
 27
1.0
 37
0.0
 76
     0
330
1B
  0
LAYOUT
  5
26
102
{ACAD_REACTORS
330
1A
102
}
330
1A
100
AcDbPlotSettings
  1

  2
none_device
  4

  6

 40
0.0
 41
0.0
 42
0.0
 43
0.0
 44
0.0
 45
0.0
 46
0.0
 47
0.0
 48
0.0
 49
0.0
140
0.0
141
0.0
142
1.0
143
1.0
 70
   688
 72
     0
 73
     0
 74
     5
  7

 75
    16
 76
     0
 77
     2
 78
   300
147
1.0
148
0.0
149
0.0
100
AcDbLayout
  1
Layout2
 70
     1
 71
     2
 10
0.0
 20
0.0
 11
0.0
 21
0.0
 12
0.0
 22
0.0
 32
0.0
 14
0.0
 24
0.0
 34
0.0
 15
0.0
 25
0.0
 35
0.0
146
0.0
 13
0.0
 23
0.0
 33
0.0
 16
1.0
 26
0.0
 36
0.0
 17
0.0
 27
1.0
 37
0.0
 76
     0
330
23
  0
LAYOUT
  5
22
102
{ACAD_REACTORS
330
1A
102
}
330
1A
100
AcDbPlotSettings
  1

  2
none_device
  4

  6

 40
0.0
 41
0.0
 42
0.0
 43
0.0
 44
0.0
 45
0.0
 46
0.0
 47
0.0
 48
0.0
 49
0.0
140
0.0
141
0.0
142
1.0
143
1.0
 70
  1712
 72
     0
 73
     0
 74
     0
  7

 75
     0
 76
     0
 77
     2
 78
   300
147
1.0
148
0.0
149
0.0
100
AcDbLayout
  1
Model
 70
     1
 71
     0
 10
0.0
 20
0.0
 11
12.0
 21
9.0
 12
0.0
 22
0.0
 32
0.0
 14
1.000000000000000E+20
 24
1.000000000000000E+20
 34
1.000000000000000E+20
 15
-1.000000000000000E+20
 25
-1.000000000000000E+20
 35
-1.000000000000000E+20
146
0.0
 13
0.0
 23
0.0
 33
0.0
 16
1.0
 26
0.0
 36
0.0
 17
0.0
 27
1.0
 37
0.0
 76
     0
330
1F
331
29
  0
MATERIAL
  5
3D
102
{ACAD_REACTORS
330
3B
102
}
330
3B
100
AcDbMaterial
  1
ByBlock
 72
     1
 94
      127
  0
MATERIAL
  5
3C
102
{ACAD_REACTORS
330
3B
102
}
330
3B
100
AcDbMaterial
  1
ByLayer
 72
     1
 94
      127
  0
MATERIAL
  5
3E
102
{ACAD_REACTORS
330
3B
102
}
330
3B
100
AcDbMaterial
  1
Global
 72
     1
 94
      127
  0
MLINESTYLE
  5
18
102
{ACAD_REACTORS
330
17
102
}
330
17
100
AcDbMlineStyle
  2
Standard
 70
     0
  3

 62
   256
 51
90.0
 52
90.0
 71
     2
 49
0.5
 62
   256
  6
BYLAYER
 49
-0.5
 62
   256
  6
BYLAYER
  0
ACDBPLACEHOLDER
  5
F
102
{ACAD_REACTORS
330
E
102
}
330
E
  0
VISUALSTYLE
  5
2F
102
{ACAD_REACTORS
330
2A
102
}
330
2A
100
AcDbVisualStyle
  2
2dWireframe
 70
     4
177
     2
291
     0
 71
     0
176
     1
 72
     2
176
     1
 73
     0
176
     1
 90
        0
176
     1
 40
-0.6
176
     1
 41
-30.0
176
     1
 62
     5
 63
     7
421
 16777215
176
     1
 74
     1
176
     1
 91
        4
176
     1
 64
     7
176
     1
 65
   257
176
     1
 75
     1
176
     1
175
     1
176
     1
 42
1.0
176
     1
 92
        0
176
     1
 66
   257
176
     1
 43
1.0
176
     1
 76
     1
176
     1
 77
     6
176
     1
 78
     2
176
     1
 67
     7
176
     1
 79
     5
176
     1
170
     0
176
     1
171
     0
176
     1
290
     0
176
     1
 93
        1
176
     1
 44
0.0
176
     1
173
     0
176
     1
  0
VISUALSTYLE
  5
31
102
{ACAD_REACTORS
330
2A
102
}
330
2A
100
AcDbVisualStyle
  2
3D Hidden
 70
     6
177
     2
291
     0
 71
     1
176
     1
 72
     2
176
     1
 73
     2
176
     1
 90
        0
176
     1
 40
-0.6
176
     1
 41
-30.0
176
     1
 62
     5
 63
     7
421
 16777215
176
     1
 74
     2
176
     1
 91
        2
176
     1
 64
     7
176
     1
 65
   257
176
     1
 75
     2
176
     1
175
     1
176
     1
 42
40.0
176
     1
 92
        0
176
     1
 66
   257
176
     1
 43
1.0
176
     1
 76
     1
176
     1
 77
     6
176
     1
 78
     2
176
     1
 67
     7
176
     1
 79
     3
176
     1
170
     0
176
     1
171
     0
176
     1
290
     0
176
     1
 93
        1
176
     1
 44
0.0
176
     1
173
     0
176
     1
  0
VISUALSTYLE
  5
30
102
{ACAD_REACTORS
330
2A
102
}
330
2A
100
AcDbVisualStyle
  2
3dWireframe
 70
     5
177
     2
291
     0
 71
     0
176
     1
 72
     2
176
     1
 73
     0
176
     1
 90
        0
176
     1
 40
-0.6
176
     1
 41
-30.0
176
     1
 62
     5
 63
     7
421
 16777215
176
     1
 74
     1
176
     1
 91
        4
176
     1
 64
     7
176
     1
 65
   257
176
     1
 75
     1
176
     1
175
     1
176
     1
 42
1.0
176
     1
 92
        0
176
     1
 66
   257
176
     1
 43
1.0
176
     1
 76
     1
176
     1
 77
     6
176
     1
 78
     2
176
     1
 67
     7
176
     1
 79
     5
176
     1
170
     0
176
     1
171
     0
176
     1
290
     0
176
     1
 93
        1
176
     1
 44
0.0
176
     1
173
     0
176
     1
  0
VISUALSTYLE
  5
32
102
{ACAD_REACTORS
330
2A
102
}
330
2A
100
AcDbVisualStyle
  2
Basic
 70
     7
177
     2
291
     1
 71
     1
176
     1
 72
     0
176
     1
 73
     1
176
     1
 90
        0
176
     1
 40
-0.6
176
     1
 41
-30.0
176
     1
 62
     5
 63
     7
421
 16777215
176
     1
 74
     0
176
     1
 91
        4
176
     1
 64
     7
176
     1
 65
   257
176
     1
 75
     1
176
     1
175
     1
176
     1
 42
1.0
176
     1
 92
        8
176
     1
 66
     7
176
     1
 43
1.0
176
     1
 76
     1
176
     1
 77
     6
176
     1
 78
     2
176
     1
 67
     7
176
     1
 79
     5
176
     1
170
     0
176
     1
171
     0
176
     1
290
     0
176
     1
 93
        1
176
     1
 44
0.0
176
     1
173
     0
176
     1
  0
VISUALSTYLE
  5
36
102
{ACAD_REACTORS
330
2A
102
}
330
2A
100
AcDbVisualStyle
  2
Brighten
 70
    12
177
     2
291
     1
 71
     2
176
     1
 72
     2
176
     1
 73
     0
176
     1
 90
        0
176
     1
 40
-0.6
176
     1
 41
-30.0
176
     1
 62
     5
 63
     7
421
 16777215
176
     1
 74
     1
176
     1
 91
        4
176
     1
 64
     7
176
     1
 65
   257
176
     1
 75
     1
176
     1
175
     1
176
     1
 42
1.0
176
     1
 92
        8
176
     1
 66
     7
176
     1
 43
1.0
176
     1
 76
     1
176
     1
 77
     6
176
     1
 78
     2
176
     1
 67
     7
176
     1
 79
     5
176
     1
170
     0
176
     1
171
     0
176
     1
290
     0
176
     1
 93
        1
176
     1
 44
50.0
176
     1
173
     0
176
     1
  0
VISUALSTYLE
  5
3A
102
{ACAD_REACTORS
330
2A
102
}
330
2A
100
AcDbVisualStyle
  2
ColorChange
 70
    16
177
     2
291
     1
 71
     2
176
     1
 72
     2
176
     1
 73
     3
176
     1
 90
        0
176
     1
 40
-0.6
176
     1
 41
-30.0
176
     1
 62
     5
 63
     8
421
  8421504
176
     1
 74
     1
176
     1
 91
        4
176
     1
 64
     7
176
     1
 65
   257
176
     1
 75
     1
176
     1
175
     1
176
     1
 42
1.0
176
     1
 92
        8
176
     1
 66
     8
424
  8421504
176
     1
 43
1.0
176
     1
 76
     1
176
     1
 77
     6
176
     1
 78
     2
176
     1
 67
     7
176
     1
 79
     5
176
     1
170
     0
176
     1
171
     0
176
     1
290
     0
176
     1
 93
        1
176
     1
 44
0.0
176
     1
173
     0
176
     1
  0
VISUALSTYLE
  5
34
102
{ACAD_REACTORS
330
2A
102
}
330
2A
100
AcDbVisualStyle
  2
Conceptual
 70
     9
177
     2
291
     0
 71
     3
176
     1
 72
     2
176
     1
 73
     0
176
     1
 90
        0
176
     1
 40
-0.6
176
     1
 41
-30.0
176
     1
 62
     5
 63
     7
421
 16777215
176
     1
 74
     2
176
     1
 91
        2
176
     1
 64
     7
176
     1
 65
   257
176
     1
 75
     1
176
     1
175
     1
176
     1
 42
40.0
176
     1
 92
        8
176
     1
 66
     7
176
     1
 43
1.0
176
     1
 76
     1
176
     1
 77
     6
176
     1
 78
     2
176
     1
 67
     7
176
     1
 79
     3
176
     1
170
     0
176
     1
171
     0
176
     1
290
     0
176
     1
 93
        1
176
     1
 44
0.0
176
     1
173
     0
176
     1
  0
VISUALSTYLE
  5
35
102
{ACAD_REACTORS
330
2A
102
}
330
2A
100
AcDbVisualStyle
  2
Dim
 70
    11
177
     2
291
     1
 71
     2
176
     1
 72
     2
176
     1
 73
     0
176
     1
 90
        0
176
     1
 40
-0.6
176
     1
 41
-30.0
176
     1
 62
     5
 63
     7
421
 16777215
176
     1
 74
     1
176
     1
 91
        4
176
     1
 64
     7
176
     1
 65
   257
176
     1
 75
     1
176
     1
175
     1
176
     1
 42
1.0
176
     1
 92
        8
176
     1
 66
     7
176
     1
 43
1.0
176
     1
 76
     1
176
     1
 77
     6
176
     1
 78
     2
176
     1
 67
     7
176
     1
 79
     5
176
     1
170
     0
176
     1
171
     0
176
     1
290
     0
176
     1
 93
        1
176
     1
 44
-50.0
176
     1
173
     0
176
     1
  0
VISUALSTYLE
  5
39
102
{ACAD_REACTORS
330
2A
102
}
330
2A
100
AcDbVisualStyle
  2
Facepattern
 70
    15
177
     2
291
     1
 71
     2
176
     1
 72
     2
176
     1
 73
     0
176
     1
 90
        0
176
     1
 40
-0.6
176
     1
 41
-30.0
176
     1
 62
     5
 63
     7
421
 16777215
176
     1
 74
     1
176
     1
 91
        4
176
     1
 64
     7
176
     1
 65
   257
176
     1
 75
     1
176
     1
175
     1
176
     1
 42
1.0
176
     1
 92
        8
176
     1
 66
     7
176
     1
 43
1.0
176
     1
 76
     1
176
     1
 77
     6
176
     1
 78
     2
176
     1
 67
     7
176
     1
 79
     5
176
     1
170
     0
176
     1
171
     0
176
     1
290
     0
176
     1
 93
        1
176
     1
 44
0.0
176
     1
173
     0
176
     1
  0
VISUALSTYLE
  5
2B
102
{ACAD_REACTORS
330
2A
102
}
330
2A
100
AcDbVisualStyle
  2
Flat
 70
     0
177
     2
291
     1
 71
     2
176
     1
 72
     1
176
     1
 73
     1
176
     1
 90
        2
176
     1
 40
-0.6
176
     1
 41
30.0
176
     1
 62
     5
 63
     7
421
 16777215
176
     1
 74
     0
176
     1
 91
        4
176
     1
 64
     7
176
     1
 65
   257
176
     1
 75
     1
176
     1
175
     1
176
     1
 42
1.0
176
     1
 92
        8
176
     1
 66
     7
176
     1
 43
1.0
176
     1
 76
     1
176
     1
 77
     6
176
     1
 78
     2
176
     1
 67
     7
176
     1
 79
     5
176
     1
170
     0
176
     1
171
     0
176
     1
290
     0
176
     1
 93
       13
176
     1
 44
0.0
176
     1
173
     0
176
     1
  0
VISUALSTYLE
  5
2C
102
{ACAD_REACTORS
330
2A
102
}
330
2A
100
AcDbVisualStyle
  2
FlatWithEdges
 70
     1
177
     2
291
     1
 71
     2
176
     1
 72
     1
176
     1
 73
     1
176
     1
 90
        2
176
     1
 40
-0.6
176
     1
 41
30.0
176
     1
 62
     5
 63
     7
421
 16777215
176
     1
 74
     1
176
     1
 91
        4
176
     1
 64
     7
176
     1
 65
   257
176
     1
 75
     1
176
     1
175
     1
176
     1
 42
1.0
176
     1
 92
        0
176
     1
 66
   257
176
     1
 43
1.0
176
     1
 76
     1
176
     1
 77
     6
176
     1
 78
     2
176
     1
 67
     7
176
     1
 79
     5
176
     1
170
     0
176
     1
171
     0
176
     1
290
     0
176
     1
 93
       13
176
     1
 44
0.0
176
     1
173
     0
176
     1
  0
VISUALSTYLE
  5
2D
102
{ACAD_REACTORS
330
2A
102
}
330
2A
100
AcDbVisualStyle
  2
Gouraud
 70
     2
177
     2
291
     1
 71
     2
176
     1
 72
     2
176
     1
 73
     1
176
     1
 90
        2
176
     1
 40
-0.6
176
     1
 41
30.0
176
     1
 62
     5
 63
     7
421
 16777215
176
     1
 74
     0
176
     1
 91
        4
176
     1
 64
     7
176
     1
 65
   257
176
     1
 75
     1
176
     1
175
     1
176
     1
 42
1.0
176
     1
 92
        0
176
     1
 66
     7
176
     1
 43
1.0
176
     1
 76
     1
176
     1
 77
     6
176
     1
 78
     2
176
     1
 67
     7
176
     1
 79
     5
176
     1
170
     0
176
     1
171
     0
176
     1
290
     0
176
     1
 93
       13
176
     1
 44
0.0
176
     1
173
     0
176
     1
  0
VISUALSTYLE
  5
2E
102
{ACAD_REACTORS
330
2A
102
}
330
2A
100
AcDbVisualStyle
  2
GouraudWithEdges
 70
     3
177
     2
291
     1
 71
     2
176
     1
 72
     2
176
     1
 73
     1
176
     1
 90
        2
176
     1
 40
-0.6
176
     1
 41
30.0
176
     1
 62
     5
 63
     7
421
 16777215
176
     1
 74
     1
176
     1
 91
        4
176
     1
 64
     7
176
     1
 65
   257
176
     1
 75
     1
176
     1
175
     1
176
     1
 42
1.0
176
     1
 92
        0
176
     1
 66
   257
176
     1
 43
1.0
176
     1
 76
     1
176
     1
 77
     6
176
     1
 78
     2
176
     1
 67
     7
176
     1
 79
     5
176
     1
170
     0
176
     1
171
     0
176
     1
290
     0
176
     1
 93
       13
176
     1
 44
0.0
176
     1
173
     0
176
     1
  0
VISUALSTYLE
  5
38
102
{ACAD_REACTORS
330
2A
102
}
330
2A
100
AcDbVisualStyle
  2
Linepattern
 70
    14
177
     2
291
     1
 71
     2
176
     1
 72
     2
176
     1
 73
     0
176
     1
 90
        0
176
     1
 40
-0.6
176
     1
 41
-30.0
176
     1
 62
     5
 63
     7
421
 16777215
176
     1
 74
     1
176
     1
 91
        4
176
     1
 64
     7
176
     1
 65
   257
176
     1
 75
     7
176
     1
175
     7
176
     1
 42
1.0
176
     1
 92
        8
176
     1
 66
     7
176
     1
 43
1.0
176
     1
 76
     1
176
     1
 77
     6
176
     1
 78
     2
176
     1
 67
     7
176
     1
 79
     5
176
     1
170
     0
176
     1
171
     0
176
     1
290
     0
176
     1
 93
        1
176
     1
 44
0.0
176
     1
173
     0
176
     1
  0
VISUALSTYLE
  5
33
102
{ACAD_REACTORS
330
2A
102
}
330
2A
100
AcDbVisualStyle
  2
Realistic
 70
     8
177
     2
291
     0
 71
     2
176
     1
 72
     2
176
     1
 73
     0
176
     1
 90
        0
176
     1
 40
-0.6
176
     1
 41
-30.0
176
     1
 62
     5
 63
     7
421
 16777215
176
     1
 74
     1
176
     1
 91
        0
176
     1
 64
     7
176
     1
 65
   257
176
     1
 75
     1
176
     1
175
     1
176
     1
 42
1.0
176
     1
 92
        8
176
     1
 66
     8
424
  7895160
176
     1
 43
1.0
176
     1
 76
     1
176
     1
 77
     6
176
     1
 78
     2
176
     1
 67
     7
176
     1
 79
     5
176
     1
170
     0
176
     1
171
     0
176
     1
290
     0
176
     1
 93
       13
176
     1
 44
0.0
176
     1
173
     0
176
     1
  0
VISUALSTYLE
  5
37
102
{ACAD_REACTORS
330
2A
102
}
330
2A
100
AcDbVisualStyle
  2
Thicken
 70
    13
177
     2
291
     1
 71
     2
176
     1
 72
     2
176
     1
 73
     0
176
     1
 90
        0
176
     1
 40
-0.6
176
     1
 41
-30.0
176
     1
 62
     5
 63
     7
421
 16777215
176
     1
 74
     1
176
     1
 91
        4
176
     1
 64
     7
176
     1
 65
   257
176
     1
 75
     1
176
     1
175
     1
176
     1
 42
1.0
176
     1
 92
       12
176
     1
 66
     7
176
     1
 43
1.0
176
     1
 76
     1
176
     1
 77
     6
176
     1
 78
     2
176
     1
 67
     7
176
     1
 79
     5
176
     1
170
     0
176
     1
171
     0
176
     1
290
     0
176
     1
 93
        1
176
     1
 44
0.0
176
     1
173
     0
176
     1
  0
ENDSEC
  0
EOF
