  0
SECTION
  2
HEADER
  9
$ACADVER
  1
AC1024
  9
$ACADMAINTVER
 70
     6
  9
$DWGCODEPAGE
  3
UNDEFINED
  9
$INSBASE
 10
0.0
 20
0.0
 30
0.0
  9
$EXTMIN
 10
1.000000000000000E+20
 20
1.000000000000000E+20
 30
1.000000000000000E+20
  9
$EXTMAX
 10
-1.000000000000000E+20
 20
-1.000000000000000E+20
 30
-1.000000000000000E+20
  9
$LIMMIN
 10
0.0
 20
0.0
  9
$LIMMAX
 10
12.0
 20
9.0
  9
$ORTHOMODE
 70
     0
  9
$REGENMODE
 70
     1
  9
$FILLMODE
 70
     1
  9
$QTEXTMODE
 70
     0
  9
$MIRRTEXT
 70
     1
  9
$LTSCALE
 40
1.0
  9
$ATTMODE
 70
     1
  9
$TEXTSIZE
 40
0.2
  9
$TRACEWID
 40
0.05
  9
$TEXTSTYLE
  7
Standard
  9
$CLAYER
  8
0
  9
$CELTYPE
  6
ByLayer
  9
$CECOLOR
 62
   256
  9
$CELTSCALE
 40
1.0
  9
$DISPSILH
 70
     0
  9
$DIMSCALE
 40
1.0
  9
$DIMASZ
 40
0.18
  9
$DIMEXO
 40
0.0625
  9
$DIMDLI
 40
0.38
  9
$DIMRND
 40
0.0
  9
$DIMDLE
 40
0.0
  9
$DIMEXE
 40
0.18
  9
$DIMTP
 40
0.0
  9
$DIMTM
 40
0.0
  9
$DIMTXT
 40
0.18
  9
$DIMCEN
 40
0.09
  9
$DIMTSZ
 40
0.0
  9
$DIMTOL
 70
     0
  9
$DIMLIM
 70
     0
  9
$DIMTIH
 70
     1
  9
$DIMTOH
 70
     1
  9
$DIMSE1
 70
     0
  9
$DIMSE2
 70
     0
  9
$DIMTAD
 70
     0
  9
$DIMZIN
 70
     0
  9
$DIMBLK
  1

  9
$DIMASO
 70
     1
  9
$DIMSHO
 70
     1
  9
$DIMPOST
  1

  9
$DIMAPOST
  1

  9
$DIMALT
 70
     0
  9
$DIMALTD
 70
     2
  9
$DIMALTF
 40
25.4
  9
$DIMLFAC
 40
1.0
  9
$DIMTOFL
 70
     0
  9
$DIMTVP
 40
0.0
  9
$DIMTIX
 70
     0
  9
$DIMSOXD
 70
     0
  9
$DIMSAH
 70
     0
  9
$DIMBLK1
  1

  9
$DIMBLK2
  1

  9
$DIMSTYLE
  2
Standard
  9
$DIMCLRD
 70
     0
  9
$DIMCLRE
 70
     0
  9
$DIMCLRT
 70
     0
  9
$DIMTFAC
 40
1.0
  9
$DIMGAP
 40
0.09
  9
$DIMJUST
 70
     0
  9
$DIMSD1
 70
     0
  9
$DIMSD2
 70
     0
  9
$DIMTOLJ
 70
     1
  9
$DIMTZIN
 70
     0
  9
$DIMALTZ
 70
     0
  9
$DIMALTTZ
 70
     0
  9
$DIMUPT
 70
     0
  9
$DIMDEC
 70
     4
  9
$DIMTDEC
 70
     4
  9
$DIMALTU
 70
     2
  9
$DIMALTTD
 70
     2
  9
$DIMTXSTY
  7
Standard
  9
$DIMAUNIT
 70
     0
  9
$DIMADEC
 70
     0
  9
$DIMALTRND
 40
0.0
  9
$DIMAZIN
 70
     0
  9
$DIMDSEP
 70
    46
  9
$DIMATFIT
 70
     3
  9
$DIMFRAC
 70
     0
  9
$DIMLDRBLK
  1

  9
$DIMLUNIT
 70
     2
  9
$DIMLWD
 70
    -2
  9
$DIMLWE
 70
    -2
  9
$DIMTMOVE
 70
     0
  9
$DIMFXL
 40
1.0
  9
$DIMFXLON
 70
     0
  9
$DIMJOGANG
 40
0.7853981633974483
  9
$DIMTFILL
 70
     0
  9
$DIMTFILLCLR
 70
     0
  9
$DIMARCSYM
 70
     0
  9
$DIMLTYPE
  6

  9
$DIMLTEX1
  6

  9
$DIMLTEX2
  6

  9
$DIMTXTDIRECTION
 70
     0
  9
$LUNITS
 70
     2
  9
$LUPREC
 70
     4
  9
$SKETCHINC
 40
0.1
  9
$FILLETRAD
 40
0.5
  9
$AUNITS
 70
     0
  9
$AUPREC
 70
     0
  9
$MENU
  1
.
  9
$ELEVATION
 40
0.0
  9
$PELEVATION
 40
0.0
  9
$THICKNESS
 40
0.0
  9
$LIMCHECK
 70
     0
  9
$CHAMFERA
 40
0.5
  9
$CHAMFERB
 40
0.5
  9
$CHAMFERC
 40
1.0
  9
$CHAMFERD
 40
0.0
  9
$SKPOLY
 70
     0
  9
$TDCREATE
 40
2457917.591909722
  9
$TDUCREATE
 40
2457917.216909722
  9
$TDUPDATE
 40
2457917.591909722
  9
$TDUUPDATE
 40
2457917.216909722
  9
$TDINDWG
 40
0.0000000116
  9
$TDUSRTIMER
 40
0.0000000116
  9
$USRTIMER
 70
     1
  9
$ANGBASE
 50
0.0
  9
$ANGDIR
 70
     0
  9
$PDMODE
 70
     0
  9
$PDSIZE
 40
0.0
  9
$PLINEWID
 40
0.0
  9
$SPLFRAME
 70
     0
  9
$SPLINETYPE
 70
     6
  9
$SPLINESEGS
 70
     8
  9
$HANDSEED
  5
142
  9
$SURFTAB1
 70
     6
  9
$SURFTAB2
 70
     6
  9
$SURFTYPE
 70
     6
  9
$SURFU
 70
     6
  9
$SURFV
 70
     6
  9
$UCSBASE
  2

  9
$UCSNAME
  2

  9
$UCSORG
 10
0.0
 20
0.0
 30
0.0
  9
$UCSXDIR
 10
1.0
 20
0.0
 30
0.0
  9
$UCSYDIR
 10
0.0
 20
1.0
 30
0.0
  9
$UCSORTHOREF
  2

  9
$UCSORTHOVIEW
 70
     0
  9
$UCSORGTOP
 10
0.0
 20
0.0
 30
0.0
  9
$UCSORGBOTTOM
 10
0.0
 20
0.0
 30
0.0
  9
$UCSORGLEFT
 10
0.0
 20
0.0
 30
0.0
  9
$UCSORGRIGHT
 10
0.0
 20
0.0
 30
0.0
  9
$UCSORGFRONT
 10
0.0
 20
0.0
 30
0.0
  9
$UCSORGBACK
 10
0.0
 20
0.0
 30
0.0
  9
$PUCSBASE
  2

  9
$PUCSNAME
  2

  9
$PUCSORG
 10
0.0
 20
0.0
 30
0.0
  9
$PUCSXDIR
 10
1.0
 20
0.0
 30
0.0
  9
$PUCSYDIR
 10
0.0
 20
1.0
 30
0.0
  9
$PUCSORTHOREF
  2

  9
$PUCSORTHOVIEW
 70
     0
  9
$PUCSORGTOP
 10
0.0
 20
0.0
 30
0.0
  9
$PUCSORGBOTTOM
 10
0.0
 20
0.0
 30
0.0
  9
$PUCSORGLEFT
 10
0.0
 20
0.0
 30
0.0
  9
$PUCSORGRIGHT
 10
0.0
 20
0.0
 30
0.0
  9
$PUCSORGFRONT
 10
0.0
 20
0.0
 30
0.0
  9
$PUCSORGBACK
 10
0.0
 20
0.0
 30
0.0
  9
$USERI1
 70
     0
  9
$USERI2
 70
     0
  9
$USERI3
 70
     0
  9
$USERI4
 70
     0
  9
$USERI5
 70
     0
  9
$USERR1
 40
0.0
  9
$USERR2
 40
0.0
  9
$USERR3
 40
0.0
  9
$USERR4
 40
0.0
  9
$USERR5
 40
0.0
  9
$WORLDVIEW
 70
     1
  9
$SHADEDGE
 70
     3
  9
$SHADEDIF
 70
    70
  9
$TILEMODE
 70
     1
  9
$MAXACTVP
 70
    64
  9
$PINSBASE
 10
0.0
 20
0.0
 30
0.0
  9
$PLIMCHECK
 70
     0
  9
$PEXTMIN
 10
1.000000000000000E+20
 20
1.000000000000000E+20
 30
1.000000000000000E+20
  9
$PEXTMAX
 10
-1.000000000000000E+20
 20
-1.000000000000000E+20
 30
-1.000000000000000E+20
  9
$PLIMMIN
 10
0.0
 20
0.0
  9
$PLIMMAX
 10
12.0
 20
9.0
  9
$UNITMODE
 70
     0
  9
$VISRETAIN
 70
     1
  9
$PLINEGEN
 70
     0
  9
$PSLTSCALE
 70
     1
  9
$TREEDEPTH
 70
  3020
  9
$CMLSTYLE
  2
Standard
  9
$CMLJUST
 70
     0
  9
$CMLSCALE
 40
1.0
  9
$PROXYGRAPHICS
 70
     1
  9
$MEASUREMENT
 70
     0
  9
$CELWEIGHT
370
    -1
  9
$ENDCAPS
280
     0
  9
$JOINSTYLE
280
     0
  9
$LWDISPLAY
290
     1
  9
$INSUNITS
 70
     1
  9
$HYPERLINKBASE
  1

  9
$STYLESHEET
  1

  9
$XEDIT
290
     1
  9
$CEPSNTYPE
380
     0
  9
$PSTYLEMODE
290
     1
  9
$FINGERPRINTGUID
  2
{C3635784-1DA9-205E-53C6-AC697AB39716}
  9
$VERSIONGUID
  2
{FAEB1C32-E019-11D5-929B-00C0DF256EC4}
  9
$EXTNAMES
290
     1
  9
$PSVPSCALE
 40
0.0
  9
$OLESTARTUP
290
     0
  9
$SORTENTS
280
   127
  9
$INDEXCTL
280
     0
  9
$HIDETEXT
280
     1
  9
$XCLIPFRAME
280
     2
  9
$HALOGAP
280
     0
  9
$OBSCOLOR
 70
   257
  9
$OBSLTYPE
280
     0
  9
$INTERSECTIONDISPLAY
280
     0
  9
$INTERSECTIONCOLOR
 70
   257
  9
$DIMASSOC
280
     2
  9
$PROJECTNAME
  1

  9
$CAMERADISPLAY
290
     0
  9
$LENSLENGTH
 40
50.0
  9
$CAMERAHEIGHT
 40
0.0
  9
$STEPSPERSEC
 40
2.0
  9
$STEPSIZE
 40
6.0
  9
$3DDWFPREC
 40
2.0
  9
$PSOLWIDTH
 40
0.25
  9
$PSOLHEIGHT
 40
4.0
  9
$LOFTANG1
 40
1.570796326794897
  9
$LOFTANG2
 40
1.570796326794897
  9
$LOFTMAG1
 40
0.0
  9
$LOFTMAG2
 40
0.0
  9
$LOFTPARAM
 70
     7
  9
$LOFTNORMALS
280
     1
  9
$LATITUDE
 40
37.795
  9
$LONGITUDE
 40
-122.394
  9
$NORTHDIRECTION
 40
0.0
  9
$TIMEZONE
 70
 -8000
  9
$LIGHTGLYPHDISPLAY
280
     1
  9
$TILEMODELIGHTSYNCH
280
     1
  9
$CMATERIAL
347
3C
  9
$SOLIDHIST
280
     1
  9
$SHOWHIST
280
     1
  9
$DWFFRAME
280
     2
  9
$DGNFRAME
280
     2
  9
$REALWORLDSCALE
290
     1
  9
$INTERFERECOLOR
 62
   256
  9
$CSHADOW
280
     0
  9
$SHADOWPLANELOCATION
 40
0.0
  0
ENDSEC
  0
SECTION
  2
CLASSES
  0
CLASS
  1
ACDBDICTIONARYWDFLT
  2
AcDbDictionaryWithDefault
  3
ObjectDBX Classes
 90
        0
 91
        4
280
     0
281
     0
  0
CLASS
  1
VISUALSTYLE
  2
AcDbVisualStyle
  3
ObjectDBX Classes
 90
     4095
 91
        4
280
     0
281
     0
  0
CLASS
  1
MATERIAL
  2
AcDbMaterial
  3
ObjectDBX Classes
 90
     1153
 91
        4
280
     0
281
     0
  0
CLASS
  1
SUN
  2
AcDbSun
  3
SCENEOE
 90
     1024
 91
        4
280
     0
281
     0
  0
ENDSEC
  0
SECTION
  2
TABLES
  0
TABLE
  2
VPORT
  5
8
330
0
100
AcDbSymbolTable
 70
     1
  0
VPORT
  5
29
330
8
100
AcDbSymbolTableRecord
100
AcDbViewportTableRecord
  2
*Active
 70
     0
 10
0.0
 20
0.0
 11
1.0
 21
1.0
 12
0.0
 22
0.0
 13
0.0
 23
0.0
 14
0.5
 24
0.5
 15
0.5
 25
0.5
 16
0.0
 26
0.0
 36
1.0
 17
91.00082462281999
 27
-128.4993055234307
 37
0.0
 40
256.9986110468615
 41
0.7081814508812795
 42
50.0
 43
0.0
 44
0.0
 50
0.0
 51
0.0
 71
     0
 72
   100
 73
     1
 74
     3
 75
     0
 76
     0
 77
     0
 78
     0
281
     0
 65
     1
110
0.0
120
0.0
130
0.0
111
1.0
121
0.0
131
0.0
112
0.0
122
1.0
132
0.0
 79
     0
146
0.0
 60
     3
 61
     5
292
     1
282
     1
141
0.0
142
0.0
 63
   250
361
3F
  0
ENDTAB
  0
TABLE
  2
LTYPE
  5
5
330
0
100
AcDbSymbolTable
 70
     1
  0
LTYPE
  5
14
330
5
100
AcDbSymbolTableRecord
100
AcDbLinetypeTableRecord
  2
ByBlock
 70
     0
  3

 72
    65
 73
     0
 40
0.0
  0
LTYPE
  5
15
330
5
100
AcDbSymbolTableRecord
100
AcDbLinetypeTableRecord
  2
ByLayer
 70
     0
  3

 72
    65
 73
     0
 40
0.0
  0
LTYPE
  5
16
330
5
100
AcDbSymbolTableRecord
100
AcDbLinetypeTableRecord
  2
Continuous
 70
     0
  3
Solid line
 72
    65
 73
     0
 40
0.0
  0
ENDTAB
  0
TABLE
  2
LAYER
  5
2
330
0
100
AcDbSymbolTable
 70
     2
  0
LAYER
  5
10
330
2
100
AcDbSymbolTableRecord
100
AcDbLayerTableRecord
  2
0
 70
     0
 62
     7
  6
Continuous
370
    -3
390
F
347
3E
  0
LAYER
  5
40
330
2
100
AcDbSymbolTableRecord
100
AcDbLayerTableRecord
  2
_U+30EC_U+30A4_U+30E4_U+30FC 1
 70
     0
 62
     7
  6
Continuous
370
    -3
390
F
347
3E
  0
ENDTAB
  0
TABLE
  2
STYLE
  5
3
330
0
100
AcDbSymbolTable
 70
     1
  0
STYLE
  5
11
330
3
100
AcDbSymbolTableRecord
100
AcDbTextStyleTableRecord
  2
Standard
 70
     0
 40
0.0
 41
1.0
 50
0.0
 71
     0
 42
0.2
  3
txt
  4

  0
ENDTAB
  0
TABLE
  2
VIEW
  5
6
330
0
100
AcDbSymbolTable
 70
     0
  0
ENDTAB
  0
TABLE
  2
UCS
  5
7
330
0
100
AcDbSymbolTable
 70
     0
  0
ENDTAB
  0
TABLE
  2
APPID
  5
9
330
0
100
AcDbSymbolTable
 70
     1
  0
APPID
  5
12
330
9
100
AcDbSymbolTableRecord
100
AcDbRegAppTableRecord
  2
ACAD
 70
     0
  0
ENDTAB
  0
TABLE
  2
DIMSTYLE
  5
A
330
0
100
AcDbSymbolTable
 70
     1
100
AcDbDimStyleTable
  0
DIMSTYLE
105
27
330
A
100
AcDbSymbolTableRecord
100
AcDbDimStyleTableRecord
  2
Standard
 70
     0
178
     0
340
11
  0
ENDTAB
  0
TABLE
  2
BLOCK_RECORD
  5
1
330
0
100
AcDbSymbolTable
 70
     9
  0
BLOCK_RECORD
  5
1F
330
1
100
AcDbSymbolTableRecord
100
AcDbBlockTableRecord
  2
*Model_Space
340
22
 70
     0
280
     1
281
     0
  0
BLOCK_RECORD
  5
1B
330
1
100
AcDbSymbolTableRecord
100
AcDbBlockTableRecord
  2
*Paper_Space
340
1E
 70
     0
280
     1
281
     0
  0
BLOCK_RECORD
  5
23
330
1
100
AcDbSymbolTableRecord
100
AcDbBlockTableRecord
  2
*Paper_Space0
340
26
 70
     0
280
     1
281
     0
  0
BLOCK_RECORD
  5
9D
330
1
100
AcDbSymbolTableRecord
100
AcDbBlockTableRecord
  2
block 2
340
0
102
{BLKREFS
331
9E
102
}
 70
     0
280
     1
281
     0
  0
BLOCK_RECORD
  5
AF
330
1
100
AcDbSymbolTableRecord
100
AcDbBlockTableRecord
  2
block 3
340
0
102
{BLKREFS
331
B0
102
}
 70
     0
280
     1
281
     0
  0
BLOCK_RECORD
  5
C1
330
1
100
AcDbSymbolTableRecord
100
AcDbBlockTableRecord
  2
block 4
340
0
102
{BLKREFS
331
C2
102
}
 70
     0
280
     1
281
     0
  0
BLOCK_RECORD
  5
D5
330
1
100
AcDbSymbolTableRecord
100
AcDbBlockTableRecord
  2
block 5
340
0
102
{BLKREFS
331
D6
102
}
 70
     0
280
     1
281
     0
  0
BLOCK_RECORD
  5
E3
330
1
100
AcDbSymbolTableRecord
100
AcDbBlockTableRecord
  2
block 6
340
0
102
{BLKREFS
331
E4
102
}
 70
     0
280
     1
281
     0
  0
BLOCK_RECORD
  5
FC
330
1
100
AcDbSymbolTableRecord
100
AcDbBlockTableRecord
  2
block 7
340
0
102
{BLKREFS
331
FD
102
}
 70
     0
280
     1
281
     0
  0
BLOCK_RECORD
  5
11B
330
1
100
AcDbSymbolTableRecord
100
AcDbBlockTableRecord
  2
block 8
340
0
102
{BLKREFS
331
11C
102
}
 70
     0
280
     1
281
     0
  0
BLOCK_RECORD
  5
138
330
1
100
AcDbSymbolTableRecord
100
AcDbBlockTableRecord
  2
block 9
340
0
102
{BLKREFS
331
139
102
}
 70
     0
280
     1
281
     0
  0
ENDTAB
  0
ENDSEC
  0
SECTION
  2
BLOCKS
  0
BLOCK
  5
20
330
1F
100
AcDbEntity
  8
0
100
AcDbBlockBegin
  2
*Model_Space
 70
     0
 10
0.0
 20
0.0
 30
0.0
  3
*Model_Space
  1

  0
ENDBLK
  5
21
330
1F
100
AcDbEntity
  8
0
100
AcDbBlockEnd
  0
BLOCK
  5
1C
330
1B
100
AcDbEntity
 67
     1
  8
0
100
AcDbBlockBegin
  2
*Paper_Space
 70
     0
 10
0.0
 20
0.0
 30
0.0
  3
*Paper_Space
  1

  0
ENDBLK
  5
1D
330
1B
100
AcDbEntity
 67
     1
  8
0
100
AcDbBlockEnd
  0
BLOCK
  5
24
330
23
100
AcDbEntity
  8
0
100
AcDbBlockBegin
  2
*Paper_Space0
 70
     0
 10
0.0
 20
0.0
 30
0.0
  3
*Paper_Space0
  1

  0
ENDBLK
  5
25
330
23
100
AcDbEntity
  8
0
100
AcDbBlockEnd
  0
BLOCK
  5
9F
330
9D
100
AcDbEntity
  8
0
100
AcDbBlockBegin
  2
block 2
 70
     0
 10
0.0
 20
0.0
 30
0.0
  3
block 2
  1

  0
SPLINE
  5
A1
330
9D
100
AcDbEntity
  8
_U+30EC_U+30A4_U+30E4_U+30FC 1
370
     0
100
AcDbSpline
210
0.0
220
0.0
230
1.0
 70
    11
 71
     3
 72
    26
 73
    22
 74
     0
 42
0.0000000001
 43
0.0000000001
 12
1.0
 22
0.0
 32
0.0
 13
1.0
 23
0.0
 33
0.0
 40
0.0
 40
0.0
 40
0.0
 40
0.0
 40
1.0
 40
1.0
 40
1.0
 40
2.0
 40
2.0
 40
2.0
 40
3.0
 40
3.0
 40
3.0
 40
4.0
 40
4.0
 40
4.0
 40
5.0
 40
5.0
 40
5.0
 40
6.0
 40
6.0
 40
6.0
 40
7.0
 40
7.0
 40
7.0
 40
7.0
 10
91.7459933581399
 20
-108.3806369086687
 30
0.0
 10
91.7459933581399
 20
-108.3806369086687
 30
0.0
 10
91.7459933581399
 20
-107.2763115508719
 30
0.0
 10
91.7459933581399
 20
-107.2763115508719
 30
0.0
 10
91.7459933581399
 20
-107.2763115508719
 30
0.0
 10
91.39356008999884
 20
-107.2763115508719
 30
0.0
 10
91.39356008999884
 20
-107.2763115508719
 30
0.0
 10
91.39356008999884
 20
-107.2763115508719
 30
0.0
 10
91.39356008999884
 20
-107.1283446997804
 30
0.0
 10
91.39356008999884
 20
-107.1283446997804
 30
0.0
 10
91.74840492497957
 20
-107.1135307891938
 30
0.0
 10
91.79801429996716
 20
-106.9505777727415
 30
0.0
 10
91.82970917843147
 20
-106.8363728574055
 30
0.0
 10
91.82970917843147
 20
-106.8363728574055
 30
0.0
 10
91.98577200391328
 20
-106.8363728574055
 30
0.0
 10
91.98577200391328
 20
-106.8363728574055
 30
0.0
 10
91.98577200391328
 20
-106.8363728574055
 30
0.0
 10
91.98577200391328
 20
-108.3806369086687
 30
0.0
 10
91.98577200391328
 20
-108.3806369086687
 30
0.0
 10
91.98577200391328
 20
-108.3806369086687
 30
0.0
 10
91.7459933581399
 20
-108.3806369086687
 30
0.0
 10
91.7459933581399
 20
-108.3806369086687
 30
0.0
  0
HATCH
  5
A2
330
9D
100
AcDbEntity
  8
_U+30EC_U+30A4_U+30E4_U+30FC 1
 62
   179
420
  2234388
100
AcDbHatch
 10
0.0
 20
0.0
 30
0.0
210
0.0
220
0.0
230
1.0
  2
SOLID
 70
     1
 71
     0
 91
        1
 92
        1
 93
        1
 72
     4
 94
        3
 73
     0
 74
     1
 95
       26
 96
       22
 40
0.0
 40
0.0
 40
0.0
 40
0.0
 40
1.0
 40
1.0
 40
1.0
 40
2.0
 40
2.0
 40
2.0
 40
3.0
 40
3.0
 40
3.0
 40
4.0
 40
4.0
 40
4.0
 40
5.0
 40
5.0
 40
5.0
 40
6.0
 40
6.0
 40
6.0
 40
7.0
 40
7.0
 40
7.0
 40
7.0
 10
91.7459933581399
 20
-108.3806369086687
 10
91.7459933581399
 20
-108.3806369086687
 10
91.7459933581399
 20
-107.2763115508719
 10
91.7459933581399
 20
-107.2763115508719
 10
91.7459933581399
 20
-107.2763115508719
 10
91.39356008999884
 20
-107.2763115508719
 10
91.39356008999884
 20
-107.2763115508719
 10
91.39356008999884
 20
-107.2763115508719
 10
91.39356008999884
 20
-107.1283446997804
 10
91.39356008999884
 20
-107.1283446997804
 10
91.74840492497957
 20
-107.1135307891938
 10
91.79801429996716
 20
-106.9505777727415
 10
91.82970917843147
 20
-106.8363728574055
 10
91.82970917843147
 20
-106.8363728574055
 10
91.98577200391328
 20
-106.8363728574055
 10
91.98577200391328
 20
-106.8363728574055
 10
91.98577200391328
 20
-106.8363728574055
 10
91.98577200391328
 20
-108.3806369086687
 10
91.98577200391328
 20
-108.3806369086687
 10
91.98577200391328
 20
-108.3806369086687
 10
91.7459933581399
 20
-108.3806369086687
 10
91.7459933581399
 20
-108.3806369086687
 97
        0
 97
        0
 75
     2
 76
     1
 98
        0
  0
ENDBLK
  5
A0
330
9D
100
AcDbEntity
  8
0
100
AcDbBlockEnd
  0
BLOCK
  5
B1
330
AF
100
AcDbEntity
  8
0
100
AcDbBlockBegin
  2
block 3
 70
     0
 10
0.0
 20
0.0
 30
0.0
  3
block 3
  1

  0
SPLINE
  5
B3
330
AF
100
AcDbEntity
  8
_U+30EC_U+30A4_U+30E4_U+30FC 1
370
     0
100
AcDbSpline
210
0.0
220
0.0
230
1.0
 70
    11
 71
     3
 72
    62
 73
    58
 74
     0
 42
0.0000000001
 43
0.0000000001
 12
1.0
 22
0.0
 32
0.0
 13
1.0
 23
0.0
 33
0.0
 40
0.0
 40
0.0
 40
0.0
 40
0.0
 40
1.0
 40
1.0
 40
1.0
 40
2.0
 40
2.0
 40
2.0
 40
3.0
 40
3.0
 40
3.0
 40
4.0
 40
4.0
 40
4.0
 40
5.0
 40
5.0
 40
5.0
 40
6.0
 40
6.0
 40
6.0
 40
7.0
 40
7.0
 40
7.0
 40
8.0
 40
8.0
 40
8.0
 40
9.0
 40
9.0
 40
9.0
 40
10.0
 40
10.0
 40
10.0
 40
11.0
 40
11.0
 40
11.0
 40
12.0
 40
12.0
 40
12.0
 40
13.0
 40
13.0
 40
13.0
 40
14.0
 40
14.0
 40
14.0
 40
15.0
 40
15.0
 40
15.0
 40
16.0
 40
16.0
 40
16.0
 40
17.0
 40
17.0
 40
17.0
 40
18.0
 40
18.0
 40
18.0
 40
19.0
 40
19.0
 40
19.0
 40
19.0
 10
85.85074596378037
 20
-133.7864935646436
 30
0.0
 10
85.7491156469655
 20
-133.7864935646436
 30
0.0
 10
85.51622719216262
 20
-133.7654784821836
 30
0.0
 10
85.38272974210918
 20
-133.5794433259802
 30
0.0
 10
85.3036648007227
 20
-133.467133213161
 30
0.0
 10
85.29918617659187
 20
-133.3679144631858
 30
0.0
 10
85.29470755246105
 20
-133.2831651142486
 30
0.0
 10
85.29470755246105
 20
-133.2831651142486
 30
0.0
 10
85.5296630645551
 20
-133.2831651142486
 30
0.0
 10
85.5296630645551
 20
-133.2831651142486
 30
0.0
 10
85.53207463139476
 20
-133.3572346671815
 30
0.0
 10
85.54327119172183
 20
-133.591845669727
 30
0.0
 10
85.84626733964954
 20
-133.591845669727
 30
0.0
 10
85.99320066209545
 20
-133.591845669727
 30
0.0
 10
86.15598142377351
 20
-133.522254740925
 30
0.0
 10
86.15598142377351
 20
-133.2938449102529
 30
0.0
 10
86.15598142377351
 20
-133.1774006828515
 30
0.0
 10
86.11532929704757
 20
-133.1288248365095
 30
0.0
 10
86.08139510651785
 20
-133.0971299580452
 30
0.0
 10
86.00233016513137
 20
-133.0230604051123
 30
0.0
 10
85.87796221811385
 20
-133.0103135518169
 30
0.0
 10
85.81905108531608
 20
-133.0103135518169
 30
0.0
 10
85.7987250219531
 20
-133.0103135518169
 30
0.0
 10
85.76031220729257
 20
-133.012380609108
 30
0.0
 10
85.73102889566795
 20
-133.0165147236903
 30
0.0
 10
85.73102889566795
 20
-133.0165147236903
 30
0.0
 10
85.73102889566795
 20
-132.8218668287737
 30
0.0
 10
85.73102889566795
 20
-132.8218668287737
 30
0.0
 10
85.77168102239389
 20
-132.8284125101957
 30
0.0
 10
85.81681177325066
 20
-132.8304795674868
 30
0.0
 10
85.82370196422116
 20
-132.8304795674868
 30
0.0
 10
85.893809657346
 20
-132.8304795674868
 30
0.0
 10
86.10619979401164
 20
-132.8091199754783
 30
0.0
 10
86.10619979401164
 20
-132.5724419156416
 30
0.0
 10
86.10619979401164
 20
-132.3946749886027
 30
0.0
 10
85.96615666253624
 20
-132.3395534608387
 30
0.0
 10
85.84850665171496
 20
-132.3395534608387
 30
0.0
 10
85.56583656715021
 20
-132.3395534608387
 30
0.0
 10
85.55687931888856
 20
-132.5724419156416
 30
0.0
 10
85.55240069475774
 20
-132.6440999017348
 30
0.0
 10
85.55240069475774
 20
-132.6440999017348
 30
0.0
 10
85.335359679187
 20
-132.6440999017348
 30
0.0
 10
85.335359679187
 20
-132.6440999017348
 30
0.0
 10
85.34431692744865
 20
-132.5193874451688
 30
0.0
 10
85.37377249384754
 20
-132.142838508631
 30
0.0
 10
85.8621147788817
 20
-132.142838508631
 30
0.0
 10
86.10172116988082
 20
-132.142838508631
 30
0.0
 10
86.3594143121775
 20
-132.2699625320367
 30
0.0
 10
86.3594143121775
 20
-132.5658962342197
 30
0.0
 10
86.3594143121775
 20
-132.7522758999717
 30
0.0
 10
86.25778399536264
 20
-132.8346136820691
 30
0.0
 10
86.15150279964269
 20
-132.8959363817066
 30
0.0
 10
86.21695961386243
 20
-132.9234971455886
 30
0.0
 10
86.41143525400479
 20
-133.0037678703949
 30
0.0
 10
86.41143525400479
 20
-133.2810980569575
 30
0.0
 10
86.41143525400479
 20
-133.619406433609
 30
0.0
 10
86.14702417551186
 20
-133.7864935646436
 30
0.0
 10
85.85074596378037
 20
-133.7864935646436
 30
0.0
  0
HATCH
  5
B4
330
AF
100
AcDbEntity
  8
_U+30EC_U+30A4_U+30E4_U+30FC 1
 62
   179
420
  2234388
100
AcDbHatch
 10
0.0
 20
0.0
 30
0.0
210
0.0
220
0.0
230
1.0
  2
SOLID
 70
     1
 71
     0
 91
        1
 92
        1
 93
        1
 72
     4
 94
        3
 73
     0
 74
     1
 95
       62
 96
       58
 40
0.0
 40
0.0
 40
0.0
 40
0.0
 40
1.0
 40
1.0
 40
1.0
 40
2.0
 40
2.0
 40
2.0
 40
3.0
 40
3.0
 40
3.0
 40
4.0
 40
4.0
 40
4.0
 40
5.0
 40
5.0
 40
5.0
 40
6.0
 40
6.0
 40
6.0
 40
7.0
 40
7.0
 40
7.0
 40
8.0
 40
8.0
 40
8.0
 40
9.0
 40
9.0
 40
9.0
 40
10.0
 40
10.0
 40
10.0
 40
11.0
 40
11.0
 40
11.0
 40
12.0
 40
12.0
 40
12.0
 40
13.0
 40
13.0
 40
13.0
 40
14.0
 40
14.0
 40
14.0
 40
15.0
 40
15.0
 40
15.0
 40
16.0
 40
16.0
 40
16.0
 40
17.0
 40
17.0
 40
17.0
 40
18.0
 40
18.0
 40
18.0
 40
19.0
 40
19.0
 40
19.0
 40
19.0
 10
85.85074596378037
 20
-133.7864935646436
 10
85.7491156469655
 20
-133.7864935646436
 10
85.51622719216262
 20
-133.7654784821836
 10
85.38272974210918
 20
-133.5794433259802
 10
85.3036648007227
 20
-133.467133213161
 10
85.29918617659187
 20
-133.3679144631858
 10
85.29470755246105
 20
-133.2831651142486
 10
85.29470755246105
 20
-133.2831651142486
 10
85.5296630645551
 20
-133.2831651142486
 10
85.5296630645551
 20
-133.2831651142486
 10
85.53207463139476
 20
-133.3572346671815
 10
85.54327119172183
 20
-133.591845669727
 10
85.84626733964954
 20
-133.591845669727
 10
85.99320066209545
 20
-133.591845669727
 10
86.15598142377351
 20
-133.522254740925
 10
86.15598142377351
 20
-133.2938449102529
 10
86.15598142377351
 20
-133.1774006828515
 10
86.11532929704757
 20
-133.1288248365095
 10
86.08139510651785
 20
-133.0971299580452
 10
86.00233016513137
 20
-133.0230604051123
 10
85.87796221811385
 20
-133.0103135518169
 10
85.81905108531608
 20
-133.0103135518169
 10
85.7987250219531
 20
-133.0103135518169
 10
85.76031220729257
 20
-133.012380609108
 10
85.73102889566795
 20
-133.0165147236903
 10
85.73102889566795
 20
-133.0165147236903
 10
85.73102889566795
 20
-132.8218668287737
 10
85.73102889566795
 20
-132.8218668287737
 10
85.77168102239389
 20
-132.8284125101957
 10
85.81681177325066
 20
-132.8304795674868
 10
85.82370196422116
 20
-132.8304795674868
 10
85.893809657346
 20
-132.8304795674868
 10
86.10619979401164
 20
-132.8091199754783
 10
86.10619979401164
 20
-132.5724419156416
 10
86.10619979401164
 20
-132.3946749886027
 10
85.96615666253624
 20
-132.3395534608387
 10
85.84850665171496
 20
-132.3395534608387
 10
85.56583656715021
 20
-132.3395534608387
 10
85.55687931888856
 20
-132.5724419156416
 10
85.55240069475774
 20
-132.6440999017348
 10
85.55240069475774
 20
-132.6440999017348
 10
85.335359679187
 20
-132.6440999017348
 10
85.335359679187
 20
-132.6440999017348
 10
85.34431692744865
 20
-132.5193874451688
 10
85.37377249384754
 20
-132.142838508631
 10
85.8621147788817
 20
-132.142838508631
 10
86.10172116988082
 20
-132.142838508631
 10
86.3594143121775
 20
-132.2699625320367
 10
86.3594143121775
 20
-132.5658962342197
 10
86.3594143121775
 20
-132.7522758999717
 10
86.25778399536264
 20
-132.8346136820691
 10
86.15150279964269
 20
-132.8959363817066
 10
86.21695961386243
 20
-132.9234971455886
 10
86.41143525400479
 20
-133.0037678703949
 10
86.41143525400479
 20
-133.2810980569575
 10
86.41143525400479
 20
-133.619406433609
 10
86.14702417551186
 20
-133.7864935646436
 10
85.85074596378037
 20
-133.7864935646436
 97
        0
 97
        0
 75
     2
 76
     1
 98
        0
  0
ENDBLK
  5
B2
330
AF
100
AcDbEntity
  8
0
100
AcDbBlockEnd
  0
BLOCK
  5
C3
330
C1
100
AcDbEntity
  8
0
100
AcDbBlockBegin
  2
block 4
 70
     0
 10
0.0
 20
0.0
 30
0.0
  3
block 4
  1

  0
SPLINE
  5
C5
330
C1
100
AcDbEntity
  8
_U+30EC_U+30A4_U+30E4_U+30FC 1
370
     0
100
AcDbSpline
210
0.0
220
0.0
230
1.0
 70
    11
 71
     3
 72
    26
 73
    22
 74
     0
 42
0.0000000001
 43
0.0000000001
 12
1.0
 22
0.0
 32
0.0
 13
1.0
 23
0.0
 33
0.0
 40
0.0
 40
0.0
 40
0.0
 40
0.0
 40
1.0
 40
1.0
 40
1.0
 40
2.0
 40
2.0
 40
2.0
 40
3.0
 40
3.0
 40
3.0
 40
4.0
 40
4.0
 40
4.0
 40
5.0
 40
5.0
 40
5.0
 40
6.0
 40
6.0
 40
6.0
 40
7.0
 40
7.0
 40
7.0
 40
7.0
 10
91.14103459093002
 20
-156.7356526300869
 30
0.0
 10
91.14103459093002
 20
-156.7356526300869
 30
0.0
 10
91.14103459093002
 20
-155.6314995270644
 30
0.0
 10
91.14103459093002
 20
-155.6314995270644
 30
0.0
 10
91.14103459093002
 20
-155.6314995270644
 30
0.0
 10
90.78860132278896
 20
-155.6314995270644
 30
0.0
 10
90.78860132278896
 20
-155.6314995270644
 30
0.0
 10
90.78860132278896
 20
-155.6314995270644
 30
0.0
 10
90.78860132278896
 20
-155.4833604211986
 30
0.0
 10
90.78860132278896
 20
-155.4833604211986
 30
0.0
 10
91.1434461577697
 20
-155.468546510612
 30
0.0
 10
91.1930555327573
 20
-155.3055934941597
 30
0.0
 10
91.22475041122159
 20
-155.1912163240494
 30
0.0
 10
91.22475041122159
 20
-155.1912163240494
 30
0.0
 10
91.38081323670342
 20
-155.1912163240494
 30
0.0
 10
91.38081323670342
 20
-155.1912163240494
 30
0.0
 10
91.38081323670342
 20
-155.1912163240494
 30
0.0
 10
91.38081323670342
 20
-156.7356526300869
 30
0.0
 10
91.38081323670342
 20
-156.7356526300869
 30
0.0
 10
91.38081323670342
 20
-156.7356526300869
 30
0.0
 10
91.14103459093002
 20
-156.7356526300869
 30
0.0
 10
91.14103459093002
 20
-156.7356526300869
 30
0.0
  0
HATCH
  5
C6
330
C1
100
AcDbEntity
  8
_U+30EC_U+30A4_U+30E4_U+30FC 1
 62
   179
420
  2234388
100
AcDbHatch
 10
0.0
 20
0.0
 30
0.0
210
0.0
220
0.0
230
1.0
  2
SOLID
 70
     1
 71
     0
 91
        1
 92
        1
 93
        1
 72
     4
 94
        3
 73
     0
 74
     1
 95
       26
 96
       22
 40
0.0
 40
0.0
 40
0.0
 40
0.0
 40
1.0
 40
1.0
 40
1.0
 40
2.0
 40
2.0
 40
2.0
 40
3.0
 40
3.0
 40
3.0
 40
4.0
 40
4.0
 40
4.0
 40
5.0
 40
5.0
 40
5.0
 40
6.0
 40
6.0
 40
6.0
 40
7.0
 40
7.0
 40
7.0
 40
7.0
 10
91.14103459093002
 20
-156.7356526300869
 10
91.14103459093002
 20
-156.7356526300869
 10
91.14103459093002
 20
-155.6314995270644
 10
91.14103459093002
 20
-155.6314995270644
 10
91.14103459093002
 20
-155.6314995270644
 10
90.78860132278896
 20
-155.6314995270644
 10
90.78860132278896
 20
-155.6314995270644
 10
90.78860132278896
 20
-155.6314995270644
 10
90.78860132278896
 20
-155.4833604211986
 10
90.78860132278896
 20
-155.4833604211986
 10
91.1434461577697
 20
-155.468546510612
 10
91.1930555327573
 20
-155.3055934941597
 10
91.22475041122159
 20
-155.1912163240494
 10
91.22475041122159
 20
-155.1912163240494
 10
91.38081323670342
 20
-155.1912163240494
 10
91.38081323670342
 20
-155.1912163240494
 10
91.38081323670342
 20
-155.1912163240494
 10
91.38081323670342
 20
-156.7356526300869
 10
91.38081323670342
 20
-156.7356526300869
 10
91.38081323670342
 20
-156.7356526300869
 10
91.14103459093002
 20
-156.7356526300869
 10
91.14103459093002
 20
-156.7356526300869
 97
        0
 97
        0
 75
     2
 76
     1
 98
        0
  0
SPLINE
  5
C7
330
C1
100
AcDbEntity
  8
_U+30EC_U+30A4_U+30E4_U+30FC 1
370
     0
100
AcDbSpline
210
0.0
220
0.0
230
1.0
 70
    11
 71
     3
 72
    53
 73
    49
 74
     0
 42
0.0000000001
 43
0.0000000001
 12
1.0
 22
0.0
 32
0.0
 13
1.0
 23
0.0
 33
0.0
 40
0.0
 40
0.0
 40
0.0
 40
0.0
 40
1.0
 40
1.0
 40
1.0
 40
2.0
 40
2.0
 40
2.0
 40
3.0
 40
3.0
 40
3.0
 40
4.0
 40
4.0
 40
4.0
 40
5.0
 40
5.0
 40
5.0
 40
6.0
 40
6.0
 40
6.0
 40
7.0
 40
7.0
 40
7.0
 40
8.0
 40
8.0
 40
8.0
 40
9.0
 40
9.0
 40
9.0
 40
10.0
 40
10.0
 40
10.0
 40
11.0
 40
11.0
 40
11.0
 40
12.0
 40
12.0
 40
12.0
 40
13.0
 40
13.0
 40
13.0
 40
14.0
 40
14.0
 40
14.0
 40
15.0
 40
15.0
 40
15.0
 40
16.0
 40
16.0
 40
16.0
 40
16.0
 10
92.43053383105904
 20
-156.7862955337201
 30
0.0
 10
92.34681801076746
 20
-156.7862955337201
 30
0.0
 10
92.23864201253062
 20
-156.7694145658424
 30
0.0
 10
92.12977699519672
 20
-156.7060248089138
 30
0.0
 10
91.94443085809029
 20
-156.5961262629343
 30
0.0
 10
91.92203773743616
 20
-156.4648681249463
 30
0.0
 10
91.90171167407318
 20
-156.357036636258
 30
0.0
 10
91.90171167407318
 20
-156.357036636258
 30
0.0
 10
92.1390787530069
 20
-156.357036636258
 30
0.0
 10
92.1390787530069
 20
-156.357036636258
 30
0.0
 10
92.19764537625615
 20
-156.5558186457569
 30
0.0
 10
92.33338213837499
 20
-156.58544646693
 30
0.0
 10
92.4329453978987
 20
-156.58544646693
 30
0.0
 10
92.58211803241004
 20
-156.58544646693
 30
0.0
 10
92.74507104886234
 20
-156.4858832074063
 30
0.0
 10
92.74507104886234
 20
-156.2533392621519
 30
0.0
 10
92.74507104886234
 20
-155.9973686675979
 30
0.0
 10
92.55283472078541
 20
-155.9274332292473
 30
0.0
 10
92.42398814963707
 20
-155.9274332292473
 30
0.0
 10
92.38988170433309
 20
-155.9274332292473
 30
0.0
 10
92.23864201253062
 20
-155.9274332292473
 30
0.0
 10
92.14355737713772
 20
-156.0566243099442
 30
0.0
 10
92.14355737713772
 20
-156.0566243099442
 30
0.0
 10
91.9557996731916
 20
-156.0376762847753
 30
0.0
 10
91.9557996731916
 20
-156.0376762847753
 30
0.0
 10
91.9557996731916
 20
-156.0376762847753
 30
0.0
 10
92.08464624433995
 20
-155.1912163240494
 30
0.0
 10
92.08464624433995
 20
-155.1912163240494
 30
0.0
 10
92.08464624433995
 20
-155.1912163240494
 30
0.0
 10
92.91663680402779
 20
-155.1912163240494
 30
0.0
 10
92.91663680402779
 20
-155.1912163240494
 30
0.0
 10
92.91663680402779
 20
-155.1912163240494
 30
0.0
 10
92.91663680402779
 20
-155.385864218966
 30
0.0
 10
92.91663680402779
 20
-155.385864218966
 30
0.0
 10
92.91663680402779
 20
-155.385864218966
 30
0.0
 10
92.25896807589359
 20
-155.385864218966
 30
0.0
 10
92.25896807589359
 20
-155.385864218966
 30
0.0
 10
92.25896807589359
 20
-155.385864218966
 30
0.0
 10
92.1886881279945
 20
-155.8089219445547
 30
0.0
 10
92.1886881279945
 20
-155.8089219445547
 30
0.0
 10
92.25414494221424
 20
-155.7751600087993
 30
0.0
 10
92.34233938663664
 20
-155.7348523916218
 30
0.0
 10
92.46911890049384
 20
-155.7348523916218
 30
0.0
 10
92.74024791518299
 20
-155.7348523916218
 30
0.0
 10
92.99346243334887
 20
-155.9212320573739
 30
0.0
 10
92.99346243334887
 20
-156.2343912369831
 30
0.0
 10
92.99346243334887
 20
-156.5516845311746
 30
0.0
 10
92.754028297124
 20
-156.7862955337201
 30
0.0
 10
92.43053383105904
 20
-156.7862955337201
 30
0.0
  0
HATCH
  5
C8
330
C1
100
AcDbEntity
  8
_U+30EC_U+30A4_U+30E4_U+30FC 1
 62
   179
420
  2234388
100
AcDbHatch
 10
0.0
 20
0.0
 30
0.0
210
0.0
220
0.0
230
1.0
  2
SOLID
 70
     1
 71
     0
 91
        1
 92
        1
 93
        1
 72
     4
 94
        3
 73
     0
 74
     1
 95
       53
 96
       49
 40
0.0
 40
0.0
 40
0.0
 40
0.0
 40
1.0
 40
1.0
 40
1.0
 40
2.0
 40
2.0
 40
2.0
 40
3.0
 40
3.0
 40
3.0
 40
4.0
 40
4.0
 40
4.0
 40
5.0
 40
5.0
 40
5.0
 40
6.0
 40
6.0
 40
6.0
 40
7.0
 40
7.0
 40
7.0
 40
8.0
 40
8.0
 40
8.0
 40
9.0
 40
9.0
 40
9.0
 40
10.0
 40
10.0
 40
10.0
 40
11.0
 40
11.0
 40
11.0
 40
12.0
 40
12.0
 40
12.0
 40
13.0
 40
13.0
 40
13.0
 40
14.0
 40
14.0
 40
14.0
 40
15.0
 40
15.0
 40
15.0
 40
16.0
 40
16.0
 40
16.0
 40
16.0
 10
92.43053383105904
 20
-156.7862955337201
 10
92.34681801076746
 20
-156.7862955337201
 10
92.23864201253062
 20
-156.7694145658424
 10
92.12977699519672
 20
-156.7060248089138
 10
91.94443085809029
 20
-156.5961262629343
 10
91.92203773743616
 20
-156.4648681249463
 10
91.90171167407318
 20
-156.357036636258
 10
91.90171167407318
 20
-156.357036636258
 10
92.1390787530069
 20
-156.357036636258
 10
92.1390787530069
 20
-156.357036636258
 10
92.19764537625615
 20
-156.5558186457569
 10
92.33338213837499
 20
-156.58544646693
 10
92.4329453978987
 20
-156.58544646693
 10
92.58211803241004
 20
-156.58544646693
 10
92.74507104886234
 20
-156.4858832074063
 10
92.74507104886234
 20
-156.2533392621519
 10
92.74507104886234
 20
-155.9973686675979
 10
92.55283472078541
 20
-155.9274332292473
 10
92.42398814963707
 20
-155.9274332292473
 10
92.38988170433309
 20
-155.9274332292473
 10
92.23864201253062
 20
-155.9274332292473
 10
92.14355737713772
 20
-156.0566243099442
 10
92.14355737713772
 20
-156.0566243099442
 10
91.9557996731916
 20
-156.0376762847753
 10
91.9557996731916
 20
-156.0376762847753
 10
91.9557996731916
 20
-156.0376762847753
 10
92.08464624433995
 20
-155.1912163240494
 10
92.08464624433995
 20
-155.1912163240494
 10
92.08464624433995
 20
-155.1912163240494
 10
92.91663680402779
 20
-155.1912163240494
 10
92.91663680402779
 20
-155.1912163240494
 10
92.91663680402779
 20
-155.1912163240494
 10
92.91663680402779
 20
-155.385864218966
 10
92.91663680402779
 20
-155.385864218966
 10
92.91663680402779
 20
-155.385864218966
 10
92.25896807589359
 20
-155.385864218966
 10
92.25896807589359
 20
-155.385864218966
 10
92.25896807589359
 20
-155.385864218966
 10
92.1886881279945
 20
-155.8089219445547
 10
92.1886881279945
 20
-155.8089219445547
 10
92.25414494221424
 20
-155.7751600087993
 10
92.34233938663664
 20
-155.7348523916218
 10
92.46911890049384
 20
-155.7348523916218
 10
92.74024791518299
 20
-155.7348523916218
 10
92.99346243334887
 20
-155.9212320573739
 10
92.99346243334887
 20
-156.2343912369831
 10
92.99346243334887
 20
-156.5516845311746
 10
92.754028297124
 20
-156.7862955337201
 10
92.43053383105904
 20
-156.7862955337201
 97
        0
 97
        0
 75
     2
 76
     1
 98
        0
  0
ENDBLK
  5
C4
330
C1
100
AcDbEntity
  8
0
100
AcDbBlockEnd
  0
BLOCK
  5
D7
330
D5
100
AcDbEntity
  8
0
100
AcDbBlockBegin
  2
block 5
 70
     0
 10
0.0
 20
0.0
 30
0.0
  3
block 5
  1

  0
SPLINE
  5
D9
330
D5
100
AcDbEntity
  8
_U+30EC_U+30A4_U+30E4_U+30FC 1
370
     0
100
AcDbSpline
210
0.0
220
0.0
230
1.0
 70
    11
 71
     3
 72
    62
 73
    58
 74
     0
 42
0.0000000001
 43
0.0000000001
 12
1.0
 22
0.0
 32
0.0
 13
1.0
 23
0.0
 33
0.0
 40
0.0
 40
0.0
 40
0.0
 40
0.0
 40
1.0
 40
1.0
 40
1.0
 40
2.0
 40
2.0
 40
2.0
 40
3.0
 40
3.0
 40
3.0
 40
4.0
 40
4.0
 40
4.0
 40
5.0
 40
5.0
 40
5.0
 40
6.0
 40
6.0
 40
6.0
 40
7.0
 40
7.0
 40
7.0
 40
8.0
 40
8.0
 40
8.0
 40
9.0
 40
9.0
 40
9.0
 40
10.0
 40
10.0
 40
10.0
 40
11.0
 40
11.0
 40
11.0
 40
12.0
 40
12.0
 40
12.0
 40
13.0
 40
13.0
 40
13.0
 40
14.0
 40
14.0
 40
14.0
 40
15.0
 40
15.0
 40
15.0
 40
16.0
 40
16.0
 40
16.0
 40
17.0
 40
17.0
 40
17.0
 40
18.0
 40
18.0
 40
18.0
 40
19.0
 40
19.0
 40
19.0
 40
19.0
 10
102.7716769491335
 20
-151.7984862901754
 30
0.0
 10
102.7716769491335
 20
-151.9001166069903
 30
0.0
 10
102.7506618666735
 20
-152.1330050617931
 30
0.0
 10
102.56462671047
 20
-152.2663302570723
 30
0.0
 10
102.4523165976508
 20
-152.3455674532331
 30
0.0
 10
102.3530978476756
 20
-152.3500460773639
 30
0.0
 10
102.2683484987385
 20
-152.3545247014947
 30
0.0
 10
102.2683484987385
 20
-152.3545247014947
 30
0.0
 10
102.2683484987385
 20
-152.1195691894007
 30
0.0
 10
102.2683484987385
 20
-152.1195691894007
 30
0.0
 10
102.3424180516713
 20
-152.117157622561
 30
0.0
 10
102.5770290542169
 20
-152.1057888074597
 30
0.0
 10
102.5770290542169
 20
-151.8029649143062
 30
0.0
 10
102.5770290542169
 20
-151.655859337086
 30
0.0
 10
102.5074381254148
 20
-151.4932508301823
 30
0.0
 10
102.2790282947427
 20
-151.4932508301823
 30
0.0
 10
102.1625840673413
 20
-151.4932508301823
 30
0.0
 10
102.1140082209993
 20
-151.5339029569082
 30
0.0
 10
102.082313342535
 20
-151.5676648926637
 30
0.0
 10
102.0082437896021
 20
-151.6469020888244
 30
0.0
 10
101.9954969363067
 20
-151.7712700358419
 30
0.0
 10
101.9954969363067
 20
-151.8301811686397
 30
0.0
 10
101.9954969363067
 20
-151.8505072320027
 30
0.0
 10
101.9975639935978
 20
-151.8887477918889
 30
0.0
 10
102.0016981081801
 20
-151.9183756130621
 30
0.0
 10
102.0016981081801
 20
-151.9183756130621
 30
0.0
 10
101.8070502132635
 20
-151.9183756130621
 30
0.0
 10
101.8070502132635
 20
-151.9183756130621
 30
0.0
 10
101.8135958946855
 20
-151.8777234863361
 30
0.0
 10
101.8156629519766
 20
-151.8322482259308
 30
0.0
 10
101.8156629519766
 20
-151.8257025445089
 30
0.0
 10
101.8156629519766
 20
-151.7554225966098
 30
0.0
 10
101.7943033599681
 20
-151.5428602051699
 30
0.0
 10
101.5576253001314
 20
-151.5428602051699
 30
0.0
 10
101.3798583730925
 20
-151.5428602051699
 30
0.0
 10
101.3247368453285
 20
-151.6830755914195
 30
0.0
 10
101.3247368453285
 20
-151.8005533474665
 30
0.0
 10
101.3247368453285
 20
-152.0833956868055
 30
0.0
 10
101.5576253001314
 20
-152.0923529350672
 30
0.0
 10
101.6292832862246
 20
-152.096831559198
 30
0.0
 10
101.6292832862246
 20
-152.096831559198
 30
0.0
 10
101.6292832862246
 20
-152.3138725747688
 30
0.0
 10
101.6292832862246
 20
-152.3138725747688
 30
0.0
 10
101.5045708296586
 20
-152.3049153265071
 30
0.0
 10
101.1280218931208
 20
-152.2756320148825
 30
0.0
 10
101.1280218931208
 20
-151.7871174750741
 30
0.0
 10
101.1280218931208
 20
-151.5473388293007
 30
0.0
 10
101.2551459165265
 20
-151.289645687004
 30
0.0
 10
101.5510796187095
 20
-151.289645687004
 30
0.0
 10
101.7374592844615
 20
-151.289645687004
 30
0.0
 10
101.8197970665589
 20
-151.3916205133674
 30
0.0
 10
101.8811197661964
 20
-151.4977294543131
 30
0.0
 10
101.9086805300784
 20
-151.4322726400933
 30
0.0
 10
101.9889512548847
 20
-151.2376247451767
 30
0.0
 10
102.2662814414473
 20
-151.2376247451767
 30
0.0
 10
102.6045898180989
 20
-151.2376247451767
 30
0.0
 10
102.7716769491335
 20
-151.5022080784439
 30
0.0
 10
102.7716769491335
 20
-151.7984862901754
 30
0.0
  0
HATCH
  5
DA
330
D5
100
AcDbEntity
  8
_U+30EC_U+30A4_U+30E4_U+30FC 1
 62
   179
420
  2234388
100
AcDbHatch
 10
0.0
 20
0.0
 30
0.0
210
0.0
220
0.0
230
1.0
  2
SOLID
 70
     1
 71
     0
 91
        1
 92
        1
 93
        1
 72
     4
 94
        3
 73
     0
 74
     1
 95
       62
 96
       58
 40
0.0
 40
0.0
 40
0.0
 40
0.0
 40
1.0
 40
1.0
 40
1.0
 40
2.0
 40
2.0
 40
2.0
 40
3.0
 40
3.0
 40
3.0
 40
4.0
 40
4.0
 40
4.0
 40
5.0
 40
5.0
 40
5.0
 40
6.0
 40
6.0
 40
6.0
 40
7.0
 40
7.0
 40
7.0
 40
8.0
 40
8.0
 40
8.0
 40
9.0
 40
9.0
 40
9.0
 40
10.0
 40
10.0
 40
10.0
 40
11.0
 40
11.0
 40
11.0
 40
12.0
 40
12.0
 40
12.0
 40
13.0
 40
13.0
 40
13.0
 40
14.0
 40
14.0
 40
14.0
 40
15.0
 40
15.0
 40
15.0
 40
16.0
 40
16.0
 40
16.0
 40
17.0
 40
17.0
 40
17.0
 40
18.0
 40
18.0
 40
18.0
 40
19.0
 40
19.0
 40
19.0
 40
19.0
 10
102.7716769491335
 20
-151.7984862901754
 10
102.7716769491335
 20
-151.9001166069903
 10
102.7506618666735
 20
-152.1330050617931
 10
102.56462671047
 20
-152.2663302570723
 10
102.4523165976508
 20
-152.3455674532331
 10
102.3530978476756
 20
-152.3500460773639
 10
102.2683484987385
 20
-152.3545247014947
 10
102.2683484987385
 20
-152.3545247014947
 10
102.2683484987385
 20
-152.1195691894007
 10
102.2683484987385
 20
-152.1195691894007
 10
102.3424180516713
 20
-152.117157622561
 10
102.5770290542169
 20
-152.1057888074597
 10
102.5770290542169
 20
-151.8029649143062
 10
102.5770290542169
 20
-151.655859337086
 10
102.5074381254148
 20
-151.4932508301823
 10
102.2790282947427
 20
-151.4932508301823
 10
102.1625840673413
 20
-151.4932508301823
 10
102.1140082209993
 20
-151.5339029569082
 10
102.082313342535
 20
-151.5676648926637
 10
102.0082437896021
 20
-151.6469020888244
 10
101.9954969363067
 20
-151.7712700358419
 10
101.9954969363067
 20
-151.8301811686397
 10
101.9954969363067
 20
-151.8505072320027
 10
101.9975639935978
 20
-151.8887477918889
 10
102.0016981081801
 20
-151.9183756130621
 10
102.0016981081801
 20
-151.9183756130621
 10
101.8070502132635
 20
-151.9183756130621
 10
101.8070502132635
 20
-151.9183756130621
 10
101.8135958946855
 20
-151.8777234863361
 10
101.8156629519766
 20
-151.8322482259308
 10
101.8156629519766
 20
-151.8257025445089
 10
101.8156629519766
 20
-151.7554225966098
 10
101.7943033599681
 20
-151.5428602051699
 10
101.5576253001314
 20
-151.5428602051699
 10
101.3798583730925
 20
-151.5428602051699
 10
101.3247368453285
 20
-151.6830755914195
 10
101.3247368453285
 20
-151.8005533474665
 10
101.3247368453285
 20
-152.0833956868055
 10
101.5576253001314
 20
-152.0923529350672
 10
101.6292832862246
 20
-152.096831559198
 10
101.6292832862246
 20
-152.096831559198
 10
101.6292832862246
 20
-152.3138725747688
 10
101.6292832862246
 20
-152.3138725747688
 10
101.5045708296586
 20
-152.3049153265071
 10
101.1280218931208
 20
-152.2756320148825
 10
101.1280218931208
 20
-151.7871174750741
 10
101.1280218931208
 20
-151.5473388293007
 10
101.2551459165265
 20
-151.289645687004
 10
101.5510796187095
 20
-151.289645687004
 10
101.7374592844615
 20
-151.289645687004
 10
101.8197970665589
 20
-151.3916205133674
 10
101.8811197661964
 20
-151.4977294543131
 10
101.9086805300784
 20
-151.4322726400933
 10
101.9889512548847
 20
-151.2376247451767
 10
102.2662814414473
 20
-151.2376247451767
 10
102.6045898180989
 20
-151.2376247451767
 10
102.7716769491335
 20
-151.5022080784439
 10
102.7716769491335
 20
-151.7984862901754
 97
        0
 97
        0
 75
     2
 76
     1
 98
        0
  0
ENDBLK
  5
D8
330
D5
100
AcDbEntity
  8
0
100
AcDbBlockEnd
  0
BLOCK
  5
E5
330
E3
100
AcDbEntity
  8
0
100
AcDbBlockBegin
  2
block 6
 70
     0
 10
0.0
 20
0.0
 30
0.0
  3
block 6
  1

  0
SPLINE
  5
E7
330
E3
100
AcDbEntity
  8
_U+30EC_U+30A4_U+30E4_U+30FC 1
370
     0
100
AcDbSpline
210
0.0
220
0.0
230
1.0
 70
    11
 71
     3
 72
    32
 73
    28
 74
     0
 42
0.0000000001
 43
0.0000000001
 12
1.0
 22
0.0
 32
0.0
 13
1.0
 23
0.0
 33
0.0
 40
0.0
 40
0.0
 40
0.0
 40
0.0
 40
1.0
 40
1.0
 40
1.0
 40
2.0
 40
2.0
 40
2.0
 40
3.0
 40
3.0
 40
3.0
 40
4.0
 40
4.0
 40
4.0
 40
5.0
 40
5.0
 40
5.0
 40
6.0
 40
6.0
 40
6.0
 40
7.0
 40
7.0
 40
7.0
 40
8.0
 40
8.0
 40
8.0
 40
9.0
 40
9.0
 40
9.0
 40
9.0
 10
102.7716769491335
 20
-147.8521294118217
 30
0.0
 10
102.7716769491335
 20
-148.4040337085587
 30
0.0
 10
102.2177055951053
 20
-148.4129909568204
 30
0.0
 10
102.0037651654713
 20
-148.4129909568204
 30
0.0
 10
101.7732882775081
 20
-148.4129909568204
 30
0.0
 10
101.1259548358296
 20
-148.3926648934574
 30
0.0
 10
101.1259548358296
 20
-147.8114772850957
 30
0.0
 10
101.1259548358296
 20
-147.6261311479893
 30
0.0
 10
101.1958902741802
 20
-147.3639593815618
 30
0.0
 10
101.5279974789583
 20
-147.3233072548358
 30
0.0
 10
101.5279974789583
 20
-147.3233072548358
 30
0.0
 10
101.5279974789583
 20
-147.5517170855079
 30
0.0
 10
101.5279974789583
 20
-147.5517170855079
 30
0.0
 10
101.4708088939031
 20
-147.5627413910607
 30
0.0
 10
101.3226697880374
 20
-147.5968478363647
 30
0.0
 10
101.3226697880374
 20
-147.8138888519354
 30
0.0
 10
101.3226697880374
 20
-148.1260145028991
 30
0.0
 10
101.6506428782332
 20
-148.1687336869162
 30
0.0
 10
101.8556260596055
 20
-148.1825140688572
 30
0.0
 10
101.7774223920904
 20
-148.0829508093334
 30
0.0
 10
101.7181667497441
 20
-148.0106038041432
 30
0.0
 10
101.7181667497441
 20
-147.8163004187751
 30
0.0
 10
101.7181667497441
 20
-147.6240640906982
 30
0.0
 10
101.8263427479809
 20
-147.3005696246332
 30
0.0
 10
102.2325195056919
 20
-147.3005696246332
 30
0.0
 10
102.5518798571745
 20
-147.3005696246332
 30
0.0
 10
102.7716769491335
 20
-147.5131320160731
 30
0.0
 10
102.7716769491335
 20
-147.8521294118217
 30
0.0
  0
SPLINE
  5
E8
330
E3
100
AcDbEntity
  8
_U+30EC_U+30A4_U+30E4_U+30FC 1
370
     0
100
AcDbSpline
210
0.0
220
0.0
230
1.0
 70
    11
 71
     3
 72
    17
 73
    13
 74
     0
 42
0.0000000001
 43
0.0000000001
 12
1.0
 22
0.0
 32
0.0
 13
1.0
 23
0.0
 33
0.0
 40
0.0
 40
0.0
 40
0.0
 40
0.0
 40
1.0
 40
1.0
 40
1.0
 40
2.0
 40
2.0
 40
2.0
 40
3.0
 40
3.0
 40
3.0
 40
4.0
 40
4.0
 40
4.0
 40
4.0
 10
101.9128146446607
 20
-147.8342149152984
 30
0.0
 10
101.9128146446607
 20
-148.1146456877977
 30
0.0
 10
102.124343507455
 20
-148.1552978145237
 30
0.0
 10
102.2407877348565
 20
-148.1552978145237
 30
0.0
 10
102.4164876046042
 20
-148.1552978145237
 30
0.0
 10
102.5794406210565
 20
-148.0536674977088
 30
0.0
 10
102.5794406210565
 20
-147.8569525455011
 30
0.0
 10
102.5794406210565
 20
-147.7281059743527
 30
0.0
 10
102.5201849787102
 20
-147.5403482704066
 30
0.0
 10
102.234586562983
 20
-147.5403482704066
 30
0.0
 10
102.0103108468933
 20
-147.5403482704066
 30
0.0
 10
101.9128146446607
 20
-147.6895209049179
 30
0.0
 10
101.9128146446607
 20
-147.8342149152984
 30
0.0
  0
HATCH
  5
E9
330
E3
100
AcDbEntity
  8
_U+30EC_U+30A4_U+30E4_U+30FC 1
 62
   179
420
  2234388
100
AcDbHatch
 10
0.0
 20
0.0
 30
0.0
210
0.0
220
0.0
230
1.0
  2
SOLID
 70
     1
 71
     0
 91
        2
 92
        1
 93
        1
 72
     4
 94
        3
 73
     0
 74
     1
 95
       32
 96
       28
 40
0.0
 40
0.0
 40
0.0
 40
0.0
 40
1.0
 40
1.0
 40
1.0
 40
2.0
 40
2.0
 40
2.0
 40
3.0
 40
3.0
 40
3.0
 40
4.0
 40
4.0
 40
4.0
 40
5.0
 40
5.0
 40
5.0
 40
6.0
 40
6.0
 40
6.0
 40
7.0
 40
7.0
 40
7.0
 40
8.0
 40
8.0
 40
8.0
 40
9.0
 40
9.0
 40
9.0
 40
9.0
 10
102.7716769491335
 20
-147.8521294118217
 10
102.7716769491335
 20
-148.4040337085587
 10
102.2177055951053
 20
-148.4129909568204
 10
102.0037651654713
 20
-148.4129909568204
 10
101.7732882775081
 20
-148.4129909568204
 10
101.1259548358296
 20
-148.3926648934574
 10
101.1259548358296
 20
-147.8114772850957
 10
101.1259548358296
 20
-147.6261311479893
 10
101.1958902741802
 20
-147.3639593815618
 10
101.5279974789583
 20
-147.3233072548358
 10
101.5279974789583
 20
-147.3233072548358
 10
101.5279974789583
 20
-147.5517170855079
 10
101.5279974789583
 20
-147.5517170855079
 10
101.4708088939031
 20
-147.5627413910607
 10
101.3226697880374
 20
-147.5968478363647
 10
101.3226697880374
 20
-147.8138888519354
 10
101.3226697880374
 20
-148.1260145028991
 10
101.6506428782332
 20
-148.1687336869162
 10
101.8556260596055
 20
-148.1825140688572
 10
101.7774223920904
 20
-148.0829508093334
 10
101.7181667497441
 20
-148.0106038041432
 10
101.7181667497441
 20
-147.8163004187751
 10
101.7181667497441
 20
-147.6240640906982
 10
101.8263427479809
 20
-147.3005696246332
 10
102.2325195056919
 20
-147.3005696246332
 10
102.5518798571745
 20
-147.3005696246332
 10
102.7716769491335
 20
-147.5131320160731
 10
102.7716769491335
 20
-147.8521294118217
 97
        0
 97
        0
 92
        1
 93
        1
 72
     4
 94
        3
 73
     0
 74
     1
 95
       17
 96
       13
 40
0.0
 40
0.0
 40
0.0
 40
0.0
 40
1.0
 40
1.0
 40
1.0
 40
2.0
 40
2.0
 40
2.0
 40
3.0
 40
3.0
 40
3.0
 40
4.0
 40
4.0
 40
4.0
 40
4.0
 10
101.9128146446607
 20
-147.8342149152984
 10
101.9128146446607
 20
-148.1146456877977
 10
102.124343507455
 20
-148.1552978145237
 10
102.2407877348565
 20
-148.1552978145237
 10
102.4164876046042
 20
-148.1552978145237
 10
102.5794406210565
 20
-148.0536674977088
 10
102.5794406210565
 20
-147.8569525455011
 10
102.5794406210565
 20
-147.7281059743527
 10
102.5201849787102
 20
-147.5403482704066
 10
102.234586562983
 20
-147.5403482704066
 10
102.0103108468933
 20
-147.5403482704066
 10
101.9128146446607
 20
-147.6895209049179
 10
101.9128146446607
 20
-147.8342149152984
 97
        0
 97
        0
 75
     2
 76
     1
 98
        0
  0
POLYLINE
  5
EA
330
E3
100
AcDbEntity
  8
_U+30EC_U+30A4_U+30E4_U+30FC 1
370
     0
100
AcDb2dPolyline
 66
     1
 10
0.0
 20
0.0
 30
0.0
  0
VERTEX
  5
EB
330
EA
100
AcDbEntity
  8
_U+30EC_U+30A4_U+30E4_U+30FC 1
370
     0
100
AcDbVertex
100
AcDb2dVertex
 10
102.7210340455003
 20
-147.0694037175729
 30
0.0
  0
VERTEX
  5
EC
330
EA
100
AcDbEntity
  8
_U+30EC_U+30A4_U+30E4_U+30FC 1
370
     0
100
AcDbVertex
100
AcDb2dVertex
 10
102.4691975655285
 20
-147.0694037175729
 30
0.0
  0
VERTEX
  5
ED
330
EA
100
AcDbEntity
  8
_U+30EC_U+30A4_U+30E4_U+30FC 1
370
     0
100
AcDbVertex
100
AcDb2dVertex
 10
102.4691975655285
 20
-146.8003417601749
 30
0.0
  0
VERTEX
  5
EE
330
EA
100
AcDbEntity
  8
_U+30EC_U+30A4_U+30E4_U+30FC 1
370
     0
100
AcDbVertex
100
AcDb2dVertex
 10
102.7210340455003
 20
-146.8003417601749
 30
0.0
  0
VERTEX
  5
EF
330
EA
100
AcDbEntity
  8
_U+30EC_U+30A4_U+30E4_U+30FC 1
370
     0
100
AcDbVertex
100
AcDb2dVertex
 10
102.7210340455003
 20
-147.0694037175729
 30
0.0
  0
SEQEND
  5
F0
330
EA
100
AcDbEntity
  8
_U+30EC_U+30A4_U+30E4_U+30FC 1
370
     0
  0
HATCH
  5
F1
330
E3
100
AcDbEntity
  8
_U+30EC_U+30A4_U+30E4_U+30FC 1
 62
   179
420
  2234388
100
AcDbHatch
 10
0.0
 20
0.0
 30
0.0
210
0.0
220
0.0
230
1.0
  2
SOLID
 70
     1
 71
     0
 91
        1
 92
        1
 93
        4
 72
     1
 10
102.7210340455003
 20
-147.0694037175729
 11
102.4691975655285
 21
-147.0694037175729
 72
     1
 10
102.4691975655285
 20
-147.0694037175729
 11
102.4691975655285
 21
-146.8003417601749
 72
     1
 10
102.4691975655285
 20
-146.8003417601749
 11
102.7210340455003
 21
-146.8003417601749
 72
     1
 10
102.7210340455003
 20
-146.8003417601749
 11
102.7210340455003
 21
-147.0694037175729
 97
        0
 75
     2
 76
     1
 98
        0
  0
SPLINE
  5
F2
330
E3
100
AcDbEntity
  8
_U+30EC_U+30A4_U+30E4_U+30FC 1
370
     0
100
AcDbSpline
210
0.0
220
0.0
230
1.0
 70
    11
 71
     3
 72
    53
 73
    49
 74
     0
 42
0.0000000001
 43
0.0000000001
 12
1.0
 22
0.0
 32
0.0
 13
1.0
 23
0.0
 33
0.0
 40
0.0
 40
0.0
 40
0.0
 40
0.0
 40
1.0
 40
1.0
 40
1.0
 40
2.0
 40
2.0
 40
2.0
 40
3.0
 40
3.0
 40
3.0
 40
4.0
 40
4.0
 40
4.0
 40
5.0
 40
5.0
 40
5.0
 40
6.0
 40
6.0
 40
6.0
 40
7.0
 40
7.0
 40
7.0
 40
8.0
 40
8.0
 40
8.0
 40
9.0
 40
9.0
 40
9.0
 40
10.0
 40
10.0
 40
10.0
 40
11.0
 40
11.0
 40
11.0
 40
12.0
 40
12.0
 40
12.0
 40
13.0
 40
13.0
 40
13.0
 40
14.0
 40
14.0
 40
14.0
 40
15.0
 40
15.0
 40
15.0
 40
16.0
 40
16.0
 40
16.0
 40
16.0
 10
102.7716769491335
 20
-146.0334635051583
 30
0.0
 10
102.7716769491335
 20
-146.1171793254499
 30
0.0
 10
102.7547959812558
 20
-146.2253553236867
 30
0.0
 10
102.6914062243272
 20
-146.3342203410206
 30
0.0
 10
102.5815076783477
 20
-146.519566478127
 30
0.0
 10
102.4502495403597
 20
-146.5419595987812
 30
0.0
 10
102.3424180516713
 20
-146.5622856621441
 30
0.0
 10
102.3424180516713
 20
-146.5622856621441
 30
0.0
 10
102.3424180516713
 20
-146.3249185832104
 30
0.0
 10
102.3424180516713
 20
-146.3249185832104
 30
0.0
 10
102.5412000611703
 20
-146.2663519599612
 30
0.0
 10
102.5708278823434
 20
-146.1306151978424
 30
0.0
 10
102.5708278823434
 20
-146.0310519383186
 30
0.0
 10
102.5708278823434
 20
-145.8818793038073
 30
0.0
 10
102.4712646228197
 20
-145.718926287355
 30
0.0
 10
102.2387206775653
 20
-145.718926287355
 30
0.0
 10
101.9827500830113
 20
-145.718926287355
 30
0.0
 10
101.9128146446607
 20
-145.9111626154319
 30
0.0
 10
101.9128146446607
 20
-146.0400091865803
 30
0.0
 10
101.9128146446607
 20
-146.0741156318843
 30
0.0
 10
101.9128146446607
 20
-146.2253553236867
 30
0.0
 10
102.0420057253576
 20
-146.3204399590796
 30
0.0
 10
102.0420057253576
 20
-146.3204399590796
 30
0.0
 10
102.0230577001887
 20
-146.5081976630257
 30
0.0
 10
102.0230577001887
 20
-146.5081976630257
 30
0.0
 10
102.0230577001887
 20
-146.5081976630257
 30
0.0
 10
101.1765977394628
 20
-146.3793510918774
 30
0.0
 10
101.1765977394628
 20
-146.3793510918774
 30
0.0
 10
101.1765977394628
 20
-146.3793510918774
 30
0.0
 10
101.1765977394628
 20
-145.5473605321895
 30
0.0
 10
101.1765977394628
 20
-145.5473605321895
 30
0.0
 10
101.1765977394628
 20
-145.5473605321895
 30
0.0
 10
101.3712456343794
 20
-145.5473605321895
 30
0.0
 10
101.3712456343794
 20
-145.5473605321895
 30
0.0
 10
101.3712456343794
 20
-145.5473605321895
 30
0.0
 10
101.3712456343794
 20
-146.2050292603238
 30
0.0
 10
101.3712456343794
 20
-146.2050292603238
 30
0.0
 10
101.3712456343794
 20
-146.2050292603238
 30
0.0
 10
101.7943033599681
 20
-146.2753092082228
 30
0.0
 10
101.7943033599681
 20
-146.2753092082228
 30
0.0
 10
101.7605414242126
 20
-146.2098523940031
 30
0.0
 10
101.7202338070352
 20
-146.1216579495807
 30
0.0
 10
101.7202338070352
 20
-145.9948784357235
 30
0.0
 10
101.7202338070352
 20
-145.7237494210343
 30
0.0
 10
101.9066134727872
 20
-145.4705349028685
 30
0.0
 10
102.2197726523964
 20
-145.4705349028685
 30
0.0
 10
102.537065946588
 20
-145.4705349028685
 30
0.0
 10
102.7716769491335
 20
-145.7099690390934
 30
0.0
 10
102.7716769491335
 20
-146.0334635051583
 30
0.0
  0
HATCH
  5
F3
330
E3
100
AcDbEntity
  8
_U+30EC_U+30A4_U+30E4_U+30FC 1
 62
   179
420
  2234388
100
AcDbHatch
 10
0.0
 20
0.0
 30
0.0
210
0.0
220
0.0
230
1.0
  2
SOLID
 70
     1
 71
     0
 91
        1
 92
        1
 93
        1
 72
     4
 94
        3
 73
     0
 74
     1
 95
       53
 96
       49
 40
0.0
 40
0.0
 40
0.0
 40
0.0
 40
1.0
 40
1.0
 40
1.0
 40
2.0
 40
2.0
 40
2.0
 40
3.0
 40
3.0
 40
3.0
 40
4.0
 40
4.0
 40
4.0
 40
5.0
 40
5.0
 40
5.0
 40
6.0
 40
6.0
 40
6.0
 40
7.0
 40
7.0
 40
7.0
 40
8.0
 40
8.0
 40
8.0
 40
9.0
 40
9.0
 40
9.0
 40
10.0
 40
10.0
 40
10.0
 40
11.0
 40
11.0
 40
11.0
 40
12.0
 40
12.0
 40
12.0
 40
13.0
 40
13.0
 40
13.0
 40
14.0
 40
14.0
 40
14.0
 40
15.0
 40
15.0
 40
15.0
 40
16.0
 40
16.0
 40
16.0
 40
16.0
 10
102.7716769491335
 20
-146.0334635051583
 10
102.7716769491335
 20
-146.1171793254499
 10
102.7547959812558
 20
-146.2253553236867
 10
102.6914062243272
 20
-146.3342203410206
 10
102.5815076783477
 20
-146.519566478127
 10
102.4502495403597
 20
-146.5419595987812
 10
102.3424180516713
 20
-146.5622856621441
 10
102.3424180516713
 20
-146.5622856621441
 10
102.3424180516713
 20
-146.3249185832104
 10
102.3424180516713
 20
-146.3249185832104
 10
102.5412000611703
 20
-146.2663519599612
 10
102.5708278823434
 20
-146.1306151978424
 10
102.5708278823434
 20
-146.0310519383186
 10
102.5708278823434
 20
-145.8818793038073
 10
102.4712646228197
 20
-145.718926287355
 10
102.2387206775653
 20
-145.718926287355
 10
101.9827500830113
 20
-145.718926287355
 10
101.9128146446607
 20
-145.9111626154319
 10
101.9128146446607
 20
-146.0400091865803
 10
101.9128146446607
 20
-146.0741156318843
 10
101.9128146446607
 20
-146.2253553236867
 10
102.0420057253576
 20
-146.3204399590796
 10
102.0420057253576
 20
-146.3204399590796
 10
102.0230577001887
 20
-146.5081976630257
 10
102.0230577001887
 20
-146.5081976630257
 10
102.0230577001887
 20
-146.5081976630257
 10
101.1765977394628
 20
-146.3793510918774
 10
101.1765977394628
 20
-146.3793510918774
 10
101.1765977394628
 20
-146.3793510918774
 10
101.1765977394628
 20
-145.5473605321895
 10
101.1765977394628
 20
-145.5473605321895
 10
101.1765977394628
 20
-145.5473605321895
 10
101.3712456343794
 20
-145.5473605321895
 10
101.3712456343794
 20
-145.5473605321895
 10
101.3712456343794
 20
-145.5473605321895
 10
101.3712456343794
 20
-146.2050292603238
 10
101.3712456343794
 20
-146.2050292603238
 10
101.3712456343794
 20
-146.2050292603238
 10
101.7943033599681
 20
-146.2753092082228
 10
101.7943033599681
 20
-146.2753092082228
 10
101.7605414242126
 20
-146.2098523940031
 10
101.7202338070352
 20
-146.1216579495807
 10
101.7202338070352
 20
-145.9948784357235
 10
101.7202338070352
 20
-145.7237494210343
 10
101.9066134727872
 20
-145.4705349028685
 10
102.2197726523964
 20
-145.4705349028685
 10
102.537065946588
 20
-145.4705349028685
 10
102.7716769491335
 20
-145.7099690390934
 10
102.7716769491335
 20
-146.0334635051583
 97
        0
 97
        0
 75
     2
 76
     1
 98
        0
  0
ENDBLK
  5
E6
330
E3
100
AcDbEntity
  8
0
100
AcDbBlockEnd
  0
BLOCK
  5
FE
330
FC
100
AcDbEntity
  8
0
100
AcDbBlockBegin
  2
block 7
 70
     0
 10
0.0
 20
0.0
 30
0.0
  3
block 7
  1

  0
POLYLINE
  5
100
330
FC
100
AcDbEntity
  8
_U+30EC_U+30A4_U+30E4_U+30FC 1
370
     0
100
AcDb2dPolyline
 66
     1
 10
0.0
 20
0.0
 30
0.0
  0
VERTEX
  5
101
330
100
100
AcDbEntity
  8
_U+30EC_U+30A4_U+30E4_U+30FC 1
370
     0
100
AcDbVertex
100
AcDb2dVertex
 10
102.3741129301356
 20
-121.6013630880892
 30
0.0
  0
VERTEX
  5
102
330
100
100
AcDbEntity
  8
_U+30EC_U+30A4_U+30E4_U+30FC 1
370
     0
100
AcDbVertex
100
AcDb2dVertex
 10
102.7210340455003
 20
-121.6013630880892
 30
0.0
  0
VERTEX
  5
103
330
100
100
AcDbEntity
  8
_U+30EC_U+30A4_U+30E4_U+30FC 1
370
     0
100
AcDbVertex
100
AcDb2dVertex
 10
102.7210340455003
 20
-121.8340792881179
 30
0.0
  0
VERTEX
  5
104
330
100
100
AcDbEntity
  8
_U+30EC_U+30A4_U+30E4_U+30FC 1
370
     0
100
AcDbVertex
100
AcDb2dVertex
 10
102.3741129301356
 20
-121.8340792881179
 30
0.0
  0
VERTEX
  5
105
330
100
100
AcDbEntity
  8
_U+30EC_U+30A4_U+30E4_U+30FC 1
370
     0
100
AcDbVertex
100
AcDb2dVertex
 10
102.3741129301356
 20
-122.534983964592
 30
0.0
  0
VERTEX
  5
106
330
100
100
AcDbEntity
  8
_U+30EC_U+30A4_U+30E4_U+30FC 1
370
     0
100
AcDbVertex
100
AcDb2dVertex
 10
102.1498372140459
 20
-122.534983964592
 30
0.0
  0
VERTEX
  5
107
330
100
100
AcDbEntity
  8
_U+30EC_U+30A4_U+30E4_U+30FC 1
370
     0
100
AcDbVertex
100
AcDb2dVertex
 10
101.1765977394628
 20
-121.8092746006241
 30
0.0
  0
VERTEX
  5
108
330
100
100
AcDbEntity
  8
_U+30EC_U+30A4_U+30E4_U+30FC 1
370
     0
100
AcDbVertex
100
AcDb2dVertex
 10
101.1765977394628
 20
-121.6013630880892
 30
0.0
  0
VERTEX
  5
109
330
100
100
AcDbEntity
  8
_U+30EC_U+30A4_U+30E4_U+30FC 1
370
     0
100
AcDbVertex
100
AcDb2dVertex
 10
102.1753309206367
 20
-121.6013630880892
 30
0.0
  0
VERTEX
  5
10A
330
100
100
AcDbEntity
  8
_U+30EC_U+30A4_U+30E4_U+30FC 1
370
     0
100
AcDbVertex
100
AcDb2dVertex
 10
102.1753309206367
 20
-121.3796711936134
 30
0.0
  0
VERTEX
  5
10B
330
100
100
AcDbEntity
  8
_U+30EC_U+30A4_U+30E4_U+30FC 1
370
     0
100
AcDbVertex
100
AcDb2dVertex
 10
102.3741129301356
 20
-121.3796711936134
 30
0.0
  0
VERTEX
  5
10C
330
100
100
AcDbEntity
  8
_U+30EC_U+30A4_U+30E4_U+30FC 1
370
     0
100
AcDbVertex
100
AcDb2dVertex
 10
102.3741129301356
 20
-121.6013630880892
 30
0.0
  0
SEQEND
  5
10D
330
100
100
AcDbEntity
  8
_U+30EC_U+30A4_U+30E4_U+30FC 1
370
     0
  0
POLYLINE
  5
10E
330
FC
100
AcDbEntity
  8
_U+30EC_U+30A4_U+30E4_U+30FC 1
370
     0
100
AcDb2dPolyline
 66
     1
 10
0.0
 20
0.0
 30
0.0
  0
VERTEX
  5
10F
330
10E
100
AcDbEntity
  8
_U+30EC_U+30A4_U+30E4_U+30FC 1
370
     0
100
AcDbVertex
100
AcDb2dVertex
 10
101.5193847402452
 20
-121.8340792881179
 30
0.0
  0
VERTEX
  5
110
330
10E
100
AcDbEntity
  8
_U+30EC_U+30A4_U+30E4_U+30FC 1
370
     0
100
AcDbVertex
100
AcDb2dVertex
 10
102.1753309206367
 20
-122.3225938279263
 30
0.0
  0
VERTEX
  5
111
330
10E
100
AcDbEntity
  8
_U+30EC_U+30A4_U+30E4_U+30FC 1
370
     0
100
AcDbVertex
100
AcDb2dVertex
 10
102.1753309206367
 20
-121.8340792881179
 30
0.0
  0
VERTEX
  5
112
330
10E
100
AcDbEntity
  8
_U+30EC_U+30A4_U+30E4_U+30FC 1
370
     0
100
AcDbVertex
100
AcDb2dVertex
 10
101.5193847402452
 20
-121.8340792881179
 30
0.0
  0
SEQEND
  5
113
330
10E
100
AcDbEntity
  8
_U+30EC_U+30A4_U+30E4_U+30FC 1
370
     0
  0
HATCH
  5
114
330
FC
100
AcDbEntity
  8
_U+30EC_U+30A4_U+30E4_U+30FC 1
 62
   179
420
  2234388
100
AcDbHatch
 10
0.0
 20
0.0
 30
0.0
210
0.0
220
0.0
230
1.0
  2
SOLID
 70
     1
 71
     0
 91
        2
 92
        1
 93
       11
 72
     1
 10
102.3741129301356
 20
-121.6013630880892
 11
102.7210340455003
 21
-121.6013630880892
 72
     1
 10
102.7210340455003
 20
-121.6013630880892
 11
102.7210340455003
 21
-121.8340792881179
 72
     1
 10
102.7210340455003
 20
-121.8340792881179
 11
102.3741129301356
 21
-121.8340792881179
 72
     1
 10
102.3741129301356
 20
-121.8340792881179
 11
102.3741129301356
 21
-122.534983964592
 72
     1
 10
102.3741129301356
 20
-122.534983964592
 11
102.1498372140459
 21
-122.534983964592
 72
     1
 10
102.1498372140459
 20
-122.534983964592
 11
101.1765977394628
 21
-121.8092746006241
 72
     1
 10
101.1765977394628
 20
-121.8092746006241
 11
101.1765977394628
 21
-121.6013630880892
 72
     1
 10
101.1765977394628
 20
-121.6013630880892
 11
102.1753309206367
 21
-121.6013630880892
 72
     1
 10
102.1753309206367
 20
-121.6013630880892
 11
102.1753309206367
 21
-121.3796711936134
 72
     1
 10
102.1753309206367
 20
-121.3796711936134
 11
102.3741129301356
 21
-121.3796711936134
 72
     1
 10
102.3741129301356
 20
-121.3796711936134
 11
102.3741129301356
 21
-121.6013630880892
 97
        0
 92
        1
 93
        3
 72
     1
 10
101.5193847402452
 20
-121.8340792881179
 11
102.1753309206367
 21
-122.3225938279263
 72
     1
 10
102.1753309206367
 20
-122.3225938279263
 11
102.1753309206367
 21
-121.8340792881179
 72
     1
 10
102.1753309206367
 20
-121.8340792881179
 11
101.5193847402452
 21
-121.8340792881179
 97
        0
 75
     2
 76
     1
 98
        0
  0
SPLINE
  5
115
330
FC
100
AcDbEntity
  8
_U+30EC_U+30A4_U+30E4_U+30FC 1
370
     0
100
AcDbSpline
210
0.0
220
0.0
230
1.0
 70
    11
 71
     3
 72
    53
 73
    49
 74
     0
 42
0.0000000001
 43
0.0000000001
 12
1.0
 22
0.0
 32
0.0
 13
1.0
 23
0.0
 33
0.0
 40
0.0
 40
0.0
 40
0.0
 40
0.0
 40
1.0
 40
1.0
 40
1.0
 40
2.0
 40
2.0
 40
2.0
 40
3.0
 40
3.0
 40
3.0
 40
4.0
 40
4.0
 40
4.0
 40
5.0
 40
5.0
 40
5.0
 40
6.0
 40
6.0
 40
6.0
 40
7.0
 40
7.0
 40
7.0
 40
8.0
 40
8.0
 40
8.0
 40
9.0
 40
9.0
 40
9.0
 40
10.0
 40
10.0
 40
10.0
 40
11.0
 40
11.0
 40
11.0
 40
12.0
 40
12.0
 40
12.0
 40
13.0
 40
13.0
 40
13.0
 40
14.0
 40
14.0
 40
14.0
 40
15.0
 40
15.0
 40
15.0
 40
16.0
 40
16.0
 40
16.0
 40
16.0
 10
102.7716769491335
 20
-120.7187296247682
 30
0.0
 10
102.7716769491335
 20
-120.8024454450598
 30
0.0
 10
102.7547959812558
 20
-120.9109659528452
 30
0.0
 10
102.6914062243272
 20
-121.0194864606305
 30
0.0
 10
102.5815076783477
 20
-121.204832597737
 30
0.0
 10
102.4502495403597
 20
-121.2273979731654
 30
0.0
 10
102.3424180516713
 20
-121.2478962913026
 30
0.0
 10
102.3424180516713
 20
-121.2478962913026
 30
0.0
 10
102.3424180516713
 20
-121.0103569575946
 30
0.0
 10
102.3424180516713
 20
-121.0103569575946
 30
0.0
 10
102.5412000611703
 20
-120.9516180795711
 30
0.0
 10
102.5708278823434
 20
-120.8160535722266
 30
0.0
 10
102.5708278823434
 20
-120.7164903127028
 30
0.0
 10
102.5708278823434
 20
-120.5673176781915
 30
0.0
 10
102.4712646228197
 20
-120.4045369165135
 30
0.0
 10
102.2387206775653
 20
-120.4045369165135
 30
0.0
 10
101.9827500830113
 20
-120.4045369165135
 30
0.0
 10
101.9128146446607
 20
-120.5967732445904
 30
0.0
 10
101.9128146446607
 20
-120.7256198157387
 30
0.0
 10
101.9128146446607
 20
-120.7595540062684
 30
0.0
 10
101.9128146446607
 20
-120.9109659528452
 30
0.0
 10
102.0420057253576
 20
-121.0058783334638
 30
0.0
 10
102.0420057253576
 20
-121.0058783334638
 30
0.0
 10
102.0230577001887
 20
-121.1936360374099
 30
0.0
 10
102.0230577001887
 20
-121.1936360374099
 30
0.0
 10
102.0230577001887
 20
-121.1936360374099
 30
0.0
 10
101.1765977394628
 20
-121.0647894662616
 30
0.0
 10
101.1765977394628
 20
-121.0647894662616
 30
0.0
 10
101.1765977394628
 20
-121.0647894662616
 30
0.0
 10
101.1765977394628
 20
-120.2327989065737
 30
0.0
 10
101.1765977394628
 20
-120.2327989065737
 30
0.0
 10
101.1765977394628
 20
-120.2327989065737
 30
0.0
 10
101.3712456343794
 20
-120.2327989065737
 30
0.0
 10
101.3712456343794
 20
-120.2327989065737
 30
0.0
 10
101.3712456343794
 20
-120.2327989065737
 30
0.0
 10
101.3712456343794
 20
-120.8906398894822
 30
0.0
 10
101.3712456343794
 20
-120.8906398894822
 30
0.0
 10
101.3712456343794
 20
-120.8906398894822
 30
0.0
 10
101.7943033599681
 20
-120.960747582607
 30
0.0
 10
101.7943033599681
 20
-120.960747582607
 30
0.0
 10
101.7605414242126
 20
-120.895118513613
 30
0.0
 10
101.7202338070352
 20
-120.8069240691906
 30
0.0
 10
101.7202338070352
 20
-120.6803168101077
 30
0.0
 10
101.7202338070352
 20
-120.4090155406443
 30
0.0
 10
101.9066134727872
 20
-120.1558010224784
 30
0.0
 10
102.2197726523964
 20
-120.1558010224784
 30
0.0
 10
102.537065946588
 20
-120.1558010224784
 30
0.0
 10
102.7716769491335
 20
-120.3954074134775
 30
0.0
 10
102.7716769491335
 20
-120.7187296247682
 30
0.0
  0
HATCH
  5
116
330
FC
100
AcDbEntity
  8
_U+30EC_U+30A4_U+30E4_U+30FC 1
 62
   179
420
  2234388
100
AcDbHatch
 10
0.0
 20
0.0
 30
0.0
210
0.0
220
0.0
230
1.0
  2
SOLID
 70
     1
 71
     0
 91
        1
 92
        1
 93
        1
 72
     4
 94
        3
 73
     0
 74
     1
 95
       53
 96
       49
 40
0.0
 40
0.0
 40
0.0
 40
0.0
 40
1.0
 40
1.0
 40
1.0
 40
2.0
 40
2.0
 40
2.0
 40
3.0
 40
3.0
 40
3.0
 40
4.0
 40
4.0
 40
4.0
 40
5.0
 40
5.0
 40
5.0
 40
6.0
 40
6.0
 40
6.0
 40
7.0
 40
7.0
 40
7.0
 40
8.0
 40
8.0
 40
8.0
 40
9.0
 40
9.0
 40
9.0
 40
10.0
 40
10.0
 40
10.0
 40
11.0
 40
11.0
 40
11.0
 40
12.0
 40
12.0
 40
12.0
 40
13.0
 40
13.0
 40
13.0
 40
14.0
 40
14.0
 40
14.0
 40
15.0
 40
15.0
 40
15.0
 40
16.0
 40
16.0
 40
16.0
 40
16.0
 10
102.7716769491335
 20
-120.7187296247682
 10
102.7716769491335
 20
-120.8024454450598
 10
102.7547959812558
 20
-120.9109659528452
 10
102.6914062243272
 20
-121.0194864606305
 10
102.5815076783477
 20
-121.204832597737
 10
102.4502495403597
 20
-121.2273979731654
 10
102.3424180516713
 20
-121.2478962913026
 10
102.3424180516713
 20
-121.2478962913026
 10
102.3424180516713
 20
-121.0103569575946
 10
102.3424180516713
 20
-121.0103569575946
 10
102.5412000611703
 20
-120.9516180795711
 10
102.5708278823434
 20
-120.8160535722266
 10
102.5708278823434
 20
-120.7164903127028
 10
102.5708278823434
 20
-120.5673176781915
 10
102.4712646228197
 20
-120.4045369165135
 10
102.2387206775653
 20
-120.4045369165135
 10
101.9827500830113
 20
-120.4045369165135
 10
101.9128146446607
 20
-120.5967732445904
 10
101.9128146446607
 20
-120.7256198157387
 10
101.9128146446607
 20
-120.7595540062684
 10
101.9128146446607
 20
-120.9109659528452
 10
102.0420057253576
 20
-121.0058783334638
 10
102.0420057253576
 20
-121.0058783334638
 10
102.0230577001887
 20
-121.1936360374099
 10
102.0230577001887
 20
-121.1936360374099
 10
102.0230577001887
 20
-121.1936360374099
 10
101.1765977394628
 20
-121.0647894662616
 10
101.1765977394628
 20
-121.0647894662616
 10
101.1765977394628
 20
-121.0647894662616
 10
101.1765977394628
 20
-120.2327989065737
 10
101.1765977394628
 20
-120.2327989065737
 10
101.1765977394628
 20
-120.2327989065737
 10
101.3712456343794
 20
-120.2327989065737
 10
101.3712456343794
 20
-120.2327989065737
 10
101.3712456343794
 20
-120.2327989065737
 10
101.3712456343794
 20
-120.8906398894822
 10
101.3712456343794
 20
-120.8906398894822
 10
101.3712456343794
 20
-120.8906398894822
 10
101.7943033599681
 20
-120.960747582607
 10
101.7943033599681
 20
-120.960747582607
 10
101.7605414242126
 20
-120.895118513613
 10
101.7202338070352
 20
-120.8069240691906
 10
101.7202338070352
 20
-120.6803168101077
 10
101.7202338070352
 20
-120.4090155406443
 10
101.9066134727872
 20
-120.1558010224784
 10
102.2197726523964
 20
-120.1558010224784
 10
102.537065946588
 20
-120.1558010224784
 10
102.7716769491335
 20
-120.3954074134775
 10
102.7716769491335
 20
-120.7187296247682
 97
        0
 97
        0
 75
     2
 76
     1
 98
        0
  0
ENDBLK
  5
FF
330
FC
100
AcDbEntity
  8
0
100
AcDbBlockEnd
  0
BLOCK
  5
11D
330
11B
100
AcDbEntity
  8
0
100
AcDbBlockBegin
  2
block 8
 70
     0
 10
0.0
 20
0.0
 30
0.0
  3
block 8
  1

  0
SPLINE
  5
11F
330
11B
100
AcDbEntity
  8
_U+30EC_U+30A4_U+30E4_U+30FC 1
370
     0
100
AcDbSpline
210
0.0
220
0.0
230
1.0
 70
    11
 71
     3
 72
    32
 73
    28
 74
     0
 42
0.0000000001
 43
0.0000000001
 12
1.0
 22
0.0
 32
0.0
 13
1.0
 23
0.0
 33
0.0
 40
0.0
 40
0.0
 40
0.0
 40
0.0
 40
1.0
 40
1.0
 40
1.0
 40
2.0
 40
2.0
 40
2.0
 40
3.0
 40
3.0
 40
3.0
 40
4.0
 40
4.0
 40
4.0
 40
5.0
 40
5.0
 40
5.0
 40
6.0
 40
6.0
 40
6.0
 40
7.0
 40
7.0
 40
7.0
 40
8.0
 40
8.0
 40
8.0
 40
9.0
 40
9.0
 40
9.0
 40
9.0
 10
89.79727509690832
 20
-133.7864935646436
 30
0.0
 10
89.24571530971983
 20
-133.7864935646436
 30
0.0
 10
89.23658580668392
 20
-133.2325222106155
 30
0.0
 10
89.23658580668392
 20
-133.0185817809815
 30
0.0
 10
89.23658580668392
 20
-132.7881048930183
 30
0.0
 10
89.25691187004689
 20
-132.1407714513398
 30
0.0
 10
89.83792722363427
 20
-132.1407714513398
 30
0.0
 10
90.02327336074072
 20
-132.1407714513398
 30
0.0
 10
90.28561738194249
 20
-132.2107068896904
 30
0.0
 10
90.32626950866843
 20
-132.5428140944685
 30
0.0
 10
90.32626950866843
 20
-132.5428140944685
 30
0.0
 10
90.09803193277064
 20
-132.5428140944685
 30
0.0
 10
90.09803193277064
 20
-132.5428140944685
 30
0.0
 10
90.08666311766932
 20
-132.4856255094133
 30
0.0
 10
90.0527289271396
 20
-132.3374864035476
 30
0.0
 10
89.83568791156885
 20
-132.3374864035476
 30
0.0
 10
89.52373451537949
 20
-132.3374864035476
 30
0.0
 10
89.48067082181386
 20
-132.6654594937434
 30
0.0
 10
89.4672349494214
 20
-132.8704426751157
 30
0.0
 10
89.56662595417085
 20
-132.7922390076006
 30
0.0
 10
89.6389729593611
 20
-132.7329833652543
 30
0.0
 10
89.83344859950344
 20
-132.7329833652543
 30
0.0
 10
90.02568492758039
 20
-132.7329833652543
 30
0.0
 10
90.34883488409682
 20
-132.8411593634911
 30
0.0
 10
90.34883488409682
 20
-133.2473361212021
 30
0.0
 10
90.34883488409682
 20
-133.5666964726847
 30
0.0
 10
90.13644474743117
 20
-133.7864935646436
 30
0.0
 10
89.79727509690832
 20
-133.7864935646436
 30
0.0
  0
SPLINE
  5
120
330
11B
100
AcDbEntity
  8
_U+30EC_U+30A4_U+30E4_U+30FC 1
370
     0
100
AcDbSpline
210
0.0
220
0.0
230
1.0
 70
    11
 71
     3
 72
    17
 73
    13
 74
     0
 42
0.0000000001
 43
0.0000000001
 12
1.0
 22
0.0
 32
0.0
 13
1.0
 23
0.0
 33
0.0
 40
0.0
 40
0.0
 40
0.0
 40
0.0
 40
1.0
 40
1.0
 40
1.0
 40
2.0
 40
2.0
 40
2.0
 40
3.0
 40
3.0
 40
3.0
 40
4.0
 40
4.0
 40
4.0
 40
4.0
 10
89.81536184820588
 20
-132.9276312601709
 30
0.0
 10
89.53510333048081
 20
-132.9276312601709
 30
0.0
 10
89.49427894898061
 20
-133.1391601229652
 30
0.0
 10
89.49427894898061
 20
-133.2556043503667
 30
0.0
 10
89.49427894898061
 20
-133.4313042201144
 30
0.0
 10
89.59608152056974
 20
-133.5942572365667
 30
0.0
 10
89.7927964727775
 20
-133.5942572365667
 30
0.0
 10
89.92164304392584
 20
-133.5942572365667
 30
0.0
 10
90.1092284930977
 20
-133.5350015942204
 30
0.0
 10
90.1092284930977
 20
-133.2494031784932
 30
0.0
 10
90.1092284930977
 20
-133.0251274624034
 30
0.0
 10
89.96005585858637
 20
-132.9276312601709
 30
0.0
 10
89.81536184820588
 20
-132.9276312601709
 30
0.0
  0
HATCH
  5
121
330
11B
100
AcDbEntity
  8
_U+30EC_U+30A4_U+30E4_U+30FC 1
 62
   179
420
  2234388
100
AcDbHatch
 10
0.0
 20
0.0
 30
0.0
210
0.0
220
0.0
230
1.0
  2
SOLID
 70
     1
 71
     0
 91
        2
 92
        1
 93
        1
 72
     4
 94
        3
 73
     0
 74
     1
 95
       32
 96
       28
 40
0.0
 40
0.0
 40
0.0
 40
0.0
 40
1.0
 40
1.0
 40
1.0
 40
2.0
 40
2.0
 40
2.0
 40
3.0
 40
3.0
 40
3.0
 40
4.0
 40
4.0
 40
4.0
 40
5.0
 40
5.0
 40
5.0
 40
6.0
 40
6.0
 40
6.0
 40
7.0
 40
7.0
 40
7.0
 40
8.0
 40
8.0
 40
8.0
 40
9.0
 40
9.0
 40
9.0
 40
9.0
 10
89.79727509690832
 20
-133.7864935646436
 10
89.24571530971983
 20
-133.7864935646436
 10
89.23658580668392
 20
-133.2325222106155
 10
89.23658580668392
 20
-133.0185817809815
 10
89.23658580668392
 20
-132.7881048930183
 10
89.25691187004689
 20
-132.1407714513398
 10
89.83792722363427
 20
-132.1407714513398
 10
90.02327336074072
 20
-132.1407714513398
 10
90.28561738194249
 20
-132.2107068896904
 10
90.32626950866843
 20
-132.5428140944685
 10
90.32626950866843
 20
-132.5428140944685
 10
90.09803193277064
 20
-132.5428140944685
 10
90.09803193277064
 20
-132.5428140944685
 10
90.08666311766932
 20
-132.4856255094133
 10
90.0527289271396
 20
-132.3374864035476
 10
89.83568791156885
 20
-132.3374864035476
 10
89.52373451537949
 20
-132.3374864035476
 10
89.48067082181386
 20
-132.6654594937434
 10
89.4672349494214
 20
-132.8704426751157
 10
89.56662595417085
 20
-132.7922390076006
 10
89.6389729593611
 20
-132.7329833652543
 10
89.83344859950344
 20
-132.7329833652543
 10
90.02568492758039
 20
-132.7329833652543
 10
90.34883488409682
 20
-132.8411593634911
 10
90.34883488409682
 20
-133.2473361212021
 10
90.34883488409682
 20
-133.5666964726847
 10
90.13644474743117
 20
-133.7864935646436
 10
89.79727509690832
 20
-133.7864935646436
 97
        0
 97
        0
 92
        1
 93
        1
 72
     4
 94
        3
 73
     0
 74
     1
 95
       17
 96
       13
 40
0.0
 40
0.0
 40
0.0
 40
0.0
 40
1.0
 40
1.0
 40
1.0
 40
2.0
 40
2.0
 40
2.0
 40
3.0
 40
3.0
 40
3.0
 40
4.0
 40
4.0
 40
4.0
 40
4.0
 10
89.81536184820588
 20
-132.9276312601709
 10
89.53510333048081
 20
-132.9276312601709
 10
89.49427894898061
 20
-133.1391601229652
 10
89.49427894898061
 20
-133.2556043503667
 10
89.49427894898061
 20
-133.4313042201144
 10
89.59608152056974
 20
-133.5942572365667
 10
89.7927964727775
 20
-133.5942572365667
 10
89.92164304392584
 20
-133.5942572365667
 10
90.1092284930977
 20
-133.5350015942204
 10
90.1092284930977
 20
-133.2494031784932
 10
90.1092284930977
 20
-133.0251274624034
 10
89.96005585858637
 20
-132.9276312601709
 10
89.81536184820588
 20
-132.9276312601709
 97
        0
 97
        0
 75
     2
 76
     1
 98
        0
  0
POLYLINE
  5
122
330
11B
100
AcDbEntity
  8
_U+30EC_U+30A4_U+30E4_U+30FC 1
370
     0
100
AcDb2dPolyline
 66
     1
 10
0.0
 20
0.0
 30
0.0
  0
VERTEX
  5
123
330
122
100
AcDbEntity
  8
_U+30EC_U+30A4_U+30E4_U+30FC 1
370
     0
100
AcDbVertex
100
AcDb2dVertex
 10
90.58034530070562
 20
-133.7358506610105
 30
0.0
  0
VERTEX
  5
124
330
122
100
AcDbEntity
  8
_U+30EC_U+30A4_U+30E4_U+30FC 1
370
     0
100
AcDbVertex
100
AcDb2dVertex
 10
90.58034530070562
 20
-133.4840141810387
 30
0.0
  0
VERTEX
  5
125
330
122
100
AcDbEntity
  8
_U+30EC_U+30A4_U+30E4_U+30FC 1
370
     0
100
AcDbVertex
100
AcDb2dVertex
 10
90.84940725810362
 20
-133.4840141810387
 30
0.0
  0
VERTEX
  5
126
330
122
100
AcDbEntity
  8
_U+30EC_U+30A4_U+30E4_U+30FC 1
370
     0
100
AcDbVertex
100
AcDb2dVertex
 10
90.84940725810362
 20
-133.7358506610105
 30
0.0
  0
VERTEX
  5
127
330
122
100
AcDbEntity
  8
_U+30EC_U+30A4_U+30E4_U+30FC 1
370
     0
100
AcDbVertex
100
AcDb2dVertex
 10
90.58034530070562
 20
-133.7358506610105
 30
0.0
  0
SEQEND
  5
128
330
122
100
AcDbEntity
  8
_U+30EC_U+30A4_U+30E4_U+30FC 1
370
     0
  0
HATCH
  5
129
330
11B
100
AcDbEntity
  8
_U+30EC_U+30A4_U+30E4_U+30FC 1
 62
   179
420
  2234388
100
AcDbHatch
 10
0.0
 20
0.0
 30
0.0
210
0.0
220
0.0
230
1.0
  2
SOLID
 70
     1
 71
     0
 91
        1
 92
        1
 93
        4
 72
     1
 10
90.58034530070562
 20
-133.7358506610105
 11
90.58034530070562
 21
-133.4840141810387
 72
     1
 10
90.58034530070562
 20
-133.4840141810387
 11
90.84940725810362
 21
-133.4840141810387
 72
     1
 10
90.84940725810362
 20
-133.4840141810387
 11
90.84940725810362
 21
-133.7358506610105
 72
     1
 10
90.84940725810362
 20
-133.7358506610105
 11
90.58034530070562
 21
-133.7358506610105
 97
        0
 75
     2
 76
     1
 98
        0
  0
SPLINE
  5
12A
330
11B
100
AcDbEntity
  8
_U+30EC_U+30A4_U+30E4_U+30FC 1
370
     0
100
AcDbSpline
210
0.0
220
0.0
230
1.0
 70
    11
 71
     3
 72
    53
 73
    49
 74
     0
 42
0.0000000001
 43
0.0000000001
 12
1.0
 22
0.0
 32
0.0
 13
1.0
 23
0.0
 33
0.0
 40
0.0
 40
0.0
 40
0.0
 40
0.0
 40
1.0
 40
1.0
 40
1.0
 40
2.0
 40
2.0
 40
2.0
 40
3.0
 40
3.0
 40
3.0
 40
4.0
 40
4.0
 40
4.0
 40
5.0
 40
5.0
 40
5.0
 40
6.0
 40
6.0
 40
6.0
 40
7.0
 40
7.0
 40
7.0
 40
8.0
 40
8.0
 40
8.0
 40
9.0
 40
9.0
 40
9.0
 40
10.0
 40
10.0
 40
10.0
 40
11.0
 40
11.0
 40
11.0
 40
12.0
 40
12.0
 40
12.0
 40
13.0
 40
13.0
 40
13.0
 40
14.0
 40
14.0
 40
14.0
 40
15.0
 40
15.0
 40
15.0
 40
16.0
 40
16.0
 40
16.0
 40
16.0
 10
91.61611325834598
 20
-133.7864935646436
 30
0.0
 10
91.5323974380544
 20
-133.7864935646436
 30
0.0
 10
91.42422143981756
 20
-133.7696125967659
 30
0.0
 10
91.3151841677094
 20
-133.7062228398374
 30
0.0
 10
91.12983803060295
 20
-133.5963242938579
 30
0.0
 10
91.10744490994884
 20
-133.4650661558699
 30
0.0
 10
91.08711884658587
 20
-133.3572346671815
 30
0.0
 10
91.08711884658587
 20
-133.3572346671815
 30
0.0
 10
91.32448592551958
 20
-133.3572346671815
 30
0.0
 10
91.32448592551958
 20
-133.3572346671815
 30
0.0
 10
91.38322480354309
 20
-133.5560166766805
 30
0.0
 10
91.51896156566193
 20
-133.5856444978536
 30
0.0
 10
91.61852482518564
 20
-133.5856444978536
 30
0.0
 10
91.76769745969698
 20
-133.5856444978536
 30
0.0
 10
91.93065047614928
 20
-133.4860812383299
 30
0.0
 10
91.93065047614928
 20
-133.2535372930755
 30
0.0
 10
91.93065047614928
 20
-132.9975666985214
 30
0.0
 10
91.73841414807235
 20
-132.9276312601709
 30
0.0
 10
91.60956757692401
 20
-132.9276312601709
 30
0.0
 10
91.57546113162003
 20
-132.9276312601709
 30
0.0
 10
91.42422143981756
 20
-132.9276312601709
 30
0.0
 10
91.32896454965041
 20
-133.0568223408677
 30
0.0
 10
91.32896454965041
 20
-133.0568223408677
 30
0.0
 10
91.14120684570429
 20
-133.0378743156989
 30
0.0
 10
91.14120684570429
 20
-133.0378743156989
 30
0.0
 10
91.14120684570429
 20
-133.0378743156989
 30
0.0
 10
91.27005341685263
 20
-132.191414354973
 30
0.0
 10
91.27005341685263
 20
-132.191414354973
 30
0.0
 10
91.27005341685263
 20
-132.191414354973
 30
0.0
 10
92.10221623131473
 20
-132.191414354973
 30
0.0
 10
92.10221623131473
 20
-132.191414354973
 30
0.0
 10
92.10221623131473
 20
-132.191414354973
 30
0.0
 10
92.10221623131473
 20
-132.3860622498896
 30
0.0
 10
92.10221623131473
 20
-132.3860622498896
 30
0.0
 10
92.10221623131473
 20
-132.3860622498896
 30
0.0
 10
91.44454750318053
 20
-132.3860622498896
 30
0.0
 10
91.44454750318053
 20
-132.3860622498896
 30
0.0
 10
91.44454750318053
 20
-132.3860622498896
 30
0.0
 10
91.37426755528143
 20
-132.8091199754783
 30
0.0
 10
91.37426755528143
 20
-132.8091199754783
 30
0.0
 10
91.43972436950118
 20
-132.7753580397228
 30
0.0
 10
91.52791881392358
 20
-132.7350504225454
 30
0.0
 10
91.65469832778078
 20
-132.7350504225454
 30
0.0
 10
91.92582734246993
 20
-132.7350504225454
 30
0.0
 10
92.1790418606358
 20
-132.9214300882974
 30
0.0
 10
92.1790418606358
 20
-133.2345892679066
 30
0.0
 10
92.1790418606358
 20
-133.5518825620981
 30
0.0
 10
91.93960772441093
 20
-133.7864935646436
 30
0.0
 10
91.61611325834598
 20
-133.7864935646436
 30
0.0
  0
HATCH
  5
12B
330
11B
100
AcDbEntity
  8
_U+30EC_U+30A4_U+30E4_U+30FC 1
 62
   179
420
  2234388
100
AcDbHatch
 10
0.0
 20
0.0
 30
0.0
210
0.0
220
0.0
230
1.0
  2
SOLID
 70
     1
 71
     0
 91
        1
 92
        1
 93
        1
 72
     4
 94
        3
 73
     0
 74
     1
 95
       53
 96
       49
 40
0.0
 40
0.0
 40
0.0
 40
0.0
 40
1.0
 40
1.0
 40
1.0
 40
2.0
 40
2.0
 40
2.0
 40
3.0
 40
3.0
 40
3.0
 40
4.0
 40
4.0
 40
4.0
 40
5.0
 40
5.0
 40
5.0
 40
6.0
 40
6.0
 40
6.0
 40
7.0
 40
7.0
 40
7.0
 40
8.0
 40
8.0
 40
8.0
 40
9.0
 40
9.0
 40
9.0
 40
10.0
 40
10.0
 40
10.0
 40
11.0
 40
11.0
 40
11.0
 40
12.0
 40
12.0
 40
12.0
 40
13.0
 40
13.0
 40
13.0
 40
14.0
 40
14.0
 40
14.0
 40
15.0
 40
15.0
 40
15.0
 40
16.0
 40
16.0
 40
16.0
 40
16.0
 10
91.61611325834598
 20
-133.7864935646436
 10
91.5323974380544
 20
-133.7864935646436
 10
91.42422143981756
 20
-133.7696125967659
 10
91.3151841677094
 20
-133.7062228398374
 10
91.12983803060295
 20
-133.5963242938579
 10
91.10744490994884
 20
-133.4650661558699
 10
91.08711884658587
 20
-133.3572346671815
 10
91.08711884658587
 20
-133.3572346671815
 10
91.32448592551958
 20
-133.3572346671815
 10
91.32448592551958
 20
-133.3572346671815
 10
91.38322480354309
 20
-133.5560166766805
 10
91.51896156566193
 20
-133.5856444978536
 10
91.61852482518564
 20
-133.5856444978536
 10
91.76769745969698
 20
-133.5856444978536
 10
91.93065047614928
 20
-133.4860812383299
 10
91.93065047614928
 20
-133.2535372930755
 10
91.93065047614928
 20
-132.9975666985214
 10
91.73841414807235
 20
-132.9276312601709
 10
91.60956757692401
 20
-132.9276312601709
 10
91.57546113162003
 20
-132.9276312601709
 10
91.42422143981756
 20
-132.9276312601709
 10
91.32896454965041
 20
-133.0568223408677
 10
91.32896454965041
 20
-133.0568223408677
 10
91.14120684570429
 20
-133.0378743156989
 10
91.14120684570429
 20
-133.0378743156989
 10
91.14120684570429
 20
-133.0378743156989
 10
91.27005341685263
 20
-132.191414354973
 10
91.27005341685263
 20
-132.191414354973
 10
91.27005341685263
 20
-132.191414354973
 10
92.10221623131473
 20
-132.191414354973
 10
92.10221623131473
 20
-132.191414354973
 10
92.10221623131473
 20
-132.191414354973
 10
92.10221623131473
 20
-132.3860622498896
 10
92.10221623131473
 20
-132.3860622498896
 10
92.10221623131473
 20
-132.3860622498896
 10
91.44454750318053
 20
-132.3860622498896
 10
91.44454750318053
 20
-132.3860622498896
 10
91.44454750318053
 20
-132.3860622498896
 10
91.37426755528143
 20
-132.8091199754783
 10
91.37426755528143
 20
-132.8091199754783
 10
91.43972436950118
 20
-132.7753580397228
 10
91.52791881392358
 20
-132.7350504225454
 10
91.65469832778078
 20
-132.7350504225454
 10
91.92582734246993
 20
-132.7350504225454
 10
92.1790418606358
 20
-132.9214300882974
 10
92.1790418606358
 20
-133.2345892679066
 10
92.1790418606358
 20
-133.5518825620981
 10
91.93960772441093
 20
-133.7864935646436
 10
91.61611325834598
 20
-133.7864935646436
 97
        0
 97
        0
 75
     2
 76
     1
 98
        0
  0
ENDBLK
  5
11E
330
11B
100
AcDbEntity
  8
0
100
AcDbBlockEnd
  0
BLOCK
  5
13A
330
138
100
AcDbEntity
  8
0
100
AcDbBlockBegin
  2
block 9
 70
     0
 10
0.0
 20
0.0
 30
0.0
  3
block 9
  1

  0
SPLINE
  5
13C
330
138
100
AcDbEntity
  8
_U+30EC_U+30A4_U+30E4_U+30FC 1
370
     0
100
AcDbSpline
210
0.0
220
0.0
230
1.0
 70
    11
 71
     3
 72
    26
 73
    22
 74
     0
 42
0.0000000001
 43
0.0000000001
 12
1.0
 22
0.0
 32
0.0
 13
1.0
 23
0.0
 33
0.0
 40
0.0
 40
0.0
 40
0.0
 40
0.0
 40
1.0
 40
1.0
 40
1.0
 40
2.0
 40
2.0
 40
2.0
 40
3.0
 40
3.0
 40
3.0
 40
4.0
 40
4.0
 40
4.0
 40
5.0
 40
5.0
 40
5.0
 40
6.0
 40
6.0
 40
6.0
 40
7.0
 40
7.0
 40
7.0
 40
7.0
 10
79.72037080255255
 20
-146.5085421725743
 30
0.0
 10
79.72037080255255
 20
-146.5085421725743
 30
0.0
 10
78.61604544475571
 20
-146.5085421725743
 30
0.0
 10
78.61604544475571
 20
-146.5085421725743
 30
0.0
 10
78.61604544475571
 20
-146.5085421725743
 30
0.0
 10
78.61604544475571
 20
-146.8609754407153
 30
0.0
 10
78.61604544475571
 20
-146.8609754407153
 30
0.0
 10
78.61604544475571
 20
-146.8609754407153
 30
0.0
 10
78.46807859366423
 20
-146.8609754407153
 30
0.0
 10
78.46807859366423
 20
-146.8609754407153
 30
0.0
 10
78.45326468307766
 20
-146.5061306057346
 30
0.0
 10
78.29031166662534
 20
-146.456521230747
 30
0.0
 10
78.17610675128931
 20
-146.4248263522827
 30
0.0
 10
78.17610675128931
 20
-146.4248263522827
 30
0.0
 10
78.17610675128931
 20
-146.2687635268009
 30
0.0
 10
78.17610675128931
 20
-146.2687635268009
 30
0.0
 10
78.17610675128931
 20
-146.2687635268009
 30
0.0
 10
79.72037080255255
 20
-146.2687635268009
 30
0.0
 10
79.72037080255255
 20
-146.2687635268009
 30
0.0
 10
79.72037080255255
 20
-146.2687635268009
 30
0.0
 10
79.72037080255255
 20
-146.5085421725743
 30
0.0
 10
79.72037080255255
 20
-146.5085421725743
 30
0.0
  0
HATCH
  5
13D
330
138
100
AcDbEntity
  8
_U+30EC_U+30A4_U+30E4_U+30FC 1
 62
   179
420
  2234388
100
AcDbHatch
 10
0.0
 20
0.0
 30
0.0
210
0.0
220
0.0
230
1.0
  2
SOLID
 70
     1
 71
     0
 91
        1
 92
        1
 93
        1
 72
     4
 94
        3
 73
     0
 74
     1
 95
       26
 96
       22
 40
0.0
 40
0.0
 40
0.0
 40
0.0
 40
1.0
 40
1.0
 40
1.0
 40
2.0
 40
2.0
 40
2.0
 40
3.0
 40
3.0
 40
3.0
 40
4.0
 40
4.0
 40
4.0
 40
5.0
 40
5.0
 40
5.0
 40
6.0
 40
6.0
 40
6.0
 40
7.0
 40
7.0
 40
7.0
 40
7.0
 10
79.72037080255255
 20
-146.5085421725743
 10
79.72037080255255
 20
-146.5085421725743
 10
78.61604544475571
 20
-146.5085421725743
 10
78.61604544475571
 20
-146.5085421725743
 10
78.61604544475571
 20
-146.5085421725743
 10
78.61604544475571
 20
-146.8609754407153
 10
78.61604544475571
 20
-146.8609754407153
 10
78.61604544475571
 20
-146.8609754407153
 10
78.46807859366423
 20
-146.8609754407153
 10
78.46807859366423
 20
-146.8609754407153
 10
78.45326468307766
 20
-146.5061306057346
 10
78.29031166662534
 20
-146.456521230747
 10
78.17610675128931
 20
-146.4248263522827
 10
78.17610675128931
 20
-146.4248263522827
 10
78.17610675128931
 20
-146.2687635268009
 10
78.17610675128931
 20
-146.2687635268009
 10
78.17610675128931
 20
-146.2687635268009
 10
79.72037080255255
 20
-146.2687635268009
 10
79.72037080255255
 20
-146.2687635268009
 10
79.72037080255255
 20
-146.2687635268009
 10
79.72037080255255
 20
-146.5085421725743
 10
79.72037080255255
 20
-146.5085421725743
 97
        0
 97
        0
 75
     2
 76
     1
 98
        0
  0
SPLINE
  5
13E
330
138
100
AcDbEntity
  8
_U+30EC_U+30A4_U+30E4_U+30FC 1
370
     0
100
AcDbSpline
210
0.0
220
0.0
230
1.0
 70
    11
 71
     3
 72
    53
 73
    49
 74
     0
 42
0.0000000001
 43
0.0000000001
 12
1.0
 22
0.0
 32
0.0
 13
1.0
 23
0.0
 33
0.0
 40
0.0
 40
0.0
 40
0.0
 40
0.0
 40
1.0
 40
1.0
 40
1.0
 40
2.0
 40
2.0
 40
2.0
 40
3.0
 40
3.0
 40
3.0
 40
4.0
 40
4.0
 40
4.0
 40
5.0
 40
5.0
 40
5.0
 40
6.0
 40
6.0
 40
6.0
 40
7.0
 40
7.0
 40
7.0
 40
8.0
 40
8.0
 40
8.0
 40
9.0
 40
9.0
 40
9.0
 40
10.0
 40
10.0
 40
10.0
 40
11.0
 40
11.0
 40
11.0
 40
12.0
 40
12.0
 40
12.0
 40
13.0
 40
13.0
 40
13.0
 40
14.0
 40
14.0
 40
14.0
 40
15.0
 40
15.0
 40
15.0
 40
16.0
 40
16.0
 40
16.0
 40
16.0
 10
79.77118596095998
 20
-145.2190429324452
 30
0.0
 10
79.77118596095998
 20
-145.3027587527368
 30
0.0
 10
79.754132738308
 20
-145.4109347509737
 30
0.0
 10
79.6907429813794
 20
-145.5197997683076
 30
0.0
 10
79.58067218062567
 20
-145.705145905414
 30
0.0
 10
79.44958629741191
 20
-145.7275390260681
 30
0.0
 10
79.34175480872359
 20
-145.7478650894311
 30
0.0
 10
79.34175480872359
 20
-145.7478650894311
 30
0.0
 10
79.34175480872359
 20
-145.5104980104974
 30
0.0
 10
79.34175480872359
 20
-145.5104980104974
 30
0.0
 10
79.5405368182225
 20
-145.4519313872481
 30
0.0
 10
79.57016463939566
 20
-145.3161946251293
 30
0.0
 10
79.57016463939566
 20
-145.2166313656056
 30
0.0
 10
79.57016463939566
 20
-145.0674587310943
 30
0.0
 10
79.47077363464619
 20
-144.9045057146419
 30
0.0
 10
79.23805743461757
 20
-144.9045057146419
 30
0.0
 10
78.98208684006352
 20
-144.9045057146419
 30
0.0
 10
78.9123236564872
 20
-145.0967420427189
 30
0.0
 10
78.9123236564872
 20
-145.2255886138672
 30
0.0
 10
78.9123236564872
 20
-145.2596950591712
 30
0.0
 10
78.9123236564872
 20
-145.4109347509737
 30
0.0
 10
79.0413424824098
 20
-145.5060193863665
 30
0.0
 10
79.0413424824098
 20
-145.5060193863665
 30
0.0
 10
79.02222220246666
 20
-145.6937770903127
 30
0.0
 10
79.02222220246666
 20
-145.6937770903127
 30
0.0
 10
79.02222220246666
 20
-145.6937770903127
 30
0.0
 10
78.17610675128931
 20
-145.5649305191643
 30
0.0
 10
78.17610675128931
 20
-145.5649305191643
 30
0.0
 10
78.17610675128931
 20
-145.5649305191643
 30
0.0
 10
78.17610675128931
 20
-144.7329399594765
 30
0.0
 10
78.17610675128931
 20
-144.7329399594765
 30
0.0
 10
78.17610675128931
 20
-144.7329399594765
 30
0.0
 10
78.37075464620592
 20
-144.7329399594765
 30
0.0
 10
78.37075464620592
 20
-144.7329399594765
 30
0.0
 10
78.37075464620592
 20
-144.7329399594765
 30
0.0
 10
78.37075464620592
 20
-145.3906086876107
 30
0.0
 10
78.37075464620592
 20
-145.3906086876107
 30
0.0
 10
78.37075464620592
 20
-145.3906086876107
 30
0.0
 10
78.7938123717946
 20
-145.4608886355098
 30
0.0
 10
78.7938123717946
 20
-145.4608886355098
 30
0.0
 10
78.7598781812649
 20
-145.39543182129
 30
0.0
 10
78.71974281886173
 20
-145.3072373768676
 30
0.0
 10
78.71974281886173
 20
-145.1804578630104
 30
0.0
 10
78.71974281886173
 20
-144.9093288483213
 30
0.0
 10
78.90595022983949
 20
-144.6561143301554
 30
0.0
 10
79.21893715467444
 20
-144.6561143301554
 30
0.0
 10
79.5364027036402
 20
-144.6561143301554
 30
0.0
 10
79.77118596095998
 20
-144.8955484663803
 30
0.0
 10
79.77118596095998
 20
-145.2190429324452
 30
0.0
  0
HATCH
  5
13F
330
138
100
AcDbEntity
  8
_U+30EC_U+30A4_U+30E4_U+30FC 1
 62
   179
420
  2234388
100
AcDbHatch
 10
0.0
 20
0.0
 30
0.0
210
0.0
220
0.0
230
1.0
  2
SOLID
 70
     1
 71
     0
 91
        1
 92
        1
 93
        1
 72
     4
 94
        3
 73
     0
 74
     1
 95
       53
 96
       49
 40
0.0
 40
0.0
 40
0.0
 40
0.0
 40
1.0
 40
1.0
 40
1.0
 40
2.0
 40
2.0
 40
2.0
 40
3.0
 40
3.0
 40
3.0
 40
4.0
 40
4.0
 40
4.0
 40
5.0
 40
5.0
 40
5.0
 40
6.0
 40
6.0
 40
6.0
 40
7.0
 40
7.0
 40
7.0
 40
8.0
 40
8.0
 40
8.0
 40
9.0
 40
9.0
 40
9.0
 40
10.0
 40
10.0
 40
10.0
 40
11.0
 40
11.0
 40
11.0
 40
12.0
 40
12.0
 40
12.0
 40
13.0
 40
13.0
 40
13.0
 40
14.0
 40
14.0
 40
14.0
 40
15.0
 40
15.0
 40
15.0
 40
16.0
 40
16.0
 40
16.0
 40
16.0
 10
79.77118596095998
 20
-145.2190429324452
 10
79.77118596095998
 20
-145.3027587527368
 10
79.754132738308
 20
-145.4109347509737
 10
79.6907429813794
 20
-145.5197997683076
 10
79.58067218062567
 20
-145.705145905414
 10
79.44958629741191
 20
-145.7275390260681
 10
79.34175480872359
 20
-145.7478650894311
 10
79.34175480872359
 20
-145.7478650894311
 10
79.34175480872359
 20
-145.5104980104974
 10
79.34175480872359
 20
-145.5104980104974
 10
79.5405368182225
 20
-145.4519313872481
 10
79.57016463939566
 20
-145.3161946251293
 10
79.57016463939566
 20
-145.2166313656056
 10
79.57016463939566
 20
-145.0674587310943
 10
79.47077363464619
 20
-144.9045057146419
 10
79.23805743461757
 20
-144.9045057146419
 10
78.98208684006352
 20
-144.9045057146419
 10
78.9123236564872
 20
-145.0967420427189
 10
78.9123236564872
 20
-145.2255886138672
 10
78.9123236564872
 20
-145.2596950591712
 10
78.9123236564872
 20
-145.4109347509737
 10
79.0413424824098
 20
-145.5060193863665
 10
79.0413424824098
 20
-145.5060193863665
 10
79.02222220246666
 20
-145.6937770903127
 10
79.02222220246666
 20
-145.6937770903127
 10
79.02222220246666
 20
-145.6937770903127
 10
78.17610675128931
 20
-145.5649305191643
 10
78.17610675128931
 20
-145.5649305191643
 10
78.17610675128931
 20
-145.5649305191643
 10
78.17610675128931
 20
-144.7329399594765
 10
78.17610675128931
 20
-144.7329399594765
 10
78.17610675128931
 20
-144.7329399594765
 10
78.37075464620592
 20
-144.7329399594765
 10
78.37075464620592
 20
-144.7329399594765
 10
78.37075464620592
 20
-144.7329399594765
 10
78.37075464620592
 20
-145.3906086876107
 10
78.37075464620592
 20
-145.3906086876107
 10
78.37075464620592
 20
-145.3906086876107
 10
78.7938123717946
 20
-145.4608886355098
 10
78.7938123717946
 20
-145.4608886355098
 10
78.7598781812649
 20
-145.39543182129
 10
78.71974281886173
 20
-145.3072373768676
 10
78.71974281886173
 20
-145.1804578630104
 10
78.71974281886173
 20
-144.9093288483213
 10
78.90595022983949
 20
-144.6561143301554
 10
79.21893715467444
 20
-144.6561143301554
 10
79.5364027036402
 20
-144.6561143301554
 10
79.77118596095998
 20
-144.8955484663803
 10
79.77118596095998
 20
-145.2190429324452
 97
        0
 97
        0
 75
     2
 76
     1
 98
        0
  0
ENDBLK
  5
13B
330
138
100
AcDbEntity
  8
0
100
AcDbBlockEnd
  0
ENDSEC
  0
SECTION
  2
ENTITIES
  0
POLYLINE
  5
41
330
1F
100
AcDbEntity
  8
_U+30EC_U+30A4_U+30E4_U+30FC 1
 62
   179
420
  2234388
370
    25
100
AcDb2dPolyline
 66
     1
 10
0.0
 20
0.0
 30
0.0
  0
VERTEX
  5
42
330
41
100
AcDbEntity
  8
_U+30EC_U+30A4_U+30E4_U+30FC 1
 62
   179
420
  2234388
370
    25
100
AcDbVertex
100
AcDb2dVertex
 10
84.31734395999645
 20
-153.3315449616673
 30
0.0
  0
VERTEX
  5
43
330
41
100
AcDbEntity
  8
_U+30EC_U+30A4_U+30E4_U+30FC 1
 62
   179
420
  2234388
370
    25
100
AcDbVertex
100
AcDb2dVertex
 10
99.31727829953847
 20
-153.3315449616673
 30
0.0
  0
SEQEND
  5
44
330
41
100
AcDbEntity
  8
_U+30EC_U+30A4_U+30E4_U+30FC 1
 62
   179
420
  2234388
370
    25
  0
POLYLINE
  5
45
330
1F
100
AcDbEntity
  8
_U+30EC_U+30A4_U+30E4_U+30FC 1
 62
   179
420
  2234388
370
    25
100
AcDb2dPolyline
 66
     1
 10
0.0
 20
0.0
 30
0.0
  0
VERTEX
  5
46
330
45
100
AcDbEntity
  8
_U+30EC_U+30A4_U+30E4_U+30FC 1
 62
   179
420
  2234388
370
    25
100
AcDbVertex
100
AcDb2dVertex
 10
93.81719066207962
 20
-98.83185858640313
 30
0.0
  0
VERTEX
  5
47
330
45
100
AcDbEntity
  8
_U+30EC_U+30A4_U+30E4_U+30FC 1
 62
   179
420
  2234388
370
    25
100
AcDbVertex
100
AcDb2dVertex
 10
94.81728035878743
 20
-98.83185858640313
 30
0.0
  0
SEQEND
  5
48
330
45
100
AcDbEntity
  8
_U+30EC_U+30A4_U+30E4_U+30FC 1
 62
   179
420
  2234388
370
    25
  0
POLYLINE
  5
49
330
1F
100
AcDbEntity
  8
_U+30EC_U+30A4_U+30E4_U+30FC 1
 62
   179
420
  2234388
370
    25
100
AcDb2dPolyline
 66
     1
 10
0.0
 20
0.0
 30
0.0
  0
VERTEX
  5
4A
330
49
100
AcDbEntity
  8
_U+30EC_U+30A4_U+30E4_U+30FC 1
 62
   179
420
  2234388
370
    25
100
AcDbVertex
100
AcDb2dVertex
 10
84.31734395999645
 20
-138.331610243195
 30
0.0
  0
VERTEX
  5
4B
330
49
100
AcDbEntity
  8
_U+30EC_U+30A4_U+30E4_U+30FC 1
 62
   179
420
  2234388
370
    25
100
AcDbVertex
100
AcDb2dVertex
 10
84.31734395999645
 20
-153.3315449616673
 30
0.0
  0
SEQEND
  5
4C
330
49
100
AcDbEntity
  8
_U+30EC_U+30A4_U+30E4_U+30FC 1
 62
   179
420
  2234388
370
    25
  0
POLYLINE
  5
4D
330
1F
100
AcDbEntity
  8
_U+30EC_U+30A4_U+30E4_U+30FC 1
 62
   179
420
  2234388
370
    25
100
AcDb2dPolyline
 66
     1
 10
0.0
 20
0.0
 30
0.0
  0
VERTEX
  5
4E
330
4D
100
AcDbEntity
  8
_U+30EC_U+30A4_U+30E4_U+30FC 1
 62
   179
420
  2234388
370
    25
100
AcDbVertex
100
AcDb2dVertex
 10
99.31727829953847
 20
-150.3315580179724
 30
0.0
  0
VERTEX
  5
4F
330
4D
100
AcDbEntity
  8
_U+30EC_U+30A4_U+30E4_U+30FC 1
 62
   179
420
  2234388
370
    25
100
AcDbVertex
100
AcDb2dVertex
 10
99.31727829953847
 20
-153.3315449616673
 30
0.0
  0
SEQEND
  5
50
330
4D
100
AcDbEntity
  8
_U+30EC_U+30A4_U+30E4_U+30FC 1
 62
   179
420
  2234388
370
    25
  0
POLYLINE
  5
51
330
1F
100
AcDbEntity
  8
_U+30EC_U+30A4_U+30E4_U+30FC 1
 62
   179
420
  2234388
370
    25
100
AcDb2dPolyline
 66
     1
 10
0.0
 20
0.0
 30
0.0
  0
VERTEX
  5
52
330
51
100
AcDbEntity
  8
_U+30EC_U+30A4_U+30E4_U+30FC 1
 62
   179
420
  2234388
370
    25
100
AcDbVertex
100
AcDb2dVertex
 10
98.31750610282256
 20
-151.3320357955004
 30
0.0
  0
VERTEX
  5
53
330
51
100
AcDbEntity
  8
_U+30EC_U+30A4_U+30E4_U+30FC 1
 62
   179
420
  2234388
370
    25
100
AcDbVertex
100
AcDb2dVertex
 10
98.31750610282256
 20
-152.3317727396948
 30
0.0
  0
SEQEND
  5
54
330
51
100
AcDbEntity
  8
_U+30EC_U+30A4_U+30E4_U+30FC 1
 62
   179
420
  2234388
370
    25
  0
POLYLINE
  5
55
330
1F
100
AcDbEntity
  8
_U+30EC_U+30A4_U+30E4_U+30FC 1
 62
   179
420
  2234388
370
    25
100
AcDb2dPolyline
 66
     1
 10
0.0
 20
0.0
 30
0.0
  0
VERTEX
  5
56
330
55
100
AcDbEntity
  8
_U+30EC_U+30A4_U+30E4_U+30FC 1
 62
   179
420
  2234388
370
    25
100
AcDbVertex
100
AcDb2dVertex
 10
96.31729143163007
 20
-150.3315580179724
 30
0.0
  0
VERTEX
  5
57
330
55
100
AcDbEntity
  8
_U+30EC_U+30A4_U+30E4_U+30FC 1
 62
   179
420
  2234388
370
    25
100
AcDbVertex
100
AcDb2dVertex
 10
99.31727829953847
 20
-150.3315580179724
 30
0.0
  0
SEQEND
  5
58
330
55
100
AcDbEntity
  8
_U+30EC_U+30A4_U+30E4_U+30FC 1
 62
   179
420
  2234388
370
    25
  0
POLYLINE
  5
59
330
1F
100
AcDbEntity
  8
_U+30EC_U+30A4_U+30E4_U+30FC 1
 62
   179
420
  2234388
370
    25
100
AcDb2dPolyline
 66
     1
 10
0.0
 20
0.0
 30
0.0
  0
VERTEX
  5
5A
330
59
100
AcDbEntity
  8
_U+30EC_U+30A4_U+30E4_U+30FC 1
 62
   179
420
  2234388
370
    25
100
AcDbVertex
100
AcDb2dVertex
 10
85.31725726781987
 20
-152.3317727396948
 30
0.0
  0
VERTEX
  5
5B
330
59
100
AcDbEntity
  8
_U+30EC_U+30A4_U+30E4_U+30FC 1
 62
   179
420
  2234388
370
    25
100
AcDbVertex
100
AcDb2dVertex
 10
98.31750610282256
 20
-152.3317727396948
 30
0.0
  0
SEQEND
  5
5C
330
59
100
AcDbEntity
  8
_U+30EC_U+30A4_U+30E4_U+30FC 1
 62
   179
420
  2234388
370
    25
  0
POLYLINE
  5
5D
330
1F
100
AcDbEntity
  8
_U+30EC_U+30A4_U+30E4_U+30FC 1
 62
   179
420
  2234388
370
    25
100
AcDb2dPolyline
 66
     1
 10
0.0
 20
0.0
 30
0.0
  0
VERTEX
  5
5E
330
5D
100
AcDbEntity
  8
_U+30EC_U+30A4_U+30E4_U+30FC 1
 62
   179
420
  2234388
370
    25
100
AcDbVertex
100
AcDb2dVertex
 10
85.31725726781987
 20
-143.8320507973755
 30
0.0
  0
VERTEX
  5
5F
330
5D
100
AcDbEntity
  8
_U+30EC_U+30A4_U+30E4_U+30FC 1
 62
   179
420
  2234388
370
    25
100
AcDbVertex
100
AcDb2dVertex
 10
85.31725726781987
 20
-152.3317727396948
 30
0.0
  0
SEQEND
  5
60
330
5D
100
AcDbEntity
  8
_U+30EC_U+30A4_U+30E4_U+30FC 1
 62
   179
420
  2234388
370
    25
  0
POLYLINE
  5
61
330
1F
100
AcDbEntity
  8
_U+30EC_U+30A4_U+30E4_U+30FC 1
 62
   179
420
  2234388
370
    25
100
AcDb2dPolyline
 66
     1
 10
0.0
 20
0.0
 30
0.0
  0
VERTEX
  5
62
330
61
100
AcDbEntity
  8
_U+30EC_U+30A4_U+30E4_U+30FC 1
 62
   179
420
  2234388
370
    25
100
AcDbVertex
100
AcDb2dVertex
 10
85.31725726781987
 20
-143.8320507973755
 30
0.0
  0
VERTEX
  5
63
330
61
100
AcDbEntity
  8
_U+30EC_U+30A4_U+30E4_U+30FC 1
 62
   179
420
  2234388
370
    25
100
AcDbVertex
100
AcDb2dVertex
 10
94.81728035878743
 20
-143.8320507973755
 30
0.0
  0
SEQEND
  5
64
330
61
100
AcDbEntity
  8
_U+30EC_U+30A4_U+30E4_U+30FC 1
 62
   179
420
  2234388
370
    25
  0
POLYLINE
  5
65
330
1F
100
AcDbEntity
  8
_U+30EC_U+30A4_U+30E4_U+30FC 1
 62
   179
420
  2234388
370
    25
100
AcDb2dPolyline
 66
     1
 10
0.0
 20
0.0
 30
0.0
  0
VERTEX
  5
66
330
65
100
AcDbEntity
  8
_U+30EC_U+30A4_U+30E4_U+30FC 1
 62
   179
420
  2234388
370
    25
100
AcDbVertex
100
AcDb2dVertex
 10
87.31733082790485
 20
-138.331610243195
 30
0.0
  0
VERTEX
  5
67
330
65
100
AcDbEntity
  8
_U+30EC_U+30A4_U+30E4_U+30FC 1
 62
   179
420
  2234388
370
    25
100
AcDbVertex
100
AcDb2dVertex
 10
87.31733082790485
 20
-139.3320527429449
 30
0.0
  0
SEQEND
  5
68
330
65
100
AcDbEntity
  8
_U+30EC_U+30A4_U+30E4_U+30FC 1
 62
   179
420
  2234388
370
    25
  0
POLYLINE
  5
69
330
1F
100
AcDbEntity
  8
_U+30EC_U+30A4_U+30E4_U+30FC 1
 62
   179
420
  2234388
370
    25
100
AcDb2dPolyline
 66
     1
 10
0.0
 20
0.0
 30
0.0
  0
VERTEX
  5
6A
330
69
100
AcDbEntity
  8
_U+30EC_U+30A4_U+30E4_U+30FC 1
 62
   179
420
  2234388
370
    25
100
AcDbVertex
100
AcDb2dVertex
 10
84.31734395999645
 20
-138.331610243195
 30
0.0
  0
VERTEX
  5
6B
330
69
100
AcDbEntity
  8
_U+30EC_U+30A4_U+30E4_U+30FC 1
 62
   179
420
  2234388
370
    25
100
AcDbVertex
100
AcDb2dVertex
 10
87.31733082790485
 20
-138.331610243195
 30
0.0
  0
SEQEND
  5
6C
330
69
100
AcDbEntity
  8
_U+30EC_U+30A4_U+30E4_U+30FC 1
 62
   179
420
  2234388
370
    25
  0
POLYLINE
  5
6D
330
1F
100
AcDbEntity
  8
_U+30EC_U+30A4_U+30E4_U+30FC 1
 62
   179
420
  2234388
370
    25
100
AcDb2dPolyline
 66
     1
 10
0.0
 20
0.0
 30
0.0
  0
VERTEX
  5
6E
330
6D
100
AcDbEntity
  8
_U+30EC_U+30A4_U+30E4_U+30FC 1
 62
   179
420
  2234388
370
    25
100
AcDbVertex
100
AcDb2dVertex
 10
85.31725726781987
 20
-139.3320527429449
 30
0.0
  0
VERTEX
  5
6F
330
6D
100
AcDbEntity
  8
_U+30EC_U+30A4_U+30E4_U+30FC 1
 62
   179
420
  2234388
370
    25
100
AcDbVertex
100
AcDb2dVertex
 10
87.31733082790485
 20
-139.3320527429449
 30
0.0
  0
SEQEND
  5
70
330
6D
100
AcDbEntity
  8
_U+30EC_U+30A4_U+30E4_U+30FC 1
 62
   179
420
  2234388
370
    25
  0
POLYLINE
  5
71
330
1F
100
AcDbEntity
  8
_U+30EC_U+30A4_U+30E4_U+30FC 1
 62
   179
420
  2234388
370
    25
100
AcDb2dPolyline
 66
     1
 10
0.0
 20
0.0
 30
0.0
  0
VERTEX
  5
72
330
71
100
AcDbEntity
  8
_U+30EC_U+30A4_U+30E4_U+30FC 1
 62
   179
420
  2234388
370
    25
100
AcDbVertex
100
AcDb2dVertex
 10
85.31725726781987
 20
-142.8316082976256
 30
0.0
  0
VERTEX
  5
73
330
71
100
AcDbEntity
  8
_U+30EC_U+30A4_U+30E4_U+30FC 1
 62
   179
420
  2234388
370
    25
100
AcDbVertex
100
AcDb2dVertex
 10
91.81729349087902
 20
-142.8316082976256
 30
0.0
  0
SEQEND
  5
74
330
71
100
AcDbEntity
  8
_U+30EC_U+30A4_U+30E4_U+30FC 1
 62
   179
420
  2234388
370
    25
  0
POLYLINE
  5
75
330
1F
100
AcDbEntity
  8
_U+30EC_U+30A4_U+30E4_U+30FC 1
 62
   179
420
  2234388
370
    25
100
AcDb2dPolyline
 66
     1
 10
0.0
 20
0.0
 30
0.0
  0
VERTEX
  5
76
330
75
100
AcDbEntity
  8
_U+30EC_U+30A4_U+30E4_U+30FC 1
 62
   179
420
  2234388
370
    25
100
AcDbVertex
100
AcDb2dVertex
 10
93.81719066207962
 20
-98.83185858640313
 30
0.0
  0
VERTEX
  5
77
330
75
100
AcDbEntity
  8
_U+30EC_U+30A4_U+30E4_U+30FC 1
 62
   179
420
  2234388
370
    25
100
AcDbVertex
100
AcDb2dVertex
 10
93.81719066207962
 20
-140.8320638536811
 30
0.0
  0
SEQEND
  5
78
330
75
100
AcDbEntity
  8
_U+30EC_U+30A4_U+30E4_U+30FC 1
 62
   179
420
  2234388
370
    25
  0
POLYLINE
  5
79
330
1F
100
AcDbEntity
  8
_U+30EC_U+30A4_U+30E4_U+30FC 1
 62
   179
420
  2234388
370
    25
100
AcDb2dPolyline
 66
     1
 10
0.0
 20
0.0
 30
0.0
  0
VERTEX
  5
7A
330
79
100
AcDbEntity
  8
_U+30EC_U+30A4_U+30E4_U+30FC 1
 62
   179
420
  2234388
370
    25
100
AcDbVertex
100
AcDb2dVertex
 10
94.81728035878743
 20
-98.83185858640313
 30
0.0
  0
VERTEX
  5
7B
330
79
100
AcDbEntity
  8
_U+30EC_U+30A4_U+30E4_U+30FC 1
 62
   179
420
  2234388
370
    25
100
AcDbVertex
100
AcDb2dVertex
 10
94.81728035878743
 20
-143.8320507973755
 30
0.0
  0
SEQEND
  5
7C
330
79
100
AcDbEntity
  8
_U+30EC_U+30A4_U+30E4_U+30FC 1
 62
   179
420
  2234388
370
    25
  0
POLYLINE
  5
7D
330
1F
100
AcDbEntity
  8
_U+30EC_U+30A4_U+30E4_U+30FC 1
 62
   179
420
  2234388
370
    25
100
AcDb2dPolyline
 66
     1
 10
0.0
 20
0.0
 30
0.0
  0
VERTEX
  5
7E
330
7D
100
AcDbEntity
  8
_U+30EC_U+30A4_U+30E4_U+30FC 1
 62
   179
420
  2234388
370
    25
100
AcDbVertex
100
AcDb2dVertex
 10
85.31725726781987
 20
-139.3320527429449
 30
0.0
  0
VERTEX
  5
7F
330
7D
100
AcDbEntity
  8
_U+30EC_U+30A4_U+30E4_U+30FC 1
 62
   179
420
  2234388
370
    25
100
AcDbVertex
100
AcDb2dVertex
 10
85.31725726781987
 20
-142.8316082976256
 30
0.0
  0
SEQEND
  5
80
330
7D
100
AcDbEntity
  8
_U+30EC_U+30A4_U+30E4_U+30FC 1
 62
   179
420
  2234388
370
    25
  0
POLYLINE
  5
81
330
1F
100
AcDbEntity
  8
_U+30EC_U+30A4_U+30E4_U+30FC 1
 62
   179
420
  2234388
370
    25
100
AcDb2dPolyline
 66
     1
 10
0.0
 20
0.0
 30
0.0
  0
VERTEX
  5
82
330
81
100
AcDbEntity
  8
_U+30EC_U+30A4_U+30E4_U+30FC 1
 62
   179
420
  2234388
370
    25
100
AcDbVertex
100
AcDb2dVertex
 10
96.31729143163007
 20
-150.3315580179724
 30
0.0
  0
VERTEX
  5
83
330
81
100
AcDbEntity
  8
_U+30EC_U+30A4_U+30E4_U+30FC 1
 62
   179
420
  2234388
370
    25
100
AcDbVertex
100
AcDb2dVertex
 10
96.31729143163007
 20
-151.3320357955004
 30
0.0
  0
SEQEND
  5
84
330
81
100
AcDbEntity
  8
_U+30EC_U+30A4_U+30E4_U+30FC 1
 62
   179
420
  2234388
370
    25
  0
POLYLINE
  5
85
330
1F
100
AcDbEntity
  8
_U+30EC_U+30A4_U+30E4_U+30FC 1
 62
   179
420
  2234388
370
    25
100
AcDb2dPolyline
 66
     1
 10
0.0
 20
0.0
 30
0.0
  0
VERTEX
  5
86
330
85
100
AcDbEntity
  8
_U+30EC_U+30A4_U+30E4_U+30FC 1
 62
   179
420
  2234388
370
    25
100
AcDbVertex
100
AcDb2dVertex
 10
96.31729143163007
 20
-151.3320357955004
 30
0.0
  0
VERTEX
  5
87
330
85
100
AcDbEntity
  8
_U+30EC_U+30A4_U+30E4_U+30FC 1
 62
   179
420
  2234388
370
    25
100
AcDbVertex
100
AcDb2dVertex
 10
98.31750610282256
 20
-151.3320357955004
 30
0.0
  0
SEQEND
  5
88
330
85
100
AcDbEntity
  8
_U+30EC_U+30A4_U+30E4_U+30FC 1
 62
   179
420
  2234388
370
    25
  0
SPLINE
  5
89
330
1F
100
AcDbEntity
  8
_U+30EC_U+30A4_U+30E4_U+30FC 1
 62
   179
420
  2234388
370
    25
100
AcDbSpline
210
0.0
220
0.0
230
1.0
 70
     8
 71
     3
 72
     8
 73
     4
 74
     0
 42
0.0000000001
 43
0.0000000001
 12
1.0
 22
0.0
 32
0.0
 13
1.0
 23
0.0
 33
0.0
 40
0.0
 40
0.0
 40
0.0
 40
0.0
 40
1.0
 40
1.0
 40
1.0
 40
1.0
 10
91.81729349087902
 20
-142.8316082976256
 30
0.0
 10
92.92180540714502
 20
-142.8316082976256
 30
0.0
 10
93.81719066207962
 20
-141.9365405200713
 30
0.0
 10
93.81719066207962
 20
-140.8320638536811
 30
0.0
  0
SPLINE
  5
8A
330
1F
100
AcDbEntity
  8
_U+30EC_U+30A4_U+30E4_U+30FC 1
 62
   179
420
  2234388
370
     9
100
AcDbSpline
210
0.0
220
0.0
230
1.0
 70
    11
 71
     3
 72
    17
 73
    13
 74
     0
 42
0.0000000001
 43
0.0000000001
 12
1.0
 22
0.0
 32
0.0
 13
1.0
 23
0.0
 33
0.0
 40
0.0
 40
0.0
 40
0.0
 40
0.0
 40
1.0
 40
1.0
 40
1.0
 40
2.0
 40
2.0
 40
2.0
 40
3.0
 40
3.0
 40
3.0
 40
4.0
 40
4.0
 40
4.0
 40
4.0
 10
87.41741388090708
 20
-134.3318510775281
 30
0.0
 10
87.41741388090708
 20
-134.2767471886532
 30
0.0
 10
87.37261110427232
 20
-134.2319444108865
 30
0.0
 10
87.31733082790485
 20
-134.2319444108865
 30
0.0
 10
87.26219166264491
 20
-134.2319444108865
 30
0.0
 10
87.21742416378703
 20
-134.2767471886532
 30
0.0
 10
87.21742416378703
 20
-134.3318510775281
 30
0.0
 10
87.21742416378703
 20
-134.3869902441812
 30
0.0
 10
87.26219166264491
 20
-134.4317577441697
 30
0.0
 10
87.31733082790485
 20
-134.4317577441697
 30
0.0
 10
87.37261110427232
 20
-134.4317577441697
 30
0.0
 10
87.41741388090708
 20
-134.3869902441812
 30
0.0
 10
87.41741388090708
 20
-134.3318510775281
 30
0.0
  0
SPLINE
  5
8B
330
1F
100
AcDbEntity
  8
_U+30EC_U+30A4_U+30E4_U+30FC 1
 62
   179
420
  2234388
370
     9
100
AcDbSpline
210
0.0
220
0.0
230
1.0
 70
    11
 71
     3
 72
    17
 73
    13
 74
     0
 42
0.0000000001
 43
0.0000000001
 12
1.0
 22
0.0
 32
0.0
 13
1.0
 23
0.0
 33
0.0
 40
0.0
 40
0.0
 40
0.0
 40
0.0
 40
1.0
 40
1.0
 40
1.0
 40
2.0
 40
2.0
 40
2.0
 40
3.0
 40
3.0
 40
3.0
 40
4.0
 40
4.0
 40
4.0
 40
4.0
 10
84.41742701299869
 20
-134.3318510775281
 30
0.0
 10
84.41742701299869
 20
-134.2767471886532
 30
0.0
 10
84.37262423636392
 20
-134.2319444108865
 30
0.0
 10
84.31734395999645
 20
-134.2319444108865
 30
0.0
 10
84.26203053449008
 20
-134.2319444108865
 30
0.0
 10
84.21743729587863
 20
-134.2767471886532
 30
0.0
 10
84.21743729587863
 20
-134.3318510775281
 30
0.0
 10
84.21743729587863
 20
-134.3869902441812
 30
0.0
 10
84.26203053449008
 20
-134.4317577441697
 30
0.0
 10
84.31734395999645
 20
-134.4317577441697
 30
0.0
 10
84.37262423636392
 20
-134.4317577441697
 30
0.0
 10
84.41742701299869
 20
-134.3869902441812
 30
0.0
 10
84.41742701299869
 20
-134.3318510775281
 30
0.0
  0
SPLINE
  5
8C
330
1F
100
AcDbEntity
  8
_U+30EC_U+30A4_U+30E4_U+30FC 1
 62
   179
420
  2234388
370
     9
100
AcDbSpline
210
0.0
220
0.0
230
1.0
 70
    11
 71
     3
 72
    17
 73
    13
 74
     0
 42
0.0000000001
 43
0.0000000001
 12
1.0
 22
0.0
 32
0.0
 13
1.0
 23
0.0
 33
0.0
 40
0.0
 40
0.0
 40
0.0
 40
0.0
 40
1.0
 40
1.0
 40
1.0
 40
2.0
 40
2.0
 40
2.0
 40
3.0
 40
3.0
 40
3.0
 40
4.0
 40
4.0
 40
4.0
 40
4.0
 10
80.41731517060559
 20
-153.3315449616673
 30
0.0
 10
80.41731517060559
 20
-153.2764410727918
 30
0.0
 10
80.37251239397082
 20
-153.2316382950257
 30
0.0
 10
80.31740850648775
 20
-153.2316382950257
 30
0.0
 10
80.26209295234342
 20
-153.2316382950257
 30
0.0
 10
80.21732545348553
 20
-153.2764410727918
 30
0.0
 10
80.21732545348553
 20
-153.3315449616673
 30
0.0
 10
80.21732545348553
 20
-153.3873544060978
 30
0.0
 10
80.26209295234342
 20
-153.4321571838645
 30
0.0
 10
80.31740850648775
 20
-153.4321571838645
 30
0.0
 10
80.37251239397082
 20
-153.4321571838645
 30
0.0
 10
80.41731517060559
 20
-153.3873544060978
 30
0.0
 10
80.41731517060559
 20
-153.3315449616673
 30
0.0
  0
SPLINE
  5
8D
330
1F
100
AcDbEntity
  8
_U+30EC_U+30A4_U+30E4_U+30FC 1
 62
   179
420
  2234388
370
     9
100
AcDbSpline
210
0.0
220
0.0
230
1.0
 70
    11
 71
     3
 72
    17
 73
    13
 74
     0
 42
0.0000000001
 43
0.0000000001
 12
1.0
 22
0.0
 32
0.0
 13
1.0
 23
0.0
 33
0.0
 40
0.0
 40
0.0
 40
0.0
 40
0.0
 40
1.0
 40
1.0
 40
1.0
 40
2.0
 40
2.0
 40
2.0
 40
3.0
 40
3.0
 40
3.0
 40
4.0
 40
4.0
 40
4.0
 40
4.0
 10
84.41742701299869
 20
-157.3320096828891
 30
0.0
 10
84.41742701299869
 20
-157.276870516236
 30
0.0
 10
84.37262423636392
 20
-157.2321030162475
 30
0.0
 10
84.31734395999645
 20
-157.2321030162475
 30
0.0
 10
84.26203053449008
 20
-157.2321030162475
 30
0.0
 10
84.21743729587863
 20
-157.276870516236
 30
0.0
 10
84.21743729587863
 20
-157.3320096828891
 30
0.0
 10
84.21743729587863
 20
-157.387113571764
 30
0.0
 10
84.26203053449008
 20
-157.4319163495308
 30
0.0
 10
84.31734395999645
 20
-157.4319163495308
 30
0.0
 10
84.37262423636392
 20
-157.4319163495308
 30
0.0
 10
84.41742701299869
 20
-157.387113571764
 30
0.0
 10
84.41742701299869
 20
-157.3320096828891
 30
0.0
  0
SPLINE
  5
8E
330
1F
100
AcDbEntity
  8
_U+30EC_U+30A4_U+30E4_U+30FC 1
 62
   179
420
  2234388
370
     9
100
AcDbSpline
210
0.0
220
0.0
230
1.0
 70
    11
 71
     3
 72
    17
 73
    13
 74
     0
 42
0.0000000001
 43
0.0000000001
 12
1.0
 22
0.0
 32
0.0
 13
1.0
 23
0.0
 33
0.0
 40
0.0
 40
0.0
 40
0.0
 40
0.0
 40
1.0
 40
1.0
 40
1.0
 40
2.0
 40
2.0
 40
2.0
 40
3.0
 40
3.0
 40
3.0
 40
4.0
 40
4.0
 40
4.0
 40
4.0
 10
99.41718496365631
 20
-157.3320096828891
 30
0.0
 10
99.41718496365631
 20
-157.276870516236
 30
0.0
 10
99.37238218702154
 20
-157.2321030162475
 30
0.0
 10
99.31727829953847
 20
-157.2321030162475
 30
0.0
 10
99.26214164185099
 20
-157.2321030162475
 30
0.0
 10
99.21737163542063
 20
-157.276870516236
 30
0.0
 10
99.21737163542063
 20
-157.3320096828891
 30
0.0
 10
99.21737163542063
 20
-157.387113571764
 30
0.0
 10
99.26214164185099
 20
-157.4319163495308
 30
0.0
 10
99.31727829953847
 20
-157.4319163495308
 30
0.0
 10
99.37238218702154
 20
-157.4319163495308
 30
0.0
 10
99.41718496365631
 20
-157.387113571764
 30
0.0
 10
99.41718496365631
 20
-157.3320096828891
 30
0.0
  0
SPLINE
  5
8F
330
1F
100
AcDbEntity
  8
_U+30EC_U+30A4_U+30E4_U+30FC 1
 62
   179
420
  2234388
370
     9
100
AcDbSpline
210
0.0
220
0.0
230
1.0
 70
    11
 71
     3
 72
    17
 73
    13
 74
     0
 42
0.0000000001
 43
0.0000000001
 12
1.0
 22
0.0
 32
0.0
 13
1.0
 23
0.0
 33
0.0
 40
0.0
 40
0.0
 40
0.0
 40
0.0
 40
1.0
 40
1.0
 40
1.0
 40
2.0
 40
2.0
 40
2.0
 40
3.0
 40
3.0
 40
3.0
 40
4.0
 40
4.0
 40
4.0
 40
4.0
 10
103.4176143060413
 20
-153.3315449616673
 30
0.0
 10
103.4176143060413
 20
-153.2764410727918
 30
0.0
 10
103.3728468071834
 20
-153.2316382950257
 30
0.0
 10
103.3177076419235
 20
-153.2316382950257
 30
0.0
 10
103.2626037544404
 20
-153.2316382950257
 30
0.0
 10
103.2178009778056
 20
-153.2764410727918
 30
0.0
 10
103.2178009778056
 20
-153.3315449616673
 30
0.0
 10
103.2178009778056
 20
-153.3873544060978
 30
0.0
 10
103.2626037544404
 20
-153.4321571838645
 30
0.0
 10
103.3177076419235
 20
-153.4321571838645
 30
0.0
 10
103.3728468071834
 20
-153.4321571838645
 30
0.0
 10
103.4176143060413
 20
-153.3873544060978
 30
0.0
 10
103.4176143060413
 20
-153.3315449616673
 30
0.0
  0
SPLINE
  5
90
330
1F
100
AcDbEntity
  8
_U+30EC_U+30A4_U+30E4_U+30FC 1
 62
   179
420
  2234388
370
     9
100
AcDbSpline
210
0.0
220
0.0
230
1.0
 70
    11
 71
     3
 72
    17
 73
    13
 74
     0
 42
0.0000000001
 43
0.0000000001
 12
1.0
 22
0.0
 32
0.0
 13
1.0
 23
0.0
 33
0.0
 40
0.0
 40
0.0
 40
0.0
 40
0.0
 40
1.0
 40
1.0
 40
1.0
 40
2.0
 40
2.0
 40
2.0
 40
3.0
 40
3.0
 40
3.0
 40
4.0
 40
4.0
 40
4.0
 40
4.0
 10
80.41731517060559
 20
-138.331610243195
 30
0.0
 10
80.41731517060559
 20
-138.2764710765419
 30
0.0
 10
80.37251239397082
 20
-138.2317035765533
 30
0.0
 10
80.31740850648775
 20
-138.2317035765533
 30
0.0
 10
80.26209295234342
 20
-138.2317035765533
 30
0.0
 10
80.21732545348553
 20
-138.2764710765419
 30
0.0
 10
80.21732545348553
 20
-138.331610243195
 30
0.0
 10
80.21732545348553
 20
-138.3874196876254
 30
0.0
 10
80.26209295234342
 20
-138.4322224653922
 30
0.0
 10
80.31740850648775
 20
-138.4322224653922
 30
0.0
 10
80.37251239397082
 20
-138.4322224653922
 30
0.0
 10
80.41731517060559
 20
-138.3874196876254
 30
0.0
 10
80.41731517060559
 20
-138.331610243195
 30
0.0
  0
SPLINE
  5
91
330
1F
100
AcDbEntity
  8
_U+30EC_U+30A4_U+30E4_U+30FC 1
 62
   179
420
  2234388
370
     9
100
AcDbSpline
210
0.0
220
0.0
230
1.0
 70
    11
 71
     3
 72
    17
 73
    13
 74
     0
 42
0.0000000001
 43
0.0000000001
 12
1.0
 22
0.0
 32
0.0
 13
1.0
 23
0.0
 33
0.0
 40
0.0
 40
0.0
 40
0.0
 40
0.0
 40
1.0
 40
1.0
 40
1.0
 40
2.0
 40
2.0
 40
2.0
 40
3.0
 40
3.0
 40
3.0
 40
4.0
 40
4.0
 40
4.0
 40
4.0
 10
93.91745010396623
 20
-134.3318510775281
 30
0.0
 10
93.91745010396623
 20
-134.2767471886532
 30
0.0
 10
93.87264732733146
 20
-134.2319444108865
 30
0.0
 10
93.81719066207962
 20
-134.2319444108865
 30
0.0
 10
93.76205149681967
 20
-134.2319444108865
 30
0.0
 10
93.71728399796179
 20
-134.2767471886532
 30
0.0
 10
93.71728399796179
 20
-134.3318510775281
 30
0.0
 10
93.71728399796179
 20
-134.3869902441812
 30
0.0
 10
93.76205149681967
 20
-134.4317577441697
 30
0.0
 10
93.81719066207962
 20
-134.4317577441697
 30
0.0
 10
93.87264732733146
 20
-134.4317577441697
 30
0.0
 10
93.91745010396623
 20
-134.3869902441812
 30
0.0
 10
93.91745010396623
 20
-134.3318510775281
 30
0.0
  0
SPLINE
  5
92
330
1F
100
AcDbEntity
  8
_U+30EC_U+30A4_U+30E4_U+30FC 1
 62
   179
420
  2234388
370
     9
100
AcDbSpline
210
0.0
220
0.0
230
1.0
 70
    11
 71
     3
 72
    17
 73
    13
 74
     0
 42
0.0000000001
 43
0.0000000001
 12
1.0
 22
0.0
 32
0.0
 13
1.0
 23
0.0
 33
0.0
 40
0.0
 40
0.0
 40
0.0
 40
0.0
 40
1.0
 40
1.0
 40
1.0
 40
2.0
 40
2.0
 40
2.0
 40
3.0
 40
3.0
 40
3.0
 40
4.0
 40
4.0
 40
4.0
 40
4.0
 10
103.4176143060413
 20
-150.3315580179724
 30
0.0
 10
103.4176143060413
 20
-150.2764541290974
 30
0.0
 10
103.3728468071834
 20
-150.2316513513307
 30
0.0
 10
103.3177076419235
 20
-150.2316513513307
 30
0.0
 10
103.2626037544404
 20
-150.2316513513307
 30
0.0
 10
103.2178009778056
 20
-150.2764541290974
 30
0.0
 10
103.2178009778056
 20
-150.3315580179724
 30
0.0
 10
103.2178009778056
 20
-150.3873674624034
 30
0.0
 10
103.2626037544404
 20
-150.4321702401695
 30
0.0
 10
103.3177076419235
 20
-150.4321702401695
 30
0.0
 10
103.3728468071834
 20
-150.4321702401695
 30
0.0
 10
103.4176143060413
 20
-150.3873674624034
 30
0.0
 10
103.4176143060413
 20
-150.3315580179724
 30
0.0
  0
SPLINE
  5
93
330
1F
100
AcDbEntity
  8
_U+30EC_U+30A4_U+30E4_U+30FC 1
 62
   179
420
  2234388
370
     9
100
AcDbSpline
210
0.0
220
0.0
230
1.0
 70
    11
 71
     3
 72
    17
 73
    13
 74
     0
 42
0.0000000001
 43
0.0000000001
 12
1.0
 22
0.0
 32
0.0
 13
1.0
 23
0.0
 33
0.0
 40
0.0
 40
0.0
 40
0.0
 40
0.0
 40
1.0
 40
1.0
 40
1.0
 40
2.0
 40
2.0
 40
2.0
 40
3.0
 40
3.0
 40
3.0
 40
4.0
 40
4.0
 40
4.0
 40
4.0
 10
103.4176143060413
 20
-143.8320507973755
 30
0.0
 10
103.4176143060413
 20
-143.7769116307224
 30
0.0
 10
103.3728468071834
 20
-143.7321441307338
 30
0.0
 10
103.3177076419235
 20
-143.7321441307338
 30
0.0
 10
103.2626037544404
 20
-143.7321441307338
 30
0.0
 10
103.2178009778056
 20
-143.7769116307224
 30
0.0
 10
103.2178009778056
 20
-143.8320507973755
 30
0.0
 10
103.2178009778056
 20
-143.8871546862504
 30
0.0
 10
103.2626037544404
 20
-143.9319574640171
 30
0.0
 10
103.3177076419235
 20
-143.9319574640171
 30
0.0
 10
103.3728468071834
 20
-143.9319574640171
 30
0.0
 10
103.4176143060413
 20
-143.8871546862504
 30
0.0
 10
103.4176143060413
 20
-143.8320507973755
 30
0.0
  0
SPLINE
  5
94
330
1F
100
AcDbEntity
  8
_U+30EC_U+30A4_U+30E4_U+30FC 1
 62
   179
420
  2234388
370
     9
100
AcDbSpline
210
0.0
220
0.0
230
1.0
 70
    11
 71
     3
 72
    17
 73
    13
 74
     0
 42
0.0000000001
 43
0.0000000001
 12
1.0
 22
0.0
 32
0.0
 13
1.0
 23
0.0
 33
0.0
 40
0.0
 40
0.0
 40
0.0
 40
0.0
 40
1.0
 40
1.0
 40
1.0
 40
2.0
 40
2.0
 40
2.0
 40
3.0
 40
3.0
 40
3.0
 40
4.0
 40
4.0
 40
4.0
 40
4.0
 10
103.4176143060413
 20
-98.83185858640313
 30
0.0
 10
103.4176143060413
 20
-98.77675469752789
 30
0.0
 10
103.3728468071834
 20
-98.7319519197615
 30
0.0
 10
103.3177076419235
 20
-98.7319519197615
 30
0.0
 10
103.2626037544404
 20
-98.7319519197615
 30
0.0
 10
103.2178009778056
 20
-98.77675469752789
 30
0.0
 10
103.2178009778056
 20
-98.83185858640313
 30
0.0
 10
103.2178009778056
 20
-98.8869977530559
 30
0.0
 10
103.2626037544404
 20
-98.93176525304477
 30
0.0
 10
103.3177076419235
 20
-98.93176525304477
 30
0.0
 10
103.3728468071834
 20
-98.93176525304477
 30
0.0
 10
103.4176143060413
 20
-98.8869977530559
 30
0.0
 10
103.4176143060413
 20
-98.83185858640313
 30
0.0
  0
POLYLINE
  5
95
330
1F
100
AcDbEntity
  8
_U+30EC_U+30A4_U+30E4_U+30FC 1
 62
   179
420
  2234388
370
     9
100
AcDb2dPolyline
 66
     1
 10
0.0
 20
0.0
 30
0.0
  0
VERTEX
  5
96
330
95
100
AcDbEntity
  8
_U+30EC_U+30A4_U+30E4_U+30FC 1
 62
   179
420
  2234388
370
     9
100
AcDbVertex
100
AcDb2dVertex
 10
95.07911201877421
 20
-108.9773241394222
 30
0.0
  0
VERTEX
  5
97
330
95
100
AcDbEntity
  8
_U+30EC_U+30A4_U+30E4_U+30FC 1
 62
   179
420
  2234388
370
     9
100
AcDbVertex
100
AcDb2dVertex
 10
91.80868571332086
 20
-108.9773241394222
 30
0.0
  0
SEQEND
  5
98
330
95
100
AcDbEntity
  8
_U+30EC_U+30A4_U+30E4_U+30FC 1
 62
   179
420
  2234388
370
     9
  0
POLYLINE
  5
99
330
1F
100
AcDbEntity
  8
_U+30EC_U+30A4_U+30E4_U+30FC 1
 62
   179
420
  2234388
370
     9
100
AcDb2dPolyline
 66
     1
 10
0.0
 20
0.0
 30
0.0
  0
VERTEX
  5
9A
330
99
100
AcDbEntity
  8
_U+30EC_U+30A4_U+30E4_U+30FC 1
 62
   179
420
  2234388
370
     9
100
AcDbVertex
100
AcDb2dVertex
 10
97.0793266899667
 20
-108.9773241394222
 30
0.0
  0
VERTEX
  5
9B
330
99
100
AcDbEntity
  8
_U+30EC_U+30A4_U+30E4_U+30FC 1
 62
   179
420
  2234388
370
     9
100
AcDbVertex
100
AcDb2dVertex
 10
95.07911201877421
 20
-108.9773241394222
 30
0.0
  0
SEQEND
  5
9C
330
99
100
AcDbEntity
  8
_U+30EC_U+30A4_U+30E4_U+30FC 1
 62
   179
420
  2234388
370
     9
  0
INSERT
  5
9E
330
1F
100
AcDbEntity
  8
_U+30EC_U+30A4_U+30E4_U+30FC 1
100
AcDbBlockReference
  2
block 2
 10
0.0
 20
0.0
 30
0.0
  0
POLYLINE
  5
A3
330
1F
100
AcDbEntity
  8
_U+30EC_U+30A4_U+30E4_U+30FC 1
 62
   179
420
  2234388
370
     9
100
AcDb2dPolyline
 66
     1
 10
0.0
 20
0.0
 30
0.0
  0
VERTEX
  5
A4
330
A3
100
AcDbEntity
  8
_U+30EC_U+30A4_U+30E4_U+30FC 1
 62
   179
420
  2234388
370
     9
100
AcDbVertex
100
AcDb2dVertex
 10
84.31734395999645
 20
-134.3318510775281
 30
0.0
  0
VERTEX
  5
A5
330
A3
100
AcDbEntity
  8
_U+30EC_U+30A4_U+30E4_U+30FC 1
 62
   179
420
  2234388
370
     9
100
AcDbVertex
100
AcDb2dVertex
 10
87.31733082790485
 20
-134.3318510775281
 30
0.0
  0
SEQEND
  5
A6
330
A3
100
AcDbEntity
  8
_U+30EC_U+30A4_U+30E4_U+30FC 1
 62
   179
420
  2234388
370
     9
  0
POLYLINE
  5
A7
330
1F
100
AcDbEntity
  8
_U+30EC_U+30A4_U+30E4_U+30FC 1
 62
   179
420
  2234388
370
     9
100
AcDb2dPolyline
 66
     1
 10
0.0
 20
0.0
 30
0.0
  0
VERTEX
  5
A8
330
A7
100
AcDbEntity
  8
_U+30EC_U+30A4_U+30E4_U+30FC 1
 62
   179
420
  2234388
370
     9
100
AcDbVertex
100
AcDb2dVertex
 10
84.31734395999645
 20
-135.7918924660518
 30
0.0
  0
VERTEX
  5
A9
330
A7
100
AcDbEntity
  8
_U+30EC_U+30A4_U+30E4_U+30FC 1
 62
   179
420
  2234388
370
     9
100
AcDbVertex
100
AcDb2dVertex
 10
84.31734395999645
 20
-133.3320788555556
 30
0.0
  0
SEQEND
  5
AA
330
A7
100
AcDbEntity
  8
_U+30EC_U+30A4_U+30E4_U+30FC 1
 62
   179
420
  2234388
370
     9
  0
POLYLINE
  5
AB
330
1F
100
AcDbEntity
  8
_U+30EC_U+30A4_U+30E4_U+30FC 1
 62
   179
420
  2234388
370
     9
100
AcDb2dPolyline
 66
     1
 10
0.0
 20
0.0
 30
0.0
  0
VERTEX
  5
AC
330
AB
100
AcDbEntity
  8
_U+30EC_U+30A4_U+30E4_U+30FC 1
 62
   179
420
  2234388
370
     9
100
AcDbVertex
100
AcDb2dVertex
 10
87.31733082790485
 20
-135.7918924660518
 30
0.0
  0
VERTEX
  5
AD
330
AB
100
AcDbEntity
  8
_U+30EC_U+30A4_U+30E4_U+30FC 1
 62
   179
420
  2234388
370
     9
100
AcDbVertex
100
AcDb2dVertex
 10
87.31733082790485
 20
-133.3320788555556
 30
0.0
  0
SEQEND
  5
AE
330
AB
100
AcDbEntity
  8
_U+30EC_U+30A4_U+30E4_U+30FC 1
 62
   179
420
  2234388
370
     9
  0
INSERT
  5
B0
330
1F
100
AcDbEntity
  8
_U+30EC_U+30A4_U+30E4_U+30FC 1
100
AcDbBlockReference
  2
block 3
 10
0.0
 20
0.0
 30
0.0
  0
POLYLINE
  5
B5
330
1F
100
AcDbEntity
  8
_U+30EC_U+30A4_U+30E4_U+30FC 1
 62
   179
420
  2234388
370
     9
100
AcDb2dPolyline
 66
     1
 10
0.0
 20
0.0
 30
0.0
  0
VERTEX
  5
B6
330
B5
100
AcDbEntity
  8
_U+30EC_U+30A4_U+30E4_U+30FC 1
 62
   179
420
  2234388
370
     9
100
AcDbVertex
100
AcDb2dVertex
 10
84.31734395999645
 20
-157.3320096828891
 30
0.0
  0
VERTEX
  5
B7
330
B5
100
AcDbEntity
  8
_U+30EC_U+30A4_U+30E4_U+30FC 1
 62
   179
420
  2234388
370
     9
100
AcDbVertex
100
AcDb2dVertex
 10
99.31727829953847
 20
-157.3320096828891
 30
0.0
  0
SEQEND
  5
B8
330
B5
100
AcDbEntity
  8
_U+30EC_U+30A4_U+30E4_U+30FC 1
 62
   179
420
  2234388
370
     9
  0
POLYLINE
  5
B9
330
1F
100
AcDbEntity
  8
_U+30EC_U+30A4_U+30E4_U+30FC 1
 62
   179
420
  2234388
370
     9
100
AcDb2dPolyline
 66
     1
 10
0.0
 20
0.0
 30
0.0
  0
VERTEX
  5
BA
330
B9
100
AcDbEntity
  8
_U+30EC_U+30A4_U+30E4_U+30FC 1
 62
   179
420
  2234388
370
     9
100
AcDbVertex
100
AcDb2dVertex
 10
84.31734395999645
 20
-155.8719682943654
 30
0.0
  0
VERTEX
  5
BB
330
B9
100
AcDbEntity
  8
_U+30EC_U+30A4_U+30E4_U+30FC 1
 62
   179
420
  2234388
370
     9
100
AcDbVertex
100
AcDb2dVertex
 10
84.31734395999645
 20
-158.3317819048617
 30
0.0
  0
SEQEND
  5
BC
330
B9
100
AcDbEntity
  8
_U+30EC_U+30A4_U+30E4_U+30FC 1
 62
   179
420
  2234388
370
     9
  0
POLYLINE
  5
BD
330
1F
100
AcDbEntity
  8
_U+30EC_U+30A4_U+30E4_U+30FC 1
 62
   179
420
  2234388
370
     9
100
AcDb2dPolyline
 66
     1
 10
0.0
 20
0.0
 30
0.0
  0
VERTEX
  5
BE
330
BD
100
AcDbEntity
  8
_U+30EC_U+30A4_U+30E4_U+30FC 1
 62
   179
420
  2234388
370
     9
100
AcDbVertex
100
AcDb2dVertex
 10
99.31727829953847
 20
-155.8719682943654
 30
0.0
  0
VERTEX
  5
BF
330
BD
100
AcDbEntity
  8
_U+30EC_U+30A4_U+30E4_U+30FC 1
 62
   179
420
  2234388
370
     9
100
AcDbVertex
100
AcDb2dVertex
 10
99.31727829953847
 20
-158.3317819048617
 30
0.0
  0
SEQEND
  5
C0
330
BD
100
AcDbEntity
  8
_U+30EC_U+30A4_U+30E4_U+30FC 1
 62
   179
420
  2234388
370
     9
  0
INSERT
  5
C2
330
1F
100
AcDbEntity
  8
_U+30EC_U+30A4_U+30E4_U+30FC 1
100
AcDbBlockReference
  2
block 4
 10
0.0
 20
0.0
 30
0.0
  0
POLYLINE
  5
C9
330
1F
100
AcDbEntity
  8
_U+30EC_U+30A4_U+30E4_U+30FC 1
 62
   179
420
  2234388
370
     9
100
AcDb2dPolyline
 66
     1
 10
0.0
 20
0.0
 30
0.0
  0
VERTEX
  5
CA
330
C9
100
AcDbEntity
  8
_U+30EC_U+30A4_U+30E4_U+30FC 1
 62
   179
420
  2234388
370
     9
100
AcDbVertex
100
AcDb2dVertex
 10
103.3177076419235
 20
-150.3315580179724
 30
0.0
  0
VERTEX
  5
CB
330
C9
100
AcDbEntity
  8
_U+30EC_U+30A4_U+30E4_U+30FC 1
 62
   179
420
  2234388
370
     9
100
AcDbVertex
100
AcDb2dVertex
 10
103.3177076419235
 20
-153.3315449616673
 30
0.0
  0
SEQEND
  5
CC
330
C9
100
AcDbEntity
  8
_U+30EC_U+30A4_U+30E4_U+30FC 1
 62
   179
420
  2234388
370
     9
  0
POLYLINE
  5
CD
330
1F
100
AcDbEntity
  8
_U+30EC_U+30A4_U+30E4_U+30FC 1
 62
   179
420
  2234388
370
     9
100
AcDb2dPolyline
 66
     1
 10
0.0
 20
0.0
 30
0.0
  0
VERTEX
  5
CE
330
CD
100
AcDbEntity
  8
_U+30EC_U+30A4_U+30E4_U+30FC 1
 62
   179
420
  2234388
370
     9
100
AcDbVertex
100
AcDb2dVertex
 10
101.8577015680602
 20
-150.3315580179724
 30
0.0
  0
VERTEX
  5
CF
330
CD
100
AcDbEntity
  8
_U+30EC_U+30A4_U+30E4_U+30FC 1
 62
   179
420
  2234388
370
     9
100
AcDbVertex
100
AcDb2dVertex
 10
104.3174798386394
 20
-150.3315580179724
 30
0.0
  0
SEQEND
  5
D0
330
CD
100
AcDbEntity
  8
_U+30EC_U+30A4_U+30E4_U+30FC 1
 62
   179
420
  2234388
370
     9
  0
POLYLINE
  5
D1
330
1F
100
AcDbEntity
  8
_U+30EC_U+30A4_U+30E4_U+30FC 1
 62
   179
420
  2234388
370
     9
100
AcDb2dPolyline
 66
     1
 10
0.0
 20
0.0
 30
0.0
  0
VERTEX
  5
D2
330
D1
100
AcDbEntity
  8
_U+30EC_U+30A4_U+30E4_U+30FC 1
 62
   179
420
  2234388
370
     9
100
AcDbVertex
100
AcDb2dVertex
 10
101.8577015680602
 20
-153.3315449616673
 30
0.0
  0
VERTEX
  5
D3
330
D1
100
AcDbEntity
  8
_U+30EC_U+30A4_U+30E4_U+30FC 1
 62
   179
420
  2234388
370
     9
100
AcDbVertex
100
AcDb2dVertex
 10
104.3174798386394
 20
-153.3315449616673
 30
0.0
  0
SEQEND
  5
D4
330
D1
100
AcDbEntity
  8
_U+30EC_U+30A4_U+30E4_U+30FC 1
 62
   179
420
  2234388
370
     9
  0
INSERT
  5
D6
330
1F
100
AcDbEntity
  8
_U+30EC_U+30A4_U+30E4_U+30FC 1
100
AcDbBlockReference
  2
block 5
 10
0.0
 20
0.0
 30
0.0
  0
POLYLINE
  5
DB
330
1F
100
AcDbEntity
  8
_U+30EC_U+30A4_U+30E4_U+30FC 1
 62
   179
420
  2234388
370
     9
100
AcDb2dPolyline
 66
     1
 10
0.0
 20
0.0
 30
0.0
  0
VERTEX
  5
DC
330
DB
100
AcDbEntity
  8
_U+30EC_U+30A4_U+30E4_U+30FC 1
 62
   179
420
  2234388
370
     9
100
AcDbVertex
100
AcDb2dVertex
 10
103.3177076419235
 20
-150.3315580179724
 30
0.0
  0
VERTEX
  5
DD
330
DB
100
AcDbEntity
  8
_U+30EC_U+30A4_U+30E4_U+30FC 1
 62
   179
420
  2234388
370
     9
100
AcDbVertex
100
AcDb2dVertex
 10
103.3177076419235
 20
-143.8320507973755
 30
0.0
  0
SEQEND
  5
DE
330
DB
100
AcDbEntity
  8
_U+30EC_U+30A4_U+30E4_U+30FC 1
 62
   179
420
  2234388
370
     9
  0
POLYLINE
  5
DF
330
1F
100
AcDbEntity
  8
_U+30EC_U+30A4_U+30E4_U+30FC 1
 62
   179
420
  2234388
370
     9
100
AcDb2dPolyline
 66
     1
 10
0.0
 20
0.0
 30
0.0
  0
VERTEX
  5
E0
330
DF
100
AcDbEntity
  8
_U+30EC_U+30A4_U+30E4_U+30FC 1
 62
   179
420
  2234388
370
     9
100
AcDbVertex
100
AcDb2dVertex
 10
97.35770362730916
 20
-143.8320507973755
 30
0.0
  0
VERTEX
  5
E1
330
DF
100
AcDbEntity
  8
_U+30EC_U+30A4_U+30E4_U+30FC 1
 62
   179
420
  2234388
370
     9
100
AcDbVertex
100
AcDb2dVertex
 10
104.3174798386394
 20
-143.8320507973755
 30
0.0
  0
SEQEND
  5
E2
330
DF
100
AcDbEntity
  8
_U+30EC_U+30A4_U+30E4_U+30FC 1
 62
   179
420
  2234388
370
     9
  0
INSERT
  5
E4
330
1F
100
AcDbEntity
  8
_U+30EC_U+30A4_U+30E4_U+30FC 1
100
AcDbBlockReference
  2
block 6
 10
0.0
 20
0.0
 30
0.0
  0
POLYLINE
  5
F4
330
1F
100
AcDbEntity
  8
_U+30EC_U+30A4_U+30E4_U+30FC 1
 62
   179
420
  2234388
370
     9
100
AcDb2dPolyline
 66
     1
 10
0.0
 20
0.0
 30
0.0
  0
VERTEX
  5
F5
330
F4
100
AcDbEntity
  8
_U+30EC_U+30A4_U+30E4_U+30FC 1
 62
   179
420
  2234388
370
     9
100
AcDbVertex
100
AcDb2dVertex
 10
103.3177076419235
 20
-98.83185858640313
 30
0.0
  0
VERTEX
  5
F6
330
F4
100
AcDbEntity
  8
_U+30EC_U+30A4_U+30E4_U+30FC 1
 62
   179
420
  2234388
370
     9
100
AcDbVertex
100
AcDb2dVertex
 10
103.3177076419235
 20
-143.8320507973755
 30
0.0
  0
SEQEND
  5
F7
330
F4
100
AcDbEntity
  8
_U+30EC_U+30A4_U+30E4_U+30FC 1
 62
   179
420
  2234388
370
     9
  0
POLYLINE
  5
F8
330
1F
100
AcDbEntity
  8
_U+30EC_U+30A4_U+30E4_U+30FC 1
 62
   179
420
  2234388
370
     9
100
AcDb2dPolyline
 66
     1
 10
0.0
 20
0.0
 30
0.0
  0
VERTEX
  5
F9
330
F8
100
AcDbEntity
  8
_U+30EC_U+30A4_U+30E4_U+30FC 1
 62
   179
420
  2234388
370
     9
100
AcDbVertex
100
AcDb2dVertex
 10
97.35770362730916
 20
-98.83185858640313
 30
0.0
  0
VERTEX
  5
FA
330
F8
100
AcDbEntity
  8
_U+30EC_U+30A4_U+30E4_U+30FC 1
 62
   179
420
  2234388
370
     9
100
AcDbVertex
100
AcDb2dVertex
 10
104.3174798386394
 20
-98.83185858640313
 30
0.0
  0
SEQEND
  5
FB
330
F8
100
AcDbEntity
  8
_U+30EC_U+30A4_U+30E4_U+30FC 1
 62
   179
420
  2234388
370
     9
  0
INSERT
  5
FD
330
1F
100
AcDbEntity
  8
_U+30EC_U+30A4_U+30E4_U+30FC 1
100
AcDbBlockReference
  2
block 7
 10
0.0
 20
0.0
 30
0.0
  0
POLYLINE
  5
117
330
1F
100
AcDbEntity
  8
_U+30EC_U+30A4_U+30E4_U+30FC 1
 62
   179
420
  2234388
370
     9
100
AcDb2dPolyline
 66
     1
 10
0.0
 20
0.0
 30
0.0
  0
VERTEX
  5
118
330
117
100
AcDbEntity
  8
_U+30EC_U+30A4_U+30E4_U+30FC 1
 62
   179
420
  2234388
370
     9
100
AcDbVertex
100
AcDb2dVertex
 10
87.31733082790485
 20
-134.3318510775281
 30
0.0
  0
VERTEX
  5
119
330
117
100
AcDbEntity
  8
_U+30EC_U+30A4_U+30E4_U+30FC 1
 62
   179
420
  2234388
370
     9
100
AcDbVertex
100
AcDb2dVertex
 10
93.81719066207962
 20
-134.3318510775281
 30
0.0
  0
SEQEND
  5
11A
330
117
100
AcDbEntity
  8
_U+30EC_U+30A4_U+30E4_U+30FC 1
 62
   179
420
  2234388
370
     9
  0
INSERT
  5
11C
330
1F
100
AcDbEntity
  8
_U+30EC_U+30A4_U+30E4_U+30FC 1
100
AcDbBlockReference
  2
block 8
 10
0.0
 20
0.0
 30
0.0
  0
POLYLINE
  5
12C
330
1F
100
AcDbEntity
  8
_U+30EC_U+30A4_U+30E4_U+30FC 1
 62
   179
420
  2234388
370
     9
100
AcDb2dPolyline
 66
     1
 10
0.0
 20
0.0
 30
0.0
  0
VERTEX
  5
12D
330
12C
100
AcDbEntity
  8
_U+30EC_U+30A4_U+30E4_U+30FC 1
 62
   179
420
  2234388
370
     9
100
AcDbVertex
100
AcDb2dVertex
 10
80.31740850648775
 20
-138.331610243195
 30
0.0
  0
VERTEX
  5
12E
330
12C
100
AcDbEntity
  8
_U+30EC_U+30A4_U+30E4_U+30FC 1
 62
   179
420
  2234388
370
     9
100
AcDbVertex
100
AcDb2dVertex
 10
80.31740850648775
 20
-153.3315449616673
 30
0.0
  0
SEQEND
  5
12F
330
12C
100
AcDbEntity
  8
_U+30EC_U+30A4_U+30E4_U+30FC 1
 62
   179
420
  2234388
370
     9
  0
POLYLINE
  5
130
330
1F
100
AcDbEntity
  8
_U+30EC_U+30A4_U+30E4_U+30FC 1
 62
   179
420
  2234388
370
     9
100
AcDb2dPolyline
 66
     1
 10
0.0
 20
0.0
 30
0.0
  0
VERTEX
  5
131
330
130
100
AcDbEntity
  8
_U+30EC_U+30A4_U+30E4_U+30FC 1
 62
   179
420
  2234388
370
     9
100
AcDbVertex
100
AcDb2dVertex
 10
81.7772734692435
 20
-138.331610243195
 30
0.0
  0
VERTEX
  5
132
330
130
100
AcDbEntity
  8
_U+30EC_U+30A4_U+30E4_U+30FC 1
 62
   179
420
  2234388
370
     9
100
AcDbVertex
100
AcDb2dVertex
 10
79.31728353200307
 20
-138.331610243195
 30
0.0
  0
SEQEND
  5
133
330
130
100
AcDbEntity
  8
_U+30EC_U+30A4_U+30E4_U+30FC 1
 62
   179
420
  2234388
370
     9
  0
POLYLINE
  5
134
330
1F
100
AcDbEntity
  8
_U+30EC_U+30A4_U+30E4_U+30FC 1
 62
   179
420
  2234388
370
     9
100
AcDb2dPolyline
 66
     1
 10
0.0
 20
0.0
 30
0.0
  0
VERTEX
  5
135
330
134
100
AcDbEntity
  8
_U+30EC_U+30A4_U+30E4_U+30FC 1
 62
   179
420
  2234388
370
     9
100
AcDbVertex
100
AcDb2dVertex
 10
81.7772734692435
 20
-153.3315449616673
 30
0.0
  0
VERTEX
  5
136
330
134
100
AcDbEntity
  8
_U+30EC_U+30A4_U+30E4_U+30FC 1
 62
   179
420
  2234388
370
     9
100
AcDbVertex
100
AcDb2dVertex
 10
79.31728353200307
 20
-153.3315449616673
 30
0.0
  0
SEQEND
  5
137
330
134
100
AcDbEntity
  8
_U+30EC_U+30A4_U+30E4_U+30FC 1
 62
   179
420
  2234388
370
     9
  0
INSERT
  5
139
330
1F
100
AcDbEntity
  8
_U+30EC_U+30A4_U+30E4_U+30FC 1
100
AcDbBlockReference
  2
block 9
 10
0.0
 20
0.0
 30
0.0
  0
ENDSEC
  0
SECTION
  2
OBJECTS
  0
DICTIONARY
  5
C
330
0
100
AcDbDictionary
281
     1
  3
ACAD_GROUP
350
D
  3
ACAD_LAYOUT
350
1A
  3
ACAD_MATERIAL
350
3B
  3
ACAD_MLEADERSTYLE
350
141
  3
ACAD_MLINESTYLE
350
17
  3
ACAD_PLOTSETTINGS
350
19
  3
ACAD_PLOTSTYLENAME
350
E
  3
ACAD_TABLESTYLE
350
140
  3
ACAD_VISUALSTYLE
350
2A
  0
SUN
  5
3F
330
29
100
AcDbSun
 90
        1
290
     0
 63
     7
421
 16777215
 40
1.0
291
     1
 91
  2455826
 92
 54000000
292
     0
 70
     2
 71
   256
280
     1
  0
DICTIONARY
  5
D
102
{ACAD_REACTORS
330
C
102
}
330
C
100
AcDbDictionary
281
     1
  0
DICTIONARY
  5
1A
102
{ACAD_REACTORS
330
C
102
}
330
C
100
AcDbDictionary
281
     1
  3
Layout1
350
1E
  3
Layout2
350
26
  3
Model
350
22
  0
DICTIONARY
  5
3B
102
{ACAD_REACTORS
330
C
102
}
330
C
100
AcDbDictionary
281
     1
  3
ByBlock
350
3D
  3
ByLayer
350
3C
  3
Global
350
3E
  0
DICTIONARY
  5
141
102
{ACAD_REACTORS
330
C
102
}
330
C
100
AcDbDictionary
281
     1
  0
DICTIONARY
  5
17
102
{ACAD_REACTORS
330
C
102
}
330
C
100
AcDbDictionary
281
     1
  3
Standard
350
18
  0
DICTIONARY
  5
19
102
{ACAD_REACTORS
330
C
102
}
330
C
100
AcDbDictionary
281
     1
  0
ACDBDICTIONARYWDFLT
  5
E
102
{ACAD_REACTORS
330
C
102
}
330
C
100
AcDbDictionary
281
     1
  3
Normal
350
F
100
AcDbDictionaryWithDefault
340
F
  0
DICTIONARY
  5
140
102
{ACAD_REACTORS
330
C
102
}
330
C
100
AcDbDictionary
281
     1
  0
DICTIONARY
  5
2A
102
{ACAD_REACTORS
330
C
102
}
330
C
100
AcDbDictionary
281
     1
  3
2dWireframe
350
2F
  3
3D Hidden
350
31
  3
3dWireframe
350
30
  3
Basic
350
32
  3
Brighten
350
36
  3
ColorChange
350
3A
  3
Conceptual
350
34
  3
Dim
350
35
  3
Facepattern
350
39
  3
Flat
350
2B
  3
FlatWithEdges
350
2C
  3
Gouraud
350
2D
  3
GouraudWithEdges
350
2E
  3
Linepattern
350
38
  3
Realistic
350
33
  3
Thicken
350
37
  0
LAYOUT
  5
1E
102
{ACAD_REACTORS
330
1A
102
}
330
1A
100
AcDbPlotSettings
  1

  2
none_device
  4

  6

 40
0.0
 41
0.0
 42
0.0
 43
0.0
 44
0.0
 45
0.0
 46
0.0
 47
0.0
 48
0.0
 49
0.0
140
0.0
141
0.0
142
1.0
143
1.0
 70
   688
 72
     0
 73
     0
 74
     5
  7

 75
    16
 76
     0
 77
     2
 78
   300
147
1.0
148
0.0
149
0.0
100
AcDbLayout
  1
Layout1
 70
     1
 71
     1
 10
0.0
 20
0.0
 11
12.0
 21
9.0
 12
0.0
 22
0.0
 32
0.0
 14
1.000000000000000E+20
 24
1.000000000000000E+20
 34
1.000000000000000E+20
 15
-1.000000000000000E+20
 25
-1.000000000000000E+20
 35
-1.000000000000000E+20
146
0.0
 13
0.0
 23
0.0
 33
0.0
 16
1.0
 26
0.0
 36
0.0
 17
0.0
 27
1.0
 37
0.0
 76
     0
330
1B
  0
LAYOUT
  5
26
102
{ACAD_REACTORS
330
1A
102
}
330
1A
100
AcDbPlotSettings
  1

  2
none_device
  4

  6

 40
0.0
 41
0.0
 42
0.0
 43
0.0
 44
0.0
 45
0.0
 46
0.0
 47
0.0
 48
0.0
 49
0.0
140
0.0
141
0.0
142
1.0
143
1.0
 70
   688
 72
     0
 73
     0
 74
     5
  7

 75
    16
 76
     0
 77
     2
 78
   300
147
1.0
148
0.0
149
0.0
100
AcDbLayout
  1
Layout2
 70
     1
 71
     2
 10
0.0
 20
0.0
 11
0.0
 21
0.0
 12
0.0
 22
0.0
 32
0.0
 14
0.0
 24
0.0
 34
0.0
 15
0.0
 25
0.0
 35
0.0
146
0.0
 13
0.0
 23
0.0
 33
0.0
 16
1.0
 26
0.0
 36
0.0
 17
0.0
 27
1.0
 37
0.0
 76
     0
330
23
  0
LAYOUT
  5
22
102
{ACAD_REACTORS
330
1A
102
}
330
1A
100
AcDbPlotSettings
  1

  2
none_device
  4

  6

 40
0.0
 41
0.0
 42
0.0
 43
0.0
 44
0.0
 45
0.0
 46
0.0
 47
0.0
 48
0.0
 49
0.0
140
0.0
141
0.0
142
1.0
143
1.0
 70
  1712
 72
     0
 73
     0
 74
     0
  7

 75
     0
 76
     0
 77
     2
 78
   300
147
1.0
148
0.0
149
0.0
100
AcDbLayout
  1
Model
 70
     1
 71
     0
 10
0.0
 20
0.0
 11
12.0
 21
9.0
 12
0.0
 22
0.0
 32
0.0
 14
1.000000000000000E+20
 24
1.000000000000000E+20
 34
1.000000000000000E+20
 15
-1.000000000000000E+20
 25
-1.000000000000000E+20
 35
-1.000000000000000E+20
146
0.0
 13
0.0
 23
0.0
 33
0.0
 16
1.0
 26
0.0
 36
0.0
 17
0.0
 27
1.0
 37
0.0
 76
     0
330
1F
331
29
  0
MATERIAL
  5
3D
102
{ACAD_REACTORS
330
3B
102
}
330
3B
100
AcDbMaterial
  1
ByBlock
 72
     1
 94
      127
  0
MATERIAL
  5
3C
102
{ACAD_REACTORS
330
3B
102
}
330
3B
100
AcDbMaterial
  1
ByLayer
 72
     1
 94
      127
  0
MATERIAL
  5
3E
102
{ACAD_REACTORS
330
3B
102
}
330
3B
100
AcDbMaterial
  1
Global
 72
     1
 94
      127
  0
MLINESTYLE
  5
18
102
{ACAD_REACTORS
330
17
102
}
330
17
100
AcDbMlineStyle
  2
Standard
 70
     0
  3

 62
   256
 51
90.0
 52
90.0
 71
     2
 49
0.5
 62
   256
  6
BYLAYER
 49
-0.5
 62
   256
  6
BYLAYER
  0
ACDBPLACEHOLDER
  5
F
102
{ACAD_REACTORS
330
E
102
}
330
E
  0
VISUALSTYLE
  5
2F
102
{ACAD_REACTORS
330
2A
102
}
330
2A
100
AcDbVisualStyle
  2
2dWireframe
 70
     4
177
     2
291
     0
 71
     0
176
     1
 72
     2
176
     1
 73
     0
176
     1
 90
        0
176
     1
 40
-0.6
176
     1
 41
-30.0
176
     1
 62
     5
 63
     7
421
 16777215
176
     1
 74
     1
176
     1
 91
        4
176
     1
 64
     7
176
     1
 65
   257
176
     1
 75
     1
176
     1
175
     1
176
     1
 42
1.0
176
     1
 92
        0
176
     1
 66
   257
176
     1
 43
1.0
176
     1
 76
     1
176
     1
 77
     6
176
     1
 78
     2
176
     1
 67
     7
176
     1
 79
     5
176
     1
170
     0
176
     1
171
     0
176
     1
290
     0
176
     1
 93
        1
176
     1
 44
0.0
176
     1
173
     0
176
     1
  0
VISUALSTYLE
  5
31
102
{ACAD_REACTORS
330
2A
102
}
330
2A
100
AcDbVisualStyle
  2
3D Hidden
 70
     6
177
     2
291
     0
 71
     1
176
     1
 72
     2
176
     1
 73
     2
176
     1
 90
        0
176
     1
 40
-0.6
176
     1
 41
-30.0
176
     1
 62
     5
 63
     7
421
 16777215
176
     1
 74
     2
176
     1
 91
        2
176
     1
 64
     7
176
     1
 65
   257
176
     1
 75
     2
176
     1
175
     1
176
     1
 42
40.0
176
     1
 92
        0
176
     1
 66
   257
176
     1
 43
1.0
176
     1
 76
     1
176
     1
 77
     6
176
     1
 78
     2
176
     1
 67
     7
176
     1
 79
     3
176
     1
170
     0
176
     1
171
     0
176
     1
290
     0
176
     1
 93
        1
176
     1
 44
0.0
176
     1
173
     0
176
     1
  0
VISUALSTYLE
  5
30
102
{ACAD_REACTORS
330
2A
102
}
330
2A
100
AcDbVisualStyle
  2
3dWireframe
 70
     5
177
     2
291
     0
 71
     0
176
     1
 72
     2
176
     1
 73
     0
176
     1
 90
        0
176
     1
 40
-0.6
176
     1
 41
-30.0
176
     1
 62
     5
 63
     7
421
 16777215
176
     1
 74
     1
176
     1
 91
        4
176
     1
 64
     7
176
     1
 65
   257
176
     1
 75
     1
176
     1
175
     1
176
     1
 42
1.0
176
     1
 92
        0
176
     1
 66
   257
176
     1
 43
1.0
176
     1
 76
     1
176
     1
 77
     6
176
     1
 78
     2
176
     1
 67
     7
176
     1
 79
     5
176
     1
170
     0
176
     1
171
     0
176
     1
290
     0
176
     1
 93
        1
176
     1
 44
0.0
176
     1
173
     0
176
     1
  0
VISUALSTYLE
  5
32
102
{ACAD_REACTORS
330
2A
102
}
330
2A
100
AcDbVisualStyle
  2
Basic
 70
     7
177
     2
291
     1
 71
     1
176
     1
 72
     0
176
     1
 73
     1
176
     1
 90
        0
176
     1
 40
-0.6
176
     1
 41
-30.0
176
     1
 62
     5
 63
     7
421
 16777215
176
     1
 74
     0
176
     1
 91
        4
176
     1
 64
     7
176
     1
 65
   257
176
     1
 75
     1
176
     1
175
     1
176
     1
 42
1.0
176
     1
 92
        8
176
     1
 66
     7
176
     1
 43
1.0
176
     1
 76
     1
176
     1
 77
     6
176
     1
 78
     2
176
     1
 67
     7
176
     1
 79
     5
176
     1
170
     0
176
     1
171
     0
176
     1
290
     0
176
     1
 93
        1
176
     1
 44
0.0
176
     1
173
     0
176
     1
  0
VISUALSTYLE
  5
36
102
{ACAD_REACTORS
330
2A
102
}
330
2A
100
AcDbVisualStyle
  2
Brighten
 70
    12
177
     2
291
     1
 71
     2
176
     1
 72
     2
176
     1
 73
     0
176
     1
 90
        0
176
     1
 40
-0.6
176
     1
 41
-30.0
176
     1
 62
     5
 63
     7
421
 16777215
176
     1
 74
     1
176
     1
 91
        4
176
     1
 64
     7
176
     1
 65
   257
176
     1
 75
     1
176
     1
175
     1
176
     1
 42
1.0
176
     1
 92
        8
176
     1
 66
     7
176
     1
 43
1.0
176
     1
 76
     1
176
     1
 77
     6
176
     1
 78
     2
176
     1
 67
     7
176
     1
 79
     5
176
     1
170
     0
176
     1
171
     0
176
     1
290
     0
176
     1
 93
        1
176
     1
 44
50.0
176
     1
173
     0
176
     1
  0
VISUALSTYLE
  5
3A
102
{ACAD_REACTORS
330
2A
102
}
330
2A
100
AcDbVisualStyle
  2
ColorChange
 70
    16
177
     2
291
     1
 71
     2
176
     1
 72
     2
176
     1
 73
     3
176
     1
 90
        0
176
     1
 40
-0.6
176
     1
 41
-30.0
176
     1
 62
     5
 63
     8
421
  8421504
176
     1
 74
     1
176
     1
 91
        4
176
     1
 64
     7
176
     1
 65
   257
176
     1
 75
     1
176
     1
175
     1
176
     1
 42
1.0
176
     1
 92
        8
176
     1
 66
     8
424
  8421504
176
     1
 43
1.0
176
     1
 76
     1
176
     1
 77
     6
176
     1
 78
     2
176
     1
 67
     7
176
     1
 79
     5
176
     1
170
     0
176
     1
171
     0
176
     1
290
     0
176
     1
 93
        1
176
     1
 44
0.0
176
     1
173
     0
176
     1
  0
VISUALSTYLE
  5
34
102
{ACAD_REACTORS
330
2A
102
}
330
2A
100
AcDbVisualStyle
  2
Conceptual
 70
     9
177
     2
291
     0
 71
     3
176
     1
 72
     2
176
     1
 73
     0
176
     1
 90
        0
176
     1
 40
-0.6
176
     1
 41
-30.0
176
     1
 62
     5
 63
     7
421
 16777215
176
     1
 74
     2
176
     1
 91
        2
176
     1
 64
     7
176
     1
 65
   257
176
     1
 75
     1
176
     1
175
     1
176
     1
 42
40.0
176
     1
 92
        8
176
     1
 66
     7
176
     1
 43
1.0
176
     1
 76
     1
176
     1
 77
     6
176
     1
 78
     2
176
     1
 67
     7
176
     1
 79
     3
176
     1
170
     0
176
     1
171
     0
176
     1
290
     0
176
     1
 93
        1
176
     1
 44
0.0
176
     1
173
     0
176
     1
  0
VISUALSTYLE
  5
35
102
{ACAD_REACTORS
330
2A
102
}
330
2A
100
AcDbVisualStyle
  2
Dim
 70
    11
177
     2
291
     1
 71
     2
176
     1
 72
     2
176
     1
 73
     0
176
     1
 90
        0
176
     1
 40
-0.6
176
     1
 41
-30.0
176
     1
 62
     5
 63
     7
421
 16777215
176
     1
 74
     1
176
     1
 91
        4
176
     1
 64
     7
176
     1
 65
   257
176
     1
 75
     1
176
     1
175
     1
176
     1
 42
1.0
176
     1
 92
        8
176
     1
 66
     7
176
     1
 43
1.0
176
     1
 76
     1
176
     1
 77
     6
176
     1
 78
     2
176
     1
 67
     7
176
     1
 79
     5
176
     1
170
     0
176
     1
171
     0
176
     1
290
     0
176
     1
 93
        1
176
     1
 44
-50.0
176
     1
173
     0
176
     1
  0
VISUALSTYLE
  5
39
102
{ACAD_REACTORS
330
2A
102
}
330
2A
100
AcDbVisualStyle
  2
Facepattern
 70
    15
177
     2
291
     1
 71
     2
176
     1
 72
     2
176
     1
 73
     0
176
     1
 90
        0
176
     1
 40
-0.6
176
     1
 41
-30.0
176
     1
 62
     5
 63
     7
421
 16777215
176
     1
 74
     1
176
     1
 91
        4
176
     1
 64
     7
176
     1
 65
   257
176
     1
 75
     1
176
     1
175
     1
176
     1
 42
1.0
176
     1
 92
        8
176
     1
 66
     7
176
     1
 43
1.0
176
     1
 76
     1
176
     1
 77
     6
176
     1
 78
     2
176
     1
 67
     7
176
     1
 79
     5
176
     1
170
     0
176
     1
171
     0
176
     1
290
     0
176
     1
 93
        1
176
     1
 44
0.0
176
     1
173
     0
176
     1
  0
VISUALSTYLE
  5
2B
102
{ACAD_REACTORS
330
2A
102
}
330
2A
100
AcDbVisualStyle
  2
Flat
 70
     0
177
     2
291
     1
 71
     2
176
     1
 72
     1
176
     1
 73
     1
176
     1
 90
        2
176
     1
 40
-0.6
176
     1
 41
30.0
176
     1
 62
     5
 63
     7
421
 16777215
176
     1
 74
     0
176
     1
 91
        4
176
     1
 64
     7
176
     1
 65
   257
176
     1
 75
     1
176
     1
175
     1
176
     1
 42
1.0
176
     1
 92
        8
176
     1
 66
     7
176
     1
 43
1.0
176
     1
 76
     1
176
     1
 77
     6
176
     1
 78
     2
176
     1
 67
     7
176
     1
 79
     5
176
     1
170
     0
176
     1
171
     0
176
     1
290
     0
176
     1
 93
       13
176
     1
 44
0.0
176
     1
173
     0
176
     1
  0
VISUALSTYLE
  5
2C
102
{ACAD_REACTORS
330
2A
102
}
330
2A
100
AcDbVisualStyle
  2
FlatWithEdges
 70
     1
177
     2
291
     1
 71
     2
176
     1
 72
     1
176
     1
 73
     1
176
     1
 90
        2
176
     1
 40
-0.6
176
     1
 41
30.0
176
     1
 62
     5
 63
     7
421
 16777215
176
     1
 74
     1
176
     1
 91
        4
176
     1
 64
     7
176
     1
 65
   257
176
     1
 75
     1
176
     1
175
     1
176
     1
 42
1.0
176
     1
 92
        0
176
     1
 66
   257
176
     1
 43
1.0
176
     1
 76
     1
176
     1
 77
     6
176
     1
 78
     2
176
     1
 67
     7
176
     1
 79
     5
176
     1
170
     0
176
     1
171
     0
176
     1
290
     0
176
     1
 93
       13
176
     1
 44
0.0
176
     1
173
     0
176
     1
  0
VISUALSTYLE
  5
2D
102
{ACAD_REACTORS
330
2A
102
}
330
2A
100
AcDbVisualStyle
  2
Gouraud
 70
     2
177
     2
291
     1
 71
     2
176
     1
 72
     2
176
     1
 73
     1
176
     1
 90
        2
176
     1
 40
-0.6
176
     1
 41
30.0
176
     1
 62
     5
 63
     7
421
 16777215
176
     1
 74
     0
176
     1
 91
        4
176
     1
 64
     7
176
     1
 65
   257
176
     1
 75
     1
176
     1
175
     1
176
     1
 42
1.0
176
     1
 92
        0
176
     1
 66
     7
176
     1
 43
1.0
176
     1
 76
     1
176
     1
 77
     6
176
     1
 78
     2
176
     1
 67
     7
176
     1
 79
     5
176
     1
170
     0
176
     1
171
     0
176
     1
290
     0
176
     1
 93
       13
176
     1
 44
0.0
176
     1
173
     0
176
     1
  0
VISUALSTYLE
  5
2E
102
{ACAD_REACTORS
330
2A
102
}
330
2A
100
AcDbVisualStyle
  2
GouraudWithEdges
 70
     3
177
     2
291
     1
 71
     2
176
     1
 72
     2
176
     1
 73
     1
176
     1
 90
        2
176
     1
 40
-0.6
176
     1
 41
30.0
176
     1
 62
     5
 63
     7
421
 16777215
176
     1
 74
     1
176
     1
 91
        4
176
     1
 64
     7
176
     1
 65
   257
176
     1
 75
     1
176
     1
175
     1
176
     1
 42
1.0
176
     1
 92
        0
176
     1
 66
   257
176
     1
 43
1.0
176
     1
 76
     1
176
     1
 77
     6
176
     1
 78
     2
176
     1
 67
     7
176
     1
 79
     5
176
     1
170
     0
176
     1
171
     0
176
     1
290
     0
176
     1
 93
       13
176
     1
 44
0.0
176
     1
173
     0
176
     1
  0
VISUALSTYLE
  5
38
102
{ACAD_REACTORS
330
2A
102
}
330
2A
100
AcDbVisualStyle
  2
Linepattern
 70
    14
177
     2
291
     1
 71
     2
176
     1
 72
     2
176
     1
 73
     0
176
     1
 90
        0
176
     1
 40
-0.6
176
     1
 41
-30.0
176
     1
 62
     5
 63
     7
421
 16777215
176
     1
 74
     1
176
     1
 91
        4
176
     1
 64
     7
176
     1
 65
   257
176
     1
 75
     7
176
     1
175
     7
176
     1
 42
1.0
176
     1
 92
        8
176
     1
 66
     7
176
     1
 43
1.0
176
     1
 76
     1
176
     1
 77
     6
176
     1
 78
     2
176
     1
 67
     7
176
     1
 79
     5
176
     1
170
     0
176
     1
171
     0
176
     1
290
     0
176
     1
 93
        1
176
     1
 44
0.0
176
     1
173
     0
176
     1
  0
VISUALSTYLE
  5
33
102
{ACAD_REACTORS
330
2A
102
}
330
2A
100
AcDbVisualStyle
  2
Realistic
 70
     8
177
     2
291
     0
 71
     2
176
     1
 72
     2
176
     1
 73
     0
176
     1
 90
        0
176
     1
 40
-0.6
176
     1
 41
-30.0
176
     1
 62
     5
 63
     7
421
 16777215
176
     1
 74
     1
176
     1
 91
        0
176
     1
 64
     7
176
     1
 65
   257
176
     1
 75
     1
176
     1
175
     1
176
     1
 42
1.0
176
     1
 92
        8
176
     1
 66
     8
424
  7895160
176
     1
 43
1.0
176
     1
 76
     1
176
     1
 77
     6
176
     1
 78
     2
176
     1
 67
     7
176
     1
 79
     5
176
     1
170
     0
176
     1
171
     0
176
     1
290
     0
176
     1
 93
       13
176
     1
 44
0.0
176
     1
173
     0
176
     1
  0
VISUALSTYLE
  5
37
102
{ACAD_REACTORS
330
2A
102
}
330
2A
100
AcDbVisualStyle
  2
Thicken
 70
    13
177
     2
291
     1
 71
     2
176
     1
 72
     2
176
     1
 73
     0
176
     1
 90
        0
176
     1
 40
-0.6
176
     1
 41
-30.0
176
     1
 62
     5
 63
     7
421
 16777215
176
     1
 74
     1
176
     1
 91
        4
176
     1
 64
     7
176
     1
 65
   257
176
     1
 75
     1
176
     1
175
     1
176
     1
 42
1.0
176
     1
 92
       12
176
     1
 66
     7
176
     1
 43
1.0
176
     1
 76
     1
176
     1
 77
     6
176
     1
 78
     2
176
     1
 67
     7
176
     1
 79
     5
176
     1
170
     0
176
     1
171
     0
176
     1
290
     0
176
     1
 93
        1
176
     1
 44
0.0
176
     1
173
     0
176
     1
  0
ENDSEC
  0
EOF
