  0
SECTION
  2
HEADER
  9
$ACADVER
  1
AC1024
  9
$ACADMAINTVER
 70
     6
  9
$DWGCODEPAGE
  3
UNDEFINED
  9
$INSBASE
 10
0.0
 20
0.0
 30
0.0
  9
$EXTMIN
 10
1.000000000000000E+20
 20
1.000000000000000E+20
 30
1.000000000000000E+20
  9
$EXTMAX
 10
-1.000000000000000E+20
 20
-1.000000000000000E+20
 30
-1.000000000000000E+20
  9
$LIMMIN
 10
0.0
 20
0.0
  9
$LIMMAX
 10
12.0
 20
9.0
  9
$ORTHOMODE
 70
     0
  9
$REGENMODE
 70
     1
  9
$FILLMODE
 70
     1
  9
$QTEXTMODE
 70
     0
  9
$MIRRTEXT
 70
     1
  9
$LTSCALE
 40
1.0
  9
$ATTMODE
 70
     1
  9
$TEXTSIZE
 40
0.2
  9
$TRACEWID
 40
0.05
  9
$TEXTSTYLE
  7
Standard
  9
$CLAYER
  8
0
  9
$CELTYPE
  6
ByLayer
  9
$CECOLOR
 62
   256
  9
$CELTSCALE
 40
1.0
  9
$DISPSILH
 70
     0
  9
$DIMSCALE
 40
1.0
  9
$DIMASZ
 40
0.18
  9
$DIMEXO
 40
0.0625
  9
$DIMDLI
 40
0.38
  9
$DIMRND
 40
0.0
  9
$DIMDLE
 40
0.0
  9
$DIMEXE
 40
0.18
  9
$DIMTP
 40
0.0
  9
$DIMTM
 40
0.0
  9
$DIMTXT
 40
0.18
  9
$DIMCEN
 40
0.09
  9
$DIMTSZ
 40
0.0
  9
$DIMTOL
 70
     0
  9
$DIMLIM
 70
     0
  9
$DIMTIH
 70
     1
  9
$DIMTOH
 70
     1
  9
$DIMSE1
 70
     0
  9
$DIMSE2
 70
     0
  9
$DIMTAD
 70
     0
  9
$DIMZIN
 70
     0
  9
$DIMBLK
  1

  9
$DIMASO
 70
     1
  9
$DIMSHO
 70
     1
  9
$DIMPOST
  1

  9
$DIMAPOST
  1

  9
$DIMALT
 70
     0
  9
$DIMALTD
 70
     2
  9
$DIMALTF
 40
25.4
  9
$DIMLFAC
 40
1.0
  9
$DIMTOFL
 70
     0
  9
$DIMTVP
 40
0.0
  9
$DIMTIX
 70
     0
  9
$DIMSOXD
 70
     0
  9
$DIMSAH
 70
     0
  9
$DIMBLK1
  1

  9
$DIMBLK2
  1

  9
$DIMSTYLE
  2
Standard
  9
$DIMCLRD
 70
     0
  9
$DIMCLRE
 70
     0
  9
$DIMCLRT
 70
     0
  9
$DIMTFAC
 40
1.0
  9
$DIMGAP
 40
0.09
  9
$DIMJUST
 70
     0
  9
$DIMSD1
 70
     0
  9
$DIMSD2
 70
     0
  9
$DIMTOLJ
 70
     1
  9
$DIMTZIN
 70
     0
  9
$DIMALTZ
 70
     0
  9
$DIMALTTZ
 70
     0
  9
$DIMUPT
 70
     0
  9
$DIMDEC
 70
     4
  9
$DIMTDEC
 70
     4
  9
$DIMALTU
 70
     2
  9
$DIMALTTD
 70
     2
  9
$DIMTXSTY
  7
Standard
  9
$DIMAUNIT
 70
     0
  9
$DIMADEC
 70
     0
  9
$DIMALTRND
 40
0.0
  9
$DIMAZIN
 70
     0
  9
$DIMDSEP
 70
    46
  9
$DIMATFIT
 70
     3
  9
$DIMFRAC
 70
     0
  9
$DIMLDRBLK
  1

  9
$DIMLUNIT
 70
     2
  9
$DIMLWD
 70
    -2
  9
$DIMLWE
 70
    -2
  9
$DIMTMOVE
 70
     0
  9
$DIMFXL
 40
1.0
  9
$DIMFXLON
 70
     0
  9
$DIMJOGANG
 40
0.7853981633974483
  9
$DIMTFILL
 70
     0
  9
$DIMTFILLCLR
 70
     0
  9
$DIMARCSYM
 70
     0
  9
$DIMLTYPE
  6

  9
$DIMLTEX1
  6

  9
$DIMLTEX2
  6

  9
$DIMTXTDIRECTION
 70
     0
  9
$LUNITS
 70
     2
  9
$LUPREC
 70
     4
  9
$SKETCHINC
 40
0.1
  9
$FILLETRAD
 40
0.5
  9
$AUNITS
 70
     0
  9
$AUPREC
 70
     0
  9
$MENU
  1
.
  9
$ELEVATION
 40
0.0
  9
$PELEVATION
 40
0.0
  9
$THICKNESS
 40
0.0
  9
$LIMCHECK
 70
     0
  9
$CHAMFERA
 40
0.5
  9
$CHAMFERB
 40
0.5
  9
$CHAMFERC
 40
1.0
  9
$CHAMFERD
 40
0.0
  9
$SKPOLY
 70
     0
  9
$TDCREATE
 40
2457917.591886562
  9
$TDUCREATE
 40
2457917.216886574
  9
$TDUPDATE
 40
2457917.591886562
  9
$TDUUPDATE
 40
2457917.216886574
  9
$TDINDWG
 40
0.0000000116
  9
$TDUSRTIMER
 40
0.0000000116
  9
$USRTIMER
 70
     1
  9
$ANGBASE
 50
0.0
  9
$ANGDIR
 70
     0
  9
$PDMODE
 70
     0
  9
$PDSIZE
 40
0.0
  9
$PLINEWID
 40
0.0
  9
$SPLFRAME
 70
     0
  9
$SPLINETYPE
 70
     6
  9
$SPLINESEGS
 70
     8
  9
$HANDSEED
  5
131
  9
$SURFTAB1
 70
     6
  9
$SURFTAB2
 70
     6
  9
$SURFTYPE
 70
     6
  9
$SURFU
 70
     6
  9
$SURFV
 70
     6
  9
$UCSBASE
  2

  9
$UCSNAME
  2

  9
$UCSORG
 10
0.0
 20
0.0
 30
0.0
  9
$UCSXDIR
 10
1.0
 20
0.0
 30
0.0
  9
$UCSYDIR
 10
0.0
 20
1.0
 30
0.0
  9
$UCSORTHOREF
  2

  9
$UCSORTHOVIEW
 70
     0
  9
$UCSORGTOP
 10
0.0
 20
0.0
 30
0.0
  9
$UCSORGBOTTOM
 10
0.0
 20
0.0
 30
0.0
  9
$UCSORGLEFT
 10
0.0
 20
0.0
 30
0.0
  9
$UCSORGRIGHT
 10
0.0
 20
0.0
 30
0.0
  9
$UCSORGFRONT
 10
0.0
 20
0.0
 30
0.0
  9
$UCSORGBACK
 10
0.0
 20
0.0
 30
0.0
  9
$PUCSBASE
  2

  9
$PUCSNAME
  2

  9
$PUCSORG
 10
0.0
 20
0.0
 30
0.0
  9
$PUCSXDIR
 10
1.0
 20
0.0
 30
0.0
  9
$PUCSYDIR
 10
0.0
 20
1.0
 30
0.0
  9
$PUCSORTHOREF
  2

  9
$PUCSORTHOVIEW
 70
     0
  9
$PUCSORGTOP
 10
0.0
 20
0.0
 30
0.0
  9
$PUCSORGBOTTOM
 10
0.0
 20
0.0
 30
0.0
  9
$PUCSORGLEFT
 10
0.0
 20
0.0
 30
0.0
  9
$PUCSORGRIGHT
 10
0.0
 20
0.0
 30
0.0
  9
$PUCSORGFRONT
 10
0.0
 20
0.0
 30
0.0
  9
$PUCSORGBACK
 10
0.0
 20
0.0
 30
0.0
  9
$USERI1
 70
     0
  9
$USERI2
 70
     0
  9
$USERI3
 70
     0
  9
$USERI4
 70
     0
  9
$USERI5
 70
     0
  9
$USERR1
 40
0.0
  9
$USERR2
 40
0.0
  9
$USERR3
 40
0.0
  9
$USERR4
 40
0.0
  9
$USERR5
 40
0.0
  9
$WORLDVIEW
 70
     1
  9
$SHADEDGE
 70
     3
  9
$SHADEDIF
 70
    70
  9
$TILEMODE
 70
     1
  9
$MAXACTVP
 70
    64
  9
$PINSBASE
 10
0.0
 20
0.0
 30
0.0
  9
$PLIMCHECK
 70
     0
  9
$PEXTMIN
 10
1.000000000000000E+20
 20
1.000000000000000E+20
 30
1.000000000000000E+20
  9
$PEXTMAX
 10
-1.000000000000000E+20
 20
-1.000000000000000E+20
 30
-1.000000000000000E+20
  9
$PLIMMIN
 10
0.0
 20
0.0
  9
$PLIMMAX
 10
12.0
 20
9.0
  9
$UNITMODE
 70
     0
  9
$VISRETAIN
 70
     1
  9
$PLINEGEN
 70
     0
  9
$PSLTSCALE
 70
     1
  9
$TREEDEPTH
 70
  3020
  9
$CMLSTYLE
  2
Standard
  9
$CMLJUST
 70
     0
  9
$CMLSCALE
 40
1.0
  9
$PROXYGRAPHICS
 70
     1
  9
$MEASUREMENT
 70
     0
  9
$CELWEIGHT
370
    -1
  9
$ENDCAPS
280
     0
  9
$JOINSTYLE
280
     0
  9
$LWDISPLAY
290
     1
  9
$INSUNITS
 70
     1
  9
$HYPERLINKBASE
  1

  9
$STYLESHEET
  1

  9
$XEDIT
290
     1
  9
$CEPSNTYPE
380
     0
  9
$PSTYLEMODE
290
     1
  9
$FINGERPRINTGUID
  2
{A33E56F3-541D-74FF-AA09-E03F89BCFFCA}
  9
$VERSIONGUID
  2
{FAEB1C32-E019-11D5-929B-00C0DF256EC4}
  9
$EXTNAMES
290
     1
  9
$PSVPSCALE
 40
0.0
  9
$OLESTARTUP
290
     0
  9
$SORTENTS
280
   127
  9
$INDEXCTL
280
     0
  9
$HIDETEXT
280
     1
  9
$XCLIPFRAME
280
     2
  9
$HALOGAP
280
     0
  9
$OBSCOLOR
 70
   257
  9
$OBSLTYPE
280
     0
  9
$INTERSECTIONDISPLAY
280
     0
  9
$INTERSECTIONCOLOR
 70
   257
  9
$DIMASSOC
280
     2
  9
$PROJECTNAME
  1

  9
$CAMERADISPLAY
290
     0
  9
$LENSLENGTH
 40
50.0
  9
$CAMERAHEIGHT
 40
0.0
  9
$STEPSPERSEC
 40
2.0
  9
$STEPSIZE
 40
6.0
  9
$3DDWFPREC
 40
2.0
  9
$PSOLWIDTH
 40
0.25
  9
$PSOLHEIGHT
 40
4.0
  9
$LOFTANG1
 40
1.570796326794897
  9
$LOFTANG2
 40
1.570796326794897
  9
$LOFTMAG1
 40
0.0
  9
$LOFTMAG2
 40
0.0
  9
$LOFTPARAM
 70
     7
  9
$LOFTNORMALS
280
     1
  9
$LATITUDE
 40
37.795
  9
$LONGITUDE
 40
-122.394
  9
$NORTHDIRECTION
 40
0.0
  9
$TIMEZONE
 70
 -8000
  9
$LIGHTGLYPHDISPLAY
280
     1
  9
$TILEMODELIGHTSYNCH
280
     1
  9
$CMATERIAL
347
3C
  9
$SOLIDHIST
280
     1
  9
$SHOWHIST
280
     1
  9
$DWFFRAME
280
     2
  9
$DGNFRAME
280
     2
  9
$REALWORLDSCALE
290
     1
  9
$INTERFERECOLOR
 62
   256
  9
$CSHADOW
280
     0
  9
$SHADOWPLANELOCATION
 40
0.0
  0
ENDSEC
  0
SECTION
  2
CLASSES
  0
CLASS
  1
ACDBDICTIONARYWDFLT
  2
AcDbDictionaryWithDefault
  3
ObjectDBX Classes
 90
        0
 91
        4
280
     0
281
     0
  0
CLASS
  1
VISUALSTYLE
  2
AcDbVisualStyle
  3
ObjectDBX Classes
 90
     4095
 91
        4
280
     0
281
     0
  0
CLASS
  1
MATERIAL
  2
AcDbMaterial
  3
ObjectDBX Classes
 90
     1153
 91
        4
280
     0
281
     0
  0
CLASS
  1
SUN
  2
AcDbSun
  3
SCENEOE
 90
     1024
 91
        4
280
     0
281
     0
  0
ENDSEC
  0
SECTION
  2
TABLES
  0
TABLE
  2
VPORT
  5
8
330
0
100
AcDbSymbolTable
 70
     1
  0
VPORT
  5
29
330
8
100
AcDbSymbolTableRecord
100
AcDbViewportTableRecord
  2
*Active
 70
     0
 10
0.0
 20
0.0
 11
1.0
 21
1.0
 12
0.0
 22
0.0
 13
0.0
 23
0.0
 14
0.5
 24
0.5
 15
0.5
 25
0.5
 16
0.0
 26
0.0
 36
1.0
 17
91.00082462281999
 27
-128.4993055234307
 37
0.0
 40
256.9986110468615
 41
0.7081814508812795
 42
50.0
 43
0.0
 44
0.0
 50
0.0
 51
0.0
 71
     0
 72
   100
 73
     1
 74
     3
 75
     0
 76
     0
 77
     0
 78
     0
281
     0
 65
     1
110
0.0
120
0.0
130
0.0
111
1.0
121
0.0
131
0.0
112
0.0
122
1.0
132
0.0
 79
     0
146
0.0
 60
     3
 61
     5
292
     1
282
     1
141
0.0
142
0.0
 63
   250
361
3F
  0
ENDTAB
  0
TABLE
  2
LTYPE
  5
5
330
0
100
AcDbSymbolTable
 70
     1
  0
LTYPE
  5
14
330
5
100
AcDbSymbolTableRecord
100
AcDbLinetypeTableRecord
  2
ByBlock
 70
     0
  3

 72
    65
 73
     0
 40
0.0
  0
LTYPE
  5
15
330
5
100
AcDbSymbolTableRecord
100
AcDbLinetypeTableRecord
  2
ByLayer
 70
     0
  3

 72
    65
 73
     0
 40
0.0
  0
LTYPE
  5
16
330
5
100
AcDbSymbolTableRecord
100
AcDbLinetypeTableRecord
  2
Continuous
 70
     0
  3
Solid line
 72
    65
 73
     0
 40
0.0
  0
ENDTAB
  0
TABLE
  2
LAYER
  5
2
330
0
100
AcDbSymbolTable
 70
     2
  0
LAYER
  5
10
330
2
100
AcDbSymbolTableRecord
100
AcDbLayerTableRecord
  2
0
 70
     0
 62
     7
  6
Continuous
370
    -3
390
F
347
3E
  0
LAYER
  5
40
330
2
100
AcDbSymbolTableRecord
100
AcDbLayerTableRecord
  2
_U+30EC_U+30A4_U+30E4_U+30FC 1
 70
     0
 62
     7
  6
Continuous
370
    -3
390
F
347
3E
  0
ENDTAB
  0
TABLE
  2
STYLE
  5
3
330
0
100
AcDbSymbolTable
 70
     1
  0
STYLE
  5
11
330
3
100
AcDbSymbolTableRecord
100
AcDbTextStyleTableRecord
  2
Standard
 70
     0
 40
0.0
 41
1.0
 50
0.0
 71
     0
 42
0.2
  3
txt
  4

  0
ENDTAB
  0
TABLE
  2
VIEW
  5
6
330
0
100
AcDbSymbolTable
 70
     0
  0
ENDTAB
  0
TABLE
  2
UCS
  5
7
330
0
100
AcDbSymbolTable
 70
     0
  0
ENDTAB
  0
TABLE
  2
APPID
  5
9
330
0
100
AcDbSymbolTable
 70
     1
  0
APPID
  5
12
330
9
100
AcDbSymbolTableRecord
100
AcDbRegAppTableRecord
  2
ACAD
 70
     0
  0
ENDTAB
  0
TABLE
  2
DIMSTYLE
  5
A
330
0
100
AcDbSymbolTable
 70
     1
100
AcDbDimStyleTable
  0
DIMSTYLE
105
27
330
A
100
AcDbSymbolTableRecord
100
AcDbDimStyleTableRecord
  2
Standard
 70
     0
178
     0
340
11
  0
ENDTAB
  0
TABLE
  2
BLOCK_RECORD
  5
1
330
0
100
AcDbSymbolTable
 70
     8
  0
BLOCK_RECORD
  5
1F
330
1
100
AcDbSymbolTableRecord
100
AcDbBlockTableRecord
  2
*Model_Space
340
22
 70
     0
280
     1
281
     0
  0
BLOCK_RECORD
  5
1B
330
1
100
AcDbSymbolTableRecord
100
AcDbBlockTableRecord
  2
*Paper_Space
340
1E
 70
     0
280
     1
281
     0
  0
BLOCK_RECORD
  5
23
330
1
100
AcDbSymbolTableRecord
100
AcDbBlockTableRecord
  2
*Paper_Space0
340
26
 70
     0
280
     1
281
     0
  0
BLOCK_RECORD
  5
DD
330
1
100
AcDbSymbolTableRecord
100
AcDbBlockTableRecord
  2
block 2
340
0
102
{BLKREFS
331
DE
102
}
 70
     0
280
     1
281
     0
  0
BLOCK_RECORD
  5
E3
330
1
100
AcDbSymbolTableRecord
100
AcDbBlockTableRecord
  2
block 3
340
0
102
{BLKREFS
331
E4
102
}
 70
     0
280
     1
281
     0
  0
BLOCK_RECORD
  5
E9
330
1
100
AcDbSymbolTableRecord
100
AcDbBlockTableRecord
  2
block 4
340
0
102
{BLKREFS
331
EA
102
}
 70
     0
280
     1
281
     0
  0
BLOCK_RECORD
  5
F2
330
1
100
AcDbSymbolTableRecord
100
AcDbBlockTableRecord
  2
block 5
340
0
102
{BLKREFS
331
F3
102
}
 70
     0
280
     1
281
     0
  0
BLOCK_RECORD
  5
10E
330
1
100
AcDbSymbolTableRecord
100
AcDbBlockTableRecord
  2
block 6
340
0
102
{BLKREFS
331
10F
102
}
 70
     0
280
     1
281
     0
  0
BLOCK_RECORD
  5
114
330
1
100
AcDbSymbolTableRecord
100
AcDbBlockTableRecord
  2
block 7
340
0
102
{BLKREFS
331
115
102
}
 70
     0
280
     1
281
     0
  0
BLOCK_RECORD
  5
125
330
1
100
AcDbSymbolTableRecord
100
AcDbBlockTableRecord
  2
block 8
340
0
102
{BLKREFS
331
126
102
}
 70
     0
280
     1
281
     0
  0
ENDTAB
  0
ENDSEC
  0
SECTION
  2
BLOCKS
  0
BLOCK
  5
20
330
1F
100
AcDbEntity
  8
0
100
AcDbBlockBegin
  2
*Model_Space
 70
     0
 10
0.0
 20
0.0
 30
0.0
  3
*Model_Space
  1

  0
ENDBLK
  5
21
330
1F
100
AcDbEntity
  8
0
100
AcDbBlockEnd
  0
BLOCK
  5
1C
330
1B
100
AcDbEntity
 67
     1
  8
0
100
AcDbBlockBegin
  2
*Paper_Space
 70
     0
 10
0.0
 20
0.0
 30
0.0
  3
*Paper_Space
  1

  0
ENDBLK
  5
1D
330
1B
100
AcDbEntity
 67
     1
  8
0
100
AcDbBlockEnd
  0
BLOCK
  5
24
330
23
100
AcDbEntity
  8
0
100
AcDbBlockBegin
  2
*Paper_Space0
 70
     0
 10
0.0
 20
0.0
 30
0.0
  3
*Paper_Space0
  1

  0
ENDBLK
  5
25
330
23
100
AcDbEntity
  8
0
100
AcDbBlockEnd
  0
BLOCK
  5
DF
330
DD
100
AcDbEntity
  8
0
100
AcDbBlockBegin
  2
block 2
 70
     0
 10
0.0
 20
0.0
 30
0.0
  3
block 2
  1

  0
SPLINE
  5
E1
330
DD
100
AcDbEntity
  8
_U+30EC_U+30A4_U+30E4_U+30FC 1
370
     0
100
AcDbSpline
210
0.0
220
0.0
230
1.0
 70
    11
 71
     3
 72
    26
 73
    22
 74
     0
 42
0.0000000001
 43
0.0000000001
 12
1.0
 22
0.0
 32
0.0
 13
1.0
 23
0.0
 33
0.0
 40
0.0
 40
0.0
 40
0.0
 40
0.0
 40
1.0
 40
1.0
 40
1.0
 40
2.0
 40
2.0
 40
2.0
 40
3.0
 40
3.0
 40
3.0
 40
4.0
 40
4.0
 40
4.0
 40
5.0
 40
5.0
 40
5.0
 40
6.0
 40
6.0
 40
6.0
 40
7.0
 40
7.0
 40
7.0
 40
7.0
 10
117.8456922448441
 20
-127.2892157342367
 30
0.0
 10
117.8456922448441
 20
-127.2892157342367
 30
0.0
 10
116.7415391418216
 20
-127.2892157342367
 30
0.0
 10
116.7415391418216
 20
-127.2892157342367
 30
0.0
 10
116.7415391418216
 20
-127.2892157342367
 30
0.0
 10
116.7415391418216
 20
-127.6419935119263
 30
0.0
 10
116.7415391418216
 20
-127.6419935119263
 30
0.0
 10
116.7415391418216
 20
-127.6419935119263
 30
0.0
 10
116.5934000359558
 20
-127.6419935119263
 30
0.0
 10
116.5934000359558
 20
-127.6419935119263
 30
0.0
 10
116.5785861253692
 20
-127.2869764221713
 30
0.0
 10
116.4156331089169
 20
-127.2371947924095
 30
0.0
 10
116.3012559388066
 20
-127.2056721687194
 30
0.0
 10
116.3012559388066
 20
-127.2056721687194
 30
0.0
 10
116.3012559388066
 20
-127.0496093432376
 30
0.0
 10
116.3012559388066
 20
-127.0496093432376
 30
0.0
 10
116.3012559388066
 20
-127.0496093432376
 30
0.0
 10
117.8456922448441
 20
-127.0496093432376
 30
0.0
 10
117.8456922448441
 20
-127.0496093432376
 30
0.0
 10
117.8456922448441
 20
-127.0496093432376
 30
0.0
 10
117.8456922448441
 20
-127.2892157342367
 30
0.0
 10
117.8456922448441
 20
-127.2892157342367
 30
0.0
  0
HATCH
  5
E2
330
DD
100
AcDbEntity
  8
_U+30EC_U+30A4_U+30E4_U+30FC 1
 62
   179
420
  2234388
100
AcDbHatch
 10
0.0
 20
0.0
 30
0.0
210
0.0
220
0.0
230
1.0
  2
SOLID
 70
     1
 71
     0
 91
        1
 92
        1
 93
        1
 72
     4
 94
        3
 73
     0
 74
     1
 95
       26
 96
       22
 40
0.0
 40
0.0
 40
0.0
 40
0.0
 40
1.0
 40
1.0
 40
1.0
 40
2.0
 40
2.0
 40
2.0
 40
3.0
 40
3.0
 40
3.0
 40
4.0
 40
4.0
 40
4.0
 40
5.0
 40
5.0
 40
5.0
 40
6.0
 40
6.0
 40
6.0
 40
7.0
 40
7.0
 40
7.0
 40
7.0
 10
117.8456922448441
 20
-127.2892157342367
 10
117.8456922448441
 20
-127.2892157342367
 10
116.7415391418216
 20
-127.2892157342367
 10
116.7415391418216
 20
-127.2892157342367
 10
116.7415391418216
 20
-127.2892157342367
 10
116.7415391418216
 20
-127.6419935119263
 10
116.7415391418216
 20
-127.6419935119263
 10
116.7415391418216
 20
-127.6419935119263
 10
116.5934000359558
 20
-127.6419935119263
 10
116.5934000359558
 20
-127.6419935119263
 10
116.5785861253692
 20
-127.2869764221713
 10
116.4156331089169
 20
-127.2371947924095
 10
116.3012559388066
 20
-127.2056721687194
 10
116.3012559388066
 20
-127.2056721687194
 10
116.3012559388066
 20
-127.0496093432376
 10
116.3012559388066
 20
-127.0496093432376
 10
116.3012559388066
 20
-127.0496093432376
 10
117.8456922448441
 20
-127.0496093432376
 10
117.8456922448441
 20
-127.0496093432376
 10
117.8456922448441
 20
-127.0496093432376
 10
117.8456922448441
 20
-127.2892157342367
 10
117.8456922448441
 20
-127.2892157342367
 97
        0
 97
        0
 75
     2
 76
     1
 98
        0
  0
ENDBLK
  5
E0
330
DD
100
AcDbEntity
  8
0
100
AcDbBlockEnd
  0
BLOCK
  5
E5
330
E3
100
AcDbEntity
  8
0
100
AcDbBlockBegin
  2
block 3
 70
     0
 10
0.0
 20
0.0
 30
0.0
  3
block 3
  1

  0
SPLINE
  5
E7
330
E3
100
AcDbEntity
  8
_U+30EC_U+30A4_U+30E4_U+30FC 1
370
     0
100
AcDbSpline
210
0.0
220
0.0
230
1.0
 70
    11
 71
     3
 72
    62
 73
    58
 74
     0
 42
0.0000000001
 43
0.0000000001
 12
1.0
 22
0.0
 32
0.0
 13
1.0
 23
0.0
 33
0.0
 40
0.0
 40
0.0
 40
0.0
 40
0.0
 40
1.0
 40
1.0
 40
1.0
 40
2.0
 40
2.0
 40
2.0
 40
3.0
 40
3.0
 40
3.0
 40
4.0
 40
4.0
 40
4.0
 40
5.0
 40
5.0
 40
5.0
 40
6.0
 40
6.0
 40
6.0
 40
7.0
 40
7.0
 40
7.0
 40
8.0
 40
8.0
 40
8.0
 40
9.0
 40
9.0
 40
9.0
 40
10.0
 40
10.0
 40
10.0
 40
11.0
 40
11.0
 40
11.0
 40
12.0
 40
12.0
 40
12.0
 40
13.0
 40
13.0
 40
13.0
 40
14.0
 40
14.0
 40
14.0
 40
15.0
 40
15.0
 40
15.0
 40
16.0
 40
16.0
 40
16.0
 40
17.0
 40
17.0
 40
17.0
 40
18.0
 40
18.0
 40
18.0
 40
19.0
 40
19.0
 40
19.0
 40
19.0
 10
117.6613796363833
 20
-137.1296142235301
 30
0.0
 10
117.6613796363833
 20
-137.231244540345
 30
0.0
 10
117.6403645539232
 20
-137.4641329951478
 30
0.0
 10
117.4543293977198
 20
-137.597458190427
 30
0.0
 10
117.3420192849006
 20
-137.6766953865878
 30
0.0
 10
117.2428005349254
 20
-137.6811740107186
 30
0.0
 10
117.1580511859883
 20
-137.6856526348494
 30
0.0
 10
117.1580511859883
 20
-137.6856526348494
 30
0.0
 10
117.1580511859883
 20
-137.4506971227554
 30
0.0
 10
117.1580511859883
 20
-137.4506971227554
 30
0.0
 10
117.2321207389211
 20
-137.4482855559157
 30
0.0
 10
117.4667317414667
 20
-137.4369167408144
 30
0.0
 10
117.4667317414667
 20
-137.1340928476609
 30
0.0
 10
117.4667317414667
 20
-136.9869872704407
 30
0.0
 10
117.3971408126646
 20
-136.824378763537
 30
0.0
 10
117.1687309819925
 20
-136.824378763537
 30
0.0
 10
117.0522867545911
 20
-136.824378763537
 30
0.0
 10
117.0037109082491
 20
-136.8650308902629
 30
0.0
 10
116.9720160297848
 20
-136.8991373355669
 30
0.0
 10
116.8979464768519
 20
-136.9780300221791
 30
0.0
 10
116.8851996235565
 20
-137.1023979691966
 30
0.0
 10
116.8851996235565
 20
-137.1613091019944
 30
0.0
 10
116.8851996235565
 20
-137.1816351653574
 30
0.0
 10
116.8872666808476
 20
-137.2198757252436
 30
0.0
 10
116.8914007954299
 20
-137.2495035464168
 30
0.0
 10
116.8914007954299
 20
-137.2495035464168
 30
0.0
 10
116.6967529005133
 20
-137.2495035464168
 30
0.0
 10
116.6967529005133
 20
-137.2495035464168
 30
0.0
 10
116.7032985819353
 20
-137.2088514196909
 30
0.0
 10
116.7053656392264
 20
-137.1633761592855
 30
0.0
 10
116.7053656392264
 20
-137.1568304778636
 30
0.0
 10
116.7053656392264
 20
-137.0865505299645
 30
0.0
 10
116.6840060472179
 20
-136.8739881385246
 30
0.0
 10
116.4473279873812
 20
-136.8739881385246
 30
0.0
 10
116.2695610603423
 20
-136.8739881385246
 30
0.0
 10
116.2144395325783
 20
-137.0142035247742
 30
0.0
 10
116.2144395325783
 20
-137.1316812808213
 30
0.0
 10
116.2144395325783
 20
-137.4145236201603
 30
0.0
 10
116.4473279873812
 20
-137.4234808684219
 30
0.0
 10
116.5189859734744
 20
-137.4279594925527
 30
0.0
 10
116.5189859734744
 20
-137.4279594925527
 30
0.0
 10
116.5189859734744
 20
-137.6450005081235
 30
0.0
 10
116.5189859734744
 20
-137.6450005081235
 30
0.0
 10
116.3942735169084
 20
-137.6360432598618
 30
0.0
 10
116.0177245803706
 20
-137.6067599482372
 30
0.0
 10
116.0177245803706
 20
-137.1182454084288
 30
0.0
 10
116.0177245803706
 20
-136.8784667626554
 30
0.0
 10
116.1448486037763
 20
-136.6207736203587
 30
0.0
 10
116.4407823059593
 20
-136.6207736203587
 30
0.0
 10
116.6271619717113
 20
-136.6207736203587
 30
0.0
 10
116.7094997538087
 20
-136.7227484467221
 30
0.0
 10
116.7708224534462
 20
-136.8288573876678
 30
0.0
 10
116.7983832173282
 20
-136.7634005734481
 30
0.0
 10
116.8786539421345
 20
-136.5687526785314
 30
0.0
 10
117.1559841286971
 20
-136.5687526785314
 30
0.0
 10
117.4942925053487
 20
-136.5687526785314
 30
0.0
 10
117.6613796363833
 20
-136.8333360117986
 30
0.0
 10
117.6613796363833
 20
-137.1296142235301
 30
0.0
  0
HATCH
  5
E8
330
E3
100
AcDbEntity
  8
_U+30EC_U+30A4_U+30E4_U+30FC 1
 62
   179
420
  2234388
100
AcDbHatch
 10
0.0
 20
0.0
 30
0.0
210
0.0
220
0.0
230
1.0
  2
SOLID
 70
     1
 71
     0
 91
        1
 92
        1
 93
        1
 72
     4
 94
        3
 73
     0
 74
     1
 95
       62
 96
       58
 40
0.0
 40
0.0
 40
0.0
 40
0.0
 40
1.0
 40
1.0
 40
1.0
 40
2.0
 40
2.0
 40
2.0
 40
3.0
 40
3.0
 40
3.0
 40
4.0
 40
4.0
 40
4.0
 40
5.0
 40
5.0
 40
5.0
 40
6.0
 40
6.0
 40
6.0
 40
7.0
 40
7.0
 40
7.0
 40
8.0
 40
8.0
 40
8.0
 40
9.0
 40
9.0
 40
9.0
 40
10.0
 40
10.0
 40
10.0
 40
11.0
 40
11.0
 40
11.0
 40
12.0
 40
12.0
 40
12.0
 40
13.0
 40
13.0
 40
13.0
 40
14.0
 40
14.0
 40
14.0
 40
15.0
 40
15.0
 40
15.0
 40
16.0
 40
16.0
 40
16.0
 40
17.0
 40
17.0
 40
17.0
 40
18.0
 40
18.0
 40
18.0
 40
19.0
 40
19.0
 40
19.0
 40
19.0
 10
117.6613796363833
 20
-137.1296142235301
 10
117.6613796363833
 20
-137.231244540345
 10
117.6403645539232
 20
-137.4641329951478
 10
117.4543293977198
 20
-137.597458190427
 10
117.3420192849006
 20
-137.6766953865878
 10
117.2428005349254
 20
-137.6811740107186
 10
117.1580511859883
 20
-137.6856526348494
 10
117.1580511859883
 20
-137.6856526348494
 10
117.1580511859883
 20
-137.4506971227554
 10
117.1580511859883
 20
-137.4506971227554
 10
117.2321207389211
 20
-137.4482855559157
 10
117.4667317414667
 20
-137.4369167408144
 10
117.4667317414667
 20
-137.1340928476609
 10
117.4667317414667
 20
-136.9869872704407
 10
117.3971408126646
 20
-136.824378763537
 10
117.1687309819925
 20
-136.824378763537
 10
117.0522867545911
 20
-136.824378763537
 10
117.0037109082491
 20
-136.8650308902629
 10
116.9720160297848
 20
-136.8991373355669
 10
116.8979464768519
 20
-136.9780300221791
 10
116.8851996235565
 20
-137.1023979691966
 10
116.8851996235565
 20
-137.1613091019944
 10
116.8851996235565
 20
-137.1816351653574
 10
116.8872666808476
 20
-137.2198757252436
 10
116.8914007954299
 20
-137.2495035464168
 10
116.8914007954299
 20
-137.2495035464168
 10
116.6967529005133
 20
-137.2495035464168
 10
116.6967529005133
 20
-137.2495035464168
 10
116.7032985819353
 20
-137.2088514196909
 10
116.7053656392264
 20
-137.1633761592855
 10
116.7053656392264
 20
-137.1568304778636
 10
116.7053656392264
 20
-137.0865505299645
 10
116.6840060472179
 20
-136.8739881385246
 10
116.4473279873812
 20
-136.8739881385246
 10
116.2695610603423
 20
-136.8739881385246
 10
116.2144395325783
 20
-137.0142035247742
 10
116.2144395325783
 20
-137.1316812808213
 10
116.2144395325783
 20
-137.4145236201603
 10
116.4473279873812
 20
-137.4234808684219
 10
116.5189859734744
 20
-137.4279594925527
 10
116.5189859734744
 20
-137.4279594925527
 10
116.5189859734744
 20
-137.6450005081235
 10
116.5189859734744
 20
-137.6450005081235
 10
116.3942735169084
 20
-137.6360432598618
 10
116.0177245803706
 20
-137.6067599482372
 10
116.0177245803706
 20
-137.1182454084288
 10
116.0177245803706
 20
-136.8784667626554
 10
116.1448486037763
 20
-136.6207736203587
 10
116.4407823059593
 20
-136.6207736203587
 10
116.6271619717113
 20
-136.6207736203587
 10
116.7094997538087
 20
-136.7227484467221
 10
116.7708224534462
 20
-136.8288573876678
 10
116.7983832173282
 20
-136.7634005734481
 10
116.8786539421345
 20
-136.5687526785314
 10
117.1559841286971
 20
-136.5687526785314
 10
117.4942925053487
 20
-136.5687526785314
 10
117.6613796363833
 20
-136.8333360117986
 10
117.6613796363833
 20
-137.1296142235301
 97
        0
 97
        0
 75
     2
 76
     1
 98
        0
  0
ENDBLK
  5
E6
330
E3
100
AcDbEntity
  8
0
100
AcDbBlockEnd
  0
BLOCK
  5
EB
330
E9
100
AcDbEntity
  8
0
100
AcDbBlockBegin
  2
block 4
 70
     0
 10
0.0
 20
0.0
 30
0.0
  3
block 4
  1

  0
SPLINE
  5
ED
330
E9
100
AcDbEntity
  8
_U+30EC_U+30A4_U+30E4_U+30FC 1
370
     0
100
AcDbSpline
210
0.0
220
0.0
230
1.0
 70
    11
 71
     3
 72
    26
 73
    22
 74
     0
 42
0.0000000001
 43
0.0000000001
 12
1.0
 22
0.0
 32
0.0
 13
1.0
 23
0.0
 33
0.0
 40
0.0
 40
0.0
 40
0.0
 40
0.0
 40
1.0
 40
1.0
 40
1.0
 40
2.0
 40
2.0
 40
2.0
 40
3.0
 40
3.0
 40
3.0
 40
4.0
 40
4.0
 40
4.0
 40
5.0
 40
5.0
 40
5.0
 40
6.0
 40
6.0
 40
6.0
 40
7.0
 40
7.0
 40
7.0
 40
7.0
 10
75.46447209484916
 20
-144.9889105540306
 30
0.0
 10
75.46447209484916
 20
-144.9889105540306
 30
0.0
 10
75.46447209484916
 20
-143.8844129414595
 30
0.0
 10
75.46447209484916
 20
-143.8844129414595
 30
0.0
 10
75.46447209484916
 20
-143.8844129414595
 30
0.0
 10
75.1120388267081
 20
-143.8844129414595
 30
0.0
 10
75.1120388267081
 20
-143.8844129414595
 30
0.0
 10
75.1120388267081
 20
-143.8844129414595
 30
0.0
 10
75.1120388267081
 20
-143.7366183451422
 30
0.0
 10
75.1120388267081
 20
-143.7366183451422
 30
0.0
 10
75.46688366168884
 20
-143.7218044345557
 30
0.0
 10
75.51649303667644
 20
-143.5588514181034
 30
0.0
 10
75.54818791514073
 20
-143.4448187575416
 30
0.0
 10
75.54818791514073
 20
-143.4448187575416
 30
0.0
 10
75.70425074062256
 20
-143.4448187575416
 30
0.0
 10
75.70425074062256
 20
-143.4448187575416
 30
0.0
 10
75.70425074062256
 20
-143.4448187575416
 30
0.0
 10
75.70425074062256
 20
-144.9889105540306
 30
0.0
 10
75.70425074062256
 20
-144.9889105540306
 30
0.0
 10
75.70425074062256
 20
-144.9889105540306
 30
0.0
 10
75.46447209484916
 20
-144.9889105540306
 30
0.0
 10
75.46447209484916
 20
-144.9889105540306
 30
0.0
  0
HATCH
  5
EE
330
E9
100
AcDbEntity
  8
_U+30EC_U+30A4_U+30E4_U+30FC 1
 62
   179
420
  2234388
100
AcDbHatch
 10
0.0
 20
0.0
 30
0.0
210
0.0
220
0.0
230
1.0
  2
SOLID
 70
     1
 71
     0
 91
        1
 92
        1
 93
        1
 72
     4
 94
        3
 73
     0
 74
     1
 95
       26
 96
       22
 40
0.0
 40
0.0
 40
0.0
 40
0.0
 40
1.0
 40
1.0
 40
1.0
 40
2.0
 40
2.0
 40
2.0
 40
3.0
 40
3.0
 40
3.0
 40
4.0
 40
4.0
 40
4.0
 40
5.0
 40
5.0
 40
5.0
 40
6.0
 40
6.0
 40
6.0
 40
7.0
 40
7.0
 40
7.0
 40
7.0
 10
75.46447209484916
 20
-144.9889105540306
 10
75.46447209484916
 20
-144.9889105540306
 10
75.46447209484916
 20
-143.8844129414595
 10
75.46447209484916
 20
-143.8844129414595
 10
75.46447209484916
 20
-143.8844129414595
 10
75.1120388267081
 20
-143.8844129414595
 10
75.1120388267081
 20
-143.8844129414595
 10
75.1120388267081
 20
-143.8844129414595
 10
75.1120388267081
 20
-143.7366183451422
 10
75.1120388267081
 20
-143.7366183451422
 10
75.46688366168884
 20
-143.7218044345557
 10
75.51649303667644
 20
-143.5588514181034
 10
75.54818791514073
 20
-143.4448187575416
 10
75.54818791514073
 20
-143.4448187575416
 10
75.70425074062256
 20
-143.4448187575416
 10
75.70425074062256
 20
-143.4448187575416
 10
75.70425074062256
 20
-143.4448187575416
 10
75.70425074062256
 20
-144.9889105540306
 10
75.70425074062256
 20
-144.9889105540306
 10
75.70425074062256
 20
-144.9889105540306
 10
75.46447209484916
 20
-144.9889105540306
 10
75.46447209484916
 20
-144.9889105540306
 97
        0
 97
        0
 75
     2
 76
     1
 98
        0
  0
SPLINE
  5
EF
330
E9
100
AcDbEntity
  8
_U+30EC_U+30A4_U+30E4_U+30FC 1
370
     0
100
AcDbSpline
210
0.0
220
0.0
230
1.0
 70
    11
 71
     3
 72
    29
 73
    25
 74
     0
 42
0.0000000001
 43
0.0000000001
 12
1.0
 22
0.0
 32
0.0
 13
1.0
 23
0.0
 33
0.0
 40
0.0
 40
0.0
 40
0.0
 40
0.0
 40
1.0
 40
1.0
 40
1.0
 40
2.0
 40
2.0
 40
2.0
 40
3.0
 40
3.0
 40
3.0
 40
4.0
 40
4.0
 40
4.0
 40
5.0
 40
5.0
 40
5.0
 40
6.0
 40
6.0
 40
6.0
 40
7.0
 40
7.0
 40
7.0
 40
8.0
 40
8.0
 40
8.0
 40
8.0
 10
77.19942218122098
 20
-144.8111436269917
 30
0.0
 10
77.08401148246512
 20
-145.0206054324948
 30
0.0
 10
76.89866534535867
 20
-145.0398979672123
 30
0.0
 10
76.77429739834115
 20
-145.0398979672123
 30
0.0
 10
76.60273164317572
 20
-145.0398979672123
 30
0.0
 10
76.45114744182472
 20
-144.9930446686129
 30
0.0
 10
76.34951712500984
 20
-144.8111436269917
 30
0.0
 10
76.2385850503848
 20
-144.616495732075
 30
0.0
 10
76.21825898702183
 20
-144.3798176722384
 30
0.0
 10
76.21825898702183
 20
-144.2165201462375
 30
0.0
 10
76.21825898702183
 20
-144.0728596645026
 30
0.0
 10
76.23651799309366
 20
-143.8210231845309
 30
0.0
 10
76.34951712500984
 20
-143.6222411750319
 30
0.0
 10
76.4645833142172
 20
-143.4193250509507
 30
0.0
 10
76.63649357893115
 20
-143.395898401651
 30
0.0
 10
76.77429739834115
 20
-143.395898401651
 30
0.0
 10
76.94414060576396
 20
-143.395898401651
 30
0.0
 10
77.0977918644061
 20
-143.4403401334108
 30
0.0
 10
77.19942218122098
 20
-143.6222411750319
 30
0.0
 10
77.3058756317152
 20
-143.8148220126574
 30
0.0
 10
77.330680319209
 20
-144.0432318433295
 30
0.0
 10
77.330680319209
 20
-144.2165201462375
 30
0.0
 10
77.330680319209
 20
-144.388085901403
 30
0.0
 10
77.30794268900635
 20
-144.6189072989147
 30
0.0
 10
77.19942218122098
 20
-144.8111436269917
 30
0.0
  0
SPLINE
  5
F0
330
E9
100
AcDbEntity
  8
_U+30EC_U+30A4_U+30E4_U+30FC 1
370
     0
100
AcDbSpline
210
0.0
220
0.0
230
1.0
 70
    11
 71
     3
 72
    17
 73
    13
 74
     0
 42
0.0000000001
 43
0.0000000001
 12
1.0
 22
0.0
 32
0.0
 13
1.0
 23
0.0
 33
0.0
 40
0.0
 40
0.0
 40
0.0
 40
0.0
 40
1.0
 40
1.0
 40
1.0
 40
2.0
 40
2.0
 40
2.0
 40
3.0
 40
3.0
 40
3.0
 40
4.0
 40
4.0
 40
4.0
 40
4.0
 10
76.77429739834115
 20
-143.5884792392765
 30
0.0
 10
76.50764700778281
 20
-143.5884792392765
 30
0.0
 10
76.45803763279521
 20
-143.8720105977125
 30
0.0
 10
76.45803763279521
 20
-144.2165201462375
 30
0.0
 10
76.45803763279521
 20
-144.5362250072687
 30
0.0
 10
76.49627819268149
 20
-144.8449055627471
 30
0.0
 10
76.77429739834115
 20
-144.8449055627471
 30
0.0
 10
77.03888073160834
 20
-144.8449055627471
 30
0.0
 10
77.09090167343561
 20
-144.5637857711507
 30
0.0
 10
77.09090167343561
 20
-144.2165201462375
 30
0.0
 10
77.09090167343561
 20
-143.8975043043034
 30
0.0
 10
77.05024954670967
 20
-143.5884792392765
 30
0.0
 10
76.77429739834115
 20
-143.5884792392765
 30
0.0
  0
HATCH
  5
F1
330
E9
100
AcDbEntity
  8
_U+30EC_U+30A4_U+30E4_U+30FC 1
 62
   179
420
  2234388
100
AcDbHatch
 10
0.0
 20
0.0
 30
0.0
210
0.0
220
0.0
230
1.0
  2
SOLID
 70
     1
 71
     0
 91
        2
 92
        1
 93
        1
 72
     4
 94
        3
 73
     0
 74
     1
 95
       29
 96
       25
 40
0.0
 40
0.0
 40
0.0
 40
0.0
 40
1.0
 40
1.0
 40
1.0
 40
2.0
 40
2.0
 40
2.0
 40
3.0
 40
3.0
 40
3.0
 40
4.0
 40
4.0
 40
4.0
 40
5.0
 40
5.0
 40
5.0
 40
6.0
 40
6.0
 40
6.0
 40
7.0
 40
7.0
 40
7.0
 40
8.0
 40
8.0
 40
8.0
 40
8.0
 10
77.19942218122098
 20
-144.8111436269917
 10
77.08401148246512
 20
-145.0206054324948
 10
76.89866534535867
 20
-145.0398979672123
 10
76.77429739834115
 20
-145.0398979672123
 10
76.60273164317572
 20
-145.0398979672123
 10
76.45114744182472
 20
-144.9930446686129
 10
76.34951712500984
 20
-144.8111436269917
 10
76.2385850503848
 20
-144.616495732075
 10
76.21825898702183
 20
-144.3798176722384
 10
76.21825898702183
 20
-144.2165201462375
 10
76.21825898702183
 20
-144.0728596645026
 10
76.23651799309366
 20
-143.8210231845309
 10
76.34951712500984
 20
-143.6222411750319
 10
76.4645833142172
 20
-143.4193250509507
 10
76.63649357893115
 20
-143.395898401651
 10
76.77429739834115
 20
-143.395898401651
 10
76.94414060576396
 20
-143.395898401651
 10
77.0977918644061
 20
-143.4403401334108
 10
77.19942218122098
 20
-143.6222411750319
 10
77.3058756317152
 20
-143.8148220126574
 10
77.330680319209
 20
-144.0432318433295
 10
77.330680319209
 20
-144.2165201462375
 10
77.330680319209
 20
-144.388085901403
 10
77.30794268900635
 20
-144.6189072989147
 10
77.19942218122098
 20
-144.8111436269917
 97
        0
 97
        0
 92
        1
 93
        1
 72
     4
 94
        3
 73
     0
 74
     1
 95
       17
 96
       13
 40
0.0
 40
0.0
 40
0.0
 40
0.0
 40
1.0
 40
1.0
 40
1.0
 40
2.0
 40
2.0
 40
2.0
 40
3.0
 40
3.0
 40
3.0
 40
4.0
 40
4.0
 40
4.0
 40
4.0
 10
76.77429739834115
 20
-143.5884792392765
 10
76.50764700778281
 20
-143.5884792392765
 10
76.45803763279521
 20
-143.8720105977125
 10
76.45803763279521
 20
-144.2165201462375
 10
76.45803763279521
 20
-144.5362250072687
 10
76.49627819268149
 20
-144.8449055627471
 10
76.77429739834115
 20
-144.8449055627471
 10
77.03888073160834
 20
-144.8449055627471
 10
77.09090167343561
 20
-144.5637857711507
 10
77.09090167343561
 20
-144.2165201462375
 10
77.09090167343561
 20
-143.8975043043034
 10
77.05024954670967
 20
-143.5884792392765
 10
76.77429739834115
 20
-143.5884792392765
 97
        0
 97
        0
 75
     2
 76
     1
 98
        0
  0
ENDBLK
  5
EC
330
E9
100
AcDbEntity
  8
0
100
AcDbBlockEnd
  0
BLOCK
  5
F4
330
F2
100
AcDbEntity
  8
0
100
AcDbBlockBegin
  2
block 5
 70
     0
 10
0.0
 20
0.0
 30
0.0
  3
block 5
  1

  0
POLYLINE
  5
F6
330
F2
100
AcDbEntity
  8
_U+30EC_U+30A4_U+30E4_U+30FC 1
370
     0
100
AcDb2dPolyline
 66
     1
 10
0.0
 20
0.0
 30
0.0
  0
VERTEX
  5
F7
330
F6
100
AcDbEntity
  8
_U+30EC_U+30A4_U+30E4_U+30FC 1
370
     0
100
AcDbVertex
100
AcDb2dVertex
 10
90.87128361443496
 20
-115.3738362341774
 30
0.0
  0
VERTEX
  5
F8
330
F6
100
AcDbEntity
  8
_U+30EC_U+30A4_U+30E4_U+30FC 1
370
     0
100
AcDbVertex
100
AcDb2dVertex
 10
90.87128361443496
 20
-115.720757349542
 30
0.0
  0
VERTEX
  5
F9
330
F6
100
AcDbEntity
  8
_U+30EC_U+30A4_U+30E4_U+30FC 1
370
     0
100
AcDbVertex
100
AcDb2dVertex
 10
90.63839515963207
 20
-115.720757349542
 30
0.0
  0
VERTEX
  5
FA
330
F6
100
AcDbEntity
  8
_U+30EC_U+30A4_U+30E4_U+30FC 1
370
     0
100
AcDbVertex
100
AcDb2dVertex
 10
90.63839515963207
 20
-115.3738362341774
 30
0.0
  0
VERTEX
  5
FB
330
F6
100
AcDbEntity
  8
_U+30EC_U+30A4_U+30E4_U+30FC 1
370
     0
100
AcDbVertex
100
AcDb2dVertex
 10
89.93731822838373
 20
-115.3738362341774
 30
0.0
  0
VERTEX
  5
FC
330
F6
100
AcDbEntity
  8
_U+30EC_U+30A4_U+30E4_U+30FC 1
370
     0
100
AcDbVertex
100
AcDb2dVertex
 10
89.93731822838373
 20
-115.1495605180876
 30
0.0
  0
VERTEX
  5
FD
330
F6
100
AcDbEntity
  8
_U+30EC_U+30A4_U+30E4_U+30FC 1
370
     0
100
AcDbVertex
100
AcDb2dVertex
 10
90.66319984712587
 20
-114.1763210435045
 30
0.0
  0
VERTEX
  5
FE
330
F6
100
AcDbEntity
  8
_U+30EC_U+30A4_U+30E4_U+30FC 1
370
     0
100
AcDbVertex
100
AcDb2dVertex
 10
90.87128361443496
 20
-114.1763210435045
 30
0.0
  0
VERTEX
  5
FF
330
F6
100
AcDbEntity
  8
_U+30EC_U+30A4_U+30E4_U+30FC 1
370
     0
100
AcDbVertex
100
AcDb2dVertex
 10
90.87128361443496
 20
-115.1750542246785
 30
0.0
  0
VERTEX
  5
100
330
F6
100
AcDbEntity
  8
_U+30EC_U+30A4_U+30E4_U+30FC 1
370
     0
100
AcDbVertex
100
AcDb2dVertex
 10
91.09280325413653
 20
-115.1750542246785
 30
0.0
  0
VERTEX
  5
101
330
F6
100
AcDbEntity
  8
_U+30EC_U+30A4_U+30E4_U+30FC 1
370
     0
100
AcDbVertex
100
AcDb2dVertex
 10
91.09280325413653
 20
-115.3738362341774
 30
0.0
  0
VERTEX
  5
102
330
F6
100
AcDbEntity
  8
_U+30EC_U+30A4_U+30E4_U+30FC 1
370
     0
100
AcDbVertex
100
AcDb2dVertex
 10
90.87128361443496
 20
-115.3738362341774
 30
0.0
  0
SEQEND
  5
103
330
F6
100
AcDbEntity
  8
_U+30EC_U+30A4_U+30E4_U+30FC 1
370
     0
  0
POLYLINE
  5
104
330
F2
100
AcDbEntity
  8
_U+30EC_U+30A4_U+30E4_U+30FC 1
370
     0
100
AcDb2dPolyline
 66
     1
 10
0.0
 20
0.0
 30
0.0
  0
VERTEX
  5
105
330
104
100
AcDbEntity
  8
_U+30EC_U+30A4_U+30E4_U+30FC 1
370
     0
100
AcDbVertex
100
AcDb2dVertex
 10
90.63839515963207
 20
-114.5191080442869
 30
0.0
  0
VERTEX
  5
106
330
104
100
AcDbEntity
  8
_U+30EC_U+30A4_U+30E4_U+30FC 1
370
     0
100
AcDbVertex
100
AcDb2dVertex
 10
90.14988061982365
 20
-115.1750542246785
 30
0.0
  0
VERTEX
  5
107
330
104
100
AcDbEntity
  8
_U+30EC_U+30A4_U+30E4_U+30FC 1
370
     0
100
AcDbVertex
100
AcDb2dVertex
 10
90.63839515963207
 20
-115.1750542246785
 30
0.0
  0
VERTEX
  5
108
330
104
100
AcDbEntity
  8
_U+30EC_U+30A4_U+30E4_U+30FC 1
370
     0
100
AcDbVertex
100
AcDb2dVertex
 10
90.63839515963207
 20
-114.5191080442869
 30
0.0
  0
SEQEND
  5
109
330
104
100
AcDbEntity
  8
_U+30EC_U+30A4_U+30E4_U+30FC 1
370
     0
  0
HATCH
  5
10A
330
F2
100
AcDbEntity
  8
_U+30EC_U+30A4_U+30E4_U+30FC 1
 62
   179
420
  2234388
100
AcDbHatch
 10
0.0
 20
0.0
 30
0.0
210
0.0
220
0.0
230
1.0
  2
SOLID
 70
     1
 71
     0
 91
        2
 92
        1
 93
       11
 72
     1
 10
90.87128361443496
 20
-115.3738362341774
 11
90.87128361443496
 21
-115.720757349542
 72
     1
 10
90.87128361443496
 20
-115.720757349542
 11
90.63839515963207
 21
-115.720757349542
 72
     1
 10
90.63839515963207
 20
-115.720757349542
 11
90.63839515963207
 21
-115.3738362341774
 72
     1
 10
90.63839515963207
 20
-115.3738362341774
 11
89.93731822838373
 21
-115.3738362341774
 72
     1
 10
89.93731822838373
 20
-115.3738362341774
 11
89.93731822838373
 21
-115.1495605180876
 72
     1
 10
89.93731822838373
 20
-115.1495605180876
 11
90.66319984712587
 21
-114.1763210435045
 72
     1
 10
90.66319984712587
 20
-114.1763210435045
 11
90.87128361443496
 21
-114.1763210435045
 72
     1
 10
90.87128361443496
 20
-114.1763210435045
 11
90.87128361443496
 21
-115.1750542246785
 72
     1
 10
90.87128361443496
 20
-115.1750542246785
 11
91.09280325413653
 21
-115.1750542246785
 72
     1
 10
91.09280325413653
 20
-115.1750542246785
 11
91.09280325413653
 21
-115.3738362341774
 72
     1
 10
91.09280325413653
 20
-115.3738362341774
 11
90.87128361443496
 21
-115.3738362341774
 97
        0
 92
        1
 93
        3
 72
     1
 10
90.63839515963207
 20
-114.5191080442869
 11
90.14988061982365
 21
-115.1750542246785
 72
     1
 10
90.14988061982365
 20
-115.1750542246785
 11
90.63839515963207
 21
-115.1750542246785
 72
     1
 10
90.63839515963207
 20
-115.1750542246785
 11
90.63839515963207
 21
-114.5191080442869
 97
        0
 75
     2
 76
     1
 98
        0
  0
SPLINE
  5
10B
330
F2
100
AcDbEntity
  8
_U+30EC_U+30A4_U+30E4_U+30FC 1
370
     0
100
AcDbSpline
210
0.0
220
0.0
230
1.0
 70
    11
 71
     3
 72
    29
 73
    25
 74
     0
 42
0.0000000001
 43
0.0000000001
 12
1.0
 22
0.0
 32
0.0
 13
1.0
 23
0.0
 33
0.0
 40
0.0
 40
0.0
 40
0.0
 40
0.0
 40
1.0
 40
1.0
 40
1.0
 40
2.0
 40
2.0
 40
2.0
 40
3.0
 40
3.0
 40
3.0
 40
4.0
 40
4.0
 40
4.0
 40
5.0
 40
5.0
 40
5.0
 40
6.0
 40
6.0
 40
6.0
 40
7.0
 40
7.0
 40
7.0
 40
8.0
 40
8.0
 40
8.0
 40
8.0
 10
92.19902341445025
 20
-115.5429904225032
 30
0.0
 10
92.08361271569437
 20
-115.7524522280063
 30
0.0
 10
91.89826657858794
 20
-115.7714002531752
 30
0.0
 10
91.77389863157042
 20
-115.7714002531752
 30
0.0
 10
91.60233287640497
 20
-115.7714002531752
 30
0.0
 10
91.45074867505399
 20
-115.7248914641243
 30
0.0
 10
91.34911835823911
 20
-115.5429904225032
 30
0.0
 10
91.23818628361407
 20
-115.3483425275865
 30
0.0
 10
91.2178602202511
 20
-115.1113199582013
 30
0.0
 10
91.2178602202511
 20
-114.9487114512976
 30
0.0
 10
91.2178602202511
 20
-114.8047064600141
 30
0.0
 10
91.2357747167744
 20
-114.5528699800423
 30
0.0
 10
91.34911835823911
 20
-114.3540879705434
 30
0.0
 10
91.46418454744646
 20
-114.1511718464622
 30
0.0
 10
91.63609481216042
 20
-114.1277451971625
 30
0.0
 10
91.77389863157042
 20
-114.1277451971625
 30
0.0
 10
91.94374183899323
 20
-114.1277451971625
 30
0.0
 10
92.09739309763538
 20
-114.1721869289222
 30
0.0
 10
92.19902341445025
 20
-114.3540879705434
 30
0.0
 10
92.30547686494447
 20
-114.5466688081689
 30
0.0
 10
92.33028155243827
 20
-114.775078638841
 30
0.0
 10
92.33028155243827
 20
-114.9487114512976
 30
0.0
 10
92.33028155243827
 20
-115.1199326969145
 30
0.0
 10
92.30754392223562
 20
-115.3504095848777
 30
0.0
 10
92.19902341445025
 20
-115.5429904225032
 30
0.0
  0
SPLINE
  5
10C
330
F2
100
AcDbEntity
  8
_U+30EC_U+30A4_U+30E4_U+30FC 1
370
     0
100
AcDbSpline
210
0.0
220
0.0
230
1.0
 70
    11
 71
     3
 72
    17
 73
    13
 74
     0
 42
0.0000000001
 43
0.0000000001
 12
1.0
 22
0.0
 32
0.0
 13
1.0
 23
0.0
 33
0.0
 40
0.0
 40
0.0
 40
0.0
 40
0.0
 40
1.0
 40
1.0
 40
1.0
 40
2.0
 40
2.0
 40
2.0
 40
3.0
 40
3.0
 40
3.0
 40
4.0
 40
4.0
 40
4.0
 40
4.0
 10
91.77389863157042
 20
-114.320326034788
 30
0.0
 10
91.50724824101208
 20
-114.320326034788
 30
0.0
 10
91.45763886602448
 20
-114.603857393224
 30
0.0
 10
91.45763886602448
 20
-114.9487114512976
 30
0.0
 10
91.45763886602448
 20
-115.2680718027802
 30
0.0
 10
91.49587942591076
 20
-115.5767523582586
 30
0.0
 10
91.77389863157042
 20
-115.5767523582586
 30
0.0
 10
92.0384819648376
 20
-115.5767523582586
 30
0.0
 10
92.09050290666488
 20
-115.2956325666622
 30
0.0
 10
92.09050290666488
 20
-114.9487114512976
 30
0.0
 10
92.09050290666488
 20
-114.6290065902664
 30
0.0
 10
92.04985077993894
 20
-114.320326034788
 30
0.0
 10
91.77389863157042
 20
-114.320326034788
 30
0.0
  0
HATCH
  5
10D
330
F2
100
AcDbEntity
  8
_U+30EC_U+30A4_U+30E4_U+30FC 1
 62
   179
420
  2234388
100
AcDbHatch
 10
0.0
 20
0.0
 30
0.0
210
0.0
220
0.0
230
1.0
  2
SOLID
 70
     1
 71
     0
 91
        2
 92
        1
 93
        1
 72
     4
 94
        3
 73
     0
 74
     1
 95
       29
 96
       25
 40
0.0
 40
0.0
 40
0.0
 40
0.0
 40
1.0
 40
1.0
 40
1.0
 40
2.0
 40
2.0
 40
2.0
 40
3.0
 40
3.0
 40
3.0
 40
4.0
 40
4.0
 40
4.0
 40
5.0
 40
5.0
 40
5.0
 40
6.0
 40
6.0
 40
6.0
 40
7.0
 40
7.0
 40
7.0
 40
8.0
 40
8.0
 40
8.0
 40
8.0
 10
92.19902341445025
 20
-115.5429904225032
 10
92.08361271569437
 20
-115.7524522280063
 10
91.89826657858794
 20
-115.7714002531752
 10
91.77389863157042
 20
-115.7714002531752
 10
91.60233287640497
 20
-115.7714002531752
 10
91.45074867505399
 20
-115.7248914641243
 10
91.34911835823911
 20
-115.5429904225032
 10
91.23818628361407
 20
-115.3483425275865
 10
91.2178602202511
 20
-115.1113199582013
 10
91.2178602202511
 20
-114.9487114512976
 10
91.2178602202511
 20
-114.8047064600141
 10
91.2357747167744
 20
-114.5528699800423
 10
91.34911835823911
 20
-114.3540879705434
 10
91.46418454744646
 20
-114.1511718464622
 10
91.63609481216042
 20
-114.1277451971625
 10
91.77389863157042
 20
-114.1277451971625
 10
91.94374183899323
 20
-114.1277451971625
 10
92.09739309763538
 20
-114.1721869289222
 10
92.19902341445025
 20
-114.3540879705434
 10
92.30547686494447
 20
-114.5466688081689
 10
92.33028155243827
 20
-114.775078638841
 10
92.33028155243827
 20
-114.9487114512976
 10
92.33028155243827
 20
-115.1199326969145
 10
92.30754392223562
 20
-115.3504095848777
 10
92.19902341445025
 20
-115.5429904225032
 97
        0
 97
        0
 92
        1
 93
        1
 72
     4
 94
        3
 73
     0
 74
     1
 95
       17
 96
       13
 40
0.0
 40
0.0
 40
0.0
 40
0.0
 40
1.0
 40
1.0
 40
1.0
 40
2.0
 40
2.0
 40
2.0
 40
3.0
 40
3.0
 40
3.0
 40
4.0
 40
4.0
 40
4.0
 40
4.0
 10
91.77389863157042
 20
-114.320326034788
 10
91.50724824101208
 20
-114.320326034788
 10
91.45763886602448
 20
-114.603857393224
 10
91.45763886602448
 20
-114.9487114512976
 10
91.45763886602448
 20
-115.2680718027802
 10
91.49587942591076
 20
-115.5767523582586
 10
91.77389863157042
 20
-115.5767523582586
 10
92.0384819648376
 20
-115.5767523582586
 10
92.09050290666488
 20
-115.2956325666622
 10
92.09050290666488
 20
-114.9487114512976
 10
92.09050290666488
 20
-114.6290065902664
 10
92.04985077993894
 20
-114.320326034788
 10
91.77389863157042
 20
-114.320326034788
 97
        0
 97
        0
 75
     2
 76
     1
 98
        0
  0
ENDBLK
  5
F5
330
F2
100
AcDbEntity
  8
0
100
AcDbBlockEnd
  0
BLOCK
  5
110
330
10E
100
AcDbEntity
  8
0
100
AcDbBlockBegin
  2
block 6
 70
     0
 10
0.0
 20
0.0
 30
0.0
  3
block 6
  1

  0
SPLINE
  5
112
330
10E
100
AcDbEntity
  8
_U+30EC_U+30A4_U+30E4_U+30FC 1
370
     0
100
AcDbSpline
210
0.0
220
0.0
230
1.0
 70
    11
 71
     3
 72
    62
 73
    58
 74
     0
 42
0.0000000001
 43
0.0000000001
 12
1.0
 22
0.0
 32
0.0
 13
1.0
 23
0.0
 33
0.0
 40
0.0
 40
0.0
 40
0.0
 40
0.0
 40
1.0
 40
1.0
 40
1.0
 40
2.0
 40
2.0
 40
2.0
 40
3.0
 40
3.0
 40
3.0
 40
4.0
 40
4.0
 40
4.0
 40
5.0
 40
5.0
 40
5.0
 40
6.0
 40
6.0
 40
6.0
 40
7.0
 40
7.0
 40
7.0
 40
8.0
 40
8.0
 40
8.0
 40
9.0
 40
9.0
 40
9.0
 40
10.0
 40
10.0
 40
10.0
 40
11.0
 40
11.0
 40
11.0
 40
12.0
 40
12.0
 40
12.0
 40
13.0
 40
13.0
 40
13.0
 40
14.0
 40
14.0
 40
14.0
 40
15.0
 40
15.0
 40
15.0
 40
16.0
 40
16.0
 40
16.0
 40
17.0
 40
17.0
 40
17.0
 40
18.0
 40
18.0
 40
18.0
 40
19.0
 40
19.0
 40
19.0
 40
19.0
 10
72.63656546578183
 20
-113.1825832507842
 30
0.0
 10
72.53493514896697
 20
-113.1825832507842
 30
0.0
 10
72.30204669416408
 20
-113.1613959135499
 30
0.0
 10
72.16854924411065
 20
-112.9751885025722
 30
0.0
 10
72.08948430272416
 20
-112.8630506445273
 30
0.0
 10
72.08500567859333
 20
-112.7636596397778
 30
0.0
 10
72.08035479968825
 20
-112.679082545615
 30
0.0
 10
72.08035479968825
 20
-112.679082545615
 30
0.0
 10
72.31565482133081
 20
-112.679082545615
 30
0.0
 10
72.31565482133081
 20
-112.679082545615
 30
0.0
 10
72.31789413339622
 20
-112.7531520985478
 30
0.0
 10
72.32909069372329
 20
-112.9879353558676
 30
0.0
 10
72.632086841651
 20
-112.9879353558676
 30
0.0
 10
72.77902016409692
 20
-112.9879353558676
 30
0.0
 10
72.94180092577497
 20
-112.9181721722913
 30
0.0
 10
72.94180092577497
 20
-112.689590086845
 30
0.0
 10
72.94180092577497
 20
-112.5733181142178
 30
0.0
 10
72.90114879904903
 20
-112.5245700131015
 30
0.0
 10
72.8672146085193
 20
-112.4928751346372
 30
0.0
 10
72.78814966713283
 20
-112.4188055817043
 30
0.0
 10
72.66378172011531
 20
-112.4062309831832
 30
0.0
 10
72.6050428420918
 20
-112.4062309831832
 30
0.0
 10
72.58454452395456
 20
-112.4062309831832
 30
0.0
 10
72.54613170929403
 20
-112.4082980404743
 30
0.0
 10
72.5168483976694
 20
-112.4124321550566
 30
0.0
 10
72.5168483976694
 20
-112.4124321550566
 30
0.0
 10
72.5168483976694
 20
-112.21778426014
 30
0.0
 10
72.5168483976694
 20
-112.21778426014
 30
0.0
 10
72.55750052439535
 20
-112.2241576867877
 30
0.0
 10
72.60263127525212
 20
-112.2263969988531
 30
0.0
 10
72.60952146622262
 20
-112.2263969988531
 30
0.0
 10
72.67962915934746
 20
-112.2263969988531
 30
0.0
 10
72.8920192960131
 20
-112.2052096616188
 30
0.0
 10
72.8920192960131
 20
-111.9681870922336
 30
0.0
 10
72.8920192960131
 20
-111.790592419969
 30
0.0
 10
72.75197616453771
 20
-111.735470892205
 30
0.0
 10
72.63432615371642
 20
-111.735470892205
 30
0.0
 10
72.35182832392593
 20
-111.735470892205
 30
0.0
 10
72.34269882089002
 20
-111.9681870922336
 30
0.0
 10
72.3382201967592
 20
-112.0401895878754
 30
0.0
 10
72.3382201967592
 20
-112.0401895878754
 30
0.0
 10
72.12117918118845
 20
-112.0401895878754
 30
0.0
 10
72.12117918118845
 20
-112.0401895878754
 30
0.0
 10
72.1301364294501
 20
-111.9153048765351
 30
0.0
 10
72.159591995849
 20
-111.5387559399973
 30
0.0
 10
72.64793428088316
 20
-111.5387559399973
 30
0.0
 10
72.88754067188229
 20
-111.5387559399973
 30
0.0
 10
73.14523381417898
 20
-111.6657077086287
 30
0.0
 10
73.14523381417898
 20
-111.9618136655859
 30
0.0
 10
73.14523381417898
 20
-112.1480210765637
 30
0.0
 10
73.0436034973641
 20
-112.2305311134354
 30
0.0
 10
72.93732230164414
 20
-112.2918538130729
 30
0.0
 10
73.00295137063816
 20
-112.3194145769549
 30
0.0
 10
73.19725475600625
 20
-112.3998575565355
 30
0.0
 10
73.19725475600625
 20
-112.6770154883238
 30
0.0
 10
73.19725475600625
 20
-113.0154961197496
 30
0.0
 10
72.93284367751332
 20
-113.1825832507842
 30
0.0
 10
72.63656546578183
 20
-113.1825832507842
 30
0.0
  0
HATCH
  5
113
330
10E
100
AcDbEntity
  8
_U+30EC_U+30A4_U+30E4_U+30FC 1
 62
   179
420
  2234388
100
AcDbHatch
 10
0.0
 20
0.0
 30
0.0
210
0.0
220
0.0
230
1.0
  2
SOLID
 70
     1
 71
     0
 91
        1
 92
        1
 93
        1
 72
     4
 94
        3
 73
     0
 74
     1
 95
       62
 96
       58
 40
0.0
 40
0.0
 40
0.0
 40
0.0
 40
1.0
 40
1.0
 40
1.0
 40
2.0
 40
2.0
 40
2.0
 40
3.0
 40
3.0
 40
3.0
 40
4.0
 40
4.0
 40
4.0
 40
5.0
 40
5.0
 40
5.0
 40
6.0
 40
6.0
 40
6.0
 40
7.0
 40
7.0
 40
7.0
 40
8.0
 40
8.0
 40
8.0
 40
9.0
 40
9.0
 40
9.0
 40
10.0
 40
10.0
 40
10.0
 40
11.0
 40
11.0
 40
11.0
 40
12.0
 40
12.0
 40
12.0
 40
13.0
 40
13.0
 40
13.0
 40
14.0
 40
14.0
 40
14.0
 40
15.0
 40
15.0
 40
15.0
 40
16.0
 40
16.0
 40
16.0
 40
17.0
 40
17.0
 40
17.0
 40
18.0
 40
18.0
 40
18.0
 40
19.0
 40
19.0
 40
19.0
 40
19.0
 10
72.63656546578183
 20
-113.1825832507842
 10
72.53493514896697
 20
-113.1825832507842
 10
72.30204669416408
 20
-113.1613959135499
 10
72.16854924411065
 20
-112.9751885025722
 10
72.08948430272416
 20
-112.8630506445273
 10
72.08500567859333
 20
-112.7636596397778
 10
72.08035479968825
 20
-112.679082545615
 10
72.08035479968825
 20
-112.679082545615
 10
72.31565482133081
 20
-112.679082545615
 10
72.31565482133081
 20
-112.679082545615
 10
72.31789413339622
 20
-112.7531520985478
 10
72.32909069372329
 20
-112.9879353558676
 10
72.632086841651
 20
-112.9879353558676
 10
72.77902016409692
 20
-112.9879353558676
 10
72.94180092577497
 20
-112.9181721722913
 10
72.94180092577497
 20
-112.689590086845
 10
72.94180092577497
 20
-112.5733181142178
 10
72.90114879904903
 20
-112.5245700131015
 10
72.8672146085193
 20
-112.4928751346372
 10
72.78814966713283
 20
-112.4188055817043
 10
72.66378172011531
 20
-112.4062309831832
 10
72.6050428420918
 20
-112.4062309831832
 10
72.58454452395456
 20
-112.4062309831832
 10
72.54613170929403
 20
-112.4082980404743
 10
72.5168483976694
 20
-112.4124321550566
 10
72.5168483976694
 20
-112.4124321550566
 10
72.5168483976694
 20
-112.21778426014
 10
72.5168483976694
 20
-112.21778426014
 10
72.55750052439535
 20
-112.2241576867877
 10
72.60263127525212
 20
-112.2263969988531
 10
72.60952146622262
 20
-112.2263969988531
 10
72.67962915934746
 20
-112.2263969988531
 10
72.8920192960131
 20
-112.2052096616188
 10
72.8920192960131
 20
-111.9681870922336
 10
72.8920192960131
 20
-111.790592419969
 10
72.75197616453771
 20
-111.735470892205
 10
72.63432615371642
 20
-111.735470892205
 10
72.35182832392593
 20
-111.735470892205
 10
72.34269882089002
 20
-111.9681870922336
 10
72.3382201967592
 20
-112.0401895878754
 10
72.3382201967592
 20
-112.0401895878754
 10
72.12117918118845
 20
-112.0401895878754
 10
72.12117918118845
 20
-112.0401895878754
 10
72.1301364294501
 20
-111.9153048765351
 10
72.159591995849
 20
-111.5387559399973
 10
72.64793428088316
 20
-111.5387559399973
 10
72.88754067188229
 20
-111.5387559399973
 10
73.14523381417898
 20
-111.6657077086287
 10
73.14523381417898
 20
-111.9618136655859
 10
73.14523381417898
 20
-112.1480210765637
 10
73.0436034973641
 20
-112.2305311134354
 10
72.93732230164414
 20
-112.2918538130729
 10
73.00295137063816
 20
-112.3194145769549
 10
73.19725475600625
 20
-112.3998575565355
 10
73.19725475600625
 20
-112.6770154883238
 10
73.19725475600625
 20
-113.0154961197496
 10
72.93284367751332
 20
-113.1825832507842
 10
72.63656546578183
 20
-113.1825832507842
 97
        0
 97
        0
 75
     2
 76
     1
 98
        0
  0
ENDBLK
  5
111
330
10E
100
AcDbEntity
  8
0
100
AcDbBlockEnd
  0
BLOCK
  5
116
330
114
100
AcDbEntity
  8
0
100
AcDbBlockBegin
  2
block 7
 70
     0
 10
0.0
 20
0.0
 30
0.0
  3
block 7
  1

  0
SPLINE
  5
118
330
114
100
AcDbEntity
  8
_U+30EC_U+30A4_U+30E4_U+30FC 1
370
     0
100
AcDbSpline
210
0.0
220
0.0
230
1.0
 70
    11
 71
     3
 72
    32
 73
    28
 74
     0
 42
0.0000000001
 43
0.0000000001
 12
1.0
 22
0.0
 32
0.0
 13
1.0
 23
0.0
 33
0.0
 40
0.0
 40
0.0
 40
0.0
 40
0.0
 40
1.0
 40
1.0
 40
1.0
 40
2.0
 40
2.0
 40
2.0
 40
3.0
 40
3.0
 40
3.0
 40
4.0
 40
4.0
 40
4.0
 40
5.0
 40
5.0
 40
5.0
 40
6.0
 40
6.0
 40
6.0
 40
7.0
 40
7.0
 40
7.0
 40
8.0
 40
8.0
 40
8.0
 40
9.0
 40
9.0
 40
9.0
 40
9.0
 10
117.6610351268347
 20
-133.1822238165308
 30
0.0
 10
117.6610351268347
 20
-133.7337836037193
 30
0.0
 10
117.106719263258
 20
-133.742740851981
 30
0.0
 10
116.8931233431726
 20
-133.742740851981
 30
0.0
 10
116.6626464552093
 20
-133.742740851981
 30
0.0
 10
116.0149685039824
 20
-133.7227592981666
 30
0.0
 10
116.0149685039824
 20
-133.1415716898049
 30
0.0
 10
116.0149685039824
 20
-132.9562255526984
 30
0.0
 10
116.0849039423329
 20
-132.6940537862709
 30
0.0
 10
116.417011147111
 20
-132.653401659545
 30
0.0
 10
116.417011147111
 20
-132.653401659545
 30
0.0
 10
116.417011147111
 20
-132.8814669806685
 30
0.0
 10
116.417011147111
 20
-132.8814669806685
 30
0.0
 10
116.3601670716044
 20
-132.8928357957699
 30
0.0
 10
116.2120279657387
 20
-132.9269422410738
 30
0.0
 10
116.2120279657387
 20
-133.1439832566446
 30
0.0
 10
116.2120279657387
 20
-133.4557643980597
 30
0.0
 10
116.5400010559345
 20
-133.4988280916253
 30
0.0
 10
116.7449842373068
 20
-133.5122639640178
 30
0.0
 10
116.6667805697916
 20
-133.4127007044941
 30
0.0
 10
116.6075249274453
 20
-133.3403536993038
 30
0.0
 10
116.6075249274453
 20
-133.1460503139357
 30
0.0
 10
116.6075249274453
 20
-132.9538139858588
 30
0.0
 10
116.7153564161337
 20
-132.6306640293423
 30
0.0
 10
117.1215331738446
 20
-132.6306640293423
 30
0.0
 10
117.4408935253273
 20
-132.6306640293423
 30
0.0
 10
117.6610351268347
 20
-132.8428819112337
 30
0.0
 10
117.6610351268347
 20
-133.1822238165308
 30
0.0
  0
SPLINE
  5
119
330
114
100
AcDbEntity
  8
_U+30EC_U+30A4_U+30E4_U+30FC 1
370
     0
100
AcDbSpline
210
0.0
220
0.0
230
1.0
 70
    11
 71
     3
 72
    17
 73
    13
 74
     0
 42
0.0000000001
 43
0.0000000001
 12
1.0
 22
0.0
 32
0.0
 13
1.0
 23
0.0
 33
0.0
 40
0.0
 40
0.0
 40
0.0
 40
0.0
 40
1.0
 40
1.0
 40
1.0
 40
2.0
 40
2.0
 40
2.0
 40
3.0
 40
3.0
 40
3.0
 40
4.0
 40
4.0
 40
4.0
 40
4.0
 10
116.802172822362
 20
-133.163964810459
 30
0.0
 10
116.802172822362
 20
-133.4443955829584
 30
0.0
 10
117.0137016851563
 20
-133.4850477096843
 30
0.0
 10
117.1298014030092
 20
-133.4850477096843
 30
0.0
 10
117.305501272757
 20
-133.4850477096843
 30
0.0
 10
117.4684542892093
 20
-133.3834173928694
 30
0.0
 10
117.4684542892093
 20
-133.1867024406617
 30
0.0
 10
117.4684542892093
 20
-133.0578558695133
 30
0.0
 10
117.409198646863
 20
-132.8704426751157
 30
0.0
 10
117.1236002311358
 20
-132.8704426751157
 30
0.0
 10
116.899324515046
 20
-132.8704426751157
 30
0.0
 10
116.802172822362
 20
-133.0192708000785
 30
0.0
 10
116.802172822362
 20
-133.163964810459
 30
0.0
  0
HATCH
  5
11A
330
114
100
AcDbEntity
  8
_U+30EC_U+30A4_U+30E4_U+30FC 1
 62
   179
420
  2234388
100
AcDbHatch
 10
0.0
 20
0.0
 30
0.0
210
0.0
220
0.0
230
1.0
  2
SOLID
 70
     1
 71
     0
 91
        2
 92
        1
 93
        1
 72
     4
 94
        3
 73
     0
 74
     1
 95
       32
 96
       28
 40
0.0
 40
0.0
 40
0.0
 40
0.0
 40
1.0
 40
1.0
 40
1.0
 40
2.0
 40
2.0
 40
2.0
 40
3.0
 40
3.0
 40
3.0
 40
4.0
 40
4.0
 40
4.0
 40
5.0
 40
5.0
 40
5.0
 40
6.0
 40
6.0
 40
6.0
 40
7.0
 40
7.0
 40
7.0
 40
8.0
 40
8.0
 40
8.0
 40
9.0
 40
9.0
 40
9.0
 40
9.0
 10
117.6610351268347
 20
-133.1822238165308
 10
117.6610351268347
 20
-133.7337836037193
 10
117.106719263258
 20
-133.742740851981
 10
116.8931233431726
 20
-133.742740851981
 10
116.6626464552093
 20
-133.742740851981
 10
116.0149685039824
 20
-133.7227592981666
 10
116.0149685039824
 20
-133.1415716898049
 10
116.0149685039824
 20
-132.9562255526984
 10
116.0849039423329
 20
-132.6940537862709
 10
116.417011147111
 20
-132.653401659545
 10
116.417011147111
 20
-132.653401659545
 10
116.417011147111
 20
-132.8814669806685
 10
116.417011147111
 20
-132.8814669806685
 10
116.3601670716044
 20
-132.8928357957699
 10
116.2120279657387
 20
-132.9269422410738
 10
116.2120279657387
 20
-133.1439832566446
 10
116.2120279657387
 20
-133.4557643980597
 10
116.5400010559345
 20
-133.4988280916253
 10
116.7449842373068
 20
-133.5122639640178
 10
116.6667805697916
 20
-133.4127007044941
 10
116.6075249274453
 20
-133.3403536993038
 10
116.6075249274453
 20
-133.1460503139357
 10
116.6075249274453
 20
-132.9538139858588
 10
116.7153564161337
 20
-132.6306640293423
 10
117.1215331738446
 20
-132.6306640293423
 10
117.4408935253273
 20
-132.6306640293423
 10
117.6610351268347
 20
-132.8428819112337
 10
117.6610351268347
 20
-133.1822238165308
 97
        0
 97
        0
 92
        1
 93
        1
 72
     4
 94
        3
 73
     0
 74
     1
 95
       17
 96
       13
 40
0.0
 40
0.0
 40
0.0
 40
0.0
 40
1.0
 40
1.0
 40
1.0
 40
2.0
 40
2.0
 40
2.0
 40
3.0
 40
3.0
 40
3.0
 40
4.0
 40
4.0
 40
4.0
 40
4.0
 10
116.802172822362
 20
-133.163964810459
 10
116.802172822362
 20
-133.4443955829584
 10
117.0137016851563
 20
-133.4850477096843
 10
117.1298014030092
 20
-133.4850477096843
 10
117.305501272757
 20
-133.4850477096843
 10
117.4684542892093
 20
-133.3834173928694
 10
117.4684542892093
 20
-133.1867024406617
 10
117.4684542892093
 20
-133.0578558695133
 10
117.409198646863
 20
-132.8704426751157
 10
117.1236002311358
 20
-132.8704426751157
 10
116.899324515046
 20
-132.8704426751157
 10
116.802172822362
 20
-133.0192708000785
 10
116.802172822362
 20
-133.163964810459
 97
        0
 97
        0
 75
     2
 76
     1
 98
        0
  0
POLYLINE
  5
11B
330
114
100
AcDbEntity
  8
_U+30EC_U+30A4_U+30E4_U+30FC 1
370
     0
100
AcDb2dPolyline
 66
     1
 10
0.0
 20
0.0
 30
0.0
  0
VERTEX
  5
11C
330
11B
100
AcDbEntity
  8
_U+30EC_U+30A4_U+30E4_U+30FC 1
370
     0
100
AcDbVertex
100
AcDb2dVertex
 10
117.610047713653
 20
-132.3991536127336
 30
0.0
  0
VERTEX
  5
11D
330
11B
100
AcDbEntity
  8
_U+30EC_U+30A4_U+30E4_U+30FC 1
370
     0
100
AcDbVertex
100
AcDb2dVertex
 10
117.3585557432298
 20
-132.3991536127336
 30
0.0
  0
VERTEX
  5
11E
330
11B
100
AcDbEntity
  8
_U+30EC_U+30A4_U+30E4_U+30FC 1
370
     0
100
AcDbVertex
100
AcDb2dVertex
 10
117.3585557432298
 20
-132.1300916553355
 30
0.0
  0
VERTEX
  5
11F
330
11B
100
AcDbEntity
  8
_U+30EC_U+30A4_U+30E4_U+30FC 1
370
     0
100
AcDbVertex
100
AcDb2dVertex
 10
117.610047713653
 20
-132.1300916553355
 30
0.0
  0
VERTEX
  5
120
330
11B
100
AcDbEntity
  8
_U+30EC_U+30A4_U+30E4_U+30FC 1
370
     0
100
AcDbVertex
100
AcDb2dVertex
 10
117.610047713653
 20
-132.3991536127336
 30
0.0
  0
SEQEND
  5
121
330
11B
100
AcDbEntity
  8
_U+30EC_U+30A4_U+30E4_U+30FC 1
370
     0
  0
HATCH
  5
122
330
114
100
AcDbEntity
  8
_U+30EC_U+30A4_U+30E4_U+30FC 1
 62
   179
420
  2234388
100
AcDbHatch
 10
0.0
 20
0.0
 30
0.0
210
0.0
220
0.0
230
1.0
  2
SOLID
 70
     1
 71
     0
 91
        1
 92
        1
 93
        4
 72
     1
 10
117.610047713653
 20
-132.3991536127336
 11
117.3585557432298
 21
-132.3991536127336
 72
     1
 10
117.3585557432298
 20
-132.3991536127336
 11
117.3585557432298
 21
-132.1300916553355
 72
     1
 10
117.3585557432298
 20
-132.1300916553355
 11
117.610047713653
 21
-132.1300916553355
 72
     1
 10
117.610047713653
 20
-132.1300916553355
 11
117.610047713653
 21
-132.3991536127336
 97
        0
 75
     2
 76
     1
 98
        0
  0
SPLINE
  5
123
330
114
100
AcDbEntity
  8
_U+30EC_U+30A4_U+30E4_U+30FC 1
370
     0
100
AcDbSpline
210
0.0
220
0.0
230
1.0
 70
    11
 71
     3
 72
    53
 73
    49
 74
     0
 42
0.0000000001
 43
0.0000000001
 12
1.0
 22
0.0
 32
0.0
 13
1.0
 23
0.0
 33
0.0
 40
0.0
 40
0.0
 40
0.0
 40
0.0
 40
1.0
 40
1.0
 40
1.0
 40
2.0
 40
2.0
 40
2.0
 40
3.0
 40
3.0
 40
3.0
 40
4.0
 40
4.0
 40
4.0
 40
5.0
 40
5.0
 40
5.0
 40
6.0
 40
6.0
 40
6.0
 40
7.0
 40
7.0
 40
7.0
 40
8.0
 40
8.0
 40
8.0
 40
9.0
 40
9.0
 40
9.0
 40
10.0
 40
10.0
 40
10.0
 40
11.0
 40
11.0
 40
11.0
 40
12.0
 40
12.0
 40
12.0
 40
13.0
 40
13.0
 40
13.0
 40
14.0
 40
14.0
 40
14.0
 40
15.0
 40
15.0
 40
15.0
 40
16.0
 40
16.0
 40
16.0
 40
16.0
 10
117.6610351268347
 20
-131.3632134003189
 30
0.0
 10
117.6610351268347
 20
-131.4469292206105
 30
0.0
 10
117.644154158957
 20
-131.5554497283959
 30
0.0
 10
117.5804198924799
 20
-131.6639702361812
 30
0.0
 10
117.4705213465004
 20
-131.8493163732877
 30
0.0
 10
117.3392632085124
 20
-131.8720540034903
 30
0.0
 10
117.2317762293726
 20
-131.8923800668533
 30
0.0
 10
117.2317762293726
 20
-131.8923800668533
 30
0.0
 10
117.2317762293726
 20
-131.6550129879196
 30
0.0
 10
117.2317762293726
 20
-131.6550129879196
 30
0.0
 10
117.430213729323
 20
-131.5961018551218
 30
0.0
 10
117.4598415504962
 20
-131.4607096025515
 30
0.0
 10
117.4598415504962
 20
-131.3608018334793
 30
0.0
 10
117.4598415504962
 20
-131.2119737085165
 30
0.0
 10
117.360622800521
 20
-131.0490206920641
 30
0.0
 10
117.1277343457181
 20
-131.0490206920641
 30
0.0
 10
116.8721082607125
 20
-131.0490206920641
 30
0.0
 10
116.802172822362
 20
-131.2412570201411
 30
0.0
 10
116.802172822362
 20
-131.3701035912894
 30
0.0
 10
116.802172822362
 20
-131.4042100365934
 30
0.0
 10
116.802172822362
 20
-131.5554497283959
 30
0.0
 10
116.9313639030588
 20
-131.6501898542402
 30
0.0
 10
116.9313639030588
 20
-131.6501898542402
 30
0.0
 10
116.9120713683414
 20
-131.8382920677349
 30
0.0
 10
116.9120713683414
 20
-131.8382920677349
 30
0.0
 10
116.9120713683414
 20
-131.8382920677349
 30
0.0
 10
116.0659559171641
 20
-131.709100987038
 30
0.0
 10
116.0659559171641
 20
-131.709100987038
 30
0.0
 10
116.0659559171641
 20
-131.709100987038
 30
0.0
 10
116.0659559171641
 20
-130.8771104273502
 30
0.0
 10
116.0659559171641
 20
-130.8771104273502
 30
0.0
 10
116.0659559171641
 20
-130.8771104273502
 30
0.0
 10
116.2606038120807
 20
-130.8771104273502
 30
0.0
 10
116.2606038120807
 20
-130.8771104273502
 30
0.0
 10
116.2606038120807
 20
-130.8771104273502
 30
0.0
 10
116.2606038120807
 20
-131.5351236650329
 30
0.0
 10
116.2606038120807
 20
-131.5351236650329
 30
0.0
 10
116.2606038120807
 20
-131.5351236650329
 30
0.0
 10
116.6836615376694
 20
-131.605403612932
 30
0.0
 10
116.6836615376694
 20
-131.605403612932
 30
0.0
 10
116.6495550923654
 20
-131.5396022891637
 30
0.0
 10
116.6095919847365
 20
-131.4514078447413
 30
0.0
 10
116.6095919847365
 20
-131.3249728404327
 30
0.0
 10
116.6095919847365
 20
-131.053499316195
 30
0.0
 10
116.79562714094
 20
-130.8002847980291
 30
0.0
 10
117.1087863205492
 20
-130.8002847980291
 30
0.0
 10
117.4260796147407
 20
-130.8002847980291
 30
0.0
 10
117.6610351268347
 20
-131.0400634438025
 30
0.0
 10
117.6610351268347
 20
-131.3632134003189
 30
0.0
  0
HATCH
  5
124
330
114
100
AcDbEntity
  8
_U+30EC_U+30A4_U+30E4_U+30FC 1
 62
   179
420
  2234388
100
AcDbHatch
 10
0.0
 20
0.0
 30
0.0
210
0.0
220
0.0
230
1.0
  2
SOLID
 70
     1
 71
     0
 91
        1
 92
        1
 93
        1
 72
     4
 94
        3
 73
     0
 74
     1
 95
       53
 96
       49
 40
0.0
 40
0.0
 40
0.0
 40
0.0
 40
1.0
 40
1.0
 40
1.0
 40
2.0
 40
2.0
 40
2.0
 40
3.0
 40
3.0
 40
3.0
 40
4.0
 40
4.0
 40
4.0
 40
5.0
 40
5.0
 40
5.0
 40
6.0
 40
6.0
 40
6.0
 40
7.0
 40
7.0
 40
7.0
 40
8.0
 40
8.0
 40
8.0
 40
9.0
 40
9.0
 40
9.0
 40
10.0
 40
10.0
 40
10.0
 40
11.0
 40
11.0
 40
11.0
 40
12.0
 40
12.0
 40
12.0
 40
13.0
 40
13.0
 40
13.0
 40
14.0
 40
14.0
 40
14.0
 40
15.0
 40
15.0
 40
15.0
 40
16.0
 40
16.0
 40
16.0
 40
16.0
 10
117.6610351268347
 20
-131.3632134003189
 10
117.6610351268347
 20
-131.4469292206105
 10
117.644154158957
 20
-131.5554497283959
 10
117.5804198924799
 20
-131.6639702361812
 10
117.4705213465004
 20
-131.8493163732877
 10
117.3392632085124
 20
-131.8720540034903
 10
117.2317762293726
 20
-131.8923800668533
 10
117.2317762293726
 20
-131.8923800668533
 10
117.2317762293726
 20
-131.6550129879196
 10
117.2317762293726
 20
-131.6550129879196
 10
117.430213729323
 20
-131.5961018551218
 10
117.4598415504962
 20
-131.4607096025515
 10
117.4598415504962
 20
-131.3608018334793
 10
117.4598415504962
 20
-131.2119737085165
 10
117.360622800521
 20
-131.0490206920641
 10
117.1277343457181
 20
-131.0490206920641
 10
116.8721082607125
 20
-131.0490206920641
 10
116.802172822362
 20
-131.2412570201411
 10
116.802172822362
 20
-131.3701035912894
 10
116.802172822362
 20
-131.4042100365934
 10
116.802172822362
 20
-131.5554497283959
 10
116.9313639030588
 20
-131.6501898542402
 10
116.9313639030588
 20
-131.6501898542402
 10
116.9120713683414
 20
-131.8382920677349
 10
116.9120713683414
 20
-131.8382920677349
 10
116.9120713683414
 20
-131.8382920677349
 10
116.0659559171641
 20
-131.709100987038
 10
116.0659559171641
 20
-131.709100987038
 10
116.0659559171641
 20
-131.709100987038
 10
116.0659559171641
 20
-130.8771104273502
 10
116.0659559171641
 20
-130.8771104273502
 10
116.0659559171641
 20
-130.8771104273502
 10
116.2606038120807
 20
-130.8771104273502
 10
116.2606038120807
 20
-130.8771104273502
 10
116.2606038120807
 20
-130.8771104273502
 10
116.2606038120807
 20
-131.5351236650329
 10
116.2606038120807
 20
-131.5351236650329
 10
116.2606038120807
 20
-131.5351236650329
 10
116.6836615376694
 20
-131.605403612932
 10
116.6836615376694
 20
-131.605403612932
 10
116.6495550923654
 20
-131.5396022891637
 10
116.6095919847365
 20
-131.4514078447413
 10
116.6095919847365
 20
-131.3249728404327
 10
116.6095919847365
 20
-131.053499316195
 10
116.79562714094
 20
-130.8002847980291
 10
117.1087863205492
 20
-130.8002847980291
 10
117.4260796147407
 20
-130.8002847980291
 10
117.6610351268347
 20
-131.0400634438025
 10
117.6610351268347
 20
-131.3632134003189
 97
        0
 97
        0
 75
     2
 76
     1
 98
        0
  0
ENDBLK
  5
117
330
114
100
AcDbEntity
  8
0
100
AcDbBlockEnd
  0
BLOCK
  5
127
330
125
100
AcDbEntity
  8
0
100
AcDbBlockBegin
  2
block 8
 70
     0
 10
0.0
 20
0.0
 30
0.0
  3
block 8
  1

  0
SPLINE
  5
129
330
125
100
AcDbEntity
  8
_U+30EC_U+30A4_U+30E4_U+30FC 1
370
     0
100
AcDbSpline
210
0.0
220
0.0
230
1.0
 70
    11
 71
     3
 72
    26
 73
    22
 74
     0
 42
0.0000000001
 43
0.0000000001
 12
1.0
 22
0.0
 32
0.0
 13
1.0
 23
0.0
 33
0.0
 40
0.0
 40
0.0
 40
0.0
 40
0.0
 40
1.0
 40
1.0
 40
1.0
 40
2.0
 40
2.0
 40
2.0
 40
3.0
 40
3.0
 40
3.0
 40
4.0
 40
4.0
 40
4.0
 40
5.0
 40
5.0
 40
5.0
 40
6.0
 40
6.0
 40
6.0
 40
7.0
 40
7.0
 40
7.0
 40
7.0
 10
65.84783255732276
 20
-130.3438096462335
 30
0.0
 10
65.84783255732276
 20
-130.3438096462335
 30
0.0
 10
64.74367945430019
 20
-130.3438096462335
 30
0.0
 10
64.74367945430019
 20
-130.3438096462335
 30
0.0
 10
64.74367945430019
 20
-130.3438096462335
 30
0.0
 10
64.74367945430019
 20
-130.6962429143746
 30
0.0
 10
64.74367945430019
 20
-130.6962429143746
 30
0.0
 10
64.74367945430019
 20
-130.6962429143746
 30
0.0
 10
64.59554034843445
 20
-130.6962429143746
 30
0.0
 10
64.59554034843445
 20
-130.6962429143746
 30
0.0
 10
64.58072643784787
 20
-130.3413980793938
 30
0.0
 10
64.41777342139557
 20
-130.2917887044062
 30
0.0
 10
64.30339625128526
 20
-130.2600938259419
 30
0.0
 10
64.30339625128526
 20
-130.2600938259419
 30
0.0
 10
64.30339625128526
 20
-130.1040310004601
 30
0.0
 10
64.30339625128526
 20
-130.1040310004601
 30
0.0
 10
64.30339625128526
 20
-130.1040310004601
 30
0.0
 10
65.84783255732276
 20
-130.1040310004601
 30
0.0
 10
65.84783255732276
 20
-130.1040310004601
 30
0.0
 10
65.84783255732276
 20
-130.1040310004601
 30
0.0
 10
65.84783255732276
 20
-130.3438096462335
 30
0.0
 10
65.84783255732276
 20
-130.3438096462335
 30
0.0
  0
HATCH
  5
12A
330
125
100
AcDbEntity
  8
_U+30EC_U+30A4_U+30E4_U+30FC 1
 62
   179
420
  2234388
100
AcDbHatch
 10
0.0
 20
0.0
 30
0.0
210
0.0
220
0.0
230
1.0
  2
SOLID
 70
     1
 71
     0
 91
        1
 92
        1
 93
        1
 72
     4
 94
        3
 73
     0
 74
     1
 95
       26
 96
       22
 40
0.0
 40
0.0
 40
0.0
 40
0.0
 40
1.0
 40
1.0
 40
1.0
 40
2.0
 40
2.0
 40
2.0
 40
3.0
 40
3.0
 40
3.0
 40
4.0
 40
4.0
 40
4.0
 40
5.0
 40
5.0
 40
5.0
 40
6.0
 40
6.0
 40
6.0
 40
7.0
 40
7.0
 40
7.0
 40
7.0
 10
65.84783255732276
 20
-130.3438096462335
 10
65.84783255732276
 20
-130.3438096462335
 10
64.74367945430019
 20
-130.3438096462335
 10
64.74367945430019
 20
-130.3438096462335
 10
64.74367945430019
 20
-130.3438096462335
 10
64.74367945430019
 20
-130.6962429143746
 10
64.74367945430019
 20
-130.6962429143746
 10
64.74367945430019
 20
-130.6962429143746
 10
64.59554034843445
 20
-130.6962429143746
 10
64.59554034843445
 20
-130.6962429143746
 10
64.58072643784787
 20
-130.3413980793938
 10
64.41777342139557
 20
-130.2917887044062
 10
64.30339625128526
 20
-130.2600938259419
 10
64.30339625128526
 20
-130.2600938259419
 10
64.30339625128526
 20
-130.1040310004601
 10
64.30339625128526
 20
-130.1040310004601
 10
64.30339625128526
 20
-130.1040310004601
 10
65.84783255732276
 20
-130.1040310004601
 10
65.84783255732276
 20
-130.1040310004601
 10
65.84783255732276
 20
-130.1040310004601
 10
65.84783255732276
 20
-130.3438096462335
 10
65.84783255732276
 20
-130.3438096462335
 97
        0
 97
        0
 75
     2
 76
     1
 98
        0
  0
SPLINE
  5
12B
330
125
100
AcDbEntity
  8
_U+30EC_U+30A4_U+30E4_U+30FC 1
370
     0
100
AcDbSpline
210
0.0
220
0.0
230
1.0
 70
    11
 71
     3
 72
    29
 73
    25
 74
     0
 42
0.0000000001
 43
0.0000000001
 12
1.0
 22
0.0
 32
0.0
 13
1.0
 23
0.0
 33
0.0
 40
0.0
 40
0.0
 40
0.0
 40
0.0
 40
1.0
 40
1.0
 40
1.0
 40
2.0
 40
2.0
 40
2.0
 40
3.0
 40
3.0
 40
3.0
 40
4.0
 40
4.0
 40
4.0
 40
5.0
 40
5.0
 40
5.0
 40
6.0
 40
6.0
 40
6.0
 40
7.0
 40
7.0
 40
7.0
 40
8.0
 40
8.0
 40
8.0
 40
8.0
 10
65.89847546095594
 20
-129.0339843427415
 30
0.0
 10
65.89847546095594
 20
-129.3185492298231
 30
0.0
 10
65.76101615109447
 20
-129.5900227540608
 30
0.0
 10
65.41202797843866
 20
-129.5900227540608
 30
0.0
 10
65.1560573838846
 20
-129.5900227540608
 30
0.0
 10
65.06097274849171
 20
-129.4384385527098
 30
0.0
 10
64.99965004885426
 20
-129.3254394207937
 30
0.0
 10
64.94039440650796
 20
-129.4587646160728
 30
0.0
 10
64.82601723639766
 20
-129.5404133790732
 30
0.0
 10
64.6651312772365
 20
-129.5404133790732
 30
0.0
 10
64.39021265751356
 20
-129.5404133790732
 30
0.0
 10
64.25482040494325
 20
-129.3278509876333
 30
0.0
 10
64.25482040494325
 20
-129.0339843427415
 30
0.0
 10
64.25482040494325
 20
-128.7308159400395
 30
0.0
 10
64.39882539622668
 20
-128.5275553064098
 30
0.0
 10
64.6651312772365
 20
-128.5275553064098
 30
0.0
 10
64.82601723639766
 20
-128.5275553064098
 30
0.0
 10
64.94039440650796
 20
-128.6109266171528
 30
0.0
 10
64.99965004885426
 20
-128.7445963219805
 30
0.0
 10
65.05029295248742
 20
-128.6495116865876
 30
0.0
 10
65.14537758788032
 20
-128.4800129887133
 30
0.0
 10
65.40789386385636
 20
-128.4800129887133
 30
0.0
 10
65.78237574310302
 20
-128.4800129887133
 30
0.0
 10
65.89847546095594
 20
-128.778358257736
 30
0.0
 10
65.89847546095594
 20
-129.0339843427415
 30
0.0
  0
SPLINE
  5
12C
330
125
100
AcDbEntity
  8
_U+30EC_U+30A4_U+30E4_U+30FC 1
370
     0
100
AcDbSpline
210
0.0
220
0.0
230
1.0
 70
    11
 71
     3
 72
    17
 73
    13
 74
     0
 42
0.0000000001
 43
0.0000000001
 12
1.0
 22
0.0
 32
0.0
 13
1.0
 23
0.0
 33
0.0
 40
0.0
 40
0.0
 40
0.0
 40
0.0
 40
1.0
 40
1.0
 40
1.0
 40
2.0
 40
2.0
 40
2.0
 40
3.0
 40
3.0
 40
3.0
 40
4.0
 40
4.0
 40
4.0
 40
4.0
 10
64.4474012425687
 20
-129.0339843427415
 30
0.0
 10
64.4474012425687
 20
-129.2103732315863
 30
0.0
 10
64.54248587796161
 20
-129.3006347332999
 30
0.0
 10
64.67787813053192
 20
-129.3006347332999
 30
0.0
 10
64.80052352980681
 20
-129.3006347332999
 30
0.0
 10
64.91903481449941
 20
-129.2238091039788
 30
0.0
 10
64.91903481449941
 20
-129.0339843427415
 30
0.0
 10
64.91903481449941
 20
-128.8438150719557
 30
0.0
 10
64.80052352980681
 20
-128.7669894426346
 30
0.0
 10
64.67787813053192
 20
-128.7669894426346
 30
0.0
 10
64.54248587796161
 20
-128.7669894426346
 30
0.0
 10
64.4474012425687
 20
-128.8596625111879
 30
0.0
 10
64.4474012425687
 20
-129.0339843427415
 30
0.0
  0
SPLINE
  5
12D
330
125
100
AcDbEntity
  8
_U+30EC_U+30A4_U+30E4_U+30FC 1
370
     0
100
AcDbSpline
210
0.0
220
0.0
230
1.0
 70
    11
 71
     3
 72
    17
 73
    13
 74
     0
 42
0.0000000001
 43
0.0000000001
 12
1.0
 22
0.0
 32
0.0
 13
1.0
 23
0.0
 33
0.0
 40
0.0
 40
0.0
 40
0.0
 40
0.0
 40
1.0
 40
1.0
 40
1.0
 40
2.0
 40
2.0
 40
2.0
 40
3.0
 40
3.0
 40
3.0
 40
4.0
 40
4.0
 40
4.0
 40
4.0
 10
65.10748153754258
 20
-129.0339843427415
 30
0.0
 10
65.10748153754258
 20
-129.1876356013836
 30
0.0
 10
65.19429794377088
 20
-129.3502441082875
 30
0.0
 10
65.39721406785209
 20
-129.3502441082875
 30
0.0
 10
65.60254175877297
 20
-129.3502441082875
 30
0.0
 10
65.70382756603932
 20
-129.2148518557171
 30
0.0
 10
65.70382756603932
 20
-129.0339843427415
 30
0.0
 10
65.70382756603932
 20
-128.8348578236941
 30
0.0
 10
65.58118216676444
 20
-128.717380067647
 30
0.0
 10
65.40341523972553
 20
-128.717380067647
 30
0.0
 10
65.18155109047545
 20
-128.717380067647
 30
0.0
 10
65.10748153754258
 20
-128.8913573896522
 30
0.0
 10
65.10748153754258
 20
-129.0339843427415
 30
0.0
  0
HATCH
  5
12E
330
125
100
AcDbEntity
  8
_U+30EC_U+30A4_U+30E4_U+30FC 1
 62
   179
420
  2234388
100
AcDbHatch
 10
0.0
 20
0.0
 30
0.0
210
0.0
220
0.0
230
1.0
  2
SOLID
 70
     1
 71
     0
 91
        3
 92
        1
 93
        1
 72
     4
 94
        3
 73
     0
 74
     1
 95
       29
 96
       25
 40
0.0
 40
0.0
 40
0.0
 40
0.0
 40
1.0
 40
1.0
 40
1.0
 40
2.0
 40
2.0
 40
2.0
 40
3.0
 40
3.0
 40
3.0
 40
4.0
 40
4.0
 40
4.0
 40
5.0
 40
5.0
 40
5.0
 40
6.0
 40
6.0
 40
6.0
 40
7.0
 40
7.0
 40
7.0
 40
8.0
 40
8.0
 40
8.0
 40
8.0
 10
65.89847546095594
 20
-129.0339843427415
 10
65.89847546095594
 20
-129.3185492298231
 10
65.76101615109447
 20
-129.5900227540608
 10
65.41202797843866
 20
-129.5900227540608
 10
65.1560573838846
 20
-129.5900227540608
 10
65.06097274849171
 20
-129.4384385527098
 10
64.99965004885426
 20
-129.3254394207937
 10
64.94039440650796
 20
-129.4587646160728
 10
64.82601723639766
 20
-129.5404133790732
 10
64.6651312772365
 20
-129.5404133790732
 10
64.39021265751356
 20
-129.5404133790732
 10
64.25482040494325
 20
-129.3278509876333
 10
64.25482040494325
 20
-129.0339843427415
 10
64.25482040494325
 20
-128.7308159400395
 10
64.39882539622668
 20
-128.5275553064098
 10
64.6651312772365
 20
-128.5275553064098
 10
64.82601723639766
 20
-128.5275553064098
 10
64.94039440650796
 20
-128.6109266171528
 10
64.99965004885426
 20
-128.7445963219805
 10
65.05029295248742
 20
-128.6495116865876
 10
65.14537758788032
 20
-128.4800129887133
 10
65.40789386385636
 20
-128.4800129887133
 10
65.78237574310302
 20
-128.4800129887133
 10
65.89847546095594
 20
-128.778358257736
 10
65.89847546095594
 20
-129.0339843427415
 97
        0
 97
        0
 92
        1
 93
        1
 72
     4
 94
        3
 73
     0
 74
     1
 95
       17
 96
       13
 40
0.0
 40
0.0
 40
0.0
 40
0.0
 40
1.0
 40
1.0
 40
1.0
 40
2.0
 40
2.0
 40
2.0
 40
3.0
 40
3.0
 40
3.0
 40
4.0
 40
4.0
 40
4.0
 40
4.0
 10
64.4474012425687
 20
-129.0339843427415
 10
64.4474012425687
 20
-129.2103732315863
 10
64.54248587796161
 20
-129.3006347332999
 10
64.67787813053192
 20
-129.3006347332999
 10
64.80052352980681
 20
-129.3006347332999
 10
64.91903481449941
 20
-129.2238091039788
 10
64.91903481449941
 20
-129.0339843427415
 10
64.91903481449941
 20
-128.8438150719557
 10
64.80052352980681
 20
-128.7669894426346
 10
64.67787813053192
 20
-128.7669894426346
 10
64.54248587796161
 20
-128.7669894426346
 10
64.4474012425687
 20
-128.8596625111879
 10
64.4474012425687
 20
-129.0339843427415
 97
        0
 97
        0
 92
        1
 93
        1
 72
     4
 94
        3
 73
     0
 74
     1
 95
       17
 96
       13
 40
0.0
 40
0.0
 40
0.0
 40
0.0
 40
1.0
 40
1.0
 40
1.0
 40
2.0
 40
2.0
 40
2.0
 40
3.0
 40
3.0
 40
3.0
 40
4.0
 40
4.0
 40
4.0
 40
4.0
 10
65.10748153754258
 20
-129.0339843427415
 10
65.10748153754258
 20
-129.1876356013836
 10
65.19429794377088
 20
-129.3502441082875
 10
65.39721406785209
 20
-129.3502441082875
 10
65.60254175877297
 20
-129.3502441082875
 10
65.70382756603932
 20
-129.2148518557171
 10
65.70382756603932
 20
-129.0339843427415
 10
65.70382756603932
 20
-128.8348578236941
 10
65.58118216676444
 20
-128.717380067647
 10
65.40341523972553
 20
-128.717380067647
 10
65.18155109047545
 20
-128.717380067647
 10
65.10748153754258
 20
-128.8913573896522
 10
65.10748153754258
 20
-129.0339843427415
 97
        0
 97
        0
 75
     2
 76
     1
 98
        0
  0
ENDBLK
  5
128
330
125
100
AcDbEntity
  8
0
100
AcDbBlockEnd
  0
ENDSEC
  0
SECTION
  2
ENTITIES
  0
POLYLINE
  5
41
330
1F
100
AcDbEntity
  8
_U+30EC_U+30A4_U+30E4_U+30FC 1
 62
   179
420
  2234388
370
    25
100
AcDb2dPolyline
 66
     1
 10
0.0
 20
0.0
 30
0.0
  0
VERTEX
  5
42
330
41
100
AcDbEntity
  8
_U+30EC_U+30A4_U+30E4_U+30FC 1
 62
   179
420
  2234388
370
    25
100
AcDbVertex
100
AcDb2dVertex
 10
81.1457659853546
 20
-138.6626921875567
 30
0.0
  0
VERTEX
  5
43
330
41
100
AcDbEntity
  8
_U+30EC_U+30A4_U+30E4_U+30FC 1
 62
   179
420
  2234388
370
    25
100
AcDbVertex
100
AcDb2dVertex
 10
71.14620957379786
 20
-138.6626921875567
 30
0.0
  0
SEQEND
  5
44
330
41
100
AcDbEntity
  8
_U+30EC_U+30A4_U+30E4_U+30FC 1
 62
   179
420
  2234388
370
    25
  0
POLYLINE
  5
45
330
1F
100
AcDbEntity
  8
_U+30EC_U+30A4_U+30E4_U+30FC 1
 62
   179
420
  2234388
370
    25
100
AcDb2dPolyline
 66
     1
 10
0.0
 20
0.0
 30
0.0
  0
VERTEX
  5
46
330
45
100
AcDbEntity
  8
_U+30EC_U+30A4_U+30E4_U+30FC 1
 62
   179
420
  2234388
370
    25
100
AcDbVertex
100
AcDb2dVertex
 10
74.14619644170627
 20
-120.6627352476122
 30
0.0
  0
VERTEX
  5
47
330
45
100
AcDbEntity
  8
_U+30EC_U+30A4_U+30E4_U+30FC 1
 62
   179
420
  2234388
370
    25
100
AcDbVertex
100
AcDb2dVertex
 10
71.14620957379786
 20
-120.6627352476122
 30
0.0
  0
SEQEND
  5
48
330
45
100
AcDbEntity
  8
_U+30EC_U+30A4_U+30E4_U+30FC 1
 62
   179
420
  2234388
370
    25
  0
POLYLINE
  5
49
330
1F
100
AcDbEntity
  8
_U+30EC_U+30A4_U+30E4_U+30FC 1
 62
   179
420
  2234388
370
    25
100
AcDb2dPolyline
 66
     1
 10
0.0
 20
0.0
 30
0.0
  0
VERTEX
  5
4A
330
49
100
AcDbEntity
  8
_U+30EC_U+30A4_U+30E4_U+30FC 1
 62
   179
420
  2234388
370
    25
100
AcDbVertex
100
AcDb2dVertex
 10
111.1456699422155
 20
-129.1631627454867
 30
0.0
  0
VERTEX
  5
4B
330
49
100
AcDbEntity
  8
_U+30EC_U+30A4_U+30E4_U+30FC 1
 62
   179
420
  2234388
370
    25
100
AcDbVertex
100
AcDb2dVertex
 10
111.1456699422155
 20
-128.1627202457371
 30
0.0
  0
SEQEND
  5
4C
330
49
100
AcDbEntity
  8
_U+30EC_U+30A4_U+30E4_U+30FC 1
 62
   179
420
  2234388
370
    25
  0
POLYLINE
  5
4D
330
1F
100
AcDbEntity
  8
_U+30EC_U+30A4_U+30E4_U+30FC 1
 62
   179
420
  2234388
370
    25
100
AcDb2dPolyline
 66
     1
 10
0.0
 20
0.0
 30
0.0
  0
VERTEX
  5
4E
330
4D
100
AcDbEntity
  8
_U+30EC_U+30A4_U+30E4_U+30FC 1
 62
   179
420
  2234388
370
    25
100
AcDbVertex
100
AcDb2dVertex
 10
71.14620957379786
 20
-138.6626921875567
 30
0.0
  0
VERTEX
  5
4F
330
4D
100
AcDbEntity
  8
_U+30EC_U+30A4_U+30E4_U+30FC 1
 62
   179
420
  2234388
370
    25
100
AcDbVertex
100
AcDb2dVertex
 10
71.14620957379786
 20
-120.6627352476122
 30
0.0
  0
SEQEND
  5
50
330
4D
100
AcDbEntity
  8
_U+30EC_U+30A4_U+30E4_U+30FC 1
 62
   179
420
  2234388
370
    25
  0
POLYLINE
  5
51
330
1F
100
AcDbEntity
  8
_U+30EC_U+30A4_U+30E4_U+30FC 1
 62
   179
420
  2234388
370
    25
100
AcDb2dPolyline
 66
     1
 10
0.0
 20
0.0
 30
0.0
  0
VERTEX
  5
52
330
51
100
AcDbEntity
  8
_U+30EC_U+30A4_U+30E4_U+30FC 1
 62
   179
420
  2234388
370
    25
100
AcDbVertex
100
AcDb2dVertex
 10
81.1457659853546
 20
-135.6627052438624
 30
0.0
  0
VERTEX
  5
53
330
51
100
AcDbEntity
  8
_U+30EC_U+30A4_U+30E4_U+30FC 1
 62
   179
420
  2234388
370
    25
100
AcDbVertex
100
AcDb2dVertex
 10
78.1457791174462
 20
-135.6627052438624
 30
0.0
  0
SEQEND
  5
54
330
51
100
AcDbEntity
  8
_U+30EC_U+30A4_U+30E4_U+30FC 1
 62
   179
420
  2234388
370
    25
  0
POLYLINE
  5
55
330
1F
100
AcDbEntity
  8
_U+30EC_U+30A4_U+30E4_U+30FC 1
 62
   179
420
  2234388
370
    25
100
AcDb2dPolyline
 66
     1
 10
0.0
 20
0.0
 30
0.0
  0
VERTEX
  5
56
330
55
100
AcDbEntity
  8
_U+30EC_U+30A4_U+30E4_U+30FC 1
 62
   179
420
  2234388
370
    25
100
AcDbVertex
100
AcDb2dVertex
 10
111.1456699422155
 20
-129.1631627454867
 30
0.0
  0
VERTEX
  5
57
330
55
100
AcDbEntity
  8
_U+30EC_U+30A4_U+30E4_U+30FC 1
 62
   179
420
  2234388
370
    25
100
AcDbVertex
100
AcDb2dVertex
 10
72.14598177051377
 20
-129.1631627454867
 30
0.0
  0
SEQEND
  5
58
330
55
100
AcDbEntity
  8
_U+30EC_U+30A4_U+30E4_U+30FC 1
 62
   179
420
  2234388
370
    25
  0
POLYLINE
  5
59
330
1F
100
AcDbEntity
  8
_U+30EC_U+30A4_U+30E4_U+30FC 1
 62
   179
420
  2234388
370
    25
100
AcDb2dPolyline
 66
     1
 10
0.0
 20
0.0
 30
0.0
  0
VERTEX
  5
5A
330
59
100
AcDbEntity
  8
_U+30EC_U+30A4_U+30E4_U+30FC 1
 62
   179
420
  2234388
370
    25
100
AcDbVertex
100
AcDb2dVertex
 10
111.1456699422155
 20
-128.1627202457371
 30
0.0
  0
VERTEX
  5
5B
330
59
100
AcDbEntity
  8
_U+30EC_U+30A4_U+30E4_U+30FC 1
 62
   179
420
  2234388
370
    25
100
AcDbVertex
100
AcDb2dVertex
 10
72.14598177051377
 20
-128.1627202457371
 30
0.0
  0
SEQEND
  5
5C
330
59
100
AcDbEntity
  8
_U+30EC_U+30A4_U+30E4_U+30FC 1
 62
   179
420
  2234388
370
    25
  0
POLYLINE
  5
5D
330
1F
100
AcDbEntity
  8
_U+30EC_U+30A4_U+30E4_U+30FC 1
 62
   179
420
  2234388
370
    25
100
AcDb2dPolyline
 66
     1
 10
0.0
 20
0.0
 30
0.0
  0
VERTEX
  5
5E
330
5D
100
AcDbEntity
  8
_U+30EC_U+30A4_U+30E4_U+30FC 1
 62
   179
420
  2234388
370
    25
100
AcDbVertex
100
AcDb2dVertex
 10
72.14598177051377
 20
-137.6629199655842
 30
0.0
  0
VERTEX
  5
5F
330
5D
100
AcDbEntity
  8
_U+30EC_U+30A4_U+30E4_U+30FC 1
 62
   179
420
  2234388
370
    25
100
AcDbVertex
100
AcDb2dVertex
 10
72.14598177051377
 20
-129.1631627454867
 30
0.0
  0
SEQEND
  5
60
330
5D
100
AcDbEntity
  8
_U+30EC_U+30A4_U+30E4_U+30FC 1
 62
   179
420
  2234388
370
    25
  0
POLYLINE
  5
61
330
1F
100
AcDbEntity
  8
_U+30EC_U+30A4_U+30E4_U+30FC 1
 62
   179
420
  2234388
370
    25
100
AcDb2dPolyline
 66
     1
 10
0.0
 20
0.0
 30
0.0
  0
VERTEX
  5
62
330
61
100
AcDbEntity
  8
_U+30EC_U+30A4_U+30E4_U+30FC 1
 62
   179
420
  2234388
370
    25
100
AcDbVertex
100
AcDb2dVertex
 10
74.14619644170627
 20
-121.6632130251396
 30
0.0
  0
VERTEX
  5
63
330
61
100
AcDbEntity
  8
_U+30EC_U+30A4_U+30E4_U+30FC 1
 62
   179
420
  2234388
370
    25
100
AcDbVertex
100
AcDb2dVertex
 10
72.14598177051377
 20
-121.6632130251396
 30
0.0
  0
SEQEND
  5
64
330
61
100
AcDbEntity
  8
_U+30EC_U+30A4_U+30E4_U+30FC 1
 62
   179
420
  2234388
370
    25
  0
POLYLINE
  5
65
330
1F
100
AcDbEntity
  8
_U+30EC_U+30A4_U+30E4_U+30FC 1
 62
   179
420
  2234388
370
    25
100
AcDb2dPolyline
 66
     1
 10
0.0
 20
0.0
 30
0.0
  0
VERTEX
  5
66
330
65
100
AcDbEntity
  8
_U+30EC_U+30A4_U+30E4_U+30FC 1
 62
   179
420
  2234388
370
    25
100
AcDbVertex
100
AcDb2dVertex
 10
80.14599378863869
 20
-137.6629199655842
 30
0.0
  0
VERTEX
  5
67
330
65
100
AcDbEntity
  8
_U+30EC_U+30A4_U+30E4_U+30FC 1
 62
   179
420
  2234388
370
    25
100
AcDbVertex
100
AcDb2dVertex
 10
72.14598177051377
 20
-137.6629199655842
 30
0.0
  0
SEQEND
  5
68
330
65
100
AcDbEntity
  8
_U+30EC_U+30A4_U+30E4_U+30FC 1
 62
   179
420
  2234388
370
    25
  0
POLYLINE
  5
69
330
1F
100
AcDbEntity
  8
_U+30EC_U+30A4_U+30E4_U+30FC 1
 62
   179
420
  2234388
370
    25
100
AcDb2dPolyline
 66
     1
 10
0.0
 20
0.0
 30
0.0
  0
VERTEX
  5
6A
330
69
100
AcDbEntity
  8
_U+30EC_U+30A4_U+30E4_U+30FC 1
 62
   179
420
  2234388
370
    25
100
AcDbVertex
100
AcDb2dVertex
 10
81.1457659853546
 20
-138.6626921875567
 30
0.0
  0
VERTEX
  5
6B
330
69
100
AcDbEntity
  8
_U+30EC_U+30A4_U+30E4_U+30FC 1
 62
   179
420
  2234388
370
    25
100
AcDbVertex
100
AcDb2dVertex
 10
81.1457659853546
 20
-135.6627052438624
 30
0.0
  0
SEQEND
  5
6C
330
69
100
AcDbEntity
  8
_U+30EC_U+30A4_U+30E4_U+30FC 1
 62
   179
420
  2234388
370
    25
  0
POLYLINE
  5
6D
330
1F
100
AcDbEntity
  8
_U+30EC_U+30A4_U+30E4_U+30FC 1
 62
   179
420
  2234388
370
    25
100
AcDb2dPolyline
 66
     1
 10
0.0
 20
0.0
 30
0.0
  0
VERTEX
  5
6E
330
6D
100
AcDbEntity
  8
_U+30EC_U+30A4_U+30E4_U+30FC 1
 62
   179
420
  2234388
370
    25
100
AcDbVertex
100
AcDb2dVertex
 10
80.14599378863869
 20
-137.6629199655842
 30
0.0
  0
VERTEX
  5
6F
330
6D
100
AcDbEntity
  8
_U+30EC_U+30A4_U+30E4_U+30FC 1
 62
   179
420
  2234388
370
    25
100
AcDbVertex
100
AcDb2dVertex
 10
80.14599378863869
 20
-136.6631477436123
 30
0.0
  0
SEQEND
  5
70
330
6D
100
AcDbEntity
  8
_U+30EC_U+30A4_U+30E4_U+30FC 1
 62
   179
420
  2234388
370
    25
  0
POLYLINE
  5
71
330
1F
100
AcDbEntity
  8
_U+30EC_U+30A4_U+30E4_U+30FC 1
 62
   179
420
  2234388
370
    25
100
AcDb2dPolyline
 66
     1
 10
0.0
 20
0.0
 30
0.0
  0
VERTEX
  5
72
330
71
100
AcDbEntity
  8
_U+30EC_U+30A4_U+30E4_U+30FC 1
 62
   179
420
  2234388
370
    25
100
AcDbVertex
100
AcDb2dVertex
 10
80.14599378863869
 20
-136.6631477436123
 30
0.0
  0
VERTEX
  5
73
330
71
100
AcDbEntity
  8
_U+30EC_U+30A4_U+30E4_U+30FC 1
 62
   179
420
  2234388
370
    25
100
AcDbVertex
100
AcDb2dVertex
 10
78.1457791174462
 20
-136.6631477436123
 30
0.0
  0
SEQEND
  5
74
330
71
100
AcDbEntity
  8
_U+30EC_U+30A4_U+30E4_U+30FC 1
 62
   179
420
  2234388
370
    25
  0
POLYLINE
  5
75
330
1F
100
AcDbEntity
  8
_U+30EC_U+30A4_U+30E4_U+30FC 1
 62
   179
420
  2234388
370
    25
100
AcDb2dPolyline
 66
     1
 10
0.0
 20
0.0
 30
0.0
  0
VERTEX
  5
76
330
75
100
AcDbEntity
  8
_U+30EC_U+30A4_U+30E4_U+30FC 1
 62
   179
420
  2234388
370
    25
100
AcDbVertex
100
AcDb2dVertex
 10
78.1457791174462
 20
-136.6631477436123
 30
0.0
  0
VERTEX
  5
77
330
75
100
AcDbEntity
  8
_U+30EC_U+30A4_U+30E4_U+30FC 1
 62
   179
420
  2234388
370
    25
100
AcDbVertex
100
AcDb2dVertex
 10
78.1457791174462
 20
-135.6627052438624
 30
0.0
  0
SEQEND
  5
78
330
75
100
AcDbEntity
  8
_U+30EC_U+30A4_U+30E4_U+30FC 1
 62
   179
420
  2234388
370
    25
  0
POLYLINE
  5
79
330
1F
100
AcDbEntity
  8
_U+30EC_U+30A4_U+30E4_U+30FC 1
 62
   179
420
  2234388
370
    25
100
AcDb2dPolyline
 66
     1
 10
0.0
 20
0.0
 30
0.0
  0
VERTEX
  5
7A
330
79
100
AcDbEntity
  8
_U+30EC_U+30A4_U+30E4_U+30FC 1
 62
   179
420
  2234388
370
    25
100
AcDbVertex
100
AcDb2dVertex
 10
74.14619644170627
 20
-121.6632130251396
 30
0.0
  0
VERTEX
  5
7B
330
79
100
AcDbEntity
  8
_U+30EC_U+30A4_U+30E4_U+30FC 1
 62
   179
420
  2234388
370
    25
100
AcDbVertex
100
AcDb2dVertex
 10
74.14619644170627
 20
-120.6627352476122
 30
0.0
  0
SEQEND
  5
7C
330
79
100
AcDbEntity
  8
_U+30EC_U+30A4_U+30E4_U+30FC 1
 62
   179
420
  2234388
370
    25
  0
POLYLINE
  5
7D
330
1F
100
AcDbEntity
  8
_U+30EC_U+30A4_U+30E4_U+30FC 1
 62
   179
420
  2234388
370
    25
100
AcDb2dPolyline
 66
     1
 10
0.0
 20
0.0
 30
0.0
  0
VERTEX
  5
7E
330
7D
100
AcDbEntity
  8
_U+30EC_U+30A4_U+30E4_U+30FC 1
 62
   179
420
  2234388
370
    25
100
AcDbVertex
100
AcDb2dVertex
 10
72.14598177051377
 20
-128.1627202457371
 30
0.0
  0
VERTEX
  5
7F
330
7D
100
AcDbEntity
  8
_U+30EC_U+30A4_U+30E4_U+30FC 1
 62
   179
420
  2234388
370
    25
100
AcDbVertex
100
AcDb2dVertex
 10
72.14598177051377
 20
-121.6632130251396
 30
0.0
  0
SEQEND
  5
80
330
7D
100
AcDbEntity
  8
_U+30EC_U+30A4_U+30E4_U+30FC 1
 62
   179
420
  2234388
370
    25
  0
SPLINE
  5
81
330
1F
100
AcDbEntity
  8
_U+30EC_U+30A4_U+30E4_U+30FC 1
 62
   179
420
  2234388
370
     9
100
AcDbSpline
210
0.0
220
0.0
230
1.0
 70
    11
 71
     3
 72
    17
 73
    13
 74
     0
 42
0.0000000001
 43
0.0000000001
 12
1.0
 22
0.0
 32
0.0
 13
1.0
 23
0.0
 33
0.0
 40
0.0
 40
0.0
 40
0.0
 40
0.0
 40
1.0
 40
1.0
 40
1.0
 40
2.0
 40
2.0
 40
2.0
 40
3.0
 40
3.0
 40
3.0
 40
4.0
 40
4.0
 40
4.0
 40
4.0
 10
115.1460992846005
 20
-135.5627985772201
 30
0.0
 10
115.2012384498604
 20
-135.5627985772201
 30
0.0
 10
115.2460059487183
 20
-135.6075660772093
 30
0.0
 10
115.2460059487183
 20
-135.6627052438624
 30
0.0
 10
115.2460059487183
 20
-135.7185146882928
 30
0.0
 10
115.2012384498604
 20
-135.762611910504
 30
0.0
 10
115.1460992846005
 20
-135.762611910504
 30
0.0
 10
115.0902898415799
 20
-135.762611910504
 30
0.0
 10
115.045522342722
 20
-135.7185146882928
 30
0.0
 10
115.045522342722
 20
-135.6627052438624
 30
0.0
 10
115.045522342722
 20
-135.6075660772093
 30
0.0
 10
115.0902898415799
 20
-135.5627985772201
 30
0.0
 10
115.1460992846005
 20
-135.5627985772201
 30
0.0
  0
SPLINE
  5
82
330
1F
100
AcDbEntity
  8
_U+30EC_U+30A4_U+30E4_U+30FC 1
 62
   179
420
  2234388
370
     9
100
AcDbSpline
210
0.0
220
0.0
230
1.0
 70
    11
 71
     3
 72
    17
 73
    13
 74
     0
 42
0.0000000001
 43
0.0000000001
 12
1.0
 22
0.0
 32
0.0
 13
1.0
 23
0.0
 33
0.0
 40
0.0
 40
0.0
 40
0.0
 40
0.0
 40
1.0
 40
1.0
 40
1.0
 40
2.0
 40
2.0
 40
2.0
 40
3.0
 40
3.0
 40
3.0
 40
4.0
 40
4.0
 40
4.0
 40
4.0
 10
115.1460992846005
 20
-138.5627855209151
 30
0.0
 10
115.2012384498604
 20
-138.5627855209151
 30
0.0
 10
115.2460059487183
 20
-138.6075530209037
 30
0.0
 10
115.2460059487183
 20
-138.6626921875567
 30
0.0
 10
115.2460059487183
 20
-138.7185016319872
 30
0.0
 10
115.2012384498604
 20
-138.7632691319757
 30
0.0
 10
115.1460992846005
 20
-138.7632691319757
 30
0.0
 10
115.0902898415799
 20
-138.7632691319757
 30
0.0
 10
115.045522342722
 20
-138.7185016319872
 30
0.0
 10
115.045522342722
 20
-138.6626921875567
 30
0.0
 10
115.045522342722
 20
-138.6075530209037
 30
0.0
 10
115.0902898415799
 20
-138.5627855209151
 30
0.0
 10
115.1460992846005
 20
-138.5627855209151
 30
0.0
  0
SPLINE
  5
83
330
1F
100
AcDbEntity
  8
_U+30EC_U+30A4_U+30E4_U+30FC 1
 62
   179
420
  2234388
370
     9
100
AcDbSpline
210
0.0
220
0.0
230
1.0
 70
    11
 71
     3
 72
    17
 73
    13
 74
     0
 42
0.0000000001
 43
0.0000000001
 12
1.0
 22
0.0
 32
0.0
 13
1.0
 23
0.0
 33
0.0
 40
0.0
 40
0.0
 40
0.0
 40
0.0
 40
1.0
 40
1.0
 40
1.0
 40
2.0
 40
2.0
 40
2.0
 40
3.0
 40
3.0
 40
3.0
 40
4.0
 40
4.0
 40
4.0
 40
4.0
 10
115.1460992846005
 20
-129.0632560788451
 30
0.0
 10
115.2012384498604
 20
-129.0632560788451
 30
0.0
 10
115.2460059487183
 20
-129.1080588566118
 30
0.0
 10
115.2460059487183
 20
-129.1631627454867
 30
0.0
 10
115.2460059487183
 20
-129.2183019121398
 30
0.0
 10
115.2012384498604
 20
-129.263069412129
 30
0.0
 10
115.1460992846005
 20
-129.263069412129
 30
0.0
 10
115.0902898415799
 20
-129.263069412129
 30
0.0
 10
115.045522342722
 20
-129.2183019121398
 30
0.0
 10
115.045522342722
 20
-129.1631627454867
 30
0.0
 10
115.045522342722
 20
-129.1080588566118
 30
0.0
 10
115.0902898415799
 20
-129.0632560788451
 30
0.0
 10
115.1460992846005
 20
-129.0632560788451
 30
0.0
  0
SPLINE
  5
84
330
1F
100
AcDbEntity
  8
_U+30EC_U+30A4_U+30E4_U+30FC 1
 62
   179
420
  2234388
370
     9
100
AcDbSpline
210
0.0
220
0.0
230
1.0
 70
    11
 71
     3
 72
    17
 73
    13
 74
     0
 42
0.0000000001
 43
0.0000000001
 12
1.0
 22
0.0
 32
0.0
 13
1.0
 23
0.0
 33
0.0
 40
0.0
 40
0.0
 40
0.0
 40
0.0
 40
1.0
 40
1.0
 40
1.0
 40
2.0
 40
2.0
 40
2.0
 40
3.0
 40
3.0
 40
3.0
 40
4.0
 40
4.0
 40
4.0
 40
4.0
 10
115.1460992846005
 20
-128.0628135790955
 30
0.0
 10
115.2012384498604
 20
-128.0628135790955
 30
0.0
 10
115.2460059487183
 20
-128.1075810790844
 30
0.0
 10
115.2460059487183
 20
-128.1627202457371
 30
0.0
 10
115.2460059487183
 20
-128.2178241346124
 30
0.0
 10
115.2012384498604
 20
-128.2626269123788
 30
0.0
 10
115.1460992846005
 20
-128.2626269123788
 30
0.0
 10
115.0902898415799
 20
-128.2626269123788
 30
0.0
 10
115.045522342722
 20
-128.2178241346124
 30
0.0
 10
115.045522342722
 20
-128.1627202457371
 30
0.0
 10
115.045522342722
 20
-128.1075810790844
 30
0.0
 10
115.0902898415799
 20
-128.0628135790955
 30
0.0
 10
115.1460992846005
 20
-128.0628135790955
 30
0.0
  0
SPLINE
  5
85
330
1F
100
AcDbEntity
  8
_U+30EC_U+30A4_U+30E4_U+30FC 1
 62
   179
420
  2234388
370
     9
100
AcDbSpline
210
0.0
220
0.0
230
1.0
 70
    11
 71
     3
 72
    17
 73
    13
 74
     0
 42
0.0000000001
 43
0.0000000001
 12
1.0
 22
0.0
 32
0.0
 13
1.0
 23
0.0
 33
0.0
 40
0.0
 40
0.0
 40
0.0
 40
0.0
 40
1.0
 40
1.0
 40
1.0
 40
2.0
 40
2.0
 40
2.0
 40
3.0
 40
3.0
 40
3.0
 40
4.0
 40
4.0
 40
4.0
 40
4.0
 10
111.1456699422155
 20
-116.5630694153037
 30
0.0
 10
111.2007738296986
 20
-116.5630694153037
 30
0.0
 10
111.2455766063333
 20
-116.6078721930704
 30
0.0
 10
111.2455766063333
 20
-116.6629760819453
 30
0.0
 10
111.2455766063333
 20
-116.7181152485984
 30
0.0
 10
111.2007738296986
 20
-116.7628827485869
 30
0.0
 10
111.1456699422155
 20
-116.7628827485869
 30
0.0
 10
111.0905307769556
 20
-116.7628827485869
 30
0.0
 10
111.0457632780977
 20
-116.7181152485984
 30
0.0
 10
111.0457632780977
 20
-116.6629760819453
 30
0.0
 10
111.0457632780977
 20
-116.6078721930704
 30
0.0
 10
111.0905307769556
 20
-116.5630694153037
 30
0.0
 10
111.1456699422155
 20
-116.5630694153037
 30
0.0
  0
SPLINE
  5
86
330
1F
100
AcDbEntity
  8
_U+30EC_U+30A4_U+30E4_U+30FC 1
 62
   179
420
  2234388
370
     9
100
AcDbSpline
210
0.0
220
0.0
230
1.0
 70
    11
 71
     3
 72
    17
 73
    13
 74
     0
 42
0.0000000001
 43
0.0000000001
 12
1.0
 22
0.0
 32
0.0
 13
1.0
 23
0.0
 33
0.0
 40
0.0
 40
0.0
 40
0.0
 40
0.0
 40
1.0
 40
1.0
 40
1.0
 40
2.0
 40
2.0
 40
2.0
 40
3.0
 40
3.0
 40
3.0
 40
4.0
 40
4.0
 40
4.0
 40
4.0
 10
71.14620957379786
 20
-116.5630694153037
 30
0.0
 10
71.20134873905782
 20
-116.5630694153037
 30
0.0
 10
71.2461162379157
 20
-116.6078721930704
 30
0.0
 10
71.2461162379157
 20
-116.6629760819453
 30
0.0
 10
71.2461162379157
 20
-116.7181152485984
 30
0.0
 10
71.20134873905782
 20
-116.7628827485869
 30
0.0
 10
71.14620957379786
 20
-116.7628827485869
 30
0.0
 10
71.09110568631479
 20
-116.7628827485869
 30
0.0
 10
71.04630290968004
 20
-116.7181152485984
 30
0.0
 10
71.04630290968004
 20
-116.6629760819453
 30
0.0
 10
71.04630290968004
 20
-116.6078721930704
 30
0.0
 10
71.09110568631479
 20
-116.5630694153037
 30
0.0
 10
71.14620957379786
 20
-116.5630694153037
 30
0.0
  0
SPLINE
  5
87
330
1F
100
AcDbEntity
  8
_U+30EC_U+30A4_U+30E4_U+30FC 1
 62
   179
420
  2234388
370
     9
100
AcDbSpline
210
0.0
220
0.0
230
1.0
 70
    11
 71
     3
 72
    17
 73
    13
 74
     0
 42
0.0000000001
 43
0.0000000001
 12
1.0
 22
0.0
 32
0.0
 13
1.0
 23
0.0
 33
0.0
 40
0.0
 40
0.0
 40
0.0
 40
0.0
 40
1.0
 40
1.0
 40
1.0
 40
2.0
 40
2.0
 40
2.0
 40
3.0
 40
3.0
 40
3.0
 40
4.0
 40
4.0
 40
4.0
 40
4.0
 10
67.1454274536441
 20
-120.5628285809706
 30
0.0
 10
67.20123689666472
 20
-120.5628285809706
 30
0.0
 10
67.24603967329949
 20
-120.607631358737
 30
0.0
 10
67.24603967329949
 20
-120.6627352476122
 30
0.0
 10
67.24603967329949
 20
-120.717874414265
 30
0.0
 10
67.20123689666472
 20
-120.7626419142538
 30
0.0
 10
67.1454274536441
 20
-120.7626419142538
 30
0.0
 10
67.09028828838414
 20
-120.7626419142538
 30
0.0
 10
67.04552078952626
 20
-120.717874414265
 30
0.0
 10
67.04552078952626
 20
-120.6627352476122
 30
0.0
 10
67.04552078952626
 20
-120.607631358737
 30
0.0
 10
67.09028828838414
 20
-120.5628285809706
 30
0.0
 10
67.1454274536441
 20
-120.5628285809706
 30
0.0
  0
SPLINE
  5
88
330
1F
100
AcDbEntity
  8
_U+30EC_U+30A4_U+30E4_U+30FC 1
 62
   179
420
  2234388
370
     9
100
AcDbSpline
210
0.0
220
0.0
230
1.0
 70
    11
 71
     3
 72
    17
 73
    13
 74
     0
 42
0.0000000001
 43
0.0000000001
 12
1.0
 22
0.0
 32
0.0
 13
1.0
 23
0.0
 33
0.0
 40
0.0
 40
0.0
 40
0.0
 40
0.0
 40
1.0
 40
1.0
 40
1.0
 40
2.0
 40
2.0
 40
2.0
 40
3.0
 40
3.0
 40
3.0
 40
4.0
 40
4.0
 40
4.0
 40
4.0
 10
67.1454274536441
 20
-138.5627855209151
 30
0.0
 10
67.20123689666472
 20
-138.5627855209151
 30
0.0
 10
67.24603967329949
 20
-138.6075530209037
 30
0.0
 10
67.24603967329949
 20
-138.6626921875567
 30
0.0
 10
67.24603967329949
 20
-138.7185016319872
 30
0.0
 10
67.20123689666472
 20
-138.7632691319757
 30
0.0
 10
67.1454274536441
 20
-138.7632691319757
 30
0.0
 10
67.09028828838414
 20
-138.7632691319757
 30
0.0
 10
67.04552078952626
 20
-138.7185016319872
 30
0.0
 10
67.04552078952626
 20
-138.6626921875567
 30
0.0
 10
67.04552078952626
 20
-138.6075530209037
 30
0.0
 10
67.09028828838414
 20
-138.5627855209151
 30
0.0
 10
67.1454274536441
 20
-138.5627855209151
 30
0.0
  0
SPLINE
  5
89
330
1F
100
AcDbEntity
  8
_U+30EC_U+30A4_U+30E4_U+30FC 1
 62
   179
420
  2234388
370
     9
100
AcDbSpline
210
0.0
220
0.0
230
1.0
 70
    11
 71
     3
 72
    17
 73
    13
 74
     0
 42
0.0000000001
 43
0.0000000001
 12
1.0
 22
0.0
 32
0.0
 13
1.0
 23
0.0
 33
0.0
 40
0.0
 40
0.0
 40
0.0
 40
0.0
 40
1.0
 40
1.0
 40
1.0
 40
2.0
 40
2.0
 40
2.0
 40
3.0
 40
3.0
 40
3.0
 40
4.0
 40
4.0
 40
4.0
 40
4.0
 10
71.13312151857622
 20
-114.1446366381304
 30
0.0
 10
71.18893096159684
 20
-114.1446366381304
 30
0.0
 10
71.2337337382316
 20
-114.1894041381192
 30
0.0
 10
71.2337337382316
 20
-114.2445433047723
 30
0.0
 10
71.2337337382316
 20
-114.3003527492028
 30
0.0
 10
71.18893096159684
 20
-114.3451202491917
 30
0.0
 10
71.13312151857622
 20
-114.3451202491917
 30
0.0
 10
71.07801942667486
 20
-114.3451202491917
 30
0.0
 10
71.03321664890846
 20
-114.3003527492028
 30
0.0
 10
71.03321664890846
 20
-114.2445433047723
 30
0.0
 10
71.03321664890846
 20
-114.1894041381192
 30
0.0
 10
71.07801942667486
 20
-114.1446366381304
 30
0.0
 10
71.13312151857622
 20
-114.1446366381304
 30
0.0
  0
SPLINE
  5
8A
330
1F
100
AcDbEntity
  8
_U+30EC_U+30A4_U+30E4_U+30FC 1
 62
   179
420
  2234388
370
     9
100
AcDbSpline
210
0.0
220
0.0
230
1.0
 70
    11
 71
     3
 72
    17
 73
    13
 74
     0
 42
0.0000000001
 43
0.0000000001
 12
1.0
 22
0.0
 32
0.0
 13
1.0
 23
0.0
 33
0.0
 40
0.0
 40
0.0
 40
0.0
 40
0.0
 40
1.0
 40
1.0
 40
1.0
 40
2.0
 40
2.0
 40
2.0
 40
3.0
 40
3.0
 40
3.0
 40
4.0
 40
4.0
 40
4.0
 40
4.0
 10
74.30812143757522
 20
-114.0447299714887
 30
0.0
 10
74.36393088059584
 20
-114.0447299714887
 30
0.0
 10
74.40873365723061
 20
-114.0894974714776
 30
0.0
 10
74.40873365723061
 20
-114.1446366381304
 30
0.0
 10
74.40873365723061
 20
-114.1997405270056
 30
0.0
 10
74.36393088059584
 20
-114.2445433047723
 30
0.0
 10
74.30812143757522
 20
-114.2445433047723
 30
0.0
 10
74.2530194258811
 20
-114.2445433047723
 30
0.0
 10
74.20821664811471
 20
-114.1997405270056
 30
0.0
 10
74.20821664811471
 20
-114.1446366381304
 30
0.0
 10
74.20821664811471
 20
-114.0894974714776
 30
0.0
 10
74.2530194258811
 20
-114.0447299714887
 30
0.0
 10
74.30812143757522
 20
-114.0447299714887
 30
0.0
  0
SPLINE
  5
8B
330
1F
100
AcDbEntity
  8
_U+30EC_U+30A4_U+30E4_U+30FC 1
 62
   179
420
  2234388
370
     9
100
AcDbSpline
210
0.0
220
0.0
230
1.0
 70
    11
 71
     3
 72
    17
 73
    13
 74
     0
 42
0.0000000001
 43
0.0000000001
 12
1.0
 22
0.0
 32
0.0
 13
1.0
 23
0.0
 33
0.0
 40
0.0
 40
0.0
 40
0.0
 40
0.0
 40
1.0
 40
1.0
 40
1.0
 40
2.0
 40
2.0
 40
2.0
 40
3.0
 40
3.0
 40
3.0
 40
4.0
 40
4.0
 40
4.0
 40
4.0
 10
71.14620957379786
 20
-142.5632149643593
 30
0.0
 10
71.20134873905782
 20
-142.5632149643593
 30
0.0
 10
71.2461162379157
 20
-142.6080177421261
 30
0.0
 10
71.2461162379157
 20
-142.663121631001
 30
0.0
 10
71.2461162379157
 20
-142.7182607976541
 30
0.0
 10
71.20134873905782
 20
-142.7630282976426
 30
0.0
 10
71.14620957379786
 20
-142.7630282976426
 30
0.0
 10
71.09110568631479
 20
-142.7630282976426
 30
0.0
 10
71.04630290968004
 20
-142.7182607976541
 30
0.0
 10
71.04630290968004
 20
-142.663121631001
 30
0.0
 10
71.04630290968004
 20
-142.6080177421261
 30
0.0
 10
71.09110568631479
 20
-142.5632149643593
 30
0.0
 10
71.14620957379786
 20
-142.5632149643593
 30
0.0
  0
SPLINE
  5
8C
330
1F
100
AcDbEntity
  8
_U+30EC_U+30A4_U+30E4_U+30FC 1
 62
   179
420
  2234388
370
     9
100
AcDbSpline
210
0.0
220
0.0
230
1.0
 70
    11
 71
     3
 72
    17
 73
    13
 74
     0
 42
0.0000000001
 43
0.0000000001
 12
1.0
 22
0.0
 32
0.0
 13
1.0
 23
0.0
 33
0.0
 40
0.0
 40
0.0
 40
0.0
 40
0.0
 40
1.0
 40
1.0
 40
1.0
 40
2.0
 40
2.0
 40
2.0
 40
3.0
 40
3.0
 40
3.0
 40
4.0
 40
4.0
 40
4.0
 40
4.0
 10
81.1457659853546
 20
-142.5632149643593
 30
0.0
 10
81.20090515061455
 20
-142.5632149643593
 30
0.0
 10
81.24567264947243
 20
-142.6080177421261
 30
0.0
 10
81.24567264947243
 20
-142.663121631001
 30
0.0
 10
81.24567264947243
 20
-142.7182607976541
 30
0.0
 10
81.20090515061455
 20
-142.7630282976426
 30
0.0
 10
81.1457659853546
 20
-142.7630282976426
 30
0.0
 10
81.08995654233397
 20
-142.7630282976426
 30
0.0
 10
81.04585932123676
 20
-142.7182607976541
 30
0.0
 10
81.04585932123676
 20
-142.663121631001
 30
0.0
 10
81.04585932123676
 20
-142.6080177421261
 30
0.0
 10
81.08995654233397
 20
-142.5632149643593
 30
0.0
 10
81.1457659853546
 20
-142.5632149643593
 30
0.0
  0
POLYLINE
  5
8D
330
1F
100
AcDbEntity
  8
_U+30EC_U+30A4_U+30E4_U+30FC 1
 62
   179
420
  2234388
370
     9
100
AcDb2dPolyline
 66
     1
 10
0.0
 20
0.0
 30
0.0
  0
VERTEX
  5
8E
330
8D
100
AcDbEntity
  8
_U+30EC_U+30A4_U+30E4_U+30FC 1
 62
   179
420
  2234388
370
     9
100
AcDbVertex
100
AcDb2dVertex
 10
115.1460992846005
 20
-128.1627202457371
 30
0.0
  0
VERTEX
  5
8F
330
8D
100
AcDbEntity
  8
_U+30EC_U+30A4_U+30E4_U+30FC 1
 62
   179
420
  2234388
370
     9
100
AcDbVertex
100
AcDb2dVertex
 10
115.1460992846005
 20
-124.3924077466797
 30
0.0
  0
SEQEND
  5
90
330
8D
100
AcDbEntity
  8
_U+30EC_U+30A4_U+30E4_U+30FC 1
 62
   179
420
  2234388
370
     9
  0
POLYLINE
  5
91
330
1F
100
AcDbEntity
  8
_U+30EC_U+30A4_U+30E4_U+30FC 1
 62
   179
420
  2234388
370
     9
100
AcDb2dPolyline
 66
     1
 10
0.0
 20
0.0
 30
0.0
  0
VERTEX
  5
92
330
91
100
AcDbEntity
  8
_U+30EC_U+30A4_U+30E4_U+30FC 1
 62
   179
420
  2234388
370
     9
100
AcDbVertex
100
AcDb2dVertex
 10
115.1460992846005
 20
-128.1627202457371
 30
0.0
  0
VERTEX
  5
93
330
91
100
AcDbEntity
  8
_U+30EC_U+30A4_U+30E4_U+30FC 1
 62
   179
420
  2234388
370
     9
100
AcDbVertex
100
AcDb2dVertex
 10
115.1460992846005
 20
-129.1631627454867
 30
0.0
  0
SEQEND
  5
94
330
91
100
AcDbEntity
  8
_U+30EC_U+30A4_U+30E4_U+30FC 1
 62
   179
420
  2234388
370
     9
  0
POLYLINE
  5
95
330
1F
100
AcDbEntity
  8
_U+30EC_U+30A4_U+30E4_U+30FC 1
 62
   179
420
  2234388
370
     9
100
AcDb2dPolyline
 66
     1
 10
0.0
 20
0.0
 30
0.0
  0
VERTEX
  5
96
330
95
100
AcDbEntity
  8
_U+30EC_U+30A4_U+30E4_U+30FC 1
 62
   179
420
  2234388
370
     9
100
AcDbVertex
100
AcDb2dVertex
 10
113.6860932107372
 20
-128.1627202457371
 30
0.0
  0
VERTEX
  5
97
330
95
100
AcDbEntity
  8
_U+30EC_U+30A4_U+30E4_U+30FC 1
 62
   179
420
  2234388
370
     9
100
AcDbVertex
100
AcDb2dVertex
 10
116.1458714813164
 20
-128.1627202457371
 30
0.0
  0
SEQEND
  5
98
330
95
100
AcDbEntity
  8
_U+30EC_U+30A4_U+30E4_U+30FC 1
 62
   179
420
  2234388
370
     9
  0
POLYLINE
  5
99
330
1F
100
AcDbEntity
  8
_U+30EC_U+30A4_U+30E4_U+30FC 1
 62
   179
420
  2234388
370
     9
100
AcDb2dPolyline
 66
     1
 10
0.0
 20
0.0
 30
0.0
  0
VERTEX
  5
9A
330
99
100
AcDbEntity
  8
_U+30EC_U+30A4_U+30E4_U+30FC 1
 62
   179
420
  2234388
370
     9
100
AcDbVertex
100
AcDb2dVertex
 10
113.6860932107372
 20
-129.1631627454867
 30
0.0
  0
VERTEX
  5
9B
330
99
100
AcDbEntity
  8
_U+30EC_U+30A4_U+30E4_U+30FC 1
 62
   179
420
  2234388
370
     9
100
AcDbVertex
100
AcDb2dVertex
 10
116.1458714813164
 20
-129.1631627454867
 30
0.0
  0
SEQEND
  5
9C
330
99
100
AcDbEntity
  8
_U+30EC_U+30A4_U+30E4_U+30FC 1
 62
   179
420
  2234388
370
     9
  0
POLYLINE
  5
9D
330
1F
100
AcDbEntity
  8
_U+30EC_U+30A4_U+30E4_U+30FC 1
 62
   179
420
  2234388
370
     9
100
AcDb2dPolyline
 66
     1
 10
0.0
 20
0.0
 30
0.0
  0
VERTEX
  5
9E
330
9D
100
AcDbEntity
  8
_U+30EC_U+30A4_U+30E4_U+30FC 1
 62
   179
420
  2234388
370
     9
100
AcDbVertex
100
AcDb2dVertex
 10
115.1460992846005
 20
-138.6626921875567
 30
0.0
  0
VERTEX
  5
9F
330
9D
100
AcDbEntity
  8
_U+30EC_U+30A4_U+30E4_U+30FC 1
 62
   179
420
  2234388
370
     9
100
AcDbVertex
100
AcDb2dVertex
 10
115.1460992846005
 20
-135.6627052438624
 30
0.0
  0
SEQEND
  5
A0
330
9D
100
AcDbEntity
  8
_U+30EC_U+30A4_U+30E4_U+30FC 1
 62
   179
420
  2234388
370
     9
  0
POLYLINE
  5
A1
330
1F
100
AcDbEntity
  8
_U+30EC_U+30A4_U+30E4_U+30FC 1
 62
   179
420
  2234388
370
     9
100
AcDb2dPolyline
 66
     1
 10
0.0
 20
0.0
 30
0.0
  0
VERTEX
  5
A2
330
A1
100
AcDbEntity
  8
_U+30EC_U+30A4_U+30E4_U+30FC 1
 62
   179
420
  2234388
370
     9
100
AcDbVertex
100
AcDb2dVertex
 10
83.68551897611566
 20
-138.6626921875567
 30
0.0
  0
VERTEX
  5
A3
330
A1
100
AcDbEntity
  8
_U+30EC_U+30A4_U+30E4_U+30FC 1
 62
   179
420
  2234388
370
     9
100
AcDbVertex
100
AcDb2dVertex
 10
116.1458714813164
 20
-138.6626921875567
 30
0.0
  0
SEQEND
  5
A4
330
A1
100
AcDbEntity
  8
_U+30EC_U+30A4_U+30E4_U+30FC 1
 62
   179
420
  2234388
370
     9
  0
POLYLINE
  5
A5
330
1F
100
AcDbEntity
  8
_U+30EC_U+30A4_U+30E4_U+30FC 1
 62
   179
420
  2234388
370
     9
100
AcDb2dPolyline
 66
     1
 10
0.0
 20
0.0
 30
0.0
  0
VERTEX
  5
A6
330
A5
100
AcDbEntity
  8
_U+30EC_U+30A4_U+30E4_U+30FC 1
 62
   179
420
  2234388
370
     9
100
AcDbVertex
100
AcDb2dVertex
 10
81.1457659853546
 20
-142.663121631001
 30
0.0
  0
VERTEX
  5
A7
330
A5
100
AcDbEntity
  8
_U+30EC_U+30A4_U+30E4_U+30FC 1
 62
   179
420
  2234388
370
     9
100
AcDbVertex
100
AcDb2dVertex
 10
71.14620957379786
 20
-142.663121631001
 30
0.0
  0
SEQEND
  5
A8
330
A5
100
AcDbEntity
  8
_U+30EC_U+30A4_U+30E4_U+30FC 1
 62
   179
420
  2234388
370
     9
  0
POLYLINE
  5
A9
330
1F
100
AcDbEntity
  8
_U+30EC_U+30A4_U+30E4_U+30FC 1
 62
   179
420
  2234388
370
     9
100
AcDb2dPolyline
 66
     1
 10
0.0
 20
0.0
 30
0.0
  0
VERTEX
  5
AA
330
A9
100
AcDbEntity
  8
_U+30EC_U+30A4_U+30E4_U+30FC 1
 62
   179
420
  2234388
370
     9
100
AcDbVertex
100
AcDb2dVertex
 10
81.1457659853546
 20
-141.2030802424773
 30
0.0
  0
VERTEX
  5
AB
330
A9
100
AcDbEntity
  8
_U+30EC_U+30A4_U+30E4_U+30FC 1
 62
   179
420
  2234388
370
     9
100
AcDbVertex
100
AcDb2dVertex
 10
81.1457659853546
 20
-143.6628938529729
 30
0.0
  0
SEQEND
  5
AC
330
A9
100
AcDbEntity
  8
_U+30EC_U+30A4_U+30E4_U+30FC 1
 62
   179
420
  2234388
370
     9
  0
POLYLINE
  5
AD
330
1F
100
AcDbEntity
  8
_U+30EC_U+30A4_U+30E4_U+30FC 1
 62
   179
420
  2234388
370
     9
100
AcDb2dPolyline
 66
     1
 10
0.0
 20
0.0
 30
0.0
  0
VERTEX
  5
AE
330
AD
100
AcDbEntity
  8
_U+30EC_U+30A4_U+30E4_U+30FC 1
 62
   179
420
  2234388
370
     9
100
AcDbVertex
100
AcDb2dVertex
 10
71.14620957379786
 20
-141.2030802424773
 30
0.0
  0
VERTEX
  5
AF
330
AD
100
AcDbEntity
  8
_U+30EC_U+30A4_U+30E4_U+30FC 1
 62
   179
420
  2234388
370
     9
100
AcDbVertex
100
AcDb2dVertex
 10
71.14620957379786
 20
-143.6628938529729
 30
0.0
  0
SEQEND
  5
B0
330
AD
100
AcDbEntity
  8
_U+30EC_U+30A4_U+30E4_U+30FC 1
 62
   179
420
  2234388
370
     9
  0
POLYLINE
  5
B1
330
1F
100
AcDbEntity
  8
_U+30EC_U+30A4_U+30E4_U+30FC 1
 62
   179
420
  2234388
370
     9
100
AcDb2dPolyline
 66
     1
 10
0.0
 20
0.0
 30
0.0
  0
VERTEX
  5
B2
330
B1
100
AcDbEntity
  8
_U+30EC_U+30A4_U+30E4_U+30FC 1
 62
   179
420
  2234388
370
     9
100
AcDbVertex
100
AcDb2dVertex
 10
71.14620957379786
 20
-116.6629760819453
 30
0.0
  0
VERTEX
  5
B3
330
B1
100
AcDbEntity
  8
_U+30EC_U+30A4_U+30E4_U+30FC 1
 62
   179
420
  2234388
370
     9
100
AcDbVertex
100
AcDb2dVertex
 10
111.1456699422155
 20
-116.6629760819453
 30
0.0
  0
SEQEND
  5
B4
330
B1
100
AcDbEntity
  8
_U+30EC_U+30A4_U+30E4_U+30FC 1
 62
   179
420
  2234388
370
     9
  0
POLYLINE
  5
B5
330
1F
100
AcDbEntity
  8
_U+30EC_U+30A4_U+30E4_U+30FC 1
 62
   179
420
  2234388
370
     9
100
AcDb2dPolyline
 66
     1
 10
0.0
 20
0.0
 30
0.0
  0
VERTEX
  5
B6
330
B5
100
AcDbEntity
  8
_U+30EC_U+30A4_U+30E4_U+30FC 1
 62
   179
420
  2234388
370
     9
100
AcDbVertex
100
AcDb2dVertex
 10
71.14620957379786
 20
-118.1230174704693
 30
0.0
  0
VERTEX
  5
B7
330
B5
100
AcDbEntity
  8
_U+30EC_U+30A4_U+30E4_U+30FC 1
 62
   179
420
  2234388
370
     9
100
AcDbVertex
100
AcDb2dVertex
 10
71.14620957379786
 20
-115.6625335821954
 30
0.0
  0
SEQEND
  5
B8
330
B5
100
AcDbEntity
  8
_U+30EC_U+30A4_U+30E4_U+30FC 1
 62
   179
420
  2234388
370
     9
  0
POLYLINE
  5
B9
330
1F
100
AcDbEntity
  8
_U+30EC_U+30A4_U+30E4_U+30FC 1
 62
   179
420
  2234388
370
     9
100
AcDb2dPolyline
 66
     1
 10
0.0
 20
0.0
 30
0.0
  0
VERTEX
  5
BA
330
B9
100
AcDbEntity
  8
_U+30EC_U+30A4_U+30E4_U+30FC 1
 62
   179
420
  2234388
370
     9
100
AcDbVertex
100
AcDb2dVertex
 10
111.1456699422155
 20
-126.6227746905665
 30
0.0
  0
VERTEX
  5
BB
330
B9
100
AcDbEntity
  8
_U+30EC_U+30A4_U+30E4_U+30FC 1
 62
   179
420
  2234388
370
     9
100
AcDbVertex
100
AcDb2dVertex
 10
111.1456699422155
 20
-115.6625335821954
 30
0.0
  0
SEQEND
  5
BC
330
B9
100
AcDbEntity
  8
_U+30EC_U+30A4_U+30E4_U+30FC 1
 62
   179
420
  2234388
370
     9
  0
POLYLINE
  5
BD
330
1F
100
AcDbEntity
  8
_U+30EC_U+30A4_U+30E4_U+30FC 1
 62
   179
420
  2234388
370
     9
100
AcDb2dPolyline
 66
     1
 10
0.0
 20
0.0
 30
0.0
  0
VERTEX
  5
BE
330
BD
100
AcDbEntity
  8
_U+30EC_U+30A4_U+30E4_U+30FC 1
 62
   179
420
  2234388
370
     9
100
AcDbVertex
100
AcDb2dVertex
 10
115.1460992846005
 20
-135.6627052438624
 30
0.0
  0
VERTEX
  5
BF
330
BD
100
AcDbEntity
  8
_U+30EC_U+30A4_U+30E4_U+30FC 1
 62
   179
420
  2234388
370
     9
100
AcDbVertex
100
AcDb2dVertex
 10
115.1460992846005
 20
-129.1631627454867
 30
0.0
  0
SEQEND
  5
C0
330
BD
100
AcDbEntity
  8
_U+30EC_U+30A4_U+30E4_U+30FC 1
 62
   179
420
  2234388
370
     9
  0
POLYLINE
  5
C1
330
1F
100
AcDbEntity
  8
_U+30EC_U+30A4_U+30E4_U+30FC 1
 62
   179
420
  2234388
370
     9
100
AcDb2dPolyline
 66
     1
 10
0.0
 20
0.0
 30
0.0
  0
VERTEX
  5
C2
330
C1
100
AcDbEntity
  8
_U+30EC_U+30A4_U+30E4_U+30FC 1
 62
   179
420
  2234388
370
     9
100
AcDbVertex
100
AcDb2dVertex
 10
83.68551897611566
 20
-135.6627052438624
 30
0.0
  0
VERTEX
  5
C3
330
C1
100
AcDbEntity
  8
_U+30EC_U+30A4_U+30E4_U+30FC 1
 62
   179
420
  2234388
370
     9
100
AcDbVertex
100
AcDb2dVertex
 10
116.1458714813164
 20
-135.6627052438624
 30
0.0
  0
SEQEND
  5
C4
330
C1
100
AcDbEntity
  8
_U+30EC_U+30A4_U+30E4_U+30FC 1
 62
   179
420
  2234388
370
     9
  0
POLYLINE
  5
C5
330
1F
100
AcDbEntity
  8
_U+30EC_U+30A4_U+30E4_U+30FC 1
 62
   179
420
  2234388
370
     9
100
AcDb2dPolyline
 66
     1
 10
0.0
 20
0.0
 30
0.0
  0
VERTEX
  5
C6
330
C5
100
AcDbEntity
  8
_U+30EC_U+30A4_U+30E4_U+30FC 1
 62
   179
420
  2234388
370
     9
100
AcDbVertex
100
AcDb2dVertex
 10
67.1454274536441
 20
-138.6626921875567
 30
0.0
  0
VERTEX
  5
C7
330
C5
100
AcDbEntity
  8
_U+30EC_U+30A4_U+30E4_U+30FC 1
 62
   179
420
  2234388
370
     9
100
AcDbVertex
100
AcDb2dVertex
 10
67.1454274536441
 20
-120.6627352476122
 30
0.0
  0
SEQEND
  5
C8
330
C5
100
AcDbEntity
  8
_U+30EC_U+30A4_U+30E4_U+30FC 1
 62
   179
420
  2234388
370
     9
  0
POLYLINE
  5
C9
330
1F
100
AcDbEntity
  8
_U+30EC_U+30A4_U+30E4_U+30FC 1
 62
   179
420
  2234388
370
     9
100
AcDb2dPolyline
 66
     1
 10
0.0
 20
0.0
 30
0.0
  0
VERTEX
  5
CA
330
C9
100
AcDbEntity
  8
_U+30EC_U+30A4_U+30E4_U+30FC 1
 62
   179
420
  2234388
370
     9
100
AcDbVertex
100
AcDb2dVertex
 10
68.60546880528423
 20
-138.6626921875567
 30
0.0
  0
VERTEX
  5
CB
330
C9
100
AcDbEntity
  8
_U+30EC_U+30A4_U+30E4_U+30FC 1
 62
   179
420
  2234388
370
     9
100
AcDbVertex
100
AcDb2dVertex
 10
66.1456552569282
 20
-138.6626921875567
 30
0.0
  0
SEQEND
  5
CC
330
C9
100
AcDbEntity
  8
_U+30EC_U+30A4_U+30E4_U+30FC 1
 62
   179
420
  2234388
370
     9
  0
POLYLINE
  5
CD
330
1F
100
AcDbEntity
  8
_U+30EC_U+30A4_U+30E4_U+30FC 1
 62
   179
420
  2234388
370
     9
100
AcDb2dPolyline
 66
     1
 10
0.0
 20
0.0
 30
0.0
  0
VERTEX
  5
CE
330
CD
100
AcDbEntity
  8
_U+30EC_U+30A4_U+30E4_U+30FC 1
 62
   179
420
  2234388
370
     9
100
AcDbVertex
100
AcDb2dVertex
 10
68.60546880528423
 20
-120.6627352476122
 30
0.0
  0
VERTEX
  5
CF
330
CD
100
AcDbEntity
  8
_U+30EC_U+30A4_U+30E4_U+30FC 1
 62
   179
420
  2234388
370
     9
100
AcDbVertex
100
AcDb2dVertex
 10
66.1456552569282
 20
-120.6627352476122
 30
0.0
  0
SEQEND
  5
D0
330
CD
100
AcDbEntity
  8
_U+30EC_U+30A4_U+30E4_U+30FC 1
 62
   179
420
  2234388
370
     9
  0
POLYLINE
  5
D1
330
1F
100
AcDbEntity
  8
_U+30EC_U+30A4_U+30E4_U+30FC 1
 62
   179
420
  2234388
370
     9
100
AcDb2dPolyline
 66
     1
 10
0.0
 20
0.0
 30
0.0
  0
VERTEX
  5
D2
330
D1
100
AcDbEntity
  8
_U+30EC_U+30A4_U+30E4_U+30FC 1
 62
   179
420
  2234388
370
     9
100
AcDbVertex
100
AcDb2dVertex
 10
74.2199269953808
 20
-114.8501921935095
 30
0.0
  0
VERTEX
  5
D3
330
D1
100
AcDbEntity
  8
_U+30EC_U+30A4_U+30E4_U+30FC 1
 62
   179
420
  2234388
370
     9
100
AcDbVertex
100
AcDb2dVertex
 10
74.2199269953808
 20
-113.4390810827512
 30
0.0
  0
SEQEND
  5
D4
330
D1
100
AcDbEntity
  8
_U+30EC_U+30A4_U+30E4_U+30FC 1
 62
   179
420
  2234388
370
     9
  0
POLYLINE
  5
D5
330
1F
100
AcDbEntity
  8
_U+30EC_U+30A4_U+30E4_U+30FC 1
 62
   179
420
  2234388
370
     9
100
AcDb2dPolyline
 66
     1
 10
0.0
 20
0.0
 30
0.0
  0
VERTEX
  5
D6
330
D5
100
AcDbEntity
  8
_U+30EC_U+30A4_U+30E4_U+30FC 1
 62
   179
420
  2234388
370
     9
100
AcDbVertex
100
AcDb2dVertex
 10
71.22131596077062
 20
-114.8501921935095
 30
0.0
  0
VERTEX
  5
D7
330
D5
100
AcDbEntity
  8
_U+30EC_U+30A4_U+30E4_U+30FC 1
 62
   179
420
  2234388
370
     9
100
AcDbVertex
100
AcDb2dVertex
 10
71.22131596077062
 20
-113.4390810827512
 30
0.0
  0
SEQEND
  5
D8
330
D5
100
AcDbEntity
  8
_U+30EC_U+30A4_U+30E4_U+30FC 1
 62
   179
420
  2234388
370
     9
  0
POLYLINE
  5
D9
330
1F
100
AcDbEntity
  8
_U+30EC_U+30A4_U+30E4_U+30FC 1
 62
   179
420
  2234388
370
     9
100
AcDb2dPolyline
 66
     1
 10
0.0
 20
0.0
 30
0.0
  0
VERTEX
  5
DA
330
D9
100
AcDbEntity
  8
_U+30EC_U+30A4_U+30E4_U+30FC 1
 62
   179
420
  2234388
370
     9
100
AcDbVertex
100
AcDb2dVertex
 10
69.95971387139886
 20
-114.1446366381304
 30
0.0
  0
VERTEX
  5
DB
330
D9
100
AcDbEntity
  8
_U+30EC_U+30A4_U+30E4_U+30FC 1
 62
   179
420
  2234388
370
     9
100
AcDbVertex
100
AcDb2dVertex
 10
75.3285664115415
 20
-114.1446366381304
 30
0.0
  0
SEQEND
  5
DC
330
D9
100
AcDbEntity
  8
_U+30EC_U+30A4_U+30E4_U+30FC 1
 62
   179
420
  2234388
370
     9
  0
INSERT
  5
DE
330
1F
100
AcDbEntity
  8
_U+30EC_U+30A4_U+30E4_U+30FC 1
100
AcDbBlockReference
  2
block 2
 10
0.0
 20
0.0
 30
0.0
  0
INSERT
  5
E4
330
1F
100
AcDbEntity
  8
_U+30EC_U+30A4_U+30E4_U+30FC 1
100
AcDbBlockReference
  2
block 3
 10
0.0
 20
0.0
 30
0.0
  0
INSERT
  5
EA
330
1F
100
AcDbEntity
  8
_U+30EC_U+30A4_U+30E4_U+30FC 1
100
AcDbBlockReference
  2
block 4
 10
0.0
 20
0.0
 30
0.0
  0
INSERT
  5
F3
330
1F
100
AcDbEntity
  8
_U+30EC_U+30A4_U+30E4_U+30FC 1
100
AcDbBlockReference
  2
block 5
 10
0.0
 20
0.0
 30
0.0
  0
INSERT
  5
10F
330
1F
100
AcDbEntity
  8
_U+30EC_U+30A4_U+30E4_U+30FC 1
100
AcDbBlockReference
  2
block 6
 10
0.0
 20
0.0
 30
0.0
  0
INSERT
  5
115
330
1F
100
AcDbEntity
  8
_U+30EC_U+30A4_U+30E4_U+30FC 1
100
AcDbBlockReference
  2
block 7
 10
0.0
 20
0.0
 30
0.0
  0
INSERT
  5
126
330
1F
100
AcDbEntity
  8
_U+30EC_U+30A4_U+30E4_U+30FC 1
100
AcDbBlockReference
  2
block 8
 10
0.0
 20
0.0
 30
0.0
  0
ENDSEC
  0
SECTION
  2
OBJECTS
  0
DICTIONARY
  5
C
330
0
100
AcDbDictionary
281
     1
  3
ACAD_GROUP
350
D
  3
ACAD_LAYOUT
350
1A
  3
ACAD_MATERIAL
350
3B
  3
ACAD_MLEADERSTYLE
350
130
  3
ACAD_MLINESTYLE
350
17
  3
ACAD_PLOTSETTINGS
350
19
  3
ACAD_PLOTSTYLENAME
350
E
  3
ACAD_TABLESTYLE
350
12F
  3
ACAD_VISUALSTYLE
350
2A
  0
SUN
  5
3F
330
29
100
AcDbSun
 90
        1
290
     0
 63
     7
421
 16777215
 40
1.0
291
     1
 91
  2455826
 92
 54000000
292
     0
 70
     2
 71
   256
280
     1
  0
DICTIONARY
  5
D
102
{ACAD_REACTORS
330
C
102
}
330
C
100
AcDbDictionary
281
     1
  0
DICTIONARY
  5
1A
102
{ACAD_REACTORS
330
C
102
}
330
C
100
AcDbDictionary
281
     1
  3
Layout1
350
1E
  3
Layout2
350
26
  3
Model
350
22
  0
DICTIONARY
  5
3B
102
{ACAD_REACTORS
330
C
102
}
330
C
100
AcDbDictionary
281
     1
  3
ByBlock
350
3D
  3
ByLayer
350
3C
  3
Global
350
3E
  0
DICTIONARY
  5
130
102
{ACAD_REACTORS
330
C
102
}
330
C
100
AcDbDictionary
281
     1
  0
DICTIONARY
  5
17
102
{ACAD_REACTORS
330
C
102
}
330
C
100
AcDbDictionary
281
     1
  3
Standard
350
18
  0
DICTIONARY
  5
19
102
{ACAD_REACTORS
330
C
102
}
330
C
100
AcDbDictionary
281
     1
  0
ACDBDICTIONARYWDFLT
  5
E
102
{ACAD_REACTORS
330
C
102
}
330
C
100
AcDbDictionary
281
     1
  3
Normal
350
F
100
AcDbDictionaryWithDefault
340
F
  0
DICTIONARY
  5
12F
102
{ACAD_REACTORS
330
C
102
}
330
C
100
AcDbDictionary
281
     1
  0
DICTIONARY
  5
2A
102
{ACAD_REACTORS
330
C
102
}
330
C
100
AcDbDictionary
281
     1
  3
2dWireframe
350
2F
  3
3D Hidden
350
31
  3
3dWireframe
350
30
  3
Basic
350
32
  3
Brighten
350
36
  3
ColorChange
350
3A
  3
Conceptual
350
34
  3
Dim
350
35
  3
Facepattern
350
39
  3
Flat
350
2B
  3
FlatWithEdges
350
2C
  3
Gouraud
350
2D
  3
GouraudWithEdges
350
2E
  3
Linepattern
350
38
  3
Realistic
350
33
  3
Thicken
350
37
  0
LAYOUT
  5
1E
102
{ACAD_REACTORS
330
1A
102
}
330
1A
100
AcDbPlotSettings
  1

  2
none_device
  4

  6

 40
0.0
 41
0.0
 42
0.0
 43
0.0
 44
0.0
 45
0.0
 46
0.0
 47
0.0
 48
0.0
 49
0.0
140
0.0
141
0.0
142
1.0
143
1.0
 70
   688
 72
     0
 73
     0
 74
     5
  7

 75
    16
 76
     0
 77
     2
 78
   300
147
1.0
148
0.0
149
0.0
100
AcDbLayout
  1
Layout1
 70
     1
 71
     1
 10
0.0
 20
0.0
 11
12.0
 21
9.0
 12
0.0
 22
0.0
 32
0.0
 14
1.000000000000000E+20
 24
1.000000000000000E+20
 34
1.000000000000000E+20
 15
-1.000000000000000E+20
 25
-1.000000000000000E+20
 35
-1.000000000000000E+20
146
0.0
 13
0.0
 23
0.0
 33
0.0
 16
1.0
 26
0.0
 36
0.0
 17
0.0
 27
1.0
 37
0.0
 76
     0
330
1B
  0
LAYOUT
  5
26
102
{ACAD_REACTORS
330
1A
102
}
330
1A
100
AcDbPlotSettings
  1

  2
none_device
  4

  6

 40
0.0
 41
0.0
 42
0.0
 43
0.0
 44
0.0
 45
0.0
 46
0.0
 47
0.0
 48
0.0
 49
0.0
140
0.0
141
0.0
142
1.0
143
1.0
 70
   688
 72
     0
 73
     0
 74
     5
  7

 75
    16
 76
     0
 77
     2
 78
   300
147
1.0
148
0.0
149
0.0
100
AcDbLayout
  1
Layout2
 70
     1
 71
     2
 10
0.0
 20
0.0
 11
0.0
 21
0.0
 12
0.0
 22
0.0
 32
0.0
 14
0.0
 24
0.0
 34
0.0
 15
0.0
 25
0.0
 35
0.0
146
0.0
 13
0.0
 23
0.0
 33
0.0
 16
1.0
 26
0.0
 36
0.0
 17
0.0
 27
1.0
 37
0.0
 76
     0
330
23
  0
LAYOUT
  5
22
102
{ACAD_REACTORS
330
1A
102
}
330
1A
100
AcDbPlotSettings
  1

  2
none_device
  4

  6

 40
0.0
 41
0.0
 42
0.0
 43
0.0
 44
0.0
 45
0.0
 46
0.0
 47
0.0
 48
0.0
 49
0.0
140
0.0
141
0.0
142
1.0
143
1.0
 70
  1712
 72
     0
 73
     0
 74
     0
  7

 75
     0
 76
     0
 77
     2
 78
   300
147
1.0
148
0.0
149
0.0
100
AcDbLayout
  1
Model
 70
     1
 71
     0
 10
0.0
 20
0.0
 11
12.0
 21
9.0
 12
0.0
 22
0.0
 32
0.0
 14
1.000000000000000E+20
 24
1.000000000000000E+20
 34
1.000000000000000E+20
 15
-1.000000000000000E+20
 25
-1.000000000000000E+20
 35
-1.000000000000000E+20
146
0.0
 13
0.0
 23
0.0
 33
0.0
 16
1.0
 26
0.0
 36
0.0
 17
0.0
 27
1.0
 37
0.0
 76
     0
330
1F
331
29
  0
MATERIAL
  5
3D
102
{ACAD_REACTORS
330
3B
102
}
330
3B
100
AcDbMaterial
  1
ByBlock
 72
     1
 94
      127
  0
MATERIAL
  5
3C
102
{ACAD_REACTORS
330
3B
102
}
330
3B
100
AcDbMaterial
  1
ByLayer
 72
     1
 94
      127
  0
MATERIAL
  5
3E
102
{ACAD_REACTORS
330
3B
102
}
330
3B
100
AcDbMaterial
  1
Global
 72
     1
 94
      127
  0
MLINESTYLE
  5
18
102
{ACAD_REACTORS
330
17
102
}
330
17
100
AcDbMlineStyle
  2
Standard
 70
     0
  3

 62
   256
 51
90.0
 52
90.0
 71
     2
 49
0.5
 62
   256
  6
BYLAYER
 49
-0.5
 62
   256
  6
BYLAYER
  0
ACDBPLACEHOLDER
  5
F
102
{ACAD_REACTORS
330
E
102
}
330
E
  0
VISUALSTYLE
  5
2F
102
{ACAD_REACTORS
330
2A
102
}
330
2A
100
AcDbVisualStyle
  2
2dWireframe
 70
     4
177
     2
291
     0
 71
     0
176
     1
 72
     2
176
     1
 73
     0
176
     1
 90
        0
176
     1
 40
-0.6
176
     1
 41
-30.0
176
     1
 62
     5
 63
     7
421
 16777215
176
     1
 74
     1
176
     1
 91
        4
176
     1
 64
     7
176
     1
 65
   257
176
     1
 75
     1
176
     1
175
     1
176
     1
 42
1.0
176
     1
 92
        0
176
     1
 66
   257
176
     1
 43
1.0
176
     1
 76
     1
176
     1
 77
     6
176
     1
 78
     2
176
     1
 67
     7
176
     1
 79
     5
176
     1
170
     0
176
     1
171
     0
176
     1
290
     0
176
     1
 93
        1
176
     1
 44
0.0
176
     1
173
     0
176
     1
  0
VISUALSTYLE
  5
31
102
{ACAD_REACTORS
330
2A
102
}
330
2A
100
AcDbVisualStyle
  2
3D Hidden
 70
     6
177
     2
291
     0
 71
     1
176
     1
 72
     2
176
     1
 73
     2
176
     1
 90
        0
176
     1
 40
-0.6
176
     1
 41
-30.0
176
     1
 62
     5
 63
     7
421
 16777215
176
     1
 74
     2
176
     1
 91
        2
176
     1
 64
     7
176
     1
 65
   257
176
     1
 75
     2
176
     1
175
     1
176
     1
 42
40.0
176
     1
 92
        0
176
     1
 66
   257
176
     1
 43
1.0
176
     1
 76
     1
176
     1
 77
     6
176
     1
 78
     2
176
     1
 67
     7
176
     1
 79
     3
176
     1
170
     0
176
     1
171
     0
176
     1
290
     0
176
     1
 93
        1
176
     1
 44
0.0
176
     1
173
     0
176
     1
  0
VISUALSTYLE
  5
30
102
{ACAD_REACTORS
330
2A
102
}
330
2A
100
AcDbVisualStyle
  2
3dWireframe
 70
     5
177
     2
291
     0
 71
     0
176
     1
 72
     2
176
     1
 73
     0
176
     1
 90
        0
176
     1
 40
-0.6
176
     1
 41
-30.0
176
     1
 62
     5
 63
     7
421
 16777215
176
     1
 74
     1
176
     1
 91
        4
176
     1
 64
     7
176
     1
 65
   257
176
     1
 75
     1
176
     1
175
     1
176
     1
 42
1.0
176
     1
 92
        0
176
     1
 66
   257
176
     1
 43
1.0
176
     1
 76
     1
176
     1
 77
     6
176
     1
 78
     2
176
     1
 67
     7
176
     1
 79
     5
176
     1
170
     0
176
     1
171
     0
176
     1
290
     0
176
     1
 93
        1
176
     1
 44
0.0
176
     1
173
     0
176
     1
  0
VISUALSTYLE
  5
32
102
{ACAD_REACTORS
330
2A
102
}
330
2A
100
AcDbVisualStyle
  2
Basic
 70
     7
177
     2
291
     1
 71
     1
176
     1
 72
     0
176
     1
 73
     1
176
     1
 90
        0
176
     1
 40
-0.6
176
     1
 41
-30.0
176
     1
 62
     5
 63
     7
421
 16777215
176
     1
 74
     0
176
     1
 91
        4
176
     1
 64
     7
176
     1
 65
   257
176
     1
 75
     1
176
     1
175
     1
176
     1
 42
1.0
176
     1
 92
        8
176
     1
 66
     7
176
     1
 43
1.0
176
     1
 76
     1
176
     1
 77
     6
176
     1
 78
     2
176
     1
 67
     7
176
     1
 79
     5
176
     1
170
     0
176
     1
171
     0
176
     1
290
     0
176
     1
 93
        1
176
     1
 44
0.0
176
     1
173
     0
176
     1
  0
VISUALSTYLE
  5
36
102
{ACAD_REACTORS
330
2A
102
}
330
2A
100
AcDbVisualStyle
  2
Brighten
 70
    12
177
     2
291
     1
 71
     2
176
     1
 72
     2
176
     1
 73
     0
176
     1
 90
        0
176
     1
 40
-0.6
176
     1
 41
-30.0
176
     1
 62
     5
 63
     7
421
 16777215
176
     1
 74
     1
176
     1
 91
        4
176
     1
 64
     7
176
     1
 65
   257
176
     1
 75
     1
176
     1
175
     1
176
     1
 42
1.0
176
     1
 92
        8
176
     1
 66
     7
176
     1
 43
1.0
176
     1
 76
     1
176
     1
 77
     6
176
     1
 78
     2
176
     1
 67
     7
176
     1
 79
     5
176
     1
170
     0
176
     1
171
     0
176
     1
290
     0
176
     1
 93
        1
176
     1
 44
50.0
176
     1
173
     0
176
     1
  0
VISUALSTYLE
  5
3A
102
{ACAD_REACTORS
330
2A
102
}
330
2A
100
AcDbVisualStyle
  2
ColorChange
 70
    16
177
     2
291
     1
 71
     2
176
     1
 72
     2
176
     1
 73
     3
176
     1
 90
        0
176
     1
 40
-0.6
176
     1
 41
-30.0
176
     1
 62
     5
 63
     8
421
  8421504
176
     1
 74
     1
176
     1
 91
        4
176
     1
 64
     7
176
     1
 65
   257
176
     1
 75
     1
176
     1
175
     1
176
     1
 42
1.0
176
     1
 92
        8
176
     1
 66
     8
424
  8421504
176
     1
 43
1.0
176
     1
 76
     1
176
     1
 77
     6
176
     1
 78
     2
176
     1
 67
     7
176
     1
 79
     5
176
     1
170
     0
176
     1
171
     0
176
     1
290
     0
176
     1
 93
        1
176
     1
 44
0.0
176
     1
173
     0
176
     1
  0
VISUALSTYLE
  5
34
102
{ACAD_REACTORS
330
2A
102
}
330
2A
100
AcDbVisualStyle
  2
Conceptual
 70
     9
177
     2
291
     0
 71
     3
176
     1
 72
     2
176
     1
 73
     0
176
     1
 90
        0
176
     1
 40
-0.6
176
     1
 41
-30.0
176
     1
 62
     5
 63
     7
421
 16777215
176
     1
 74
     2
176
     1
 91
        2
176
     1
 64
     7
176
     1
 65
   257
176
     1
 75
     1
176
     1
175
     1
176
     1
 42
40.0
176
     1
 92
        8
176
     1
 66
     7
176
     1
 43
1.0
176
     1
 76
     1
176
     1
 77
     6
176
     1
 78
     2
176
     1
 67
     7
176
     1
 79
     3
176
     1
170
     0
176
     1
171
     0
176
     1
290
     0
176
     1
 93
        1
176
     1
 44
0.0
176
     1
173
     0
176
     1
  0
VISUALSTYLE
  5
35
102
{ACAD_REACTORS
330
2A
102
}
330
2A
100
AcDbVisualStyle
  2
Dim
 70
    11
177
     2
291
     1
 71
     2
176
     1
 72
     2
176
     1
 73
     0
176
     1
 90
        0
176
     1
 40
-0.6
176
     1
 41
-30.0
176
     1
 62
     5
 63
     7
421
 16777215
176
     1
 74
     1
176
     1
 91
        4
176
     1
 64
     7
176
     1
 65
   257
176
     1
 75
     1
176
     1
175
     1
176
     1
 42
1.0
176
     1
 92
        8
176
     1
 66
     7
176
     1
 43
1.0
176
     1
 76
     1
176
     1
 77
     6
176
     1
 78
     2
176
     1
 67
     7
176
     1
 79
     5
176
     1
170
     0
176
     1
171
     0
176
     1
290
     0
176
     1
 93
        1
176
     1
 44
-50.0
176
     1
173
     0
176
     1
  0
VISUALSTYLE
  5
39
102
{ACAD_REACTORS
330
2A
102
}
330
2A
100
AcDbVisualStyle
  2
Facepattern
 70
    15
177
     2
291
     1
 71
     2
176
     1
 72
     2
176
     1
 73
     0
176
     1
 90
        0
176
     1
 40
-0.6
176
     1
 41
-30.0
176
     1
 62
     5
 63
     7
421
 16777215
176
     1
 74
     1
176
     1
 91
        4
176
     1
 64
     7
176
     1
 65
   257
176
     1
 75
     1
176
     1
175
     1
176
     1
 42
1.0
176
     1
 92
        8
176
     1
 66
     7
176
     1
 43
1.0
176
     1
 76
     1
176
     1
 77
     6
176
     1
 78
     2
176
     1
 67
     7
176
     1
 79
     5
176
     1
170
     0
176
     1
171
     0
176
     1
290
     0
176
     1
 93
        1
176
     1
 44
0.0
176
     1
173
     0
176
     1
  0
VISUALSTYLE
  5
2B
102
{ACAD_REACTORS
330
2A
102
}
330
2A
100
AcDbVisualStyle
  2
Flat
 70
     0
177
     2
291
     1
 71
     2
176
     1
 72
     1
176
     1
 73
     1
176
     1
 90
        2
176
     1
 40
-0.6
176
     1
 41
30.0
176
     1
 62
     5
 63
     7
421
 16777215
176
     1
 74
     0
176
     1
 91
        4
176
     1
 64
     7
176
     1
 65
   257
176
     1
 75
     1
176
     1
175
     1
176
     1
 42
1.0
176
     1
 92
        8
176
     1
 66
     7
176
     1
 43
1.0
176
     1
 76
     1
176
     1
 77
     6
176
     1
 78
     2
176
     1
 67
     7
176
     1
 79
     5
176
     1
170
     0
176
     1
171
     0
176
     1
290
     0
176
     1
 93
       13
176
     1
 44
0.0
176
     1
173
     0
176
     1
  0
VISUALSTYLE
  5
2C
102
{ACAD_REACTORS
330
2A
102
}
330
2A
100
AcDbVisualStyle
  2
FlatWithEdges
 70
     1
177
     2
291
     1
 71
     2
176
     1
 72
     1
176
     1
 73
     1
176
     1
 90
        2
176
     1
 40
-0.6
176
     1
 41
30.0
176
     1
 62
     5
 63
     7
421
 16777215
176
     1
 74
     1
176
     1
 91
        4
176
     1
 64
     7
176
     1
 65
   257
176
     1
 75
     1
176
     1
175
     1
176
     1
 42
1.0
176
     1
 92
        0
176
     1
 66
   257
176
     1
 43
1.0
176
     1
 76
     1
176
     1
 77
     6
176
     1
 78
     2
176
     1
 67
     7
176
     1
 79
     5
176
     1
170
     0
176
     1
171
     0
176
     1
290
     0
176
     1
 93
       13
176
     1
 44
0.0
176
     1
173
     0
176
     1
  0
VISUALSTYLE
  5
2D
102
{ACAD_REACTORS
330
2A
102
}
330
2A
100
AcDbVisualStyle
  2
Gouraud
 70
     2
177
     2
291
     1
 71
     2
176
     1
 72
     2
176
     1
 73
     1
176
     1
 90
        2
176
     1
 40
-0.6
176
     1
 41
30.0
176
     1
 62
     5
 63
     7
421
 16777215
176
     1
 74
     0
176
     1
 91
        4
176
     1
 64
     7
176
     1
 65
   257
176
     1
 75
     1
176
     1
175
     1
176
     1
 42
1.0
176
     1
 92
        0
176
     1
 66
     7
176
     1
 43
1.0
176
     1
 76
     1
176
     1
 77
     6
176
     1
 78
     2
176
     1
 67
     7
176
     1
 79
     5
176
     1
170
     0
176
     1
171
     0
176
     1
290
     0
176
     1
 93
       13
176
     1
 44
0.0
176
     1
173
     0
176
     1
  0
VISUALSTYLE
  5
2E
102
{ACAD_REACTORS
330
2A
102
}
330
2A
100
AcDbVisualStyle
  2
GouraudWithEdges
 70
     3
177
     2
291
     1
 71
     2
176
     1
 72
     2
176
     1
 73
     1
176
     1
 90
        2
176
     1
 40
-0.6
176
     1
 41
30.0
176
     1
 62
     5
 63
     7
421
 16777215
176
     1
 74
     1
176
     1
 91
        4
176
     1
 64
     7
176
     1
 65
   257
176
     1
 75
     1
176
     1
175
     1
176
     1
 42
1.0
176
     1
 92
        0
176
     1
 66
   257
176
     1
 43
1.0
176
     1
 76
     1
176
     1
 77
     6
176
     1
 78
     2
176
     1
 67
     7
176
     1
 79
     5
176
     1
170
     0
176
     1
171
     0
176
     1
290
     0
176
     1
 93
       13
176
     1
 44
0.0
176
     1
173
     0
176
     1
  0
VISUALSTYLE
  5
38
102
{ACAD_REACTORS
330
2A
102
}
330
2A
100
AcDbVisualStyle
  2
Linepattern
 70
    14
177
     2
291
     1
 71
     2
176
     1
 72
     2
176
     1
 73
     0
176
     1
 90
        0
176
     1
 40
-0.6
176
     1
 41
-30.0
176
     1
 62
     5
 63
     7
421
 16777215
176
     1
 74
     1
176
     1
 91
        4
176
     1
 64
     7
176
     1
 65
   257
176
     1
 75
     7
176
     1
175
     7
176
     1
 42
1.0
176
     1
 92
        8
176
     1
 66
     7
176
     1
 43
1.0
176
     1
 76
     1
176
     1
 77
     6
176
     1
 78
     2
176
     1
 67
     7
176
     1
 79
     5
176
     1
170
     0
176
     1
171
     0
176
     1
290
     0
176
     1
 93
        1
176
     1
 44
0.0
176
     1
173
     0
176
     1
  0
VISUALSTYLE
  5
33
102
{ACAD_REACTORS
330
2A
102
}
330
2A
100
AcDbVisualStyle
  2
Realistic
 70
     8
177
     2
291
     0
 71
     2
176
     1
 72
     2
176
     1
 73
     0
176
     1
 90
        0
176
     1
 40
-0.6
176
     1
 41
-30.0
176
     1
 62
     5
 63
     7
421
 16777215
176
     1
 74
     1
176
     1
 91
        0
176
     1
 64
     7
176
     1
 65
   257
176
     1
 75
     1
176
     1
175
     1
176
     1
 42
1.0
176
     1
 92
        8
176
     1
 66
     8
424
  7895160
176
     1
 43
1.0
176
     1
 76
     1
176
     1
 77
     6
176
     1
 78
     2
176
     1
 67
     7
176
     1
 79
     5
176
     1
170
     0
176
     1
171
     0
176
     1
290
     0
176
     1
 93
       13
176
     1
 44
0.0
176
     1
173
     0
176
     1
  0
VISUALSTYLE
  5
37
102
{ACAD_REACTORS
330
2A
102
}
330
2A
100
AcDbVisualStyle
  2
Thicken
 70
    13
177
     2
291
     1
 71
     2
176
     1
 72
     2
176
     1
 73
     0
176
     1
 90
        0
176
     1
 40
-0.6
176
     1
 41
-30.0
176
     1
 62
     5
 63
     7
421
 16777215
176
     1
 74
     1
176
     1
 91
        4
176
     1
 64
     7
176
     1
 65
   257
176
     1
 75
     1
176
     1
175
     1
176
     1
 42
1.0
176
     1
 92
       12
176
     1
 66
     7
176
     1
 43
1.0
176
     1
 76
     1
176
     1
 77
     6
176
     1
 78
     2
176
     1
 67
     7
176
     1
 79
     5
176
     1
170
     0
176
     1
171
     0
176
     1
290
     0
176
     1
 93
        1
176
     1
 44
0.0
176
     1
173
     0
176
     1
  0
ENDSEC
  0
EOF
