  0
SECTION
  2
HEADER
  9
$ACADVER
  1
AC1024
  9
$ACADMAINTVER
 70
     6
  9
$DWGCODEPAGE
  3
UNDEFINED
  9
$INSBASE
 10
0.0
 20
0.0
 30
0.0
  9
$EXTMIN
 10
1.000000000000000E+20
 20
1.000000000000000E+20
 30
1.000000000000000E+20
  9
$EXTMAX
 10
-1.000000000000000E+20
 20
-1.000000000000000E+20
 30
-1.000000000000000E+20
  9
$LIMMIN
 10
0.0
 20
0.0
  9
$LIMMAX
 10
12.0
 20
9.0
  9
$ORTHOMODE
 70
     0
  9
$REGENMODE
 70
     1
  9
$FILLMODE
 70
     1
  9
$QTEXTMODE
 70
     0
  9
$MIRRTEXT
 70
     1
  9
$LTSCALE
 40
1.0
  9
$ATTMODE
 70
     1
  9
$TEXTSIZE
 40
0.2
  9
$TRACEWID
 40
0.05
  9
$TEXTSTYLE
  7
Standard
  9
$CLAYER
  8
0
  9
$CELTYPE
  6
ByLayer
  9
$CECOLOR
 62
   256
  9
$CELTSCALE
 40
1.0
  9
$DISPSILH
 70
     0
  9
$DIMSCALE
 40
1.0
  9
$DIMASZ
 40
0.18
  9
$DIMEXO
 40
0.0625
  9
$DIMDLI
 40
0.38
  9
$DIMRND
 40
0.0
  9
$DIMDLE
 40
0.0
  9
$DIMEXE
 40
0.18
  9
$DIMTP
 40
0.0
  9
$DIMTM
 40
0.0
  9
$DIMTXT
 40
0.18
  9
$DIMCEN
 40
0.09
  9
$DIMTSZ
 40
0.0
  9
$DIMTOL
 70
     0
  9
$DIMLIM
 70
     0
  9
$DIMTIH
 70
     1
  9
$DIMTOH
 70
     1
  9
$DIMSE1
 70
     0
  9
$DIMSE2
 70
     0
  9
$DIMTAD
 70
     0
  9
$DIMZIN
 70
     0
  9
$DIMBLK
  1

  9
$DIMASO
 70
     1
  9
$DIMSHO
 70
     1
  9
$DIMPOST
  1

  9
$DIMAPOST
  1

  9
$DIMALT
 70
     0
  9
$DIMALTD
 70
     2
  9
$DIMALTF
 40
25.4
  9
$DIMLFAC
 40
1.0
  9
$DIMTOFL
 70
     0
  9
$DIMTVP
 40
0.0
  9
$DIMTIX
 70
     0
  9
$DIMSOXD
 70
     0
  9
$DIMSAH
 70
     0
  9
$DIMBLK1
  1

  9
$DIMBLK2
  1

  9
$DIMSTYLE
  2
Standard
  9
$DIMCLRD
 70
     0
  9
$DIMCLRE
 70
     0
  9
$DIMCLRT
 70
     0
  9
$DIMTFAC
 40
1.0
  9
$DIMGAP
 40
0.09
  9
$DIMJUST
 70
     0
  9
$DIMSD1
 70
     0
  9
$DIMSD2
 70
     0
  9
$DIMTOLJ
 70
     1
  9
$DIMTZIN
 70
     0
  9
$DIMALTZ
 70
     0
  9
$DIMALTTZ
 70
     0
  9
$DIMUPT
 70
     0
  9
$DIMDEC
 70
     4
  9
$DIMTDEC
 70
     4
  9
$DIMALTU
 70
     2
  9
$DIMALTTD
 70
     2
  9
$DIMTXSTY
  7
Standard
  9
$DIMAUNIT
 70
     0
  9
$DIMADEC
 70
     0
  9
$DIMALTRND
 40
0.0
  9
$DIMAZIN
 70
     0
  9
$DIMDSEP
 70
    46
  9
$DIMATFIT
 70
     3
  9
$DIMFRAC
 70
     0
  9
$DIMLDRBLK
  1

  9
$DIMLUNIT
 70
     2
  9
$DIMLWD
 70
    -2
  9
$DIMLWE
 70
    -2
  9
$DIMTMOVE
 70
     0
  9
$DIMFXL
 40
1.0
  9
$DIMFXLON
 70
     0
  9
$DIMJOGANG
 40
0.7853981633974483
  9
$DIMTFILL
 70
     0
  9
$DIMTFILLCLR
 70
     0
  9
$DIMARCSYM
 70
     0
  9
$DIMLTYPE
  6

  9
$DIMLTEX1
  6

  9
$DIMLTEX2
  6

  9
$DIMTXTDIRECTION
 70
     0
  9
$LUNITS
 70
     2
  9
$LUPREC
 70
     4
  9
$SKETCHINC
 40
0.1
  9
$FILLETRAD
 40
0.5
  9
$AUNITS
 70
     0
  9
$AUPREC
 70
     0
  9
$MENU
  1
.
  9
$ELEVATION
 40
0.0
  9
$PELEVATION
 40
0.0
  9
$THICKNESS
 40
0.0
  9
$LIMCHECK
 70
     0
  9
$CHAMFERA
 40
0.5
  9
$CHAMFERB
 40
0.5
  9
$CHAMFERC
 40
1.0
  9
$CHAMFERD
 40
0.0
  9
$SKPOLY
 70
     0
  9
$TDCREATE
 40
2457917.591874988
  9
$TDUCREATE
 40
2457917.216875
  9
$TDUPDATE
 40
2457917.591874988
  9
$TDUUPDATE
 40
2457917.216875
  9
$TDINDWG
 40
0.0000000116
  9
$TDUSRTIMER
 40
0.0000000116
  9
$USRTIMER
 70
     1
  9
$ANGBASE
 50
0.0
  9
$ANGDIR
 70
     0
  9
$PDMODE
 70
     0
  9
$PDSIZE
 40
0.0
  9
$PLINEWID
 40
0.0
  9
$SPLFRAME
 70
     0
  9
$SPLINETYPE
 70
     6
  9
$SPLINESEGS
 70
     8
  9
$HANDSEED
  5
13D
  9
$SURFTAB1
 70
     6
  9
$SURFTAB2
 70
     6
  9
$SURFTYPE
 70
     6
  9
$SURFU
 70
     6
  9
$SURFV
 70
     6
  9
$UCSBASE
  2

  9
$UCSNAME
  2

  9
$UCSORG
 10
0.0
 20
0.0
 30
0.0
  9
$UCSXDIR
 10
1.0
 20
0.0
 30
0.0
  9
$UCSYDIR
 10
0.0
 20
1.0
 30
0.0
  9
$UCSORTHOREF
  2

  9
$UCSORTHOVIEW
 70
     0
  9
$UCSORGTOP
 10
0.0
 20
0.0
 30
0.0
  9
$UCSORGBOTTOM
 10
0.0
 20
0.0
 30
0.0
  9
$UCSORGLEFT
 10
0.0
 20
0.0
 30
0.0
  9
$UCSORGRIGHT
 10
0.0
 20
0.0
 30
0.0
  9
$UCSORGFRONT
 10
0.0
 20
0.0
 30
0.0
  9
$UCSORGBACK
 10
0.0
 20
0.0
 30
0.0
  9
$PUCSBASE
  2

  9
$PUCSNAME
  2

  9
$PUCSORG
 10
0.0
 20
0.0
 30
0.0
  9
$PUCSXDIR
 10
1.0
 20
0.0
 30
0.0
  9
$PUCSYDIR
 10
0.0
 20
1.0
 30
0.0
  9
$PUCSORTHOREF
  2

  9
$PUCSORTHOVIEW
 70
     0
  9
$PUCSORGTOP
 10
0.0
 20
0.0
 30
0.0
  9
$PUCSORGBOTTOM
 10
0.0
 20
0.0
 30
0.0
  9
$PUCSORGLEFT
 10
0.0
 20
0.0
 30
0.0
  9
$PUCSORGRIGHT
 10
0.0
 20
0.0
 30
0.0
  9
$PUCSORGFRONT
 10
0.0
 20
0.0
 30
0.0
  9
$PUCSORGBACK
 10
0.0
 20
0.0
 30
0.0
  9
$USERI1
 70
     0
  9
$USERI2
 70
     0
  9
$USERI3
 70
     0
  9
$USERI4
 70
     0
  9
$USERI5
 70
     0
  9
$USERR1
 40
0.0
  9
$USERR2
 40
0.0
  9
$USERR3
 40
0.0
  9
$USERR4
 40
0.0
  9
$USERR5
 40
0.0
  9
$WORLDVIEW
 70
     1
  9
$SHADEDGE
 70
     3
  9
$SHADEDIF
 70
    70
  9
$TILEMODE
 70
     1
  9
$MAXACTVP
 70
    64
  9
$PINSBASE
 10
0.0
 20
0.0
 30
0.0
  9
$PLIMCHECK
 70
     0
  9
$PEXTMIN
 10
1.000000000000000E+20
 20
1.000000000000000E+20
 30
1.000000000000000E+20
  9
$PEXTMAX
 10
-1.000000000000000E+20
 20
-1.000000000000000E+20
 30
-1.000000000000000E+20
  9
$PLIMMIN
 10
0.0
 20
0.0
  9
$PLIMMAX
 10
12.0
 20
9.0
  9
$UNITMODE
 70
     0
  9
$VISRETAIN
 70
     1
  9
$PLINEGEN
 70
     0
  9
$PSLTSCALE
 70
     1
  9
$TREEDEPTH
 70
  3020
  9
$CMLSTYLE
  2
Standard
  9
$CMLJUST
 70
     0
  9
$CMLSCALE
 40
1.0
  9
$PROXYGRAPHICS
 70
     1
  9
$MEASUREMENT
 70
     0
  9
$CELWEIGHT
370
    -1
  9
$ENDCAPS
280
     0
  9
$JOINSTYLE
280
     0
  9
$LWDISPLAY
290
     1
  9
$INSUNITS
 70
     1
  9
$HYPERLINKBASE
  1

  9
$STYLESHEET
  1

  9
$XEDIT
290
     1
  9
$CEPSNTYPE
380
     0
  9
$PSTYLEMODE
290
     1
  9
$FINGERPRINTGUID
  2
{3645DC7E-7224-F4F9-6004-F0D4F9813C7B}
  9
$VERSIONGUID
  2
{FAEB1C32-E019-11D5-929B-00C0DF256EC4}
  9
$EXTNAMES
290
     1
  9
$PSVPSCALE
 40
0.0
  9
$OLESTARTUP
290
     0
  9
$SORTENTS
280
   127
  9
$INDEXCTL
280
     0
  9
$HIDETEXT
280
     1
  9
$XCLIPFRAME
280
     2
  9
$HALOGAP
280
     0
  9
$OBSCOLOR
 70
   257
  9
$OBSLTYPE
280
     0
  9
$INTERSECTIONDISPLAY
280
     0
  9
$INTERSECTIONCOLOR
 70
   257
  9
$DIMASSOC
280
     2
  9
$PROJECTNAME
  1

  9
$CAMERADISPLAY
290
     0
  9
$LENSLENGTH
 40
50.0
  9
$CAMERAHEIGHT
 40
0.0
  9
$STEPSPERSEC
 40
2.0
  9
$STEPSIZE
 40
6.0
  9
$3DDWFPREC
 40
2.0
  9
$PSOLWIDTH
 40
0.25
  9
$PSOLHEIGHT
 40
4.0
  9
$LOFTANG1
 40
1.570796326794897
  9
$LOFTANG2
 40
1.570796326794897
  9
$LOFTMAG1
 40
0.0
  9
$LOFTMAG2
 40
0.0
  9
$LOFTPARAM
 70
     7
  9
$LOFTNORMALS
280
     1
  9
$LATITUDE
 40
37.795
  9
$LONGITUDE
 40
-122.394
  9
$NORTHDIRECTION
 40
0.0
  9
$TIMEZONE
 70
 -8000
  9
$LIGHTGLYPHDISPLAY
280
     1
  9
$TILEMODELIGHTSYNCH
280
     1
  9
$CMATERIAL
347
3C
  9
$SOLIDHIST
280
     1
  9
$SHOWHIST
280
     1
  9
$DWFFRAME
280
     2
  9
$DGNFRAME
280
     2
  9
$REALWORLDSCALE
290
     1
  9
$INTERFERECOLOR
 62
   256
  9
$CSHADOW
280
     0
  9
$SHADOWPLANELOCATION
 40
0.0
  0
ENDSEC
  0
SECTION
  2
CLASSES
  0
CLASS
  1
ACDBDICTIONARYWDFLT
  2
AcDbDictionaryWithDefault
  3
ObjectDBX Classes
 90
        0
 91
        4
280
     0
281
     0
  0
CLASS
  1
VISUALSTYLE
  2
AcDbVisualStyle
  3
ObjectDBX Classes
 90
     4095
 91
        4
280
     0
281
     0
  0
CLASS
  1
MATERIAL
  2
AcDbMaterial
  3
ObjectDBX Classes
 90
     1153
 91
        4
280
     0
281
     0
  0
CLASS
  1
SUN
  2
AcDbSun
  3
SCENEOE
 90
     1024
 91
        4
280
     0
281
     0
  0
ENDSEC
  0
SECTION
  2
TABLES
  0
TABLE
  2
VPORT
  5
8
330
0
100
AcDbSymbolTable
 70
     1
  0
VPORT
  5
29
330
8
100
AcDbSymbolTableRecord
100
AcDbViewportTableRecord
  2
*Active
 70
     0
 10
0.0
 20
0.0
 11
1.0
 21
1.0
 12
0.0
 22
0.0
 13
0.0
 23
0.0
 14
0.5
 24
0.5
 15
0.5
 25
0.5
 16
0.0
 26
0.0
 36
1.0
 17
91.00082462281999
 27
-128.4993055234307
 37
0.0
 40
256.9986110468615
 41
0.7081814508812795
 42
50.0
 43
0.0
 44
0.0
 50
0.0
 51
0.0
 71
     0
 72
   100
 73
     1
 74
     3
 75
     0
 76
     0
 77
     0
 78
     0
281
     0
 65
     1
110
0.0
120
0.0
130
0.0
111
1.0
121
0.0
131
0.0
112
0.0
122
1.0
132
0.0
 79
     0
146
0.0
 60
     3
 61
     5
292
     1
282
     1
141
0.0
142
0.0
 63
   250
361
3F
  0
ENDTAB
  0
TABLE
  2
LTYPE
  5
5
330
0
100
AcDbSymbolTable
 70
     1
  0
LTYPE
  5
14
330
5
100
AcDbSymbolTableRecord
100
AcDbLinetypeTableRecord
  2
ByBlock
 70
     0
  3

 72
    65
 73
     0
 40
0.0
  0
LTYPE
  5
15
330
5
100
AcDbSymbolTableRecord
100
AcDbLinetypeTableRecord
  2
ByLayer
 70
     0
  3

 72
    65
 73
     0
 40
0.0
  0
LTYPE
  5
16
330
5
100
AcDbSymbolTableRecord
100
AcDbLinetypeTableRecord
  2
Continuous
 70
     0
  3
Solid line
 72
    65
 73
     0
 40
0.0
  0
ENDTAB
  0
TABLE
  2
LAYER
  5
2
330
0
100
AcDbSymbolTable
 70
     2
  0
LAYER
  5
10
330
2
100
AcDbSymbolTableRecord
100
AcDbLayerTableRecord
  2
0
 70
     0
 62
     7
  6
Continuous
370
    -3
390
F
347
3E
  0
LAYER
  5
40
330
2
100
AcDbSymbolTableRecord
100
AcDbLayerTableRecord
  2
_U+30EC_U+30A4_U+30E4_U+30FC 1
 70
     0
 62
     7
  6
Continuous
370
    -3
390
F
347
3E
  0
ENDTAB
  0
TABLE
  2
STYLE
  5
3
330
0
100
AcDbSymbolTable
 70
     1
  0
STYLE
  5
11
330
3
100
AcDbSymbolTableRecord
100
AcDbTextStyleTableRecord
  2
Standard
 70
     0
 40
0.0
 41
1.0
 50
0.0
 71
     0
 42
0.2
  3
txt
  4

  0
ENDTAB
  0
TABLE
  2
VIEW
  5
6
330
0
100
AcDbSymbolTable
 70
     0
  0
ENDTAB
  0
TABLE
  2
UCS
  5
7
330
0
100
AcDbSymbolTable
 70
     0
  0
ENDTAB
  0
TABLE
  2
APPID
  5
9
330
0
100
AcDbSymbolTable
 70
     1
  0
APPID
  5
12
330
9
100
AcDbSymbolTableRecord
100
AcDbRegAppTableRecord
  2
ACAD
 70
     0
  0
ENDTAB
  0
TABLE
  2
DIMSTYLE
  5
A
330
0
100
AcDbSymbolTable
 70
     1
100
AcDbDimStyleTable
  0
DIMSTYLE
105
27
330
A
100
AcDbSymbolTableRecord
100
AcDbDimStyleTableRecord
  2
Standard
 70
     0
178
     0
340
11
  0
ENDTAB
  0
TABLE
  2
BLOCK_RECORD
  5
1
330
0
100
AcDbSymbolTable
 70
     8
  0
BLOCK_RECORD
  5
1F
330
1
100
AcDbSymbolTableRecord
100
AcDbBlockTableRecord
  2
*Model_Space
340
22
 70
     0
280
     1
281
     0
  0
BLOCK_RECORD
  5
1B
330
1
100
AcDbSymbolTableRecord
100
AcDbBlockTableRecord
  2
*Paper_Space
340
1E
 70
     0
280
     1
281
     0
  0
BLOCK_RECORD
  5
23
330
1
100
AcDbSymbolTableRecord
100
AcDbBlockTableRecord
  2
*Paper_Space0
340
26
 70
     0
280
     1
281
     0
  0
BLOCK_RECORD
  5
E1
330
1
100
AcDbSymbolTableRecord
100
AcDbBlockTableRecord
  2
block 2
340
0
102
{BLKREFS
331
E2
102
}
 70
     0
280
     1
281
     0
  0
BLOCK_RECORD
  5
E7
330
1
100
AcDbSymbolTableRecord
100
AcDbBlockTableRecord
  2
block 3
340
0
102
{BLKREFS
331
E8
102
}
 70
     0
280
     1
281
     0
  0
BLOCK_RECORD
  5
ED
330
1
100
AcDbSymbolTableRecord
100
AcDbBlockTableRecord
  2
block 4
340
0
102
{BLKREFS
331
EE
102
}
 70
     0
280
     1
281
     0
  0
BLOCK_RECORD
  5
F3
330
1
100
AcDbSymbolTableRecord
100
AcDbBlockTableRecord
  2
block 5
340
0
102
{BLKREFS
331
F4
102
}
 70
     0
280
     1
281
     0
  0
BLOCK_RECORD
  5
FC
330
1
100
AcDbSymbolTableRecord
100
AcDbBlockTableRecord
  2
block 6
340
0
102
{BLKREFS
331
FD
102
}
 70
     0
280
     1
281
     0
  0
BLOCK_RECORD
  5
118
330
1
100
AcDbSymbolTableRecord
100
AcDbBlockTableRecord
  2
block 7
340
0
102
{BLKREFS
331
119
102
}
 70
     0
280
     1
281
     0
  0
BLOCK_RECORD
  5
120
330
1
100
AcDbSymbolTableRecord
100
AcDbBlockTableRecord
  2
block 8
340
0
102
{BLKREFS
331
121
102
}
 70
     0
280
     1
281
     0
  0
ENDTAB
  0
ENDSEC
  0
SECTION
  2
BLOCKS
  0
BLOCK
  5
20
330
1F
100
AcDbEntity
  8
0
100
AcDbBlockBegin
  2
*Model_Space
 70
     0
 10
0.0
 20
0.0
 30
0.0
  3
*Model_Space
  1

  0
ENDBLK
  5
21
330
1F
100
AcDbEntity
  8
0
100
AcDbBlockEnd
  0
BLOCK
  5
1C
330
1B
100
AcDbEntity
 67
     1
  8
0
100
AcDbBlockBegin
  2
*Paper_Space
 70
     0
 10
0.0
 20
0.0
 30
0.0
  3
*Paper_Space
  1

  0
ENDBLK
  5
1D
330
1B
100
AcDbEntity
 67
     1
  8
0
100
AcDbBlockEnd
  0
BLOCK
  5
24
330
23
100
AcDbEntity
  8
0
100
AcDbBlockBegin
  2
*Paper_Space0
 70
     0
 10
0.0
 20
0.0
 30
0.0
  3
*Paper_Space0
  1

  0
ENDBLK
  5
25
330
23
100
AcDbEntity
  8
0
100
AcDbBlockEnd
  0
BLOCK
  5
E3
330
E1
100
AcDbEntity
  8
0
100
AcDbBlockBegin
  2
block 2
 70
     0
 10
0.0
 20
0.0
 30
0.0
  3
block 2
  1

  0
SPLINE
  5
E5
330
E1
100
AcDbEntity
  8
_U+30EC_U+30A4_U+30E4_U+30FC 1
370
     0
100
AcDbSpline
210
0.0
220
0.0
230
1.0
 70
    11
 71
     3
 72
    62
 73
    58
 74
     0
 42
0.0000000001
 43
0.0000000001
 12
1.0
 22
0.0
 32
0.0
 13
1.0
 23
0.0
 33
0.0
 40
0.0
 40
0.0
 40
0.0
 40
0.0
 40
1.0
 40
1.0
 40
1.0
 40
2.0
 40
2.0
 40
2.0
 40
3.0
 40
3.0
 40
3.0
 40
4.0
 40
4.0
 40
4.0
 40
5.0
 40
5.0
 40
5.0
 40
6.0
 40
6.0
 40
6.0
 40
7.0
 40
7.0
 40
7.0
 40
8.0
 40
8.0
 40
8.0
 40
9.0
 40
9.0
 40
9.0
 40
10.0
 40
10.0
 40
10.0
 40
11.0
 40
11.0
 40
11.0
 40
12.0
 40
12.0
 40
12.0
 40
13.0
 40
13.0
 40
13.0
 40
14.0
 40
14.0
 40
14.0
 40
15.0
 40
15.0
 40
15.0
 40
16.0
 40
16.0
 40
16.0
 40
17.0
 40
17.0
 40
17.0
 40
18.0
 40
18.0
 40
18.0
 40
19.0
 40
19.0
 40
19.0
 40
19.0
 10
72.65447996230513
 20
-110.4585462505972
 30
0.0
 10
72.55284964549027
 20
-110.4585462505972
 30
0.0
 10
72.31996119068738
 20
-110.4373589133629
 30
0.0
 10
72.18646374063394
 20
-110.2511515023851
 30
0.0
 10
72.10739879924746
 20
-110.1390136443403
 30
0.0
 10
72.10292017511664
 20
-110.0396226395908
 30
0.0
 10
72.09826929621154
 20
-109.9550455454279
 30
0.0
 10
72.09826929621154
 20
-109.9550455454279
 30
0.0
 10
72.33356931785411
 20
-109.9550455454279
 30
0.0
 10
72.33356931785411
 20
-109.9550455454279
 30
0.0
 10
72.33580862991953
 20
-110.0291150983608
 30
0.0
 10
72.34700519024659
 20
-110.2638983556806
 30
0.0
 10
72.6500013381743
 20
-110.2638983556806
 30
0.0
 10
72.79693466062021
 20
-110.2638983556806
 30
0.0
 10
72.95971542229827
 20
-110.1941351721043
 30
0.0
 10
72.95971542229827
 20
-109.9655530866579
 30
0.0
 10
72.95971542229827
 20
-109.8492811140307
 30
0.0
 10
72.91906329557231
 20
-109.8005330129145
 30
0.0
 10
72.88512910504261
 20
-109.7688381344502
 30
0.0
 10
72.80606416365613
 20
-109.6947685815173
 30
0.0
 10
72.68169621663861
 20
-109.6821939829961
 30
0.0
 10
72.6229573386151
 20
-109.6821939829961
 30
0.0
 10
72.60245902047787
 20
-109.6821939829961
 30
0.0
 10
72.56404620581732
 20
-109.6842610402873
 30
0.0
 10
72.5347628941927
 20
-109.6883951548696
 30
0.0
 10
72.5347628941927
 20
-109.6883951548696
 30
0.0
 10
72.5347628941927
 20
-109.493747259953
 30
0.0
 10
72.5347628941927
 20
-109.493747259953
 30
0.0
 10
72.57541502091865
 20
-109.5001206866007
 30
0.0
 10
72.62054577177543
 20
-109.5023599986661
 30
0.0
 10
72.62743596274592
 20
-109.5023599986661
 30
0.0
 10
72.69754365587076
 20
-109.5023599986661
 30
0.0
 10
72.9099337925364
 20
-109.4811726614318
 30
0.0
 10
72.9099337925364
 20
-109.2441500920466
 30
0.0
 10
72.9099337925364
 20
-109.066555419782
 30
0.0
 10
72.769890661061
 20
-109.011433892018
 30
0.0
 10
72.65224065023972
 20
-109.011433892018
 30
0.0
 10
72.36974282044923
 20
-109.011433892018
 30
0.0
 10
72.36061331741332
 20
-109.2441500920466
 30
0.0
 10
72.3561346932825
 20
-109.3161525876883
 30
0.0
 10
72.3561346932825
 20
-109.3161525876883
 30
0.0
 10
72.13909367771176
 20
-109.3161525876883
 30
0.0
 10
72.13909367771176
 20
-109.3161525876883
 30
0.0
 10
72.14805092597341
 20
-109.191267876348
 30
0.0
 10
72.17750649237229
 20
-108.8147189398102
 30
0.0
 10
72.66584877740645
 20
-108.8147189398102
 30
0.0
 10
72.90545516840558
 20
-108.8147189398102
 30
0.0
 10
73.16314831070227
 20
-108.9416707084417
 30
0.0
 10
73.16314831070227
 20
-109.2377766653989
 30
0.0
 10
73.16314831070227
 20
-109.4239840763766
 30
0.0
 10
73.0615179938874
 20
-109.5064941132484
 30
0.0
 10
72.95523679816745
 20
-109.5678168128858
 30
0.0
 10
73.02086586716145
 20
-109.5953775767678
 30
0.0
 10
73.21516925252955
 20
-109.6758205563484
 30
0.0
 10
73.21516925252955
 20
-109.9529784881368
 30
0.0
 10
73.21516925252955
 20
-110.2914591195626
 30
0.0
 10
72.95075817403662
 20
-110.4585462505972
 30
0.0
 10
72.65447996230513
 20
-110.4585462505972
 30
0.0
  0
HATCH
  5
E6
330
E1
100
AcDbEntity
  8
_U+30EC_U+30A4_U+30E4_U+30FC 1
 62
   179
420
  2234388
100
AcDbHatch
 10
0.0
 20
0.0
 30
0.0
210
0.0
220
0.0
230
1.0
  2
SOLID
 70
     1
 71
     0
 91
        1
 92
        1
 93
        1
 72
     4
 94
        3
 73
     0
 74
     1
 95
       62
 96
       58
 40
0.0
 40
0.0
 40
0.0
 40
0.0
 40
1.0
 40
1.0
 40
1.0
 40
2.0
 40
2.0
 40
2.0
 40
3.0
 40
3.0
 40
3.0
 40
4.0
 40
4.0
 40
4.0
 40
5.0
 40
5.0
 40
5.0
 40
6.0
 40
6.0
 40
6.0
 40
7.0
 40
7.0
 40
7.0
 40
8.0
 40
8.0
 40
8.0
 40
9.0
 40
9.0
 40
9.0
 40
10.0
 40
10.0
 40
10.0
 40
11.0
 40
11.0
 40
11.0
 40
12.0
 40
12.0
 40
12.0
 40
13.0
 40
13.0
 40
13.0
 40
14.0
 40
14.0
 40
14.0
 40
15.0
 40
15.0
 40
15.0
 40
16.0
 40
16.0
 40
16.0
 40
17.0
 40
17.0
 40
17.0
 40
18.0
 40
18.0
 40
18.0
 40
19.0
 40
19.0
 40
19.0
 40
19.0
 10
72.65447996230513
 20
-110.4585462505972
 10
72.55284964549027
 20
-110.4585462505972
 10
72.31996119068738
 20
-110.4373589133629
 10
72.18646374063394
 20
-110.2511515023851
 10
72.10739879924746
 20
-110.1390136443403
 10
72.10292017511664
 20
-110.0396226395908
 10
72.09826929621154
 20
-109.9550455454279
 10
72.09826929621154
 20
-109.9550455454279
 10
72.33356931785411
 20
-109.9550455454279
 10
72.33356931785411
 20
-109.9550455454279
 10
72.33580862991953
 20
-110.0291150983608
 10
72.34700519024659
 20
-110.2638983556806
 10
72.6500013381743
 20
-110.2638983556806
 10
72.79693466062021
 20
-110.2638983556806
 10
72.95971542229827
 20
-110.1941351721043
 10
72.95971542229827
 20
-109.9655530866579
 10
72.95971542229827
 20
-109.8492811140307
 10
72.91906329557231
 20
-109.8005330129145
 10
72.88512910504261
 20
-109.7688381344502
 10
72.80606416365613
 20
-109.6947685815173
 10
72.68169621663861
 20
-109.6821939829961
 10
72.6229573386151
 20
-109.6821939829961
 10
72.60245902047787
 20
-109.6821939829961
 10
72.56404620581732
 20
-109.6842610402873
 10
72.5347628941927
 20
-109.6883951548696
 10
72.5347628941927
 20
-109.6883951548696
 10
72.5347628941927
 20
-109.493747259953
 10
72.5347628941927
 20
-109.493747259953
 10
72.57541502091865
 20
-109.5001206866007
 10
72.62054577177543
 20
-109.5023599986661
 10
72.62743596274592
 20
-109.5023599986661
 10
72.69754365587076
 20
-109.5023599986661
 10
72.9099337925364
 20
-109.4811726614318
 10
72.9099337925364
 20
-109.2441500920466
 10
72.9099337925364
 20
-109.066555419782
 10
72.769890661061
 20
-109.011433892018
 10
72.65224065023972
 20
-109.011433892018
 10
72.36974282044923
 20
-109.011433892018
 10
72.36061331741332
 20
-109.2441500920466
 10
72.3561346932825
 20
-109.3161525876883
 10
72.3561346932825
 20
-109.3161525876883
 10
72.13909367771176
 20
-109.3161525876883
 10
72.13909367771176
 20
-109.3161525876883
 10
72.14805092597341
 20
-109.191267876348
 10
72.17750649237229
 20
-108.8147189398102
 10
72.66584877740645
 20
-108.8147189398102
 10
72.90545516840558
 20
-108.8147189398102
 10
73.16314831070227
 20
-108.9416707084417
 10
73.16314831070227
 20
-109.2377766653989
 10
73.16314831070227
 20
-109.4239840763766
 10
73.0615179938874
 20
-109.5064941132484
 10
72.95523679816745
 20
-109.5678168128858
 10
73.02086586716145
 20
-109.5953775767678
 10
73.21516925252955
 20
-109.6758205563484
 10
73.21516925252955
 20
-109.9529784881368
 10
73.21516925252955
 20
-110.2914591195626
 10
72.95075817403662
 20
-110.4585462505972
 10
72.65447996230513
 20
-110.4585462505972
 97
        0
 97
        0
 75
     2
 76
     1
 98
        0
  0
ENDBLK
  5
E4
330
E1
100
AcDbEntity
  8
0
100
AcDbBlockEnd
  0
BLOCK
  5
E9
330
E7
100
AcDbEntity
  8
0
100
AcDbBlockBegin
  2
block 3
 70
     0
 10
0.0
 20
0.0
 30
0.0
  3
block 3
  1

  0
SPLINE
  5
EB
330
E7
100
AcDbEntity
  8
_U+30EC_U+30A4_U+30E4_U+30FC 1
370
     0
100
AcDbSpline
210
0.0
220
0.0
230
1.0
 70
    11
 71
     3
 72
    26
 73
    22
 74
     0
 42
0.0000000001
 43
0.0000000001
 12
1.0
 22
0.0
 32
0.0
 13
1.0
 23
0.0
 33
0.0
 40
0.0
 40
0.0
 40
0.0
 40
0.0
 40
1.0
 40
1.0
 40
1.0
 40
2.0
 40
2.0
 40
2.0
 40
3.0
 40
3.0
 40
3.0
 40
4.0
 40
4.0
 40
4.0
 40
5.0
 40
5.0
 40
5.0
 40
6.0
 40
6.0
 40
6.0
 40
7.0
 40
7.0
 40
7.0
 40
7.0
 10
117.6289957388219
 20
-123.9450615467047
 30
0.0
 10
117.6289957388219
 20
-123.9450615467047
 30
0.0
 10
116.5248426357993
 20
-123.9450615467047
 30
0.0
 10
116.5248426357993
 20
-123.9450615467047
 30
0.0
 10
116.5248426357993
 20
-123.9450615467047
 30
0.0
 10
116.5248426357993
 20
-124.2978393243943
 30
0.0
 10
116.5248426357993
 20
-124.2978393243943
 30
0.0
 10
116.5248426357993
 20
-124.2978393243943
 30
0.0
 10
116.3767035299336
 20
-124.2978393243943
 30
0.0
 10
116.3767035299336
 20
-124.2978393243943
 30
0.0
 10
116.361889619347
 20
-123.9428222346393
 30
0.0
 10
116.1989366028947
 20
-123.8930406048774
 30
0.0
 10
116.0845594327844
 20
-123.8615179811874
 30
0.0
 10
116.0845594327844
 20
-123.8615179811874
 30
0.0
 10
116.0845594327844
 20
-123.7054551557056
 30
0.0
 10
116.0845594327844
 20
-123.7054551557056
 30
0.0
 10
116.0845594327844
 20
-123.7054551557056
 30
0.0
 10
117.6289957388219
 20
-123.7054551557056
 30
0.0
 10
117.6289957388219
 20
-123.7054551557056
 30
0.0
 10
117.6289957388219
 20
-123.7054551557056
 30
0.0
 10
117.6289957388219
 20
-123.9450615467047
 30
0.0
 10
117.6289957388219
 20
-123.9450615467047
 30
0.0
  0
HATCH
  5
EC
330
E7
100
AcDbEntity
  8
_U+30EC_U+30A4_U+30E4_U+30FC 1
 62
   179
420
  2234388
100
AcDbHatch
 10
0.0
 20
0.0
 30
0.0
210
0.0
220
0.0
230
1.0
  2
SOLID
 70
     1
 71
     0
 91
        1
 92
        1
 93
        1
 72
     4
 94
        3
 73
     0
 74
     1
 95
       26
 96
       22
 40
0.0
 40
0.0
 40
0.0
 40
0.0
 40
1.0
 40
1.0
 40
1.0
 40
2.0
 40
2.0
 40
2.0
 40
3.0
 40
3.0
 40
3.0
 40
4.0
 40
4.0
 40
4.0
 40
5.0
 40
5.0
 40
5.0
 40
6.0
 40
6.0
 40
6.0
 40
7.0
 40
7.0
 40
7.0
 40
7.0
 10
117.6289957388219
 20
-123.9450615467047
 10
117.6289957388219
 20
-123.9450615467047
 10
116.5248426357993
 20
-123.9450615467047
 10
116.5248426357993
 20
-123.9450615467047
 10
116.5248426357993
 20
-123.9450615467047
 10
116.5248426357993
 20
-124.2978393243943
 10
116.5248426357993
 20
-124.2978393243943
 10
116.5248426357993
 20
-124.2978393243943
 10
116.3767035299336
 20
-124.2978393243943
 10
116.3767035299336
 20
-124.2978393243943
 10
116.361889619347
 20
-123.9428222346393
 10
116.1989366028947
 20
-123.8930406048774
 10
116.0845594327844
 20
-123.8615179811874
 10
116.0845594327844
 20
-123.8615179811874
 10
116.0845594327844
 20
-123.7054551557056
 10
116.0845594327844
 20
-123.7054551557056
 10
116.0845594327844
 20
-123.7054551557056
 10
117.6289957388219
 20
-123.7054551557056
 10
117.6289957388219
 20
-123.7054551557056
 10
117.6289957388219
 20
-123.7054551557056
 10
117.6289957388219
 20
-123.9450615467047
 10
117.6289957388219
 20
-123.9450615467047
 97
        0
 97
        0
 75
     2
 76
     1
 98
        0
  0
ENDBLK
  5
EA
330
E7
100
AcDbEntity
  8
0
100
AcDbBlockEnd
  0
BLOCK
  5
EF
330
ED
100
AcDbEntity
  8
0
100
AcDbBlockBegin
  2
block 4
 70
     0
 10
0.0
 20
0.0
 30
0.0
  3
block 4
  1

  0
SPLINE
  5
F1
330
ED
100
AcDbEntity
  8
_U+30EC_U+30A4_U+30E4_U+30FC 1
370
     0
100
AcDbSpline
210
0.0
220
0.0
230
1.0
 70
    11
 71
     3
 72
    62
 73
    58
 74
     0
 42
0.0000000001
 43
0.0000000001
 12
1.0
 22
0.0
 32
0.0
 13
1.0
 23
0.0
 33
0.0
 40
0.0
 40
0.0
 40
0.0
 40
0.0
 40
1.0
 40
1.0
 40
1.0
 40
2.0
 40
2.0
 40
2.0
 40
3.0
 40
3.0
 40
3.0
 40
4.0
 40
4.0
 40
4.0
 40
5.0
 40
5.0
 40
5.0
 40
6.0
 40
6.0
 40
6.0
 40
7.0
 40
7.0
 40
7.0
 40
8.0
 40
8.0
 40
8.0
 40
9.0
 40
9.0
 40
9.0
 40
10.0
 40
10.0
 40
10.0
 40
11.0
 40
11.0
 40
11.0
 40
12.0
 40
12.0
 40
12.0
 40
13.0
 40
13.0
 40
13.0
 40
14.0
 40
14.0
 40
14.0
 40
15.0
 40
15.0
 40
15.0
 40
16.0
 40
16.0
 40
16.0
 40
17.0
 40
17.0
 40
17.0
 40
18.0
 40
18.0
 40
18.0
 40
19.0
 40
19.0
 40
19.0
 40
19.0
 10
117.6796386424551
 20
-140.2856661975675
 30
0.0
 10
117.6796386424551
 20
-140.3872965143823
 30
0.0
 10
117.6586235599951
 20
-140.6201849691852
 30
0.0
 10
117.4725884037916
 20
-140.7535101644644
 30
0.0
 10
117.3602782909724
 20
-140.8327473606251
 30
0.0
 10
117.2610595409972
 20
-140.837225984756
 30
0.0
 10
117.1763101920601
 20
-140.8417046088868
 30
0.0
 10
117.1763101920601
 20
-140.8417046088868
 30
0.0
 10
117.1763101920601
 20
-140.6067490967928
 30
0.0
 10
117.1763101920601
 20
-140.6067490967928
 30
0.0
 10
117.250379744993
 20
-140.6043375299531
 30
0.0
 10
117.4849907475385
 20
-140.5929687148518
 30
0.0
 10
117.4849907475385
 20
-140.2901448216983
 30
0.0
 10
117.4849907475385
 20
-140.1430392444781
 30
0.0
 10
117.4153998187364
 20
-139.9804307375744
 30
0.0
 10
117.1869899880644
 20
-139.9804307375744
 30
0.0
 10
117.0705457606629
 20
-139.9804307375744
 30
0.0
 10
117.0219699143209
 20
-140.0210828643003
 30
0.0
 10
116.9902750358566
 20
-140.0548448000557
 30
0.0
 10
116.9162054829237
 20
-140.1340819962165
 30
0.0
 10
116.9034586296283
 20
-140.258449943234
 30
0.0
 10
116.9034586296283
 20
-140.3173610760318
 30
0.0
 10
116.9034586296283
 20
-140.3376871393947
 30
0.0
 10
116.9055256869195
 20
-140.375927699281
 30
0.0
 10
116.9096598015018
 20
-140.4055555204542
 30
0.0
 10
116.9096598015018
 20
-140.4055555204542
 30
0.0
 10
116.7150119065851
 20
-140.4055555204542
 30
0.0
 10
116.7150119065851
 20
-140.4055555204542
 30
0.0
 10
116.7215575880071
 20
-140.3649033937282
 30
0.0
 10
116.7236246452983
 20
-140.3194281333229
 30
0.0
 10
116.7236246452983
 20
-140.3128824519009
 30
0.0
 10
116.7236246452983
 20
-140.2426025040019
 30
0.0
 10
116.7022650532897
 20
-140.0300401125619
 30
0.0
 10
116.4655869934531
 20
-140.0300401125619
 30
0.0
 10
116.2878200664142
 20
-140.0300401125619
 30
0.0
 10
116.2326985386502
 20
-140.1702554988116
 30
0.0
 10
116.2326985386502
 20
-140.2877332548586
 30
0.0
 10
116.2326985386502
 20
-140.5705755941976
 30
0.0
 10
116.4655869934531
 20
-140.5795328424593
 30
0.0
 10
116.5372449795462
 20
-140.5840114665901
 30
0.0
 10
116.5372449795462
 20
-140.5840114665901
 30
0.0
 10
116.5372449795462
 20
-140.8010524821609
 30
0.0
 10
116.5372449795462
 20
-140.8010524821609
 30
0.0
 10
116.4125325229802
 20
-140.7920952338992
 30
0.0
 10
116.0359835864424
 20
-140.7628119222746
 30
0.0
 10
116.0359835864424
 20
-140.2742973824662
 30
0.0
 10
116.0359835864424
 20
-140.0345187366928
 30
0.0
 10
116.1631076098481
 20
-139.7768255943961
 30
0.0
 10
116.4590413120311
 20
-139.7768255943961
 30
0.0
 10
116.6454209777831
 20
-139.7768255943961
 30
0.0
 10
116.7277587598806
 20
-139.8788004207595
 30
0.0
 10
116.789081459518
 20
-139.9849093617052
 30
0.0
 10
116.8166422234
 20
-139.9194525474854
 30
0.0
 10
116.8969129482063
 20
-139.7248046525688
 30
0.0
 10
117.1742431347689
 20
-139.7248046525688
 30
0.0
 10
117.5125515114205
 20
-139.7248046525688
 30
0.0
 10
117.6796386424551
 20
-139.989387985836
 30
0.0
 10
117.6796386424551
 20
-140.2856661975675
 30
0.0
  0
HATCH
  5
F2
330
ED
100
AcDbEntity
  8
_U+30EC_U+30A4_U+30E4_U+30FC 1
 62
   179
420
  2234388
100
AcDbHatch
 10
0.0
 20
0.0
 30
0.0
210
0.0
220
0.0
230
1.0
  2
SOLID
 70
     1
 71
     0
 91
        1
 92
        1
 93
        1
 72
     4
 94
        3
 73
     0
 74
     1
 95
       62
 96
       58
 40
0.0
 40
0.0
 40
0.0
 40
0.0
 40
1.0
 40
1.0
 40
1.0
 40
2.0
 40
2.0
 40
2.0
 40
3.0
 40
3.0
 40
3.0
 40
4.0
 40
4.0
 40
4.0
 40
5.0
 40
5.0
 40
5.0
 40
6.0
 40
6.0
 40
6.0
 40
7.0
 40
7.0
 40
7.0
 40
8.0
 40
8.0
 40
8.0
 40
9.0
 40
9.0
 40
9.0
 40
10.0
 40
10.0
 40
10.0
 40
11.0
 40
11.0
 40
11.0
 40
12.0
 40
12.0
 40
12.0
 40
13.0
 40
13.0
 40
13.0
 40
14.0
 40
14.0
 40
14.0
 40
15.0
 40
15.0
 40
15.0
 40
16.0
 40
16.0
 40
16.0
 40
17.0
 40
17.0
 40
17.0
 40
18.0
 40
18.0
 40
18.0
 40
19.0
 40
19.0
 40
19.0
 40
19.0
 10
117.6796386424551
 20
-140.2856661975675
 10
117.6796386424551
 20
-140.3872965143823
 10
117.6586235599951
 20
-140.6201849691852
 10
117.4725884037916
 20
-140.7535101644644
 10
117.3602782909724
 20
-140.8327473606251
 10
117.2610595409972
 20
-140.837225984756
 10
117.1763101920601
 20
-140.8417046088868
 10
117.1763101920601
 20
-140.8417046088868
 10
117.1763101920601
 20
-140.6067490967928
 10
117.1763101920601
 20
-140.6067490967928
 10
117.250379744993
 20
-140.6043375299531
 10
117.4849907475385
 20
-140.5929687148518
 10
117.4849907475385
 20
-140.2901448216983
 10
117.4849907475385
 20
-140.1430392444781
 10
117.4153998187364
 20
-139.9804307375744
 10
117.1869899880644
 20
-139.9804307375744
 10
117.0705457606629
 20
-139.9804307375744
 10
117.0219699143209
 20
-140.0210828643003
 10
116.9902750358566
 20
-140.0548448000557
 10
116.9162054829237
 20
-140.1340819962165
 10
116.9034586296283
 20
-140.258449943234
 10
116.9034586296283
 20
-140.3173610760318
 10
116.9034586296283
 20
-140.3376871393947
 10
116.9055256869195
 20
-140.375927699281
 10
116.9096598015018
 20
-140.4055555204542
 10
116.9096598015018
 20
-140.4055555204542
 10
116.7150119065851
 20
-140.4055555204542
 10
116.7150119065851
 20
-140.4055555204542
 10
116.7215575880071
 20
-140.3649033937282
 10
116.7236246452983
 20
-140.3194281333229
 10
116.7236246452983
 20
-140.3128824519009
 10
116.7236246452983
 20
-140.2426025040019
 10
116.7022650532897
 20
-140.0300401125619
 10
116.4655869934531
 20
-140.0300401125619
 10
116.2878200664142
 20
-140.0300401125619
 10
116.2326985386502
 20
-140.1702554988116
 10
116.2326985386502
 20
-140.2877332548586
 10
116.2326985386502
 20
-140.5705755941976
 10
116.4655869934531
 20
-140.5795328424593
 10
116.5372449795462
 20
-140.5840114665901
 10
116.5372449795462
 20
-140.5840114665901
 10
116.5372449795462
 20
-140.8010524821609
 10
116.5372449795462
 20
-140.8010524821609
 10
116.4125325229802
 20
-140.7920952338992
 10
116.0359835864424
 20
-140.7628119222746
 10
116.0359835864424
 20
-140.2742973824662
 10
116.0359835864424
 20
-140.0345187366928
 10
116.1631076098481
 20
-139.7768255943961
 10
116.4590413120311
 20
-139.7768255943961
 10
116.6454209777831
 20
-139.7768255943961
 10
116.7277587598806
 20
-139.8788004207595
 10
116.789081459518
 20
-139.9849093617052
 10
116.8166422234
 20
-139.9194525474854
 10
116.8969129482063
 20
-139.7248046525688
 10
117.1742431347689
 20
-139.7248046525688
 10
117.5125515114205
 20
-139.7248046525688
 10
117.6796386424551
 20
-139.989387985836
 10
117.6796386424551
 20
-140.2856661975675
 97
        0
 97
        0
 75
     2
 76
     1
 98
        0
  0
ENDBLK
  5
F0
330
ED
100
AcDbEntity
  8
0
100
AcDbBlockEnd
  0
BLOCK
  5
F5
330
F3
100
AcDbEntity
  8
0
100
AcDbBlockBegin
  2
block 5
 70
     0
 10
0.0
 20
0.0
 30
0.0
  3
block 5
  1

  0
SPLINE
  5
F7
330
F3
100
AcDbEntity
  8
_U+30EC_U+30A4_U+30E4_U+30FC 1
370
     0
100
AcDbSpline
210
0.0
220
0.0
230
1.0
 70
    11
 71
     3
 72
    26
 73
    22
 74
     0
 42
0.0000000001
 43
0.0000000001
 12
1.0
 22
0.0
 32
0.0
 13
1.0
 23
0.0
 33
0.0
 40
0.0
 40
0.0
 40
0.0
 40
0.0
 40
1.0
 40
1.0
 40
1.0
 40
2.0
 40
2.0
 40
2.0
 40
3.0
 40
3.0
 40
3.0
 40
4.0
 40
4.0
 40
4.0
 40
5.0
 40
5.0
 40
5.0
 40
6.0
 40
6.0
 40
6.0
 40
7.0
 40
7.0
 40
7.0
 40
7.0
 10
75.48238659137246
 20
-148.228333838811
 30
0.0
 10
75.48238659137246
 20
-148.228333838811
 30
0.0
 10
75.48238659137246
 20
-147.1238362262399
 30
0.0
 10
75.48238659137246
 20
-147.1238362262399
 30
0.0
 10
75.48238659137246
 20
-147.1238362262399
 30
0.0
 10
75.1299533232314
 20
-147.1238362262399
 30
0.0
 10
75.1299533232314
 20
-147.1238362262399
 30
0.0
 10
75.1299533232314
 20
-147.1238362262399
 30
0.0
 10
75.1299533232314
 20
-146.9760416299227
 30
0.0
 10
75.1299533232314
 20
-146.9760416299227
 30
0.0
 10
75.48479815821214
 20
-146.9612277193361
 30
0.0
 10
75.53440753319974
 20
-146.7982747028838
 30
0.0
 10
75.56610241166403
 20
-146.6838975327735
 30
0.0
 10
75.56610241166403
 20
-146.6838975327735
 30
0.0
 10
75.72216523714584
 20
-146.6838975327735
 30
0.0
 10
75.72216523714584
 20
-146.6838975327735
 30
0.0
 10
75.72216523714584
 20
-146.6838975327735
 30
0.0
 10
75.72216523714584
 20
-148.228333838811
 30
0.0
 10
75.72216523714584
 20
-148.228333838811
 30
0.0
 10
75.72216523714584
 20
-148.228333838811
 30
0.0
 10
75.48238659137246
 20
-148.228333838811
 30
0.0
 10
75.48238659137246
 20
-148.228333838811
 30
0.0
  0
HATCH
  5
F8
330
F3
100
AcDbEntity
  8
_U+30EC_U+30A4_U+30E4_U+30FC 1
 62
   179
420
  2234388
100
AcDbHatch
 10
0.0
 20
0.0
 30
0.0
210
0.0
220
0.0
230
1.0
  2
SOLID
 70
     1
 71
     0
 91
        1
 92
        1
 93
        1
 72
     4
 94
        3
 73
     0
 74
     1
 95
       26
 96
       22
 40
0.0
 40
0.0
 40
0.0
 40
0.0
 40
1.0
 40
1.0
 40
1.0
 40
2.0
 40
2.0
 40
2.0
 40
3.0
 40
3.0
 40
3.0
 40
4.0
 40
4.0
 40
4.0
 40
5.0
 40
5.0
 40
5.0
 40
6.0
 40
6.0
 40
6.0
 40
7.0
 40
7.0
 40
7.0
 40
7.0
 10
75.48238659137246
 20
-148.228333838811
 10
75.48238659137246
 20
-148.228333838811
 10
75.48238659137246
 20
-147.1238362262399
 10
75.48238659137246
 20
-147.1238362262399
 10
75.48238659137246
 20
-147.1238362262399
 10
75.1299533232314
 20
-147.1238362262399
 10
75.1299533232314
 20
-147.1238362262399
 10
75.1299533232314
 20
-147.1238362262399
 10
75.1299533232314
 20
-146.9760416299227
 10
75.1299533232314
 20
-146.9760416299227
 10
75.48479815821214
 20
-146.9612277193361
 10
75.53440753319974
 20
-146.7982747028838
 10
75.56610241166403
 20
-146.6838975327735
 10
75.56610241166403
 20
-146.6838975327735
 10
75.72216523714584
 20
-146.6838975327735
 10
75.72216523714584
 20
-146.6838975327735
 10
75.72216523714584
 20
-146.6838975327735
 10
75.72216523714584
 20
-148.228333838811
 10
75.72216523714584
 20
-148.228333838811
 10
75.72216523714584
 20
-148.228333838811
 10
75.48238659137246
 20
-148.228333838811
 10
75.48238659137246
 20
-148.228333838811
 97
        0
 97
        0
 75
     2
 76
     1
 98
        0
  0
SPLINE
  5
F9
330
F3
100
AcDbEntity
  8
_U+30EC_U+30A4_U+30E4_U+30FC 1
370
     0
100
AcDbSpline
210
0.0
220
0.0
230
1.0
 70
    11
 71
     3
 72
    29
 73
    25
 74
     0
 42
0.0000000001
 43
0.0000000001
 12
1.0
 22
0.0
 32
0.0
 13
1.0
 23
0.0
 33
0.0
 40
0.0
 40
0.0
 40
0.0
 40
0.0
 40
1.0
 40
1.0
 40
1.0
 40
2.0
 40
2.0
 40
2.0
 40
3.0
 40
3.0
 40
3.0
 40
4.0
 40
4.0
 40
4.0
 40
5.0
 40
5.0
 40
5.0
 40
6.0
 40
6.0
 40
6.0
 40
7.0
 40
7.0
 40
7.0
 40
8.0
 40
8.0
 40
8.0
 40
8.0
 10
77.21733667774429
 20
-148.0505669117721
 30
0.0
 10
77.1019259789884
 20
-148.2600287172753
 30
0.0
 10
76.91657984188197
 20
-148.2789767424441
 30
0.0
 10
76.79221189486445
 20
-148.2789767424441
 30
0.0
 10
76.620646139699
 20
-148.2789767424441
 30
0.0
 10
76.46906193834802
 20
-148.2324679533933
 30
0.0
 10
76.36743162153314
 20
-148.0505669117721
 30
0.0
 10
76.2564995469081
 20
-147.8559190168555
 30
0.0
 10
76.23617348354513
 20
-147.6188964474703
 30
0.0
 10
76.23617348354513
 20
-147.455943431018
 30
0.0
 10
76.23617348354513
 20
-147.3122829492831
 30
0.0
 10
76.25443248961695
 20
-147.0604464693113
 30
0.0
 10
76.36743162153314
 20
-146.8616644598124
 30
0.0
 10
76.48249781074048
 20
-146.6584038261826
 30
0.0
 10
76.65440807545446
 20
-146.6353216864315
 30
0.0
 10
76.79221189486445
 20
-146.6353216864315
 30
0.0
 10
76.96205510228727
 20
-146.6353216864315
 30
0.0
 10
77.11570636092941
 20
-146.6797634181912
 30
0.0
 10
77.21733667774429
 20
-146.8616644598124
 30
0.0
 10
77.3237901282385
 20
-147.0542452974378
 30
0.0
 10
77.3485948157323
 20
-147.2826551281099
 30
0.0
 10
77.3485948157323
 20
-147.455943431018
 30
0.0
 10
77.3485948157323
 20
-147.6275091861834
 30
0.0
 10
77.32585718552966
 20
-147.8579860741466
 30
0.0
 10
77.21733667774429
 20
-148.0505669117721
 30
0.0
  0
SPLINE
  5
FA
330
F3
100
AcDbEntity
  8
_U+30EC_U+30A4_U+30E4_U+30FC 1
370
     0
100
AcDbSpline
210
0.0
220
0.0
230
1.0
 70
    11
 71
     3
 72
    17
 73
    13
 74
     0
 42
0.0000000001
 43
0.0000000001
 12
1.0
 22
0.0
 32
0.0
 13
1.0
 23
0.0
 33
0.0
 40
0.0
 40
0.0
 40
0.0
 40
0.0
 40
1.0
 40
1.0
 40
1.0
 40
2.0
 40
2.0
 40
2.0
 40
3.0
 40
3.0
 40
3.0
 40
4.0
 40
4.0
 40
4.0
 40
4.0
 10
76.79221189486445
 20
-146.8279025240569
 30
0.0
 10
76.52556150430611
 20
-146.8279025240569
 30
0.0
 10
76.47595212931851
 20
-147.111433882493
 30
0.0
 10
76.47595212931851
 20
-147.455943431018
 30
0.0
 10
76.47595212931851
 20
-147.7756482920491
 30
0.0
 10
76.51419268920479
 20
-148.0843288475275
 30
0.0
 10
76.79221189486445
 20
-148.0843288475275
 30
0.0
 10
77.05679522813163
 20
-148.0843288475275
 30
0.0
 10
77.10881616995891
 20
-147.8028645463826
 30
0.0
 10
77.10881616995891
 20
-147.455943431018
 30
0.0
 10
77.10881616995891
 20
-147.1365830795353
 30
0.0
 10
77.06816404323297
 20
-146.8279025240569
 30
0.0
 10
76.79221189486445
 20
-146.8279025240569
 30
0.0
  0
HATCH
  5
FB
330
F3
100
AcDbEntity
  8
_U+30EC_U+30A4_U+30E4_U+30FC 1
 62
   179
420
  2234388
100
AcDbHatch
 10
0.0
 20
0.0
 30
0.0
210
0.0
220
0.0
230
1.0
  2
SOLID
 70
     1
 71
     0
 91
        2
 92
        1
 93
        1
 72
     4
 94
        3
 73
     0
 74
     1
 95
       29
 96
       25
 40
0.0
 40
0.0
 40
0.0
 40
0.0
 40
1.0
 40
1.0
 40
1.0
 40
2.0
 40
2.0
 40
2.0
 40
3.0
 40
3.0
 40
3.0
 40
4.0
 40
4.0
 40
4.0
 40
5.0
 40
5.0
 40
5.0
 40
6.0
 40
6.0
 40
6.0
 40
7.0
 40
7.0
 40
7.0
 40
8.0
 40
8.0
 40
8.0
 40
8.0
 10
77.21733667774429
 20
-148.0505669117721
 10
77.1019259789884
 20
-148.2600287172753
 10
76.91657984188197
 20
-148.2789767424441
 10
76.79221189486445
 20
-148.2789767424441
 10
76.620646139699
 20
-148.2789767424441
 10
76.46906193834802
 20
-148.2324679533933
 10
76.36743162153314
 20
-148.0505669117721
 10
76.2564995469081
 20
-147.8559190168555
 10
76.23617348354513
 20
-147.6188964474703
 10
76.23617348354513
 20
-147.455943431018
 10
76.23617348354513
 20
-147.3122829492831
 10
76.25443248961695
 20
-147.0604464693113
 10
76.36743162153314
 20
-146.8616644598124
 10
76.48249781074048
 20
-146.6584038261826
 10
76.65440807545446
 20
-146.6353216864315
 10
76.79221189486445
 20
-146.6353216864315
 10
76.96205510228727
 20
-146.6353216864315
 10
77.11570636092941
 20
-146.6797634181912
 10
77.21733667774429
 20
-146.8616644598124
 10
77.3237901282385
 20
-147.0542452974378
 10
77.3485948157323
 20
-147.2826551281099
 10
77.3485948157323
 20
-147.455943431018
 10
77.3485948157323
 20
-147.6275091861834
 10
77.32585718552966
 20
-147.8579860741466
 10
77.21733667774429
 20
-148.0505669117721
 97
        0
 97
        0
 92
        1
 93
        1
 72
     4
 94
        3
 73
     0
 74
     1
 95
       17
 96
       13
 40
0.0
 40
0.0
 40
0.0
 40
0.0
 40
1.0
 40
1.0
 40
1.0
 40
2.0
 40
2.0
 40
2.0
 40
3.0
 40
3.0
 40
3.0
 40
4.0
 40
4.0
 40
4.0
 40
4.0
 10
76.79221189486445
 20
-146.8279025240569
 10
76.52556150430611
 20
-146.8279025240569
 10
76.47595212931851
 20
-147.111433882493
 10
76.47595212931851
 20
-147.455943431018
 10
76.47595212931851
 20
-147.7756482920491
 10
76.51419268920479
 20
-148.0843288475275
 10
76.79221189486445
 20
-148.0843288475275
 10
77.05679522813163
 20
-148.0843288475275
 10
77.10881616995891
 20
-147.8028645463826
 10
77.10881616995891
 20
-147.455943431018
 10
77.10881616995891
 20
-147.1365830795353
 10
77.06816404323297
 20
-146.8279025240569
 10
76.79221189486445
 20
-146.8279025240569
 97
        0
 97
        0
 75
     2
 76
     1
 98
        0
  0
ENDBLK
  5
F6
330
F3
100
AcDbEntity
  8
0
100
AcDbBlockEnd
  0
BLOCK
  5
FE
330
FC
100
AcDbEntity
  8
0
100
AcDbBlockBegin
  2
block 6
 70
     0
 10
0.0
 20
0.0
 30
0.0
  3
block 6
  1

  0
POLYLINE
  5
100
330
FC
100
AcDbEntity
  8
_U+30EC_U+30A4_U+30E4_U+30FC 1
370
     0
100
AcDb2dPolyline
 66
     1
 10
0.0
 20
0.0
 30
0.0
  0
VERTEX
  5
101
330
100
100
AcDbEntity
  8
_U+30EC_U+30A4_U+30E4_U+30FC 1
370
     0
100
AcDbVertex
100
AcDb2dVertex
 10
90.88988713005531
 20
-112.383837862529
 30
0.0
  0
VERTEX
  5
102
330
100
100
AcDbEntity
  8
_U+30EC_U+30A4_U+30E4_U+30FC 1
370
     0
100
AcDbVertex
100
AcDb2dVertex
 10
90.88988713005531
 20
-112.7307589778937
 30
0.0
  0
VERTEX
  5
103
330
100
100
AcDbEntity
  8
_U+30EC_U+30A4_U+30E4_U+30FC 1
370
     0
100
AcDbVertex
100
AcDb2dVertex
 10
90.65699867525242
 20
-112.7307589778937
 30
0.0
  0
VERTEX
  5
104
330
100
100
AcDbEntity
  8
_U+30EC_U+30A4_U+30E4_U+30FC 1
370
     0
100
AcDbVertex
100
AcDb2dVertex
 10
90.65699867525242
 20
-112.383837862529
 30
0.0
  0
VERTEX
  5
105
330
100
100
AcDbEntity
  8
_U+30EC_U+30A4_U+30E4_U+30FC 1
370
     0
100
AcDbVertex
100
AcDb2dVertex
 10
89.95592174400407
 20
-112.383837862529
 30
0.0
  0
VERTEX
  5
106
330
100
100
AcDbEntity
  8
_U+30EC_U+30A4_U+30E4_U+30FC 1
370
     0
100
AcDbVertex
100
AcDb2dVertex
 10
89.95592174400407
 20
-112.1595621464393
 30
0.0
  0
VERTEX
  5
107
330
100
100
AcDbEntity
  8
_U+30EC_U+30A4_U+30E4_U+30FC 1
370
     0
100
AcDbVertex
100
AcDb2dVertex
 10
90.68180336274622
 20
-111.1863226718562
 30
0.0
  0
VERTEX
  5
108
330
100
100
AcDbEntity
  8
_U+30EC_U+30A4_U+30E4_U+30FC 1
370
     0
100
AcDbVertex
100
AcDb2dVertex
 10
90.88988713005531
 20
-111.1863226718562
 30
0.0
  0
VERTEX
  5
109
330
100
100
AcDbEntity
  8
_U+30EC_U+30A4_U+30E4_U+30FC 1
370
     0
100
AcDbVertex
100
AcDb2dVertex
 10
90.88988713005531
 20
-112.1850558530301
 30
0.0
  0
VERTEX
  5
10A
330
100
100
AcDbEntity
  8
_U+30EC_U+30A4_U+30E4_U+30FC 1
370
     0
100
AcDbVertex
100
AcDb2dVertex
 10
91.11140676975687
 20
-112.1850558530301
 30
0.0
  0
VERTEX
  5
10B
330
100
100
AcDbEntity
  8
_U+30EC_U+30A4_U+30E4_U+30FC 1
370
     0
100
AcDbVertex
100
AcDb2dVertex
 10
91.11140676975687
 20
-112.383837862529
 30
0.0
  0
VERTEX
  5
10C
330
100
100
AcDbEntity
  8
_U+30EC_U+30A4_U+30E4_U+30FC 1
370
     0
100
AcDbVertex
100
AcDb2dVertex
 10
90.88988713005531
 20
-112.383837862529
 30
0.0
  0
SEQEND
  5
10D
330
100
100
AcDbEntity
  8
_U+30EC_U+30A4_U+30E4_U+30FC 1
370
     0
  0
POLYLINE
  5
10E
330
FC
100
AcDbEntity
  8
_U+30EC_U+30A4_U+30E4_U+30FC 1
370
     0
100
AcDb2dPolyline
 66
     1
 10
0.0
 20
0.0
 30
0.0
  0
VERTEX
  5
10F
330
10E
100
AcDbEntity
  8
_U+30EC_U+30A4_U+30E4_U+30FC 1
370
     0
100
AcDbVertex
100
AcDb2dVertex
 10
90.65699867525242
 20
-111.5291096726386
 30
0.0
  0
VERTEX
  5
110
330
10E
100
AcDbEntity
  8
_U+30EC_U+30A4_U+30E4_U+30FC 1
370
     0
100
AcDbVertex
100
AcDb2dVertex
 10
90.16848413544399
 20
-112.1850558530301
 30
0.0
  0
VERTEX
  5
111
330
10E
100
AcDbEntity
  8
_U+30EC_U+30A4_U+30E4_U+30FC 1
370
     0
100
AcDbVertex
100
AcDb2dVertex
 10
90.65699867525242
 20
-112.1850558530301
 30
0.0
  0
VERTEX
  5
112
330
10E
100
AcDbEntity
  8
_U+30EC_U+30A4_U+30E4_U+30FC 1
370
     0
100
AcDbVertex
100
AcDb2dVertex
 10
90.65699867525242
 20
-111.5291096726386
 30
0.0
  0
SEQEND
  5
113
330
10E
100
AcDbEntity
  8
_U+30EC_U+30A4_U+30E4_U+30FC 1
370
     0
  0
HATCH
  5
114
330
FC
100
AcDbEntity
  8
_U+30EC_U+30A4_U+30E4_U+30FC 1
 62
   179
420
  2234388
100
AcDbHatch
 10
0.0
 20
0.0
 30
0.0
210
0.0
220
0.0
230
1.0
  2
SOLID
 70
     1
 71
     0
 91
        2
 92
        1
 93
       11
 72
     1
 10
90.88988713005531
 20
-112.383837862529
 11
90.88988713005531
 21
-112.7307589778937
 72
     1
 10
90.88988713005531
 20
-112.7307589778937
 11
90.65699867525242
 21
-112.7307589778937
 72
     1
 10
90.65699867525242
 20
-112.7307589778937
 11
90.65699867525242
 21
-112.383837862529
 72
     1
 10
90.65699867525242
 20
-112.383837862529
 11
89.95592174400407
 21
-112.383837862529
 72
     1
 10
89.95592174400407
 20
-112.383837862529
 11
89.95592174400407
 21
-112.1595621464393
 72
     1
 10
89.95592174400407
 20
-112.1595621464393
 11
90.68180336274622
 21
-111.1863226718562
 72
     1
 10
90.68180336274622
 20
-111.1863226718562
 11
90.88988713005531
 21
-111.1863226718562
 72
     1
 10
90.88988713005531
 20
-111.1863226718562
 11
90.88988713005531
 21
-112.1850558530301
 72
     1
 10
90.88988713005531
 20
-112.1850558530301
 11
91.11140676975687
 21
-112.1850558530301
 72
     1
 10
91.11140676975687
 20
-112.1850558530301
 11
91.11140676975687
 21
-112.383837862529
 72
     1
 10
91.11140676975687
 20
-112.383837862529
 11
90.88988713005531
 21
-112.383837862529
 97
        0
 92
        1
 93
        3
 72
     1
 10
90.65699867525242
 20
-111.5291096726386
 11
90.16848413544399
 21
-112.1850558530301
 72
     1
 10
90.16848413544399
 20
-112.1850558530301
 11
90.65699867525242
 21
-112.1850558530301
 72
     1
 10
90.65699867525242
 20
-112.1850558530301
 11
90.65699867525242
 21
-111.5291096726386
 97
        0
 75
     2
 76
     1
 98
        0
  0
SPLINE
  5
115
330
FC
100
AcDbEntity
  8
_U+30EC_U+30A4_U+30E4_U+30FC 1
370
     0
100
AcDbSpline
210
0.0
220
0.0
230
1.0
 70
    11
 71
     3
 72
    29
 73
    25
 74
     0
 42
0.0000000001
 43
0.0000000001
 12
1.0
 22
0.0
 32
0.0
 13
1.0
 23
0.0
 33
0.0
 40
0.0
 40
0.0
 40
0.0
 40
0.0
 40
1.0
 40
1.0
 40
1.0
 40
2.0
 40
2.0
 40
2.0
 40
3.0
 40
3.0
 40
3.0
 40
4.0
 40
4.0
 40
4.0
 40
5.0
 40
5.0
 40
5.0
 40
6.0
 40
6.0
 40
6.0
 40
7.0
 40
7.0
 40
7.0
 40
8.0
 40
8.0
 40
8.0
 40
8.0
 10
92.2176269300706
 20
-112.5529920508548
 30
0.0
 10
92.10221623131473
 20
-112.762453856358
 30
0.0
 10
91.91687009420829
 20
-112.7814018815269
 30
0.0
 10
91.79250214719077
 20
-112.7814018815269
 30
0.0
 10
91.62093639202533
 20
-112.7814018815269
 30
0.0
 10
91.46935219067433
 20
-112.734893092476
 30
0.0
 10
91.36772187385947
 20
-112.5529920508548
 30
0.0
 10
91.25678979923441
 20
-112.3583441559382
 30
0.0
 10
91.23646373587144
 20
-112.121321586553
 30
0.0
 10
91.23646373587144
 20
-111.9587130796492
 30
0.0
 10
91.23646373587144
 20
-111.8147080883658
 30
0.0
 10
91.25437823239474
 20
-111.562871608394
 30
0.0
 10
91.36772187385947
 20
-111.3640895988951
 30
0.0
 10
91.4827880630668
 20
-111.1611734748139
 30
0.0
 10
91.65469832778078
 20
-111.1377468255142
 30
0.0
 10
91.79250214719077
 20
-111.1377468255142
 30
0.0
 10
91.96234535461359
 20
-111.1377468255142
 30
0.0
 10
92.11599661325573
 20
-111.1821885572739
 30
0.0
 10
92.2176269300706
 20
-111.3640895988951
 30
0.0
 10
92.32408038056482
 20
-111.5566704365206
 30
0.0
 10
92.34888506805862
 20
-111.7850802671926
 30
0.0
 10
92.34888506805862
 20
-111.9587130796492
 30
0.0
 10
92.34888506805862
 20
-112.1299343252661
 30
0.0
 10
92.32614743785597
 20
-112.3604112132293
 30
0.0
 10
92.2176269300706
 20
-112.5529920508548
 30
0.0
  0
SPLINE
  5
116
330
FC
100
AcDbEntity
  8
_U+30EC_U+30A4_U+30E4_U+30FC 1
370
     0
100
AcDbSpline
210
0.0
220
0.0
230
1.0
 70
    11
 71
     3
 72
    17
 73
    13
 74
     0
 42
0.0000000001
 43
0.0000000001
 12
1.0
 22
0.0
 32
0.0
 13
1.0
 23
0.0
 33
0.0
 40
0.0
 40
0.0
 40
0.0
 40
0.0
 40
1.0
 40
1.0
 40
1.0
 40
2.0
 40
2.0
 40
2.0
 40
3.0
 40
3.0
 40
3.0
 40
4.0
 40
4.0
 40
4.0
 40
4.0
 10
91.79250214719077
 20
-111.3303276631396
 30
0.0
 10
91.52585175663243
 20
-111.3303276631396
 30
0.0
 10
91.47624238164484
 20
-111.6138590215757
 30
0.0
 10
91.47624238164484
 20
-111.9587130796492
 30
0.0
 10
91.47624238164484
 20
-112.2780734311319
 30
0.0
 10
91.5144829415311
 20
-112.5867539866103
 30
0.0
 10
91.79250214719077
 20
-112.5867539866103
 30
0.0
 10
92.05708548045796
 20
-112.5867539866103
 30
0.0
 10
92.10910642228522
 20
-112.3056341950139
 30
0.0
 10
92.10910642228522
 20
-111.9587130796492
 30
0.0
 10
92.10910642228522
 20
-111.639008218618
 30
0.0
 10
92.06845429555928
 20
-111.3303276631396
 30
0.0
 10
91.79250214719077
 20
-111.3303276631396
 30
0.0
  0
HATCH
  5
117
330
FC
100
AcDbEntity
  8
_U+30EC_U+30A4_U+30E4_U+30FC 1
 62
   179
420
  2234388
100
AcDbHatch
 10
0.0
 20
0.0
 30
0.0
210
0.0
220
0.0
230
1.0
  2
SOLID
 70
     1
 71
     0
 91
        2
 92
        1
 93
        1
 72
     4
 94
        3
 73
     0
 74
     1
 95
       29
 96
       25
 40
0.0
 40
0.0
 40
0.0
 40
0.0
 40
1.0
 40
1.0
 40
1.0
 40
2.0
 40
2.0
 40
2.0
 40
3.0
 40
3.0
 40
3.0
 40
4.0
 40
4.0
 40
4.0
 40
5.0
 40
5.0
 40
5.0
 40
6.0
 40
6.0
 40
6.0
 40
7.0
 40
7.0
 40
7.0
 40
8.0
 40
8.0
 40
8.0
 40
8.0
 10
92.2176269300706
 20
-112.5529920508548
 10
92.10221623131473
 20
-112.762453856358
 10
91.91687009420829
 20
-112.7814018815269
 10
91.79250214719077
 20
-112.7814018815269
 10
91.62093639202533
 20
-112.7814018815269
 10
91.46935219067433
 20
-112.734893092476
 10
91.36772187385947
 20
-112.5529920508548
 10
91.25678979923441
 20
-112.3583441559382
 10
91.23646373587144
 20
-112.121321586553
 10
91.23646373587144
 20
-111.9587130796492
 10
91.23646373587144
 20
-111.8147080883658
 10
91.25437823239474
 20
-111.562871608394
 10
91.36772187385947
 20
-111.3640895988951
 10
91.4827880630668
 20
-111.1611734748139
 10
91.65469832778078
 20
-111.1377468255142
 10
91.79250214719077
 20
-111.1377468255142
 10
91.96234535461359
 20
-111.1377468255142
 10
92.11599661325573
 20
-111.1821885572739
 10
92.2176269300706
 20
-111.3640895988951
 10
92.32408038056482
 20
-111.5566704365206
 10
92.34888506805862
 20
-111.7850802671926
 10
92.34888506805862
 20
-111.9587130796492
 10
92.34888506805862
 20
-112.1299343252661
 10
92.32614743785597
 20
-112.3604112132293
 10
92.2176269300706
 20
-112.5529920508548
 97
        0
 97
        0
 92
        1
 93
        1
 72
     4
 94
        3
 73
     0
 74
     1
 95
       17
 96
       13
 40
0.0
 40
0.0
 40
0.0
 40
0.0
 40
1.0
 40
1.0
 40
1.0
 40
2.0
 40
2.0
 40
2.0
 40
3.0
 40
3.0
 40
3.0
 40
4.0
 40
4.0
 40
4.0
 40
4.0
 10
91.79250214719077
 20
-111.3303276631396
 10
91.52585175663243
 20
-111.3303276631396
 10
91.47624238164484
 20
-111.6138590215757
 10
91.47624238164484
 20
-111.9587130796492
 10
91.47624238164484
 20
-112.2780734311319
 10
91.5144829415311
 20
-112.5867539866103
 10
91.79250214719077
 20
-112.5867539866103
 10
92.05708548045796
 20
-112.5867539866103
 10
92.10910642228522
 20
-112.3056341950139
 10
92.10910642228522
 20
-111.9587130796492
 10
92.10910642228522
 20
-111.639008218618
 10
92.06845429555928
 20
-111.3303276631396
 10
91.79250214719077
 20
-111.3303276631396
 97
        0
 97
        0
 75
     2
 76
     1
 98
        0
  0
ENDBLK
  5
FF
330
FC
100
AcDbEntity
  8
0
100
AcDbBlockEnd
  0
BLOCK
  5
11A
330
118
100
AcDbEntity
  8
0
100
AcDbBlockBegin
  2
block 7
 70
     0
 10
0.0
 20
0.0
 30
0.0
  3
block 7
  1

  0
SPLINE
  5
11C
330
118
100
AcDbEntity
  8
_U+30EC_U+30A4_U+30E4_U+30FC 1
370
     0
100
AcDbSpline
210
0.0
220
0.0
230
1.0
 70
    11
 71
     3
 72
    26
 73
    22
 74
     0
 42
0.0000000001
 43
0.0000000001
 12
1.0
 22
0.0
 32
0.0
 13
1.0
 23
0.0
 33
0.0
 40
0.0
 40
0.0
 40
0.0
 40
0.0
 40
1.0
 40
1.0
 40
1.0
 40
2.0
 40
2.0
 40
2.0
 40
3.0
 40
3.0
 40
3.0
 40
4.0
 40
4.0
 40
4.0
 40
5.0
 40
5.0
 40
5.0
 40
6.0
 40
6.0
 40
6.0
 40
7.0
 40
7.0
 40
7.0
 40
7.0
 10
117.6286512292734
 20
-132.9944661125847
 30
0.0
 10
117.6286512292734
 20
-132.9944661125847
 30
0.0
 10
116.5241536167023
 20
-132.9944661125847
 30
0.0
 10
116.5241536167023
 20
-132.9944661125847
 30
0.0
 10
116.5241536167023
 20
-132.9944661125847
 30
0.0
 10
116.5241536167023
 20
-133.3472438902743
 30
0.0
 10
116.5241536167023
 20
-133.3472438902743
 30
0.0
 10
116.5241536167023
 20
-133.3472438902743
 30
0.0
 10
116.3760145108366
 20
-133.3472438902743
 30
0.0
 10
116.3760145108366
 20
-133.3472438902743
 30
0.0
 10
116.3615451097985
 20
-132.9923990552936
 30
0.0
 10
116.1982475837977
 20
-132.942789680306
 30
0.0
 10
116.0842149232359
 20
-132.9110948018417
 30
0.0
 10
116.0842149232359
 20
-132.9110948018417
 30
0.0
 10
116.0842149232359
 20
-132.7550319763598
 30
0.0
 10
116.0842149232359
 20
-132.7550319763598
 30
0.0
 10
116.0842149232359
 20
-132.7550319763598
 30
0.0
 10
117.6286512292734
 20
-132.7550319763598
 30
0.0
 10
117.6286512292734
 20
-132.7550319763598
 30
0.0
 10
117.6286512292734
 20
-132.7550319763598
 30
0.0
 10
117.6286512292734
 20
-132.9944661125847
 30
0.0
 10
117.6286512292734
 20
-132.9944661125847
 30
0.0
  0
HATCH
  5
11D
330
118
100
AcDbEntity
  8
_U+30EC_U+30A4_U+30E4_U+30FC 1
 62
   179
420
  2234388
100
AcDbHatch
 10
0.0
 20
0.0
 30
0.0
210
0.0
220
0.0
230
1.0
  2
SOLID
 70
     1
 71
     0
 91
        1
 92
        1
 93
        1
 72
     4
 94
        3
 73
     0
 74
     1
 95
       26
 96
       22
 40
0.0
 40
0.0
 40
0.0
 40
0.0
 40
1.0
 40
1.0
 40
1.0
 40
2.0
 40
2.0
 40
2.0
 40
3.0
 40
3.0
 40
3.0
 40
4.0
 40
4.0
 40
4.0
 40
5.0
 40
5.0
 40
5.0
 40
6.0
 40
6.0
 40
6.0
 40
7.0
 40
7.0
 40
7.0
 40
7.0
 10
117.6286512292734
 20
-132.9944661125847
 10
117.6286512292734
 20
-132.9944661125847
 10
116.5241536167023
 20
-132.9944661125847
 10
116.5241536167023
 20
-132.9944661125847
 10
116.5241536167023
 20
-132.9944661125847
 10
116.5241536167023
 20
-133.3472438902743
 10
116.5241536167023
 20
-133.3472438902743
 10
116.5241536167023
 20
-133.3472438902743
 10
116.3760145108366
 20
-133.3472438902743
 10
116.3760145108366
 20
-133.3472438902743
 10
116.3615451097985
 20
-132.9923990552936
 10
116.1982475837977
 20
-132.942789680306
 10
116.0842149232359
 20
-132.9110948018417
 10
116.0842149232359
 20
-132.9110948018417
 10
116.0842149232359
 20
-132.7550319763598
 10
116.0842149232359
 20
-132.7550319763598
 10
116.0842149232359
 20
-132.7550319763598
 10
117.6286512292734
 20
-132.7550319763598
 10
117.6286512292734
 20
-132.7550319763598
 10
117.6286512292734
 20
-132.7550319763598
 10
117.6286512292734
 20
-132.9944661125847
 10
117.6286512292734
 20
-132.9944661125847
 97
        0
 97
        0
 75
     2
 76
     1
 98
        0
  0
SPLINE
  5
11E
330
118
100
AcDbEntity
  8
_U+30EC_U+30A4_U+30E4_U+30FC 1
370
     0
100
AcDbSpline
210
0.0
220
0.0
230
1.0
 70
    11
 71
     3
 72
    62
 73
    58
 74
     0
 42
0.0000000001
 43
0.0000000001
 12
1.0
 22
0.0
 32
0.0
 13
1.0
 23
0.0
 33
0.0
 40
0.0
 40
0.0
 40
0.0
 40
0.0
 40
1.0
 40
1.0
 40
1.0
 40
2.0
 40
2.0
 40
2.0
 40
3.0
 40
3.0
 40
3.0
 40
4.0
 40
4.0
 40
4.0
 40
5.0
 40
5.0
 40
5.0
 40
6.0
 40
6.0
 40
6.0
 40
7.0
 40
7.0
 40
7.0
 40
8.0
 40
8.0
 40
8.0
 40
9.0
 40
9.0
 40
9.0
 40
10.0
 40
10.0
 40
10.0
 40
11.0
 40
11.0
 40
11.0
 40
12.0
 40
12.0
 40
12.0
 40
13.0
 40
13.0
 40
13.0
 40
14.0
 40
14.0
 40
14.0
 40
15.0
 40
15.0
 40
15.0
 40
16.0
 40
16.0
 40
16.0
 40
17.0
 40
17.0
 40
17.0
 40
18.0
 40
18.0
 40
18.0
 40
19.0
 40
19.0
 40
19.0
 40
19.0
 10
117.6792941329066
 20
-131.6939425669029
 30
0.0
 10
117.6792941329066
 20
-131.7955728837178
 30
0.0
 10
117.6582790504466
 20
-132.0284613385207
 30
0.0
 10
117.4718993846945
 20
-132.1621310433484
 30
0.0
 10
117.3599337814239
 20
-132.2410237299606
 30
0.0
 10
117.2603705219002
 20
-132.2455023540914
 30
0.0
 10
117.1759656825116
 20
-132.2499809782222
 30
0.0
 10
117.1759656825116
 20
-132.2499809782222
 30
0.0
 10
117.1759656825116
 20
-132.0150254661282
 30
0.0
 10
117.1759656825116
 20
-132.0150254661282
 30
0.0
 10
117.2496907258959
 20
-132.0126138992885
 30
0.0
 10
117.4846462379899
 20
-132.0015895937357
 30
0.0
 10
117.4846462379899
 20
-131.6984211910337
 30
0.0
 10
117.4846462379899
 20
-131.5516601233621
 30
0.0
 10
117.4150553091879
 20
-131.3887071069098
 30
0.0
 10
117.1863009689673
 20
-131.3887071069098
 30
0.0
 10
117.0698567415659
 20
-131.3887071069098
 30
0.0
 10
117.0212808952239
 20
-131.4293592336357
 30
0.0
 10
116.9895860167596
 20
-131.4634656789397
 30
0.0
 10
116.9155164638267
 20
-131.5423583655519
 30
0.0
 10
116.9031141200798
 20
-131.6667263125694
 30
0.0
 10
116.9031141200798
 20
-131.7256374453672
 30
0.0
 10
116.9031141200798
 20
-131.7459635087302
 30
0.0
 10
116.9051811773709
 20
-131.784548578165
 30
0.0
 10
116.9093152919532
 20
-131.8134873802411
 30
0.0
 10
116.9093152919532
 20
-131.8134873802411
 30
0.0
 10
116.7146673970366
 20
-131.8134873802411
 30
0.0
 10
116.7146673970366
 20
-131.8134873802411
 30
0.0
 10
116.7208685689101
 20
-131.7728352535151
 30
0.0
 10
116.7232801357497
 20
-131.7280490122069
 30
0.0
 10
116.7232801357497
 20
-131.7211588212364
 30
0.0
 10
116.7232801357497
 20
-131.6508788733373
 30
0.0
 10
116.7019205437412
 20
-131.4386609914459
 30
0.0
 10
116.464897974356
 20
-131.4386609914459
 30
0.0
 10
116.2871310473171
 20
-131.4386609914459
 30
0.0
 10
116.2320095195531
 20
-131.5785318681471
 30
0.0
 10
116.2320095195531
 20
-131.6963541337426
 30
0.0
 10
116.2320095195531
 20
-131.9788519635331
 30
0.0
 10
116.464897974356
 20
-131.9878092117947
 30
0.0
 10
116.5369004699977
 20
-131.9922878359255
 30
0.0
 10
116.5369004699977
 20
-131.9922878359255
 30
0.0
 10
116.5369004699977
 20
-132.2093288514963
 30
0.0
 10
116.5369004699977
 20
-132.2093288514963
 30
0.0
 10
116.4118435038832
 20
-132.2003716032346
 30
0.0
 10
116.0356390768939
 20
-132.17108829161
 30
0.0
 10
116.0356390768939
 20
-131.6825737518016
 30
0.0
 10
116.0356390768939
 20
-131.4427951060282
 30
0.0
 10
116.1624185907511
 20
-131.1851019637315
 30
0.0
 10
116.4586968024825
 20
-131.1851019637315
 30
0.0
 10
116.6447319586861
 20
-131.1851019637315
 30
0.0
 10
116.727414250332
 20
-131.2870767900949
 30
0.0
 10
116.7887369499695
 20
-131.3931857310406
 30
0.0
 10
116.8162977138515
 20
-131.3277289168209
 30
0.0
 10
116.8965684386578
 20
-131.1334255314528
 30
0.0
 10
117.1738986252204
 20
-131.1334255314528
 30
0.0
 10
117.512207001872
 20
-131.1334255314528
 30
0.0
 10
117.6792941329066
 20
-131.3976643551714
 30
0.0
 10
117.6792941329066
 20
-131.6939425669029
 30
0.0
  0
HATCH
  5
11F
330
118
100
AcDbEntity
  8
_U+30EC_U+30A4_U+30E4_U+30FC 1
 62
   179
420
  2234388
100
AcDbHatch
 10
0.0
 20
0.0
 30
0.0
210
0.0
220
0.0
230
1.0
  2
SOLID
 70
     1
 71
     0
 91
        1
 92
        1
 93
        1
 72
     4
 94
        3
 73
     0
 74
     1
 95
       62
 96
       58
 40
0.0
 40
0.0
 40
0.0
 40
0.0
 40
1.0
 40
1.0
 40
1.0
 40
2.0
 40
2.0
 40
2.0
 40
3.0
 40
3.0
 40
3.0
 40
4.0
 40
4.0
 40
4.0
 40
5.0
 40
5.0
 40
5.0
 40
6.0
 40
6.0
 40
6.0
 40
7.0
 40
7.0
 40
7.0
 40
8.0
 40
8.0
 40
8.0
 40
9.0
 40
9.0
 40
9.0
 40
10.0
 40
10.0
 40
10.0
 40
11.0
 40
11.0
 40
11.0
 40
12.0
 40
12.0
 40
12.0
 40
13.0
 40
13.0
 40
13.0
 40
14.0
 40
14.0
 40
14.0
 40
15.0
 40
15.0
 40
15.0
 40
16.0
 40
16.0
 40
16.0
 40
17.0
 40
17.0
 40
17.0
 40
18.0
 40
18.0
 40
18.0
 40
19.0
 40
19.0
 40
19.0
 40
19.0
 10
117.6792941329066
 20
-131.6939425669029
 10
117.6792941329066
 20
-131.7955728837178
 10
117.6582790504466
 20
-132.0284613385207
 10
117.4718993846945
 20
-132.1621310433484
 10
117.3599337814239
 20
-132.2410237299606
 10
117.2603705219002
 20
-132.2455023540914
 10
117.1759656825116
 20
-132.2499809782222
 10
117.1759656825116
 20
-132.2499809782222
 10
117.1759656825116
 20
-132.0150254661282
 10
117.1759656825116
 20
-132.0150254661282
 10
117.2496907258959
 20
-132.0126138992885
 10
117.4846462379899
 20
-132.0015895937357
 10
117.4846462379899
 20
-131.6984211910337
 10
117.4846462379899
 20
-131.5516601233621
 10
117.4150553091879
 20
-131.3887071069098
 10
117.1863009689673
 20
-131.3887071069098
 10
117.0698567415659
 20
-131.3887071069098
 10
117.0212808952239
 20
-131.4293592336357
 10
116.9895860167596
 20
-131.4634656789397
 10
116.9155164638267
 20
-131.5423583655519
 10
116.9031141200798
 20
-131.6667263125694
 10
116.9031141200798
 20
-131.7256374453672
 10
116.9031141200798
 20
-131.7459635087302
 10
116.9051811773709
 20
-131.784548578165
 10
116.9093152919532
 20
-131.8134873802411
 10
116.9093152919532
 20
-131.8134873802411
 10
116.7146673970366
 20
-131.8134873802411
 10
116.7146673970366
 20
-131.8134873802411
 10
116.7208685689101
 20
-131.7728352535151
 10
116.7232801357497
 20
-131.7280490122069
 10
116.7232801357497
 20
-131.7211588212364
 10
116.7232801357497
 20
-131.6508788733373
 10
116.7019205437412
 20
-131.4386609914459
 10
116.464897974356
 20
-131.4386609914459
 10
116.2871310473171
 20
-131.4386609914459
 10
116.2320095195531
 20
-131.5785318681471
 10
116.2320095195531
 20
-131.6963541337426
 10
116.2320095195531
 20
-131.9788519635331
 10
116.464897974356
 20
-131.9878092117947
 10
116.5369004699977
 20
-131.9922878359255
 10
116.5369004699977
 20
-131.9922878359255
 10
116.5369004699977
 20
-132.2093288514963
 10
116.5369004699977
 20
-132.2093288514963
 10
116.4118435038832
 20
-132.2003716032346
 10
116.0356390768939
 20
-132.17108829161
 10
116.0356390768939
 20
-131.6825737518016
 10
116.0356390768939
 20
-131.4427951060282
 10
116.1624185907511
 20
-131.1851019637315
 10
116.4586968024825
 20
-131.1851019637315
 10
116.6447319586861
 20
-131.1851019637315
 10
116.727414250332
 20
-131.2870767900949
 10
116.7887369499695
 20
-131.3931857310406
 10
116.8162977138515
 20
-131.3277289168209
 10
116.8965684386578
 20
-131.1334255314528
 10
117.1738986252204
 20
-131.1334255314528
 10
117.512207001872
 20
-131.1334255314528
 10
117.6792941329066
 20
-131.3976643551714
 10
117.6792941329066
 20
-131.6939425669029
 97
        0
 97
        0
 75
     2
 76
     1
 98
        0
  0
ENDBLK
  5
11B
330
118
100
AcDbEntity
  8
0
100
AcDbBlockEnd
  0
BLOCK
  5
122
330
120
100
AcDbEntity
  8
0
100
AcDbBlockBegin
  2
block 8
 70
     0
 10
0.0
 20
0.0
 30
0.0
  3
block 8
  1

  0
SPLINE
  5
124
330
120
100
AcDbEntity
  8
_U+30EC_U+30A4_U+30E4_U+30FC 1
370
     0
100
AcDbSpline
210
0.0
220
0.0
230
1.0
 70
    11
 71
     3
 72
    44
 73
    40
 74
     0
 42
0.0000000001
 43
0.0000000001
 12
1.0
 22
0.0
 32
0.0
 13
1.0
 23
0.0
 33
0.0
 40
0.0
 40
0.0
 40
0.0
 40
0.0
 40
1.0
 40
1.0
 40
1.0
 40
2.0
 40
2.0
 40
2.0
 40
3.0
 40
3.0
 40
3.0
 40
4.0
 40
4.0
 40
4.0
 40
5.0
 40
5.0
 40
5.0
 40
6.0
 40
6.0
 40
6.0
 40
7.0
 40
7.0
 40
7.0
 40
8.0
 40
8.0
 40
8.0
 40
9.0
 40
9.0
 40
9.0
 40
10.0
 40
10.0
 40
10.0
 40
11.0
 40
11.0
 40
11.0
 40
12.0
 40
12.0
 40
12.0
 40
13.0
 40
13.0
 40
13.0
 40
13.0
 10
65.40169269198292
 20
-130.3486327799129
 30
0.0
 10
65.56051159385294
 20
-130.5815212347157
 30
0.0
 10
65.6345811467858
 20
-130.6810844942395
 30
0.0
 10
65.77824162852072
 20
-130.7331054360667
 30
0.0
 10
65.77824162852072
 20
-130.7331054360667
 30
0.0
 10
65.77824162852072
 20
-129.9007703668304
 30
0.0
 10
65.77824162852072
 20
-129.9007703668304
 30
0.0
 10
65.77824162852072
 20
-129.9007703668304
 30
0.0
 10
65.98356931944161
 20
-129.9007703668304
 30
0.0
 10
65.98356931944161
 20
-129.9007703668304
 30
0.0
 10
65.98356931944161
 20
-129.9007703668304
 30
0.0
 10
65.98356931944161
 20
-130.9997558266251
 30
0.0
 10
65.98356931944161
 20
-130.9997558266251
 30
0.0
 10
65.62596840807268
 20
-130.9659938908696
 30
0.0
 10
65.54776474055751
 20
-130.8957139429705
 30
0.0
 10
65.24941947153486
 20
-130.4843695420317
 30
0.0
 10
65.05063746203595
 20
-130.2108289605029
 30
0.0
 10
64.98276908097654
 20
-130.1405490126038
 30
0.0
 10
64.84530977111507
 20
-130.1405490126038
 30
0.0
 10
64.72679848642247
 20
-130.1405490126038
 30
0.0
 10
64.59588485798298
 20
-130.2173746419248
 30
0.0
 10
64.59588485798298
 20
-130.4278699760736
 30
0.0
 10
64.59588485798298
 20
-130.7058891817333
 30
0.0
 10
64.82636174594619
 20
-130.7148464299949
 30
0.0
 10
64.94280597334763
 20
-130.7193250541257
 30
0.0
 10
64.94280597334763
 20
-130.7193250541257
 30
0.0
 10
64.94280597334763
 20
-130.9591036998991
 30
0.0
 10
64.94280597334763
 20
-130.9591036998991
 30
0.0
 10
64.81568194994192
 20
-130.9501464516375
 30
0.0
 10
64.7037163466713
 20
-130.9384331269876
 30
0.0
 10
64.5852050619787
 20
-130.8529947589534
 30
0.0
 10
64.42431910281753
 20
-130.7351724933579
 30
0.0
 10
64.39055716706208
 20
-130.536390483859
 30
0.0
 10
64.39055716706208
 20
-130.4120225368414
 30
0.0
 10
64.39055716706208
 20
-130.11574432511
 30
0.0
 10
64.57452526597443
 20
-129.8942246854084
 30
0.0
 10
64.84737682840621
 20
-129.8942246854084
 30
0.0
 10
65.0761311686268
 20
-129.8942246854084
 30
0.0
 10
65.175349918602
 20
-130.0185926324259
 30
0.0
 10
65.40169269198292
 20
-130.3486327799129
 30
0.0
  0
HATCH
  5
125
330
120
100
AcDbEntity
  8
_U+30EC_U+30A4_U+30E4_U+30FC 1
 62
   179
420
  2234388
100
AcDbHatch
 10
0.0
 20
0.0
 30
0.0
210
0.0
220
0.0
230
1.0
  2
SOLID
 70
     1
 71
     0
 91
        1
 92
        1
 93
        1
 72
     4
 94
        3
 73
     0
 74
     1
 95
       44
 96
       40
 40
0.0
 40
0.0
 40
0.0
 40
0.0
 40
1.0
 40
1.0
 40
1.0
 40
2.0
 40
2.0
 40
2.0
 40
3.0
 40
3.0
 40
3.0
 40
4.0
 40
4.0
 40
4.0
 40
5.0
 40
5.0
 40
5.0
 40
6.0
 40
6.0
 40
6.0
 40
7.0
 40
7.0
 40
7.0
 40
8.0
 40
8.0
 40
8.0
 40
9.0
 40
9.0
 40
9.0
 40
10.0
 40
10.0
 40
10.0
 40
11.0
 40
11.0
 40
11.0
 40
12.0
 40
12.0
 40
12.0
 40
13.0
 40
13.0
 40
13.0
 40
13.0
 10
65.40169269198292
 20
-130.3486327799129
 10
65.56051159385294
 20
-130.5815212347157
 10
65.6345811467858
 20
-130.6810844942395
 10
65.77824162852072
 20
-130.7331054360667
 10
65.77824162852072
 20
-130.7331054360667
 10
65.77824162852072
 20
-129.9007703668304
 10
65.77824162852072
 20
-129.9007703668304
 10
65.77824162852072
 20
-129.9007703668304
 10
65.98356931944161
 20
-129.9007703668304
 10
65.98356931944161
 20
-129.9007703668304
 10
65.98356931944161
 20
-129.9007703668304
 10
65.98356931944161
 20
-130.9997558266251
 10
65.98356931944161
 20
-130.9997558266251
 10
65.62596840807268
 20
-130.9659938908696
 10
65.54776474055751
 20
-130.8957139429705
 10
65.24941947153486
 20
-130.4843695420317
 10
65.05063746203595
 20
-130.2108289605029
 10
64.98276908097654
 20
-130.1405490126038
 10
64.84530977111507
 20
-130.1405490126038
 10
64.72679848642247
 20
-130.1405490126038
 10
64.59588485798298
 20
-130.2173746419248
 10
64.59588485798298
 20
-130.4278699760736
 10
64.59588485798298
 20
-130.7058891817333
 10
64.82636174594619
 20
-130.7148464299949
 10
64.94280597334763
 20
-130.7193250541257
 10
64.94280597334763
 20
-130.7193250541257
 10
64.94280597334763
 20
-130.9591036998991
 10
64.94280597334763
 20
-130.9591036998991
 10
64.81568194994192
 20
-130.9501464516375
 10
64.7037163466713
 20
-130.9384331269876
 10
64.5852050619787
 20
-130.8529947589534
 10
64.42431910281753
 20
-130.7351724933579
 10
64.39055716706208
 20
-130.536390483859
 10
64.39055716706208
 20
-130.4120225368414
 10
64.39055716706208
 20
-130.11574432511
 10
64.57452526597443
 20
-129.8942246854084
 10
64.84737682840621
 20
-129.8942246854084
 10
65.0761311686268
 20
-129.8942246854084
 10
65.175349918602
 20
-130.0185926324259
 10
65.40169269198292
 20
-130.3486327799129
 97
        0
 97
        0
 75
     2
 76
     1
 98
        0
  0
POLYLINE
  5
126
330
120
100
AcDbEntity
  8
_U+30EC_U+30A4_U+30E4_U+30FC 1
370
     0
100
AcDb2dPolyline
 66
     1
 10
0.0
 20
0.0
 30
0.0
  0
VERTEX
  5
127
330
126
100
AcDbEntity
  8
_U+30EC_U+30A4_U+30E4_U+30FC 1
370
     0
100
AcDbVertex
100
AcDb2dVertex
 10
65.63664820407695
 20
-128.8352023332426
 30
0.0
  0
VERTEX
  5
128
330
126
100
AcDbEntity
  8
_U+30EC_U+30A4_U+30E4_U+30FC 1
370
     0
100
AcDbVertex
100
AcDb2dVertex
 10
65.98356931944161
 20
-128.8352023332426
 30
0.0
  0
VERTEX
  5
129
330
126
100
AcDbEntity
  8
_U+30EC_U+30A4_U+30E4_U+30FC 1
370
     0
100
AcDbVertex
100
AcDb2dVertex
 10
65.98356931944161
 20
-129.0680907880455
 30
0.0
  0
VERTEX
  5
12A
330
126
100
AcDbEntity
  8
_U+30EC_U+30A4_U+30E4_U+30FC 1
370
     0
100
AcDbVertex
100
AcDb2dVertex
 10
65.63664820407695
 20
-129.0680907880455
 30
0.0
  0
VERTEX
  5
12B
330
126
100
AcDbEntity
  8
_U+30EC_U+30A4_U+30E4_U+30FC 1
370
     0
100
AcDbVertex
100
AcDb2dVertex
 10
65.63664820407695
 20
-129.7691677192938
 30
0.0
  0
VERTEX
  5
12C
330
126
100
AcDbEntity
  8
_U+30EC_U+30A4_U+30E4_U+30FC 1
370
     0
100
AcDbVertex
100
AcDb2dVertex
 10
65.41237248798718
 20
-129.7691677192938
 30
0.0
  0
VERTEX
  5
12D
330
126
100
AcDbEntity
  8
_U+30EC_U+30A4_U+30E4_U+30FC 1
370
     0
100
AcDbVertex
100
AcDb2dVertex
 10
64.4391330134041
 20
-129.0432861005517
 30
0.0
  0
VERTEX
  5
12E
330
126
100
AcDbEntity
  8
_U+30EC_U+30A4_U+30E4_U+30FC 1
370
     0
100
AcDbVertex
100
AcDb2dVertex
 10
64.4391330134041
 20
-128.8352023332426
 30
0.0
  0
VERTEX
  5
12F
330
126
100
AcDbEntity
  8
_U+30EC_U+30A4_U+30E4_U+30FC 1
370
     0
100
AcDbVertex
100
AcDb2dVertex
 10
65.43786619457804
 20
-128.8352023332426
 30
0.0
  0
VERTEX
  5
130
330
126
100
AcDbEntity
  8
_U+30EC_U+30A4_U+30E4_U+30FC 1
370
     0
100
AcDbVertex
100
AcDb2dVertex
 10
65.43786619457804
 20
-128.613682693541
 30
0.0
  0
VERTEX
  5
131
330
126
100
AcDbEntity
  8
_U+30EC_U+30A4_U+30E4_U+30FC 1
370
     0
100
AcDbVertex
100
AcDb2dVertex
 10
65.63664820407695
 20
-128.613682693541
 30
0.0
  0
VERTEX
  5
132
330
126
100
AcDbEntity
  8
_U+30EC_U+30A4_U+30E4_U+30FC 1
370
     0
100
AcDbVertex
100
AcDb2dVertex
 10
65.63664820407695
 20
-128.8352023332426
 30
0.0
  0
SEQEND
  5
133
330
126
100
AcDbEntity
  8
_U+30EC_U+30A4_U+30E4_U+30FC 1
370
     0
  0
POLYLINE
  5
134
330
120
100
AcDbEntity
  8
_U+30EC_U+30A4_U+30E4_U+30FC 1
370
     0
100
AcDb2dPolyline
 66
     1
 10
0.0
 20
0.0
 30
0.0
  0
VERTEX
  5
135
330
134
100
AcDbEntity
  8
_U+30EC_U+30A4_U+30E4_U+30FC 1
370
     0
100
AcDbVertex
100
AcDb2dVertex
 10
64.78192001418647
 20
-129.0680907880455
 30
0.0
  0
VERTEX
  5
136
330
134
100
AcDbEntity
  8
_U+30EC_U+30A4_U+30E4_U+30FC 1
370
     0
100
AcDbVertex
100
AcDb2dVertex
 10
65.43786619457804
 20
-129.5566053278539
 30
0.0
  0
VERTEX
  5
137
330
134
100
AcDbEntity
  8
_U+30EC_U+30A4_U+30E4_U+30FC 1
370
     0
100
AcDbVertex
100
AcDb2dVertex
 10
65.43786619457804
 20
-129.0680907880455
 30
0.0
  0
VERTEX
  5
138
330
134
100
AcDbEntity
  8
_U+30EC_U+30A4_U+30E4_U+30FC 1
370
     0
100
AcDbVertex
100
AcDb2dVertex
 10
64.78192001418647
 20
-129.0680907880455
 30
0.0
  0
SEQEND
  5
139
330
134
100
AcDbEntity
  8
_U+30EC_U+30A4_U+30E4_U+30FC 1
370
     0
  0
HATCH
  5
13A
330
120
100
AcDbEntity
  8
_U+30EC_U+30A4_U+30E4_U+30FC 1
 62
   179
420
  2234388
100
AcDbHatch
 10
0.0
 20
0.0
 30
0.0
210
0.0
220
0.0
230
1.0
  2
SOLID
 70
     1
 71
     0
 91
        2
 92
        1
 93
       11
 72
     1
 10
65.63664820407695
 20
-128.8352023332426
 11
65.98356931944161
 21
-128.8352023332426
 72
     1
 10
65.98356931944161
 20
-128.8352023332426
 11
65.98356931944161
 21
-129.0680907880455
 72
     1
 10
65.98356931944161
 20
-129.0680907880455
 11
65.63664820407695
 21
-129.0680907880455
 72
     1
 10
65.63664820407695
 20
-129.0680907880455
 11
65.63664820407695
 21
-129.7691677192938
 72
     1
 10
65.63664820407695
 20
-129.7691677192938
 11
65.41237248798718
 21
-129.7691677192938
 72
     1
 10
65.41237248798718
 20
-129.7691677192938
 11
64.4391330134041
 21
-129.0432861005517
 72
     1
 10
64.4391330134041
 20
-129.0432861005517
 11
64.4391330134041
 21
-128.8352023332426
 72
     1
 10
64.4391330134041
 20
-128.8352023332426
 11
65.43786619457804
 21
-128.8352023332426
 72
     1
 10
65.43786619457804
 20
-128.8352023332426
 11
65.43786619457804
 21
-128.613682693541
 72
     1
 10
65.43786619457804
 20
-128.613682693541
 11
65.63664820407695
 21
-128.613682693541
 72
     1
 10
65.63664820407695
 20
-128.613682693541
 11
65.63664820407695
 21
-128.8352023332426
 97
        0
 92
        1
 93
        3
 72
     1
 10
64.78192001418647
 20
-129.0680907880455
 11
65.43786619457804
 21
-129.5566053278539
 72
     1
 10
65.43786619457804
 20
-129.5566053278539
 11
65.43786619457804
 21
-129.0680907880455
 72
     1
 10
65.43786619457804
 20
-129.0680907880455
 11
64.78192001418647
 21
-129.0680907880455
 97
        0
 75
     2
 76
     1
 98
        0
  0
ENDBLK
  5
123
330
120
100
AcDbEntity
  8
0
100
AcDbBlockEnd
  0
ENDSEC
  0
SECTION
  2
ENTITIES
  0
SPLINE
  5
41
330
1F
100
AcDbEntity
  8
_U+30EC_U+30A4_U+30E4_U+30FC 1
 62
   179
420
  2234388
370
     9
100
AcDbSpline
210
0.0
220
0.0
230
1.0
 70
    11
 71
     3
 72
    17
 73
    13
 74
     0
 42
0.0000000001
 43
0.0000000001
 12
1.0
 22
0.0
 32
0.0
 13
1.0
 23
0.0
 33
0.0
 40
0.0
 40
0.0
 40
0.0
 40
0.0
 40
1.0
 40
1.0
 40
1.0
 40
2.0
 40
2.0
 40
2.0
 40
3.0
 40
3.0
 40
3.0
 40
4.0
 40
4.0
 40
4.0
 40
4.0
 10
71.15104442665672
 20
-111.5046594165684
 30
0.0
 10
71.20685207225074
 20
-111.5046594165684
 30
0.0
 10
71.25161957110863
 20
-111.549426916557
 30
0.0
 10
71.25161957110863
 20
-111.6045660832101
 30
0.0
 10
71.25161957110863
 20
-111.659669972085
 30
0.0
 10
71.20685207225074
 20
-111.7044727498517
 30
0.0
 10
71.15104442665672
 20
-111.7044727498517
 30
0.0
 10
71.09590346397017
 20
-111.7044727498517
 30
0.0
 10
71.05113596511228
 20
-111.659669972085
 30
0.0
 10
71.05113596511228
 20
-111.6045660832101
 30
0.0
 10
71.05113596511228
 20
-111.549426916557
 30
0.0
 10
71.09590346397017
 20
-111.5046594165684
 30
0.0
 10
71.15104442665672
 20
-111.5046594165684
 30
0.0
  0
SPLINE
  5
42
330
1F
100
AcDbEntity
  8
_U+30EC_U+30A4_U+30E4_U+30FC 1
 62
   179
420
  2234388
370
     9
100
AcDbSpline
210
0.0
220
0.0
230
1.0
 70
    11
 71
     3
 72
    17
 73
    13
 74
     0
 42
0.0000000001
 43
0.0000000001
 12
1.0
 22
0.0
 32
0.0
 13
1.0
 23
0.0
 33
0.0
 40
0.0
 40
0.0
 40
0.0
 40
0.0
 40
1.0
 40
1.0
 40
1.0
 40
2.0
 40
2.0
 40
2.0
 40
3.0
 40
3.0
 40
3.0
 40
4.0
 40
4.0
 40
4.0
 40
4.0
 10
74.32604442586297
 20
-111.4047527499265
 30
0.0
 10
74.38185199124975
 20
-111.4047527499265
 30
0.0
 10
74.42661949010764
 20
-111.4488499721377
 30
0.0
 10
74.42661949010764
 20
-111.5046594165684
 30
0.0
 10
74.42661949010764
 20
-111.5597633054434
 30
0.0
 10
74.38185199124975
 20
-111.6045660832101
 30
0.0
 10
74.32604442586297
 20
-111.6045660832101
 30
0.0
 10
74.27090338296918
 20
-111.6045660832101
 30
0.0
 10
74.22613588411129
 20
-111.5597633054434
 30
0.0
 10
74.22613588411129
 20
-111.5046594165684
 30
0.0
 10
74.22613588411129
 20
-111.4488499721377
 30
0.0
 10
74.27090338296918
 20
-111.4047527499265
 30
0.0
 10
74.32604442586297
 20
-111.4047527499265
 30
0.0
  0
POLYLINE
  5
43
330
1F
100
AcDbEntity
  8
_U+30EC_U+30A4_U+30E4_U+30FC 1
 62
   179
420
  2234388
370
    25
100
AcDb2dPolyline
 66
     1
 10
0.0
 20
0.0
 30
0.0
  0
VERTEX
  5
44
330
43
100
AcDbEntity
  8
_U+30EC_U+30A4_U+30E4_U+30FC 1
 62
   179
420
  2234388
370
    25
100
AcDbVertex
100
AcDb2dVertex
 10
81.16471015153796
 20
-141.8187480201009
 30
0.0
  0
VERTEX
  5
45
330
43
100
AcDbEntity
  8
_U+30EC_U+30A4_U+30E4_U+30FC 1
 62
   179
420
  2234388
370
    25
100
AcDbVertex
100
AcDb2dVertex
 10
71.16413068445178
 20
-141.8187480201009
 30
0.0
  0
SEQEND
  5
46
330
43
100
AcDbEntity
  8
_U+30EC_U+30A4_U+30E4_U+30FC 1
 62
   179
420
  2234388
370
    25
  0
POLYLINE
  5
47
330
1F
100
AcDbEntity
  8
_U+30EC_U+30A4_U+30E4_U+30FC 1
 62
   179
420
  2234388
370
    25
100
AcDb2dPolyline
 66
     1
 10
0.0
 20
0.0
 30
0.0
  0
VERTEX
  5
48
330
47
100
AcDbEntity
  8
_U+30EC_U+30A4_U+30E4_U+30FC 1
 62
   179
420
  2234388
370
    25
100
AcDbVertex
100
AcDb2dVertex
 10
74.16411942590351
 20
-117.8188171927674
 30
0.0
  0
VERTEX
  5
49
330
47
100
AcDbEntity
  8
_U+30EC_U+30A4_U+30E4_U+30FC 1
 62
   179
420
  2234388
370
    25
100
AcDbVertex
100
AcDb2dVertex
 10
71.16413068445178
 20
-117.8188171927674
 30
0.0
  0
SEQEND
  5
4A
330
47
100
AcDbEntity
  8
_U+30EC_U+30A4_U+30E4_U+30FC 1
 62
   179
420
  2234388
370
    25
  0
POLYLINE
  5
4B
330
1F
100
AcDbEntity
  8
_U+30EC_U+30A4_U+30E4_U+30FC 1
 62
   179
420
  2234388
370
    25
100
AcDb2dPolyline
 66
     1
 10
0.0
 20
0.0
 30
0.0
  0
VERTEX
  5
4C
330
4B
100
AcDbEntity
  8
_U+30EC_U+30A4_U+30E4_U+30FC 1
 62
   179
420
  2234388
370
    25
100
AcDbVertex
100
AcDb2dVertex
 10
111.1646141083989
 20
-125.8190058018785
 30
0.0
  0
VERTEX
  5
4D
330
4B
100
AcDbEntity
  8
_U+30EC_U+30A4_U+30E4_U+30FC 1
 62
   179
420
  2234388
370
    25
100
AcDbVertex
100
AcDb2dVertex
 10
111.1646141083989
 20
-124.8192688576841
 30
0.0
  0
SEQEND
  5
4E
330
4B
100
AcDbEntity
  8
_U+30EC_U+30A4_U+30E4_U+30FC 1
 62
   179
420
  2234388
370
    25
  0
POLYLINE
  5
4F
330
1F
100
AcDbEntity
  8
_U+30EC_U+30A4_U+30E4_U+30FC 1
 62
   179
420
  2234388
370
    25
100
AcDb2dPolyline
 66
     1
 10
0.0
 20
0.0
 30
0.0
  0
VERTEX
  5
50
330
4F
100
AcDbEntity
  8
_U+30EC_U+30A4_U+30E4_U+30FC 1
 62
   179
420
  2234388
370
    25
100
AcDbVertex
100
AcDb2dVertex
 10
71.16413068445178
 20
-141.8187480201009
 30
0.0
  0
VERTEX
  5
51
330
4F
100
AcDbEntity
  8
_U+30EC_U+30A4_U+30E4_U+30FC 1
 62
   179
420
  2234388
370
    25
100
AcDbVertex
100
AcDb2dVertex
 10
71.16413068445178
 20
-117.8188171927674
 30
0.0
  0
SEQEND
  5
52
330
4F
100
AcDbEntity
  8
_U+30EC_U+30A4_U+30E4_U+30FC 1
 62
   179
420
  2234388
370
    25
  0
POLYLINE
  5
53
330
1F
100
AcDbEntity
  8
_U+30EC_U+30A4_U+30E4_U+30FC 1
 62
   179
420
  2234388
370
    25
100
AcDb2dPolyline
 66
     1
 10
0.0
 20
0.0
 30
0.0
  0
VERTEX
  5
54
330
53
100
AcDbEntity
  8
_U+30EC_U+30A4_U+30E4_U+30FC 1
 62
   179
420
  2234388
370
    25
100
AcDbVertex
100
AcDb2dVertex
 10
81.16471015153796
 20
-138.8187610764066
 30
0.0
  0
VERTEX
  5
55
330
53
100
AcDbEntity
  8
_U+30EC_U+30A4_U+30E4_U+30FC 1
 62
   179
420
  2234388
370
    25
100
AcDbVertex
100
AcDb2dVertex
 10
78.16454689474516
 20
-138.8187610764066
 30
0.0
  0
SEQEND
  5
56
330
53
100
AcDbEntity
  8
_U+30EC_U+30A4_U+30E4_U+30FC 1
 62
   179
420
  2234388
370
    25
  0
POLYLINE
  5
57
330
1F
100
AcDbEntity
  8
_U+30EC_U+30A4_U+30E4_U+30FC 1
 62
   179
420
  2234388
370
    25
100
AcDb2dPolyline
 66
     1
 10
0.0
 20
0.0
 30
0.0
  0
VERTEX
  5
58
330
57
100
AcDbEntity
  8
_U+30EC_U+30A4_U+30E4_U+30FC 1
 62
   179
420
  2234388
370
    25
100
AcDbVertex
100
AcDb2dVertex
 10
111.1646141083989
 20
-125.8190058018785
 30
0.0
  0
VERTEX
  5
59
330
57
100
AcDbEntity
  8
_U+30EC_U+30A4_U+30E4_U+30FC 1
 62
   179
420
  2234388
370
    25
100
AcDbVertex
100
AcDb2dVertex
 10
72.16457498195875
 20
-125.8190058018785
 30
0.0
  0
SEQEND
  5
5A
330
57
100
AcDbEntity
  8
_U+30EC_U+30A4_U+30E4_U+30FC 1
 62
   179
420
  2234388
370
    25
  0
POLYLINE
  5
5B
330
1F
100
AcDbEntity
  8
_U+30EC_U+30A4_U+30E4_U+30FC 1
 62
   179
420
  2234388
370
    25
100
AcDb2dPolyline
 66
     1
 10
0.0
 20
0.0
 30
0.0
  0
VERTEX
  5
5C
330
5B
100
AcDbEntity
  8
_U+30EC_U+30A4_U+30E4_U+30FC 1
 62
   179
420
  2234388
370
    25
100
AcDbVertex
100
AcDb2dVertex
 10
111.1646141083989
 20
-124.8192688576841
 30
0.0
  0
VERTEX
  5
5D
330
5B
100
AcDbEntity
  8
_U+30EC_U+30A4_U+30E4_U+30FC 1
 62
   179
420
  2234388
370
    25
100
AcDbVertex
100
AcDb2dVertex
 10
72.16457498195875
 20
-124.8192688576841
 30
0.0
  0
SEQEND
  5
5E
330
5B
100
AcDbEntity
  8
_U+30EC_U+30A4_U+30E4_U+30FC 1
 62
   179
420
  2234388
370
    25
  0
POLYLINE
  5
5F
330
1F
100
AcDbEntity
  8
_U+30EC_U+30A4_U+30E4_U+30FC 1
 62
   179
420
  2234388
370
    25
100
AcDb2dPolyline
 66
     1
 10
0.0
 20
0.0
 30
0.0
  0
VERTEX
  5
60
330
5F
100
AcDbEntity
  8
_U+30EC_U+30A4_U+30E4_U+30FC 1
 62
   179
420
  2234388
370
    25
100
AcDbVertex
100
AcDb2dVertex
 10
72.16457498195875
 20
-140.8189757981284
 30
0.0
  0
VERTEX
  5
61
330
5F
100
AcDbEntity
  8
_U+30EC_U+30A4_U+30E4_U+30FC 1
 62
   179
420
  2234388
370
    25
100
AcDbVertex
100
AcDb2dVertex
 10
72.16457498195875
 20
-125.8190058018785
 30
0.0
  0
SEQEND
  5
62
330
5F
100
AcDbEntity
  8
_U+30EC_U+30A4_U+30E4_U+30FC 1
 62
   179
420
  2234388
370
    25
  0
POLYLINE
  5
63
330
1F
100
AcDbEntity
  8
_U+30EC_U+30A4_U+30E4_U+30FC 1
 62
   179
420
  2234388
370
    25
100
AcDb2dPolyline
 66
     1
 10
0.0
 20
0.0
 30
0.0
  0
VERTEX
  5
64
330
63
100
AcDbEntity
  8
_U+30EC_U+30A4_U+30E4_U+30FC 1
 62
   179
420
  2234388
370
    25
100
AcDbVertex
100
AcDb2dVertex
 10
74.16411942590351
 20
-118.8185894147399
 30
0.0
  0
VERTEX
  5
65
330
63
100
AcDbEntity
  8
_U+30EC_U+30A4_U+30E4_U+30FC 1
 62
   179
420
  2234388
370
    25
100
AcDbVertex
100
AcDb2dVertex
 10
72.16457498195875
 20
-118.8185894147399
 30
0.0
  0
SEQEND
  5
66
330
63
100
AcDbEntity
  8
_U+30EC_U+30A4_U+30E4_U+30FC 1
 62
   179
420
  2234388
370
    25
  0
POLYLINE
  5
67
330
1F
100
AcDbEntity
  8
_U+30EC_U+30A4_U+30E4_U+30FC 1
 62
   179
420
  2234388
370
    25
100
AcDb2dPolyline
 66
     1
 10
0.0
 20
0.0
 30
0.0
  0
VERTEX
  5
68
330
67
100
AcDbEntity
  8
_U+30EC_U+30A4_U+30E4_U+30FC 1
 62
   179
420
  2234388
370
    25
100
AcDbVertex
100
AcDb2dVertex
 10
80.16426767706137
 20
-140.8189757981284
 30
0.0
  0
VERTEX
  5
69
330
67
100
AcDbEntity
  8
_U+30EC_U+30A4_U+30E4_U+30FC 1
 62
   179
420
  2234388
370
    25
100
AcDbVertex
100
AcDb2dVertex
 10
72.16457498195875
 20
-140.8189757981284
 30
0.0
  0
SEQEND
  5
6A
330
67
100
AcDbEntity
  8
_U+30EC_U+30A4_U+30E4_U+30FC 1
 62
   179
420
  2234388
370
    25
  0
POLYLINE
  5
6B
330
1F
100
AcDbEntity
  8
_U+30EC_U+30A4_U+30E4_U+30FC 1
 62
   179
420
  2234388
370
    25
100
AcDb2dPolyline
 66
     1
 10
0.0
 20
0.0
 30
0.0
  0
VERTEX
  5
6C
330
6B
100
AcDbEntity
  8
_U+30EC_U+30A4_U+30E4_U+30FC 1
 62
   179
420
  2234388
370
    25
100
AcDbVertex
100
AcDb2dVertex
 10
81.16471015153796
 20
-141.8187480201009
 30
0.0
  0
VERTEX
  5
6D
330
6B
100
AcDbEntity
  8
_U+30EC_U+30A4_U+30E4_U+30FC 1
 62
   179
420
  2234388
370
    25
100
AcDbVertex
100
AcDb2dVertex
 10
81.16471015153796
 20
-138.8187610764066
 30
0.0
  0
SEQEND
  5
6E
330
6B
100
AcDbEntity
  8
_U+30EC_U+30A4_U+30E4_U+30FC 1
 62
   179
420
  2234388
370
    25
  0
POLYLINE
  5
6F
330
1F
100
AcDbEntity
  8
_U+30EC_U+30A4_U+30E4_U+30FC 1
 62
   179
420
  2234388
370
    25
100
AcDb2dPolyline
 66
     1
 10
0.0
 20
0.0
 30
0.0
  0
VERTEX
  5
70
330
6F
100
AcDbEntity
  8
_U+30EC_U+30A4_U+30E4_U+30FC 1
 62
   179
420
  2234388
370
    25
100
AcDbVertex
100
AcDb2dVertex
 10
80.16426767706137
 20
-140.8189757981284
 30
0.0
  0
VERTEX
  5
71
330
6F
100
AcDbEntity
  8
_U+30EC_U+30A4_U+30E4_U+30FC 1
 62
   179
420
  2234388
370
    25
100
AcDbVertex
100
AcDb2dVertex
 10
80.16426767706137
 20
-139.8192035761565
 30
0.0
  0
SEQEND
  5
72
330
6F
100
AcDbEntity
  8
_U+30EC_U+30A4_U+30E4_U+30FC 1
 62
   179
420
  2234388
370
    25
  0
POLYLINE
  5
73
330
1F
100
AcDbEntity
  8
_U+30EC_U+30A4_U+30E4_U+30FC 1
 62
   179
420
  2234388
370
    25
100
AcDb2dPolyline
 66
     1
 10
0.0
 20
0.0
 30
0.0
  0
VERTEX
  5
74
330
73
100
AcDbEntity
  8
_U+30EC_U+30A4_U+30E4_U+30FC 1
 62
   179
420
  2234388
370
    25
100
AcDbVertex
100
AcDb2dVertex
 10
80.16426767706137
 20
-139.8192035761565
 30
0.0
  0
VERTEX
  5
75
330
73
100
AcDbEntity
  8
_U+30EC_U+30A4_U+30E4_U+30FC 1
 62
   179
420
  2234388
370
    25
100
AcDbVertex
100
AcDb2dVertex
 10
78.16454689474516
 20
-139.8192035761565
 30
0.0
  0
SEQEND
  5
76
330
73
100
AcDbEntity
  8
_U+30EC_U+30A4_U+30E4_U+30FC 1
 62
   179
420
  2234388
370
    25
  0
POLYLINE
  5
77
330
1F
100
AcDbEntity
  8
_U+30EC_U+30A4_U+30E4_U+30FC 1
 62
   179
420
  2234388
370
    25
100
AcDb2dPolyline
 66
     1
 10
0.0
 20
0.0
 30
0.0
  0
VERTEX
  5
78
330
77
100
AcDbEntity
  8
_U+30EC_U+30A4_U+30E4_U+30FC 1
 62
   179
420
  2234388
370
    25
100
AcDbVertex
100
AcDb2dVertex
 10
78.16454689474516
 20
-139.8192035761565
 30
0.0
  0
VERTEX
  5
79
330
77
100
AcDbEntity
  8
_U+30EC_U+30A4_U+30E4_U+30FC 1
 62
   179
420
  2234388
370
    25
100
AcDbVertex
100
AcDb2dVertex
 10
78.16454689474516
 20
-138.8187610764066
 30
0.0
  0
SEQEND
  5
7A
330
77
100
AcDbEntity
  8
_U+30EC_U+30A4_U+30E4_U+30FC 1
 62
   179
420
  2234388
370
    25
  0
POLYLINE
  5
7B
330
1F
100
AcDbEntity
  8
_U+30EC_U+30A4_U+30E4_U+30FC 1
 62
   179
420
  2234388
370
    25
100
AcDb2dPolyline
 66
     1
 10
0.0
 20
0.0
 30
0.0
  0
VERTEX
  5
7C
330
7B
100
AcDbEntity
  8
_U+30EC_U+30A4_U+30E4_U+30FC 1
 62
   179
420
  2234388
370
    25
100
AcDbVertex
100
AcDb2dVertex
 10
74.16411942590351
 20
-118.8185894147399
 30
0.0
  0
VERTEX
  5
7D
330
7B
100
AcDbEntity
  8
_U+30EC_U+30A4_U+30E4_U+30FC 1
 62
   179
420
  2234388
370
    25
100
AcDbVertex
100
AcDb2dVertex
 10
74.16411942590351
 20
-117.8188171927674
 30
0.0
  0
SEQEND
  5
7E
330
7B
100
AcDbEntity
  8
_U+30EC_U+30A4_U+30E4_U+30FC 1
 62
   179
420
  2234388
370
    25
  0
POLYLINE
  5
7F
330
1F
100
AcDbEntity
  8
_U+30EC_U+30A4_U+30E4_U+30FC 1
 62
   179
420
  2234388
370
    25
100
AcDb2dPolyline
 66
     1
 10
0.0
 20
0.0
 30
0.0
  0
VERTEX
  5
80
330
7F
100
AcDbEntity
  8
_U+30EC_U+30A4_U+30E4_U+30FC 1
 62
   179
420
  2234388
370
    25
100
AcDbVertex
100
AcDb2dVertex
 10
72.16457498195875
 20
-124.8192688576841
 30
0.0
  0
VERTEX
  5
81
330
7F
100
AcDbEntity
  8
_U+30EC_U+30A4_U+30E4_U+30FC 1
 62
   179
420
  2234388
370
    25
100
AcDbVertex
100
AcDb2dVertex
 10
72.16457498195875
 20
-118.8185894147399
 30
0.0
  0
SEQEND
  5
82
330
7F
100
AcDbEntity
  8
_U+30EC_U+30A4_U+30E4_U+30FC 1
 62
   179
420
  2234388
370
    25
  0
SPLINE
  5
83
330
1F
100
AcDbEntity
  8
_U+30EC_U+30A4_U+30E4_U+30FC 1
 62
   179
420
  2234388
370
     9
100
AcDbSpline
210
0.0
220
0.0
230
1.0
 70
    11
 71
     3
 72
    17
 73
    13
 74
     0
 42
0.0000000001
 43
0.0000000001
 12
1.0
 22
0.0
 32
0.0
 13
1.0
 23
0.0
 33
0.0
 40
0.0
 40
0.0
 40
0.0
 40
0.0
 40
1.0
 40
1.0
 40
1.0
 40
2.0
 40
2.0
 40
2.0
 40
3.0
 40
3.0
 40
3.0
 40
4.0
 40
4.0
 40
4.0
 40
4.0
 10
115.1643731730232
 20
-138.7188544097649
 30
0.0
 10
115.2194770605063
 20
-138.7188544097649
 30
0.0
 10
115.264279837141
 20
-138.7636219097535
 30
0.0
 10
115.264279837141
 20
-138.8187610764066
 30
0.0
 10
115.264279837141
 20
-138.874570520837
 30
0.0
 10
115.2194770605063
 20
-138.9186677430482
 30
0.0
 10
115.1643731730232
 20
-138.9186677430482
 30
0.0
 10
115.1092340077632
 20
-138.9186677430482
 30
0.0
 10
115.0644694156781
 20
-138.874570520837
 30
0.0
 10
115.0644694156781
 20
-138.8187610764066
 30
0.0
 10
115.0644694156781
 20
-138.7636219097535
 30
0.0
 10
115.1092340077632
 20
-138.7188544097649
 30
0.0
 10
115.1643731730232
 20
-138.7188544097649
 30
0.0
  0
SPLINE
  5
84
330
1F
100
AcDbEntity
  8
_U+30EC_U+30A4_U+30E4_U+30FC 1
 62
   179
420
  2234388
370
     9
100
AcDbSpline
210
0.0
220
0.0
230
1.0
 70
    11
 71
     3
 72
    17
 73
    13
 74
     0
 42
0.0000000001
 43
0.0000000001
 12
1.0
 22
0.0
 32
0.0
 13
1.0
 23
0.0
 33
0.0
 40
0.0
 40
0.0
 40
0.0
 40
0.0
 40
1.0
 40
1.0
 40
1.0
 40
2.0
 40
2.0
 40
2.0
 40
3.0
 40
3.0
 40
3.0
 40
4.0
 40
4.0
 40
4.0
 40
4.0
 10
115.1643731730232
 20
-141.7188413534593
 30
0.0
 10
115.2194770605063
 20
-141.7188413534593
 30
0.0
 10
115.264279837141
 20
-141.7636088534478
 30
0.0
 10
115.264279837141
 20
-141.8187480201009
 30
0.0
 10
115.264279837141
 20
-141.8745574645314
 30
0.0
 10
115.2194770605063
 20
-141.9193249645199
 30
0.0
 10
115.1643731730232
 20
-141.9193249645199
 30
0.0
 10
115.1092340077632
 20
-141.9193249645199
 30
0.0
 10
115.0644694156781
 20
-141.8745574645314
 30
0.0
 10
115.0644694156781
 20
-141.8187480201009
 30
0.0
 10
115.0644694156781
 20
-141.7636088534478
 30
0.0
 10
115.1092340077632
 20
-141.7188413534593
 30
0.0
 10
115.1643731730232
 20
-141.7188413534593
 30
0.0
  0
SPLINE
  5
85
330
1F
100
AcDbEntity
  8
_U+30EC_U+30A4_U+30E4_U+30FC 1
 62
   179
420
  2234388
370
     9
100
AcDbSpline
210
0.0
220
0.0
230
1.0
 70
    11
 71
     3
 72
    17
 73
    13
 74
     0
 42
0.0000000001
 43
0.0000000001
 12
1.0
 22
0.0
 32
0.0
 13
1.0
 23
0.0
 33
0.0
 40
0.0
 40
0.0
 40
0.0
 40
0.0
 40
1.0
 40
1.0
 40
1.0
 40
2.0
 40
2.0
 40
2.0
 40
3.0
 40
3.0
 40
3.0
 40
4.0
 40
4.0
 40
4.0
 40
4.0
 10
115.1643731730232
 20
-125.7190991352369
 30
0.0
 10
115.2194770605063
 20
-125.7190991352369
 30
0.0
 10
115.264279837141
 20
-125.7639019130036
 30
0.0
 10
115.264279837141
 20
-125.8190058018785
 30
0.0
 10
115.264279837141
 20
-125.8741449685316
 30
0.0
 10
115.2194770605063
 20
-125.9189124685201
 30
0.0
 10
115.1643731730232
 20
-125.9189124685201
 30
0.0
 10
115.1092340077632
 20
-125.9189124685201
 30
0.0
 10
115.0644694156781
 20
-125.8741449685316
 30
0.0
 10
115.0644694156781
 20
-125.8190058018785
 30
0.0
 10
115.0644694156781
 20
-125.7639019130036
 30
0.0
 10
115.1092340077632
 20
-125.7190991352369
 30
0.0
 10
115.1643731730232
 20
-125.7190991352369
 30
0.0
  0
SPLINE
  5
86
330
1F
100
AcDbEntity
  8
_U+30EC_U+30A4_U+30E4_U+30FC 1
 62
   179
420
  2234388
370
     9
100
AcDbSpline
210
0.0
220
0.0
230
1.0
 70
    11
 71
     3
 72
    17
 73
    13
 74
     0
 42
0.0000000001
 43
0.0000000001
 12
1.0
 22
0.0
 32
0.0
 13
1.0
 23
0.0
 33
0.0
 40
0.0
 40
0.0
 40
0.0
 40
0.0
 40
1.0
 40
1.0
 40
1.0
 40
2.0
 40
2.0
 40
2.0
 40
3.0
 40
3.0
 40
3.0
 40
4.0
 40
4.0
 40
4.0
 40
4.0
 10
115.1643731730232
 20
-124.718656635487
 30
0.0
 10
115.2194770605063
 20
-124.718656635487
 30
0.0
 10
115.264279837141
 20
-124.7634594132537
 30
0.0
 10
115.264279837141
 20
-124.8192688576841
 30
0.0
 10
115.264279837141
 20
-124.874372746559
 30
0.0
 10
115.2194770605063
 20
-124.9191755243258
 30
0.0
 10
115.1643731730232
 20
-124.9191755243258
 30
0.0
 10
115.1092340077632
 20
-124.9191755243258
 30
0.0
 10
115.0644694156781
 20
-124.874372746559
 30
0.0
 10
115.0644694156781
 20
-124.8192688576841
 30
0.0
 10
115.0644694156781
 20
-124.7634594132537
 30
0.0
 10
115.1092340077632
 20
-124.718656635487
 30
0.0
 10
115.1643731730232
 20
-124.718656635487
 30
0.0
  0
SPLINE
  5
87
330
1F
100
AcDbEntity
  8
_U+30EC_U+30A4_U+30E4_U+30FC 1
 62
   179
420
  2234388
370
     9
100
AcDbSpline
210
0.0
220
0.0
230
1.0
 70
    11
 71
     3
 72
    17
 73
    13
 74
     0
 42
0.0000000001
 43
0.0000000001
 12
1.0
 22
0.0
 32
0.0
 13
1.0
 23
0.0
 33
0.0
 40
0.0
 40
0.0
 40
0.0
 40
0.0
 40
1.0
 40
1.0
 40
1.0
 40
2.0
 40
2.0
 40
2.0
 40
3.0
 40
3.0
 40
3.0
 40
4.0
 40
4.0
 40
4.0
 40
4.0
 10
111.1646141083989
 20
-113.7191513604592
 30
0.0
 10
111.2197532736588
 20
-113.7191513604592
 30
0.0
 10
111.2645207725167
 20
-113.7639541382256
 30
0.0
 10
111.2645207725167
 20
-113.8190580271008
 30
0.0
 10
111.2645207725167
 20
-113.8741971937536
 30
0.0
 10
111.2197532736588
 20
-113.9189646937424
 30
0.0
 10
111.1646141083989
 20
-113.9189646937424
 30
0.0
 10
111.1095102209158
 20
-113.9189646937424
 30
0.0
 10
111.064707444281
 20
-113.8741971937536
 30
0.0
 10
111.064707444281
 20
-113.8190580271008
 30
0.0
 10
111.064707444281
 20
-113.7639541382256
 30
0.0
 10
111.1095102209158
 20
-113.7191513604592
 30
0.0
 10
111.1646141083989
 20
-113.7191513604592
 30
0.0
  0
SPLINE
  5
88
330
1F
100
AcDbEntity
  8
_U+30EC_U+30A4_U+30E4_U+30FC 1
 62
   179
420
  2234388
370
     9
100
AcDbSpline
210
0.0
220
0.0
230
1.0
 70
    11
 71
     3
 72
    17
 73
    13
 74
     0
 42
0.0000000001
 43
0.0000000001
 12
1.0
 22
0.0
 32
0.0
 13
1.0
 23
0.0
 33
0.0
 40
0.0
 40
0.0
 40
0.0
 40
0.0
 40
1.0
 40
1.0
 40
1.0
 40
2.0
 40
2.0
 40
2.0
 40
3.0
 40
3.0
 40
3.0
 40
4.0
 40
4.0
 40
4.0
 40
4.0
 10
71.16413068445178
 20
-113.7191513604592
 30
0.0
 10
71.21923457193485
 20
-113.7191513604592
 30
0.0
 10
71.2640373485696
 20
-113.7639541382256
 30
0.0
 10
71.2640373485696
 20
-113.8190580271008
 30
0.0
 10
71.2640373485696
 20
-113.8741971937536
 30
0.0
 10
71.21923457193485
 20
-113.9189646937424
 30
0.0
 10
71.16413068445178
 20
-113.9189646937424
 30
0.0
 10
71.10899151919182
 20
-113.9189646937424
 30
0.0
 10
71.06422402033394
 20
-113.8741971937536
 30
0.0
 10
71.06422402033394
 20
-113.8190580271008
 30
0.0
 10
71.06422402033394
 20
-113.7639541382256
 30
0.0
 10
71.10899151919182
 20
-113.7191513604592
 30
0.0
 10
71.16413068445178
 20
-113.7191513604592
 30
0.0
  0
SPLINE
  5
89
330
1F
100
AcDbEntity
  8
_U+30EC_U+30A4_U+30E4_U+30FC 1
 62
   179
420
  2234388
370
     9
100
AcDbSpline
210
0.0
220
0.0
230
1.0
 70
    11
 71
     3
 72
    17
 73
    13
 74
     0
 42
0.0000000001
 43
0.0000000001
 12
1.0
 22
0.0
 32
0.0
 13
1.0
 23
0.0
 33
0.0
 40
0.0
 40
0.0
 40
0.0
 40
0.0
 40
1.0
 40
1.0
 40
1.0
 40
2.0
 40
2.0
 40
2.0
 40
3.0
 40
3.0
 40
3.0
 40
4.0
 40
4.0
 40
4.0
 40
4.0
 10
67.16437161982746
 20
-117.7189105261257
 30
0.0
 10
67.21951078508741
 20
-117.7189105261257
 30
0.0
 10
67.2642782839453
 20
-117.7637133038924
 30
0.0
 10
67.2642782839453
 20
-117.8188171927674
 30
0.0
 10
67.2642782839453
 20
-117.8739563594204
 30
0.0
 10
67.21951078508741
 20
-117.9187238594093
 30
0.0
 10
67.16437161982746
 20
-117.9187238594093
 30
0.0
 10
67.10926942766704
 20
-117.9187238594093
 30
0.0
 10
67.06446664990065
 20
-117.8739563594204
 30
0.0
 10
67.06446664990065
 20
-117.8188171927674
 30
0.0
 10
67.06446664990065
 20
-117.7637133038924
 30
0.0
 10
67.10926942766704
 20
-117.7189105261257
 30
0.0
 10
67.16437161982746
 20
-117.7189105261257
 30
0.0
  0
SPLINE
  5
8A
330
1F
100
AcDbEntity
  8
_U+30EC_U+30A4_U+30E4_U+30FC 1
 62
   179
420
  2234388
370
     9
100
AcDbSpline
210
0.0
220
0.0
230
1.0
 70
    11
 71
     3
 72
    17
 73
    13
 74
     0
 42
0.0000000001
 43
0.0000000001
 12
1.0
 22
0.0
 32
0.0
 13
1.0
 23
0.0
 33
0.0
 40
0.0
 40
0.0
 40
0.0
 40
0.0
 40
1.0
 40
1.0
 40
1.0
 40
2.0
 40
2.0
 40
2.0
 40
3.0
 40
3.0
 40
3.0
 40
4.0
 40
4.0
 40
4.0
 40
4.0
 10
67.16437161982746
 20
-141.7188413534593
 30
0.0
 10
67.21951078508741
 20
-141.7188413534593
 30
0.0
 10
67.2642782839453
 20
-141.7636088534478
 30
0.0
 10
67.2642782839453
 20
-141.8187480201009
 30
0.0
 10
67.2642782839453
 20
-141.8745574645314
 30
0.0
 10
67.21951078508741
 20
-141.9193249645199
 30
0.0
 10
67.16437161982746
 20
-141.9193249645199
 30
0.0
 10
67.10926942766704
 20
-141.9193249645199
 30
0.0
 10
67.06446664990065
 20
-141.8745574645314
 30
0.0
 10
67.06446664990065
 20
-141.8187480201009
 30
0.0
 10
67.06446664990065
 20
-141.7636088534478
 30
0.0
 10
67.10926942766704
 20
-141.7188413534593
 30
0.0
 10
67.16437161982746
 20
-141.7188413534593
 30
0.0
  0
SPLINE
  5
8B
330
1F
100
AcDbEntity
  8
_U+30EC_U+30A4_U+30E4_U+30FC 1
 62
   179
420
  2234388
370
     9
100
AcDbSpline
210
0.0
220
0.0
230
1.0
 70
    11
 71
     3
 72
    17
 73
    13
 74
     0
 42
0.0000000001
 43
0.0000000001
 12
1.0
 22
0.0
 32
0.0
 13
1.0
 23
0.0
 33
0.0
 40
0.0
 40
0.0
 40
0.0
 40
0.0
 40
1.0
 40
1.0
 40
1.0
 40
2.0
 40
2.0
 40
2.0
 40
3.0
 40
3.0
 40
3.0
 40
4.0
 40
4.0
 40
4.0
 40
4.0
 10
71.16413068445178
 20
-145.7192707969035
 30
0.0
 10
71.21923457193485
 20
-145.7192707969035
 30
0.0
 10
71.2640373485696
 20
-145.7640735746702
 30
0.0
 10
71.2640373485696
 20
-145.8191774635452
 30
0.0
 10
71.2640373485696
 20
-145.8743166301983
 30
0.0
 10
71.21923457193485
 20
-145.9190841301868
 30
0.0
 10
71.16413068445178
 20
-145.9190841301868
 30
0.0
 10
71.10899151919182
 20
-145.9190841301868
 30
0.0
 10
71.06422402033394
 20
-145.8743166301983
 30
0.0
 10
71.06422402033394
 20
-145.8191774635452
 30
0.0
 10
71.06422402033394
 20
-145.7640735746702
 30
0.0
 10
71.10899151919182
 20
-145.7192707969035
 30
0.0
 10
71.16413068445178
 20
-145.7192707969035
 30
0.0
  0
SPLINE
  5
8C
330
1F
100
AcDbEntity
  8
_U+30EC_U+30A4_U+30E4_U+30FC 1
 62
   179
420
  2234388
370
     9
100
AcDbSpline
210
0.0
220
0.0
230
1.0
 70
    11
 71
     3
 72
    17
 73
    13
 74
     0
 42
0.0000000001
 43
0.0000000001
 12
1.0
 22
0.0
 32
0.0
 13
1.0
 23
0.0
 33
0.0
 40
0.0
 40
0.0
 40
0.0
 40
0.0
 40
1.0
 40
1.0
 40
1.0
 40
2.0
 40
2.0
 40
2.0
 40
3.0
 40
3.0
 40
3.0
 40
4.0
 40
4.0
 40
4.0
 40
4.0
 10
81.16471015153796
 20
-145.7192707969035
 30
0.0
 10
81.2198493167979
 20
-145.7192707969035
 30
0.0
 10
81.26461681565578
 20
-145.7640735746702
 30
0.0
 10
81.26461681565578
 20
-145.8191774635452
 30
0.0
 10
81.26461681565578
 20
-145.8743166301983
 30
0.0
 10
81.2198493167979
 20
-145.9190841301868
 30
0.0
 10
81.16471015153796
 20
-145.9190841301868
 30
0.0
 10
81.10890275750054
 20
-145.9190841301868
 30
0.0
 10
81.06480553528934
 20
-145.8743166301983
 30
0.0
 10
81.06480553528934
 20
-145.8191774635452
 30
0.0
 10
81.06480553528934
 20
-145.7640735746702
 30
0.0
 10
81.10890275750054
 20
-145.7192707969035
 30
0.0
 10
81.16471015153796
 20
-145.7192707969035
 30
0.0
  0
POLYLINE
  5
8D
330
1F
100
AcDbEntity
  8
_U+30EC_U+30A4_U+30E4_U+30FC 1
 62
   179
420
  2234388
370
     9
100
AcDb2dPolyline
 66
     1
 10
0.0
 20
0.0
 30
0.0
  0
VERTEX
  5
8E
330
8D
100
AcDbEntity
  8
_U+30EC_U+30A4_U+30E4_U+30FC 1
 62
   179
420
  2234388
370
     9
100
AcDbVertex
100
AcDb2dVertex
 10
115.1643731730232
 20
-124.8192688576841
 30
0.0
  0
VERTEX
  5
8F
330
8D
100
AcDbEntity
  8
_U+30EC_U+30A4_U+30E4_U+30FC 1
 62
   179
420
  2234388
370
     9
100
AcDbVertex
100
AcDb2dVertex
 10
115.1643731730232
 20
-121.0489563586267
 30
0.0
  0
SEQEND
  5
90
330
8D
100
AcDbEntity
  8
_U+30EC_U+30A4_U+30E4_U+30FC 1
 62
   179
420
  2234388
370
     9
  0
POLYLINE
  5
91
330
1F
100
AcDbEntity
  8
_U+30EC_U+30A4_U+30E4_U+30FC 1
 62
   179
420
  2234388
370
     9
100
AcDb2dPolyline
 66
     1
 10
0.0
 20
0.0
 30
0.0
  0
VERTEX
  5
92
330
91
100
AcDbEntity
  8
_U+30EC_U+30A4_U+30E4_U+30FC 1
 62
   179
420
  2234388
370
     9
100
AcDbVertex
100
AcDb2dVertex
 10
115.1643731730232
 20
-124.8192688576841
 30
0.0
  0
VERTEX
  5
93
330
91
100
AcDbEntity
  8
_U+30EC_U+30A4_U+30E4_U+30FC 1
 62
   179
420
  2234388
370
     9
100
AcDbVertex
100
AcDb2dVertex
 10
115.1643731730232
 20
-125.8190058018785
 30
0.0
  0
SEQEND
  5
94
330
91
100
AcDbEntity
  8
_U+30EC_U+30A4_U+30E4_U+30FC 1
 62
   179
420
  2234388
370
     9
  0
POLYLINE
  5
95
330
1F
100
AcDbEntity
  8
_U+30EC_U+30A4_U+30E4_U+30FC 1
 62
   179
420
  2234388
370
     9
100
AcDb2dPolyline
 66
     1
 10
0.0
 20
0.0
 30
0.0
  0
VERTEX
  5
96
330
95
100
AcDbEntity
  8
_U+30EC_U+30A4_U+30E4_U+30FC 1
 62
   179
420
  2234388
370
     9
100
AcDbVertex
100
AcDb2dVertex
 10
113.7043318213831
 20
-124.8192688576841
 30
0.0
  0
VERTEX
  5
97
330
95
100
AcDbEntity
  8
_U+30EC_U+30A4_U+30E4_U+30FC 1
 62
   179
420
  2234388
370
     9
100
AcDbVertex
100
AcDb2dVertex
 10
116.1641453697391
 20
-124.8192688576841
 30
0.0
  0
SEQEND
  5
98
330
95
100
AcDbEntity
  8
_U+30EC_U+30A4_U+30E4_U+30FC 1
 62
   179
420
  2234388
370
     9
  0
POLYLINE
  5
99
330
1F
100
AcDbEntity
  8
_U+30EC_U+30A4_U+30E4_U+30FC 1
 62
   179
420
  2234388
370
     9
100
AcDb2dPolyline
 66
     1
 10
0.0
 20
0.0
 30
0.0
  0
VERTEX
  5
9A
330
99
100
AcDbEntity
  8
_U+30EC_U+30A4_U+30E4_U+30FC 1
 62
   179
420
  2234388
370
     9
100
AcDbVertex
100
AcDb2dVertex
 10
113.7043318213831
 20
-125.8190058018785
 30
0.0
  0
VERTEX
  5
9B
330
99
100
AcDbEntity
  8
_U+30EC_U+30A4_U+30E4_U+30FC 1
 62
   179
420
  2234388
370
     9
100
AcDbVertex
100
AcDb2dVertex
 10
116.1641453697391
 20
-125.8190058018785
 30
0.0
  0
SEQEND
  5
9C
330
99
100
AcDbEntity
  8
_U+30EC_U+30A4_U+30E4_U+30FC 1
 62
   179
420
  2234388
370
     9
  0
POLYLINE
  5
9D
330
1F
100
AcDbEntity
  8
_U+30EC_U+30A4_U+30E4_U+30FC 1
 62
   179
420
  2234388
370
     9
100
AcDb2dPolyline
 66
     1
 10
0.0
 20
0.0
 30
0.0
  0
VERTEX
  5
9E
330
9D
100
AcDbEntity
  8
_U+30EC_U+30A4_U+30E4_U+30FC 1
 62
   179
420
  2234388
370
     9
100
AcDbVertex
100
AcDb2dVertex
 10
115.1643731730232
 20
-141.8187480201009
 30
0.0
  0
VERTEX
  5
9F
330
9D
100
AcDbEntity
  8
_U+30EC_U+30A4_U+30E4_U+30FC 1
 62
   179
420
  2234388
370
     9
100
AcDbVertex
100
AcDb2dVertex
 10
115.1643731730232
 20
-138.8187610764066
 30
0.0
  0
SEQEND
  5
A0
330
9D
100
AcDbEntity
  8
_U+30EC_U+30A4_U+30E4_U+30FC 1
 62
   179
420
  2234388
370
     9
  0
POLYLINE
  5
A1
330
1F
100
AcDbEntity
  8
_U+30EC_U+30A4_U+30E4_U+30FC 1
 62
   179
420
  2234388
370
     9
100
AcDb2dPolyline
 66
     1
 10
0.0
 20
0.0
 30
0.0
  0
VERTEX
  5
A2
330
A1
100
AcDbEntity
  8
_U+30EC_U+30A4_U+30E4_U+30FC 1
 62
   179
420
  2234388
370
     9
100
AcDbVertex
100
AcDb2dVertex
 10
83.70446314229902
 20
-141.8187480201009
 30
0.0
  0
VERTEX
  5
A3
330
A1
100
AcDbEntity
  8
_U+30EC_U+30A4_U+30E4_U+30FC 1
 62
   179
420
  2234388
370
     9
100
AcDbVertex
100
AcDb2dVertex
 10
116.1641453697391
 20
-141.8187480201009
 30
0.0
  0
SEQEND
  5
A4
330
A1
100
AcDbEntity
  8
_U+30EC_U+30A4_U+30E4_U+30FC 1
 62
   179
420
  2234388
370
     9
  0
POLYLINE
  5
A5
330
1F
100
AcDbEntity
  8
_U+30EC_U+30A4_U+30E4_U+30FC 1
 62
   179
420
  2234388
370
     9
100
AcDb2dPolyline
 66
     1
 10
0.0
 20
0.0
 30
0.0
  0
VERTEX
  5
A6
330
A5
100
AcDbEntity
  8
_U+30EC_U+30A4_U+30E4_U+30FC 1
 62
   179
420
  2234388
370
     9
100
AcDbVertex
100
AcDb2dVertex
 10
81.16471015153796
 20
-145.8191774635452
 30
0.0
  0
VERTEX
  5
A7
330
A5
100
AcDbEntity
  8
_U+30EC_U+30A4_U+30E4_U+30FC 1
 62
   179
420
  2234388
370
     9
100
AcDbVertex
100
AcDb2dVertex
 10
71.16413068445178
 20
-145.8191774635452
 30
0.0
  0
SEQEND
  5
A8
330
A5
100
AcDbEntity
  8
_U+30EC_U+30A4_U+30E4_U+30FC 1
 62
   179
420
  2234388
370
     9
  0
POLYLINE
  5
A9
330
1F
100
AcDbEntity
  8
_U+30EC_U+30A4_U+30E4_U+30FC 1
 62
   179
420
  2234388
370
     9
100
AcDb2dPolyline
 66
     1
 10
0.0
 20
0.0
 30
0.0
  0
VERTEX
  5
AA
330
A9
100
AcDbEntity
  8
_U+30EC_U+30A4_U+30E4_U+30FC 1
 62
   179
420
  2234388
370
     9
100
AcDbVertex
100
AcDb2dVertex
 10
81.16471015153796
 20
-144.3591360750214
 30
0.0
  0
VERTEX
  5
AB
330
A9
100
AcDbEntity
  8
_U+30EC_U+30A4_U+30E4_U+30FC 1
 62
   179
420
  2234388
370
     9
100
AcDbVertex
100
AcDb2dVertex
 10
81.16471015153796
 20
-146.8189496855177
 30
0.0
  0
SEQEND
  5
AC
330
A9
100
AcDbEntity
  8
_U+30EC_U+30A4_U+30E4_U+30FC 1
 62
   179
420
  2234388
370
     9
  0
POLYLINE
  5
AD
330
1F
100
AcDbEntity
  8
_U+30EC_U+30A4_U+30E4_U+30FC 1
 62
   179
420
  2234388
370
     9
100
AcDb2dPolyline
 66
     1
 10
0.0
 20
0.0
 30
0.0
  0
VERTEX
  5
AE
330
AD
100
AcDbEntity
  8
_U+30EC_U+30A4_U+30E4_U+30FC 1
 62
   179
420
  2234388
370
     9
100
AcDbVertex
100
AcDb2dVertex
 10
71.16413068445178
 20
-144.3591360750214
 30
0.0
  0
VERTEX
  5
AF
330
AD
100
AcDbEntity
  8
_U+30EC_U+30A4_U+30E4_U+30FC 1
 62
   179
420
  2234388
370
     9
100
AcDbVertex
100
AcDb2dVertex
 10
71.16413068445178
 20
-146.8189496855177
 30
0.0
  0
SEQEND
  5
B0
330
AD
100
AcDbEntity
  8
_U+30EC_U+30A4_U+30E4_U+30FC 1
 62
   179
420
  2234388
370
     9
  0
POLYLINE
  5
B1
330
1F
100
AcDbEntity
  8
_U+30EC_U+30A4_U+30E4_U+30FC 1
 62
   179
420
  2234388
370
     9
100
AcDb2dPolyline
 66
     1
 10
0.0
 20
0.0
 30
0.0
  0
VERTEX
  5
B2
330
B1
100
AcDbEntity
  8
_U+30EC_U+30A4_U+30E4_U+30FC 1
 62
   179
420
  2234388
370
     9
100
AcDbVertex
100
AcDb2dVertex
 10
71.16413068445178
 20
-113.8190580271008
 30
0.0
  0
VERTEX
  5
B3
330
B1
100
AcDbEntity
  8
_U+30EC_U+30A4_U+30E4_U+30FC 1
 62
   179
420
  2234388
370
     9
100
AcDbVertex
100
AcDb2dVertex
 10
111.1646141083989
 20
-113.8190580271008
 30
0.0
  0
SEQEND
  5
B4
330
B1
100
AcDbEntity
  8
_U+30EC_U+30A4_U+30E4_U+30FC 1
 62
   179
420
  2234388
370
     9
  0
POLYLINE
  5
B5
330
1F
100
AcDbEntity
  8
_U+30EC_U+30A4_U+30E4_U+30FC 1
 62
   179
420
  2234388
370
     9
100
AcDb2dPolyline
 66
     1
 10
0.0
 20
0.0
 30
0.0
  0
VERTEX
  5
B6
330
B5
100
AcDbEntity
  8
_U+30EC_U+30A4_U+30E4_U+30FC 1
 62
   179
420
  2234388
370
     9
100
AcDbVertex
100
AcDb2dVertex
 10
71.16413068445178
 20
-115.2790994156248
 30
0.0
  0
VERTEX
  5
B7
330
B5
100
AcDbEntity
  8
_U+30EC_U+30A4_U+30E4_U+30FC 1
 62
   179
420
  2234388
370
     9
100
AcDbVertex
100
AcDb2dVertex
 10
71.16413068445178
 20
-112.8186155273509
 30
0.0
  0
SEQEND
  5
B8
330
B5
100
AcDbEntity
  8
_U+30EC_U+30A4_U+30E4_U+30FC 1
 62
   179
420
  2234388
370
     9
  0
POLYLINE
  5
B9
330
1F
100
AcDbEntity
  8
_U+30EC_U+30A4_U+30E4_U+30FC 1
 62
   179
420
  2234388
370
     9
100
AcDb2dPolyline
 66
     1
 10
0.0
 20
0.0
 30
0.0
  0
VERTEX
  5
BA
330
B9
100
AcDbEntity
  8
_U+30EC_U+30A4_U+30E4_U+30FC 1
 62
   179
420
  2234388
370
     9
100
AcDbVertex
100
AcDb2dVertex
 10
111.1646141083989
 20
-122.2788455249857
 30
0.0
  0
VERTEX
  5
BB
330
B9
100
AcDbEntity
  8
_U+30EC_U+30A4_U+30E4_U+30FC 1
 62
   179
420
  2234388
370
     9
100
AcDbVertex
100
AcDb2dVertex
 10
111.1646141083989
 20
-112.8186155273509
 30
0.0
  0
SEQEND
  5
BC
330
B9
100
AcDbEntity
  8
_U+30EC_U+30A4_U+30E4_U+30FC 1
 62
   179
420
  2234388
370
     9
  0
POLYLINE
  5
BD
330
1F
100
AcDbEntity
  8
_U+30EC_U+30A4_U+30E4_U+30FC 1
 62
   179
420
  2234388
370
     9
100
AcDb2dPolyline
 66
     1
 10
0.0
 20
0.0
 30
0.0
  0
VERTEX
  5
BE
330
BD
100
AcDbEntity
  8
_U+30EC_U+30A4_U+30E4_U+30FC 1
 62
   179
420
  2234388
370
     9
100
AcDbVertex
100
AcDb2dVertex
 10
115.1643731730232
 20
-138.8187610764066
 30
0.0
  0
VERTEX
  5
BF
330
BD
100
AcDbEntity
  8
_U+30EC_U+30A4_U+30E4_U+30FC 1
 62
   179
420
  2234388
370
     9
100
AcDbVertex
100
AcDb2dVertex
 10
115.1643731730232
 20
-125.8190058018785
 30
0.0
  0
SEQEND
  5
C0
330
BD
100
AcDbEntity
  8
_U+30EC_U+30A4_U+30E4_U+30FC 1
 62
   179
420
  2234388
370
     9
  0
POLYLINE
  5
C1
330
1F
100
AcDbEntity
  8
_U+30EC_U+30A4_U+30E4_U+30FC 1
 62
   179
420
  2234388
370
     9
100
AcDb2dPolyline
 66
     1
 10
0.0
 20
0.0
 30
0.0
  0
VERTEX
  5
C2
330
C1
100
AcDbEntity
  8
_U+30EC_U+30A4_U+30E4_U+30FC 1
 62
   179
420
  2234388
370
     9
100
AcDbVertex
100
AcDb2dVertex
 10
83.70446314229902
 20
-138.8187610764066
 30
0.0
  0
VERTEX
  5
C3
330
C1
100
AcDbEntity
  8
_U+30EC_U+30A4_U+30E4_U+30FC 1
 62
   179
420
  2234388
370
     9
100
AcDbVertex
100
AcDb2dVertex
 10
116.1641453697391
 20
-138.8187610764066
 30
0.0
  0
SEQEND
  5
C4
330
C1
100
AcDbEntity
  8
_U+30EC_U+30A4_U+30E4_U+30FC 1
 62
   179
420
  2234388
370
     9
  0
POLYLINE
  5
C5
330
1F
100
AcDbEntity
  8
_U+30EC_U+30A4_U+30E4_U+30FC 1
 62
   179
420
  2234388
370
     9
100
AcDb2dPolyline
 66
     1
 10
0.0
 20
0.0
 30
0.0
  0
VERTEX
  5
C6
330
C5
100
AcDbEntity
  8
_U+30EC_U+30A4_U+30E4_U+30FC 1
 62
   179
420
  2234388
370
     9
100
AcDbVertex
100
AcDb2dVertex
 10
113.7043318213831
 20
-125.8190058018785
 30
0.0
  0
VERTEX
  5
C7
330
C5
100
AcDbEntity
  8
_U+30EC_U+30A4_U+30E4_U+30FC 1
 62
   179
420
  2234388
370
     9
100
AcDbVertex
100
AcDb2dVertex
 10
116.1641453697391
 20
-125.8190058018785
 30
0.0
  0
SEQEND
  5
C8
330
C5
100
AcDbEntity
  8
_U+30EC_U+30A4_U+30E4_U+30FC 1
 62
   179
420
  2234388
370
     9
  0
POLYLINE
  5
C9
330
1F
100
AcDbEntity
  8
_U+30EC_U+30A4_U+30E4_U+30FC 1
 62
   179
420
  2234388
370
     9
100
AcDb2dPolyline
 66
     1
 10
0.0
 20
0.0
 30
0.0
  0
VERTEX
  5
CA
330
C9
100
AcDbEntity
  8
_U+30EC_U+30A4_U+30E4_U+30FC 1
 62
   179
420
  2234388
370
     9
100
AcDbVertex
100
AcDb2dVertex
 10
67.16437161982746
 20
-141.8187480201009
 30
0.0
  0
VERTEX
  5
CB
330
C9
100
AcDbEntity
  8
_U+30EC_U+30A4_U+30E4_U+30FC 1
 62
   179
420
  2234388
370
     9
100
AcDbVertex
100
AcDb2dVertex
 10
67.16437161982746
 20
-117.8188171927674
 30
0.0
  0
SEQEND
  5
CC
330
C9
100
AcDbEntity
  8
_U+30EC_U+30A4_U+30E4_U+30FC 1
 62
   179
420
  2234388
370
     9
  0
POLYLINE
  5
CD
330
1F
100
AcDbEntity
  8
_U+30EC_U+30A4_U+30E4_U+30FC 1
 62
   179
420
  2234388
370
     9
100
AcDb2dPolyline
 66
     1
 10
0.0
 20
0.0
 30
0.0
  0
VERTEX
  5
CE
330
CD
100
AcDbEntity
  8
_U+30EC_U+30A4_U+30E4_U+30FC 1
 62
   179
420
  2234388
370
     9
100
AcDbVertex
100
AcDb2dVertex
 10
68.62441297146759
 20
-141.8187480201009
 30
0.0
  0
VERTEX
  5
CF
330
CD
100
AcDbEntity
  8
_U+30EC_U+30A4_U+30E4_U+30FC 1
 62
   179
420
  2234388
370
     9
100
AcDbVertex
100
AcDb2dVertex
 10
66.16459942311155
 20
-141.8187480201009
 30
0.0
  0
SEQEND
  5
D0
330
CD
100
AcDbEntity
  8
_U+30EC_U+30A4_U+30E4_U+30FC 1
 62
   179
420
  2234388
370
     9
  0
POLYLINE
  5
D1
330
1F
100
AcDbEntity
  8
_U+30EC_U+30A4_U+30E4_U+30FC 1
 62
   179
420
  2234388
370
     9
100
AcDb2dPolyline
 66
     1
 10
0.0
 20
0.0
 30
0.0
  0
VERTEX
  5
D2
330
D1
100
AcDbEntity
  8
_U+30EC_U+30A4_U+30E4_U+30FC 1
 62
   179
420
  2234388
370
     9
100
AcDbVertex
100
AcDb2dVertex
 10
68.62441297146759
 20
-117.8188171927674
 30
0.0
  0
VERTEX
  5
D3
330
D1
100
AcDbEntity
  8
_U+30EC_U+30A4_U+30E4_U+30FC 1
 62
   179
420
  2234388
370
     9
100
AcDbVertex
100
AcDb2dVertex
 10
66.16459942311155
 20
-117.8188171927674
 30
0.0
  0
SEQEND
  5
D4
330
D1
100
AcDbEntity
  8
_U+30EC_U+30A4_U+30E4_U+30FC 1
 62
   179
420
  2234388
370
     9
  0
POLYLINE
  5
D5
330
1F
100
AcDbEntity
  8
_U+30EC_U+30A4_U+30E4_U+30FC 1
 62
   179
420
  2234388
370
     9
100
AcDb2dPolyline
 66
     1
 10
0.0
 20
0.0
 30
0.0
  0
VERTEX
  5
D6
330
D5
100
AcDbEntity
  8
_U+30EC_U+30A4_U+30E4_U+30FC 1
 62
   179
420
  2234388
370
     9
100
AcDbVertex
100
AcDb2dVertex
 10
74.23784998144058
 20
-112.2102149719476
 30
0.0
  0
VERTEX
  5
D7
330
D5
100
AcDbEntity
  8
_U+30EC_U+30A4_U+30E4_U+30FC 1
 62
   179
420
  2234388
370
     9
100
AcDbVertex
100
AcDb2dVertex
 10
74.23784998144058
 20
-110.7991038611893
 30
0.0
  0
SEQEND
  5
D8
330
D5
100
AcDbEntity
  8
_U+30EC_U+30A4_U+30E4_U+30FC 1
 62
   179
420
  2234388
370
     9
  0
POLYLINE
  5
D9
330
1F
100
AcDbEntity
  8
_U+30EC_U+30A4_U+30E4_U+30FC 1
 62
   179
420
  2234388
370
     9
100
AcDb2dPolyline
 66
     1
 10
0.0
 20
0.0
 30
0.0
  0
VERTEX
  5
DA
330
D9
100
AcDbEntity
  8
_U+30EC_U+30A4_U+30E4_U+30FC 1
 62
   179
420
  2234388
370
     9
100
AcDbVertex
100
AcDb2dVertex
 10
71.23923887107912
 20
-112.2102149719476
 30
0.0
  0
VERTEX
  5
DB
330
D9
100
AcDbEntity
  8
_U+30EC_U+30A4_U+30E4_U+30FC 1
 62
   179
420
  2234388
370
     9
100
AcDbVertex
100
AcDb2dVertex
 10
71.23923887107912
 20
-110.7991038611893
 30
0.0
  0
SEQEND
  5
DC
330
D9
100
AcDbEntity
  8
_U+30EC_U+30A4_U+30E4_U+30FC 1
 62
   179
420
  2234388
370
     9
  0
POLYLINE
  5
DD
330
1F
100
AcDbEntity
  8
_U+30EC_U+30A4_U+30E4_U+30FC 1
 62
   179
420
  2234388
370
     9
100
AcDb2dPolyline
 66
     1
 10
0.0
 20
0.0
 30
0.0
  0
VERTEX
  5
DE
330
DD
100
AcDbEntity
  8
_U+30EC_U+30A4_U+30E4_U+30FC 1
 62
   179
420
  2234388
370
     9
100
AcDbVertex
100
AcDb2dVertex
 10
69.98867515888459
 20
-111.5046594165684
 30
0.0
  0
VERTEX
  5
DF
330
DD
100
AcDbEntity
  8
_U+30EC_U+30A4_U+30E4_U+30FC 1
 62
   179
420
  2234388
370
     9
100
AcDbVertex
100
AcDb2dVertex
 10
75.36853613274401
 20
-111.5046594165684
 30
0.0
  0
SEQEND
  5
E0
330
DD
100
AcDbEntity
  8
_U+30EC_U+30A4_U+30E4_U+30FC 1
 62
   179
420
  2234388
370
     9
  0
INSERT
  5
E2
330
1F
100
AcDbEntity
  8
_U+30EC_U+30A4_U+30E4_U+30FC 1
100
AcDbBlockReference
  2
block 2
 10
0.0
 20
0.0
 30
0.0
  0
INSERT
  5
E8
330
1F
100
AcDbEntity
  8
_U+30EC_U+30A4_U+30E4_U+30FC 1
100
AcDbBlockReference
  2
block 3
 10
0.0
 20
0.0
 30
0.0
  0
INSERT
  5
EE
330
1F
100
AcDbEntity
  8
_U+30EC_U+30A4_U+30E4_U+30FC 1
100
AcDbBlockReference
  2
block 4
 10
0.0
 20
0.0
 30
0.0
  0
INSERT
  5
F4
330
1F
100
AcDbEntity
  8
_U+30EC_U+30A4_U+30E4_U+30FC 1
100
AcDbBlockReference
  2
block 5
 10
0.0
 20
0.0
 30
0.0
  0
INSERT
  5
FD
330
1F
100
AcDbEntity
  8
_U+30EC_U+30A4_U+30E4_U+30FC 1
100
AcDbBlockReference
  2
block 6
 10
0.0
 20
0.0
 30
0.0
  0
INSERT
  5
119
330
1F
100
AcDbEntity
  8
_U+30EC_U+30A4_U+30E4_U+30FC 1
100
AcDbBlockReference
  2
block 7
 10
0.0
 20
0.0
 30
0.0
  0
INSERT
  5
121
330
1F
100
AcDbEntity
  8
_U+30EC_U+30A4_U+30E4_U+30FC 1
100
AcDbBlockReference
  2
block 8
 10
0.0
 20
0.0
 30
0.0
  0
ENDSEC
  0
SECTION
  2
OBJECTS
  0
DICTIONARY
  5
C
330
0
100
AcDbDictionary
281
     1
  3
ACAD_GROUP
350
D
  3
ACAD_LAYOUT
350
1A
  3
ACAD_MATERIAL
350
3B
  3
ACAD_MLEADERSTYLE
350
13C
  3
ACAD_MLINESTYLE
350
17
  3
ACAD_PLOTSETTINGS
350
19
  3
ACAD_PLOTSTYLENAME
350
E
  3
ACAD_TABLESTYLE
350
13B
  3
ACAD_VISUALSTYLE
350
2A
  0
SUN
  5
3F
330
29
100
AcDbSun
 90
        1
290
     0
 63
     7
421
 16777215
 40
1.0
291
     1
 91
  2455826
 92
 54000000
292
     0
 70
     2
 71
   256
280
     1
  0
DICTIONARY
  5
D
102
{ACAD_REACTORS
330
C
102
}
330
C
100
AcDbDictionary
281
     1
  0
DICTIONARY
  5
1A
102
{ACAD_REACTORS
330
C
102
}
330
C
100
AcDbDictionary
281
     1
  3
Layout1
350
1E
  3
Layout2
350
26
  3
Model
350
22
  0
DICTIONARY
  5
3B
102
{ACAD_REACTORS
330
C
102
}
330
C
100
AcDbDictionary
281
     1
  3
ByBlock
350
3D
  3
ByLayer
350
3C
  3
Global
350
3E
  0
DICTIONARY
  5
13C
102
{ACAD_REACTORS
330
C
102
}
330
C
100
AcDbDictionary
281
     1
  0
DICTIONARY
  5
17
102
{ACAD_REACTORS
330
C
102
}
330
C
100
AcDbDictionary
281
     1
  3
Standard
350
18
  0
DICTIONARY
  5
19
102
{ACAD_REACTORS
330
C
102
}
330
C
100
AcDbDictionary
281
     1
  0
ACDBDICTIONARYWDFLT
  5
E
102
{ACAD_REACTORS
330
C
102
}
330
C
100
AcDbDictionary
281
     1
  3
Normal
350
F
100
AcDbDictionaryWithDefault
340
F
  0
DICTIONARY
  5
13B
102
{ACAD_REACTORS
330
C
102
}
330
C
100
AcDbDictionary
281
     1
  0
DICTIONARY
  5
2A
102
{ACAD_REACTORS
330
C
102
}
330
C
100
AcDbDictionary
281
     1
  3
2dWireframe
350
2F
  3
3D Hidden
350
31
  3
3dWireframe
350
30
  3
Basic
350
32
  3
Brighten
350
36
  3
ColorChange
350
3A
  3
Conceptual
350
34
  3
Dim
350
35
  3
Facepattern
350
39
  3
Flat
350
2B
  3
FlatWithEdges
350
2C
  3
Gouraud
350
2D
  3
GouraudWithEdges
350
2E
  3
Linepattern
350
38
  3
Realistic
350
33
  3
Thicken
350
37
  0
LAYOUT
  5
1E
102
{ACAD_REACTORS
330
1A
102
}
330
1A
100
AcDbPlotSettings
  1

  2
none_device
  4

  6

 40
0.0
 41
0.0
 42
0.0
 43
0.0
 44
0.0
 45
0.0
 46
0.0
 47
0.0
 48
0.0
 49
0.0
140
0.0
141
0.0
142
1.0
143
1.0
 70
   688
 72
     0
 73
     0
 74
     5
  7

 75
    16
 76
     0
 77
     2
 78
   300
147
1.0
148
0.0
149
0.0
100
AcDbLayout
  1
Layout1
 70
     1
 71
     1
 10
0.0
 20
0.0
 11
12.0
 21
9.0
 12
0.0
 22
0.0
 32
0.0
 14
1.000000000000000E+20
 24
1.000000000000000E+20
 34
1.000000000000000E+20
 15
-1.000000000000000E+20
 25
-1.000000000000000E+20
 35
-1.000000000000000E+20
146
0.0
 13
0.0
 23
0.0
 33
0.0
 16
1.0
 26
0.0
 36
0.0
 17
0.0
 27
1.0
 37
0.0
 76
     0
330
1B
  0
LAYOUT
  5
26
102
{ACAD_REACTORS
330
1A
102
}
330
1A
100
AcDbPlotSettings
  1

  2
none_device
  4

  6

 40
0.0
 41
0.0
 42
0.0
 43
0.0
 44
0.0
 45
0.0
 46
0.0
 47
0.0
 48
0.0
 49
0.0
140
0.0
141
0.0
142
1.0
143
1.0
 70
   688
 72
     0
 73
     0
 74
     5
  7

 75
    16
 76
     0
 77
     2
 78
   300
147
1.0
148
0.0
149
0.0
100
AcDbLayout
  1
Layout2
 70
     1
 71
     2
 10
0.0
 20
0.0
 11
0.0
 21
0.0
 12
0.0
 22
0.0
 32
0.0
 14
0.0
 24
0.0
 34
0.0
 15
0.0
 25
0.0
 35
0.0
146
0.0
 13
0.0
 23
0.0
 33
0.0
 16
1.0
 26
0.0
 36
0.0
 17
0.0
 27
1.0
 37
0.0
 76
     0
330
23
  0
LAYOUT
  5
22
102
{ACAD_REACTORS
330
1A
102
}
330
1A
100
AcDbPlotSettings
  1

  2
none_device
  4

  6

 40
0.0
 41
0.0
 42
0.0
 43
0.0
 44
0.0
 45
0.0
 46
0.0
 47
0.0
 48
0.0
 49
0.0
140
0.0
141
0.0
142
1.0
143
1.0
 70
  1712
 72
     0
 73
     0
 74
     0
  7

 75
     0
 76
     0
 77
     2
 78
   300
147
1.0
148
0.0
149
0.0
100
AcDbLayout
  1
Model
 70
     1
 71
     0
 10
0.0
 20
0.0
 11
12.0
 21
9.0
 12
0.0
 22
0.0
 32
0.0
 14
1.000000000000000E+20
 24
1.000000000000000E+20
 34
1.000000000000000E+20
 15
-1.000000000000000E+20
 25
-1.000000000000000E+20
 35
-1.000000000000000E+20
146
0.0
 13
0.0
 23
0.0
 33
0.0
 16
1.0
 26
0.0
 36
0.0
 17
0.0
 27
1.0
 37
0.0
 76
     0
330
1F
331
29
  0
MATERIAL
  5
3D
102
{ACAD_REACTORS
330
3B
102
}
330
3B
100
AcDbMaterial
  1
ByBlock
 72
     1
 94
      127
  0
MATERIAL
  5
3C
102
{ACAD_REACTORS
330
3B
102
}
330
3B
100
AcDbMaterial
  1
ByLayer
 72
     1
 94
      127
  0
MATERIAL
  5
3E
102
{ACAD_REACTORS
330
3B
102
}
330
3B
100
AcDbMaterial
  1
Global
 72
     1
 94
      127
  0
MLINESTYLE
  5
18
102
{ACAD_REACTORS
330
17
102
}
330
17
100
AcDbMlineStyle
  2
Standard
 70
     0
  3

 62
   256
 51
90.0
 52
90.0
 71
     2
 49
0.5
 62
   256
  6
BYLAYER
 49
-0.5
 62
   256
  6
BYLAYER
  0
ACDBPLACEHOLDER
  5
F
102
{ACAD_REACTORS
330
E
102
}
330
E
  0
VISUALSTYLE
  5
2F
102
{ACAD_REACTORS
330
2A
102
}
330
2A
100
AcDbVisualStyle
  2
2dWireframe
 70
     4
177
     2
291
     0
 71
     0
176
     1
 72
     2
176
     1
 73
     0
176
     1
 90
        0
176
     1
 40
-0.6
176
     1
 41
-30.0
176
     1
 62
     5
 63
     7
421
 16777215
176
     1
 74
     1
176
     1
 91
        4
176
     1
 64
     7
176
     1
 65
   257
176
     1
 75
     1
176
     1
175
     1
176
     1
 42
1.0
176
     1
 92
        0
176
     1
 66
   257
176
     1
 43
1.0
176
     1
 76
     1
176
     1
 77
     6
176
     1
 78
     2
176
     1
 67
     7
176
     1
 79
     5
176
     1
170
     0
176
     1
171
     0
176
     1
290
     0
176
     1
 93
        1
176
     1
 44
0.0
176
     1
173
     0
176
     1
  0
VISUALSTYLE
  5
31
102
{ACAD_REACTORS
330
2A
102
}
330
2A
100
AcDbVisualStyle
  2
3D Hidden
 70
     6
177
     2
291
     0
 71
     1
176
     1
 72
     2
176
     1
 73
     2
176
     1
 90
        0
176
     1
 40
-0.6
176
     1
 41
-30.0
176
     1
 62
     5
 63
     7
421
 16777215
176
     1
 74
     2
176
     1
 91
        2
176
     1
 64
     7
176
     1
 65
   257
176
     1
 75
     2
176
     1
175
     1
176
     1
 42
40.0
176
     1
 92
        0
176
     1
 66
   257
176
     1
 43
1.0
176
     1
 76
     1
176
     1
 77
     6
176
     1
 78
     2
176
     1
 67
     7
176
     1
 79
     3
176
     1
170
     0
176
     1
171
     0
176
     1
290
     0
176
     1
 93
        1
176
     1
 44
0.0
176
     1
173
     0
176
     1
  0
VISUALSTYLE
  5
30
102
{ACAD_REACTORS
330
2A
102
}
330
2A
100
AcDbVisualStyle
  2
3dWireframe
 70
     5
177
     2
291
     0
 71
     0
176
     1
 72
     2
176
     1
 73
     0
176
     1
 90
        0
176
     1
 40
-0.6
176
     1
 41
-30.0
176
     1
 62
     5
 63
     7
421
 16777215
176
     1
 74
     1
176
     1
 91
        4
176
     1
 64
     7
176
     1
 65
   257
176
     1
 75
     1
176
     1
175
     1
176
     1
 42
1.0
176
     1
 92
        0
176
     1
 66
   257
176
     1
 43
1.0
176
     1
 76
     1
176
     1
 77
     6
176
     1
 78
     2
176
     1
 67
     7
176
     1
 79
     5
176
     1
170
     0
176
     1
171
     0
176
     1
290
     0
176
     1
 93
        1
176
     1
 44
0.0
176
     1
173
     0
176
     1
  0
VISUALSTYLE
  5
32
102
{ACAD_REACTORS
330
2A
102
}
330
2A
100
AcDbVisualStyle
  2
Basic
 70
     7
177
     2
291
     1
 71
     1
176
     1
 72
     0
176
     1
 73
     1
176
     1
 90
        0
176
     1
 40
-0.6
176
     1
 41
-30.0
176
     1
 62
     5
 63
     7
421
 16777215
176
     1
 74
     0
176
     1
 91
        4
176
     1
 64
     7
176
     1
 65
   257
176
     1
 75
     1
176
     1
175
     1
176
     1
 42
1.0
176
     1
 92
        8
176
     1
 66
     7
176
     1
 43
1.0
176
     1
 76
     1
176
     1
 77
     6
176
     1
 78
     2
176
     1
 67
     7
176
     1
 79
     5
176
     1
170
     0
176
     1
171
     0
176
     1
290
     0
176
     1
 93
        1
176
     1
 44
0.0
176
     1
173
     0
176
     1
  0
VISUALSTYLE
  5
36
102
{ACAD_REACTORS
330
2A
102
}
330
2A
100
AcDbVisualStyle
  2
Brighten
 70
    12
177
     2
291
     1
 71
     2
176
     1
 72
     2
176
     1
 73
     0
176
     1
 90
        0
176
     1
 40
-0.6
176
     1
 41
-30.0
176
     1
 62
     5
 63
     7
421
 16777215
176
     1
 74
     1
176
     1
 91
        4
176
     1
 64
     7
176
     1
 65
   257
176
     1
 75
     1
176
     1
175
     1
176
     1
 42
1.0
176
     1
 92
        8
176
     1
 66
     7
176
     1
 43
1.0
176
     1
 76
     1
176
     1
 77
     6
176
     1
 78
     2
176
     1
 67
     7
176
     1
 79
     5
176
     1
170
     0
176
     1
171
     0
176
     1
290
     0
176
     1
 93
        1
176
     1
 44
50.0
176
     1
173
     0
176
     1
  0
VISUALSTYLE
  5
3A
102
{ACAD_REACTORS
330
2A
102
}
330
2A
100
AcDbVisualStyle
  2
ColorChange
 70
    16
177
     2
291
     1
 71
     2
176
     1
 72
     2
176
     1
 73
     3
176
     1
 90
        0
176
     1
 40
-0.6
176
     1
 41
-30.0
176
     1
 62
     5
 63
     8
421
  8421504
176
     1
 74
     1
176
     1
 91
        4
176
     1
 64
     7
176
     1
 65
   257
176
     1
 75
     1
176
     1
175
     1
176
     1
 42
1.0
176
     1
 92
        8
176
     1
 66
     8
424
  8421504
176
     1
 43
1.0
176
     1
 76
     1
176
     1
 77
     6
176
     1
 78
     2
176
     1
 67
     7
176
     1
 79
     5
176
     1
170
     0
176
     1
171
     0
176
     1
290
     0
176
     1
 93
        1
176
     1
 44
0.0
176
     1
173
     0
176
     1
  0
VISUALSTYLE
  5
34
102
{ACAD_REACTORS
330
2A
102
}
330
2A
100
AcDbVisualStyle
  2
Conceptual
 70
     9
177
     2
291
     0
 71
     3
176
     1
 72
     2
176
     1
 73
     0
176
     1
 90
        0
176
     1
 40
-0.6
176
     1
 41
-30.0
176
     1
 62
     5
 63
     7
421
 16777215
176
     1
 74
     2
176
     1
 91
        2
176
     1
 64
     7
176
     1
 65
   257
176
     1
 75
     1
176
     1
175
     1
176
     1
 42
40.0
176
     1
 92
        8
176
     1
 66
     7
176
     1
 43
1.0
176
     1
 76
     1
176
     1
 77
     6
176
     1
 78
     2
176
     1
 67
     7
176
     1
 79
     3
176
     1
170
     0
176
     1
171
     0
176
     1
290
     0
176
     1
 93
        1
176
     1
 44
0.0
176
     1
173
     0
176
     1
  0
VISUALSTYLE
  5
35
102
{ACAD_REACTORS
330
2A
102
}
330
2A
100
AcDbVisualStyle
  2
Dim
 70
    11
177
     2
291
     1
 71
     2
176
     1
 72
     2
176
     1
 73
     0
176
     1
 90
        0
176
     1
 40
-0.6
176
     1
 41
-30.0
176
     1
 62
     5
 63
     7
421
 16777215
176
     1
 74
     1
176
     1
 91
        4
176
     1
 64
     7
176
     1
 65
   257
176
     1
 75
     1
176
     1
175
     1
176
     1
 42
1.0
176
     1
 92
        8
176
     1
 66
     7
176
     1
 43
1.0
176
     1
 76
     1
176
     1
 77
     6
176
     1
 78
     2
176
     1
 67
     7
176
     1
 79
     5
176
     1
170
     0
176
     1
171
     0
176
     1
290
     0
176
     1
 93
        1
176
     1
 44
-50.0
176
     1
173
     0
176
     1
  0
VISUALSTYLE
  5
39
102
{ACAD_REACTORS
330
2A
102
}
330
2A
100
AcDbVisualStyle
  2
Facepattern
 70
    15
177
     2
291
     1
 71
     2
176
     1
 72
     2
176
     1
 73
     0
176
     1
 90
        0
176
     1
 40
-0.6
176
     1
 41
-30.0
176
     1
 62
     5
 63
     7
421
 16777215
176
     1
 74
     1
176
     1
 91
        4
176
     1
 64
     7
176
     1
 65
   257
176
     1
 75
     1
176
     1
175
     1
176
     1
 42
1.0
176
     1
 92
        8
176
     1
 66
     7
176
     1
 43
1.0
176
     1
 76
     1
176
     1
 77
     6
176
     1
 78
     2
176
     1
 67
     7
176
     1
 79
     5
176
     1
170
     0
176
     1
171
     0
176
     1
290
     0
176
     1
 93
        1
176
     1
 44
0.0
176
     1
173
     0
176
     1
  0
VISUALSTYLE
  5
2B
102
{ACAD_REACTORS
330
2A
102
}
330
2A
100
AcDbVisualStyle
  2
Flat
 70
     0
177
     2
291
     1
 71
     2
176
     1
 72
     1
176
     1
 73
     1
176
     1
 90
        2
176
     1
 40
-0.6
176
     1
 41
30.0
176
     1
 62
     5
 63
     7
421
 16777215
176
     1
 74
     0
176
     1
 91
        4
176
     1
 64
     7
176
     1
 65
   257
176
     1
 75
     1
176
     1
175
     1
176
     1
 42
1.0
176
     1
 92
        8
176
     1
 66
     7
176
     1
 43
1.0
176
     1
 76
     1
176
     1
 77
     6
176
     1
 78
     2
176
     1
 67
     7
176
     1
 79
     5
176
     1
170
     0
176
     1
171
     0
176
     1
290
     0
176
     1
 93
       13
176
     1
 44
0.0
176
     1
173
     0
176
     1
  0
VISUALSTYLE
  5
2C
102
{ACAD_REACTORS
330
2A
102
}
330
2A
100
AcDbVisualStyle
  2
FlatWithEdges
 70
     1
177
     2
291
     1
 71
     2
176
     1
 72
     1
176
     1
 73
     1
176
     1
 90
        2
176
     1
 40
-0.6
176
     1
 41
30.0
176
     1
 62
     5
 63
     7
421
 16777215
176
     1
 74
     1
176
     1
 91
        4
176
     1
 64
     7
176
     1
 65
   257
176
     1
 75
     1
176
     1
175
     1
176
     1
 42
1.0
176
     1
 92
        0
176
     1
 66
   257
176
     1
 43
1.0
176
     1
 76
     1
176
     1
 77
     6
176
     1
 78
     2
176
     1
 67
     7
176
     1
 79
     5
176
     1
170
     0
176
     1
171
     0
176
     1
290
     0
176
     1
 93
       13
176
     1
 44
0.0
176
     1
173
     0
176
     1
  0
VISUALSTYLE
  5
2D
102
{ACAD_REACTORS
330
2A
102
}
330
2A
100
AcDbVisualStyle
  2
Gouraud
 70
     2
177
     2
291
     1
 71
     2
176
     1
 72
     2
176
     1
 73
     1
176
     1
 90
        2
176
     1
 40
-0.6
176
     1
 41
30.0
176
     1
 62
     5
 63
     7
421
 16777215
176
     1
 74
     0
176
     1
 91
        4
176
     1
 64
     7
176
     1
 65
   257
176
     1
 75
     1
176
     1
175
     1
176
     1
 42
1.0
176
     1
 92
        0
176
     1
 66
     7
176
     1
 43
1.0
176
     1
 76
     1
176
     1
 77
     6
176
     1
 78
     2
176
     1
 67
     7
176
     1
 79
     5
176
     1
170
     0
176
     1
171
     0
176
     1
290
     0
176
     1
 93
       13
176
     1
 44
0.0
176
     1
173
     0
176
     1
  0
VISUALSTYLE
  5
2E
102
{ACAD_REACTORS
330
2A
102
}
330
2A
100
AcDbVisualStyle
  2
GouraudWithEdges
 70
     3
177
     2
291
     1
 71
     2
176
     1
 72
     2
176
     1
 73
     1
176
     1
 90
        2
176
     1
 40
-0.6
176
     1
 41
30.0
176
     1
 62
     5
 63
     7
421
 16777215
176
     1
 74
     1
176
     1
 91
        4
176
     1
 64
     7
176
     1
 65
   257
176
     1
 75
     1
176
     1
175
     1
176
     1
 42
1.0
176
     1
 92
        0
176
     1
 66
   257
176
     1
 43
1.0
176
     1
 76
     1
176
     1
 77
     6
176
     1
 78
     2
176
     1
 67
     7
176
     1
 79
     5
176
     1
170
     0
176
     1
171
     0
176
     1
290
     0
176
     1
 93
       13
176
     1
 44
0.0
176
     1
173
     0
176
     1
  0
VISUALSTYLE
  5
38
102
{ACAD_REACTORS
330
2A
102
}
330
2A
100
AcDbVisualStyle
  2
Linepattern
 70
    14
177
     2
291
     1
 71
     2
176
     1
 72
     2
176
     1
 73
     0
176
     1
 90
        0
176
     1
 40
-0.6
176
     1
 41
-30.0
176
     1
 62
     5
 63
     7
421
 16777215
176
     1
 74
     1
176
     1
 91
        4
176
     1
 64
     7
176
     1
 65
   257
176
     1
 75
     7
176
     1
175
     7
176
     1
 42
1.0
176
     1
 92
        8
176
     1
 66
     7
176
     1
 43
1.0
176
     1
 76
     1
176
     1
 77
     6
176
     1
 78
     2
176
     1
 67
     7
176
     1
 79
     5
176
     1
170
     0
176
     1
171
     0
176
     1
290
     0
176
     1
 93
        1
176
     1
 44
0.0
176
     1
173
     0
176
     1
  0
VISUALSTYLE
  5
33
102
{ACAD_REACTORS
330
2A
102
}
330
2A
100
AcDbVisualStyle
  2
Realistic
 70
     8
177
     2
291
     0
 71
     2
176
     1
 72
     2
176
     1
 73
     0
176
     1
 90
        0
176
     1
 40
-0.6
176
     1
 41
-30.0
176
     1
 62
     5
 63
     7
421
 16777215
176
     1
 74
     1
176
     1
 91
        0
176
     1
 64
     7
176
     1
 65
   257
176
     1
 75
     1
176
     1
175
     1
176
     1
 42
1.0
176
     1
 92
        8
176
     1
 66
     8
424
  7895160
176
     1
 43
1.0
176
     1
 76
     1
176
     1
 77
     6
176
     1
 78
     2
176
     1
 67
     7
176
     1
 79
     5
176
     1
170
     0
176
     1
171
     0
176
     1
290
     0
176
     1
 93
       13
176
     1
 44
0.0
176
     1
173
     0
176
     1
  0
VISUALSTYLE
  5
37
102
{ACAD_REACTORS
330
2A
102
}
330
2A
100
AcDbVisualStyle
  2
Thicken
 70
    13
177
     2
291
     1
 71
     2
176
     1
 72
     2
176
     1
 73
     0
176
     1
 90
        0
176
     1
 40
-0.6
176
     1
 41
-30.0
176
     1
 62
     5
 63
     7
421
 16777215
176
     1
 74
     1
176
     1
 91
        4
176
     1
 64
     7
176
     1
 65
   257
176
     1
 75
     1
176
     1
175
     1
176
     1
 42
1.0
176
     1
 92
       12
176
     1
 66
     7
176
     1
 43
1.0
176
     1
 76
     1
176
     1
 77
     6
176
     1
 78
     2
176
     1
 67
     7
176
     1
 79
     5
176
     1
170
     0
176
     1
171
     0
176
     1
290
     0
176
     1
 93
        1
176
     1
 44
0.0
176
     1
173
     0
176
     1
  0
ENDSEC
  0
EOF
