  0
SECTION
  2
HEADER
  9
$ACADVER
  1
AC1024
  9
$ACADMAINTVER
 70
     6
  9
$DWGCODEPAGE
  3
UNDEFINED
  9
$INSBASE
 10
0.0
 20
0.0
 30
0.0
  9
$EXTMIN
 10
1.000000000000000E+20
 20
1.000000000000000E+20
 30
1.000000000000000E+20
  9
$EXTMAX
 10
-1.000000000000000E+20
 20
-1.000000000000000E+20
 30
-1.000000000000000E+20
  9
$LIMMIN
 10
0.0
 20
0.0
  9
$LIMMAX
 10
12.0
 20
9.0
  9
$ORTHOMODE
 70
     0
  9
$REGENMODE
 70
     1
  9
$FILLMODE
 70
     1
  9
$QTEXTMODE
 70
     0
  9
$MIRRTEXT
 70
     1
  9
$LTSCALE
 40
1.0
  9
$ATTMODE
 70
     1
  9
$TEXTSIZE
 40
0.2
  9
$TRACEWID
 40
0.05
  9
$TEXTSTYLE
  7
Standard
  9
$CLAYER
  8
0
  9
$CELTYPE
  6
ByLayer
  9
$CECOLOR
 62
   256
  9
$CELTSCALE
 40
1.0
  9
$DISPSILH
 70
     0
  9
$DIMSCALE
 40
1.0
  9
$DIMASZ
 40
0.18
  9
$DIMEXO
 40
0.0625
  9
$DIMDLI
 40
0.38
  9
$DIMRND
 40
0.0
  9
$DIMDLE
 40
0.0
  9
$DIMEXE
 40
0.18
  9
$DIMTP
 40
0.0
  9
$DIMTM
 40
0.0
  9
$DIMTXT
 40
0.18
  9
$DIMCEN
 40
0.09
  9
$DIMTSZ
 40
0.0
  9
$DIMTOL
 70
     0
  9
$DIMLIM
 70
     0
  9
$DIMTIH
 70
     1
  9
$DIMTOH
 70
     1
  9
$DIMSE1
 70
     0
  9
$DIMSE2
 70
     0
  9
$DIMTAD
 70
     0
  9
$DIMZIN
 70
     0
  9
$DIMBLK
  1

  9
$DIMASO
 70
     1
  9
$DIMSHO
 70
     1
  9
$DIMPOST
  1

  9
$DIMAPOST
  1

  9
$DIMALT
 70
     0
  9
$DIMALTD
 70
     2
  9
$DIMALTF
 40
25.4
  9
$DIMLFAC
 40
1.0
  9
$DIMTOFL
 70
     0
  9
$DIMTVP
 40
0.0
  9
$DIMTIX
 70
     0
  9
$DIMSOXD
 70
     0
  9
$DIMSAH
 70
     0
  9
$DIMBLK1
  1

  9
$DIMBLK2
  1

  9
$DIMSTYLE
  2
Standard
  9
$DIMCLRD
 70
     0
  9
$DIMCLRE
 70
     0
  9
$DIMCLRT
 70
     0
  9
$DIMTFAC
 40
1.0
  9
$DIMGAP
 40
0.09
  9
$DIMJUST
 70
     0
  9
$DIMSD1
 70
     0
  9
$DIMSD2
 70
     0
  9
$DIMTOLJ
 70
     1
  9
$DIMTZIN
 70
     0
  9
$DIMALTZ
 70
     0
  9
$DIMALTTZ
 70
     0
  9
$DIMUPT
 70
     0
  9
$DIMDEC
 70
     4
  9
$DIMTDEC
 70
     4
  9
$DIMALTU
 70
     2
  9
$DIMALTTD
 70
     2
  9
$DIMTXSTY
  7
Standard
  9
$DIMAUNIT
 70
     0
  9
$DIMADEC
 70
     0
  9
$DIMALTRND
 40
0.0
  9
$DIMAZIN
 70
     0
  9
$DIMDSEP
 70
    46
  9
$DIMATFIT
 70
     3
  9
$DIMFRAC
 70
     0
  9
$DIMLDRBLK
  1

  9
$DIMLUNIT
 70
     2
  9
$DIMLWD
 70
    -2
  9
$DIMLWE
 70
    -2
  9
$DIMTMOVE
 70
     0
  9
$DIMFXL
 40
1.0
  9
$DIMFXLON
 70
     0
  9
$DIMJOGANG
 40
0.7853981633974483
  9
$DIMTFILL
 70
     0
  9
$DIMTFILLCLR
 70
     0
  9
$DIMARCSYM
 70
     0
  9
$DIMLTYPE
  6

  9
$DIMLTEX1
  6

  9
$DIMLTEX2
  6

  9
$DIMTXTDIRECTION
 70
     0
  9
$LUNITS
 70
     2
  9
$LUPREC
 70
     4
  9
$SKETCHINC
 40
0.1
  9
$FILLETRAD
 40
0.5
  9
$AUNITS
 70
     0
  9
$AUPREC
 70
     0
  9
$MENU
  1
.
  9
$ELEVATION
 40
0.0
  9
$PELEVATION
 40
0.0
  9
$THICKNESS
 40
0.0
  9
$LIMCHECK
 70
     0
  9
$CHAMFERA
 40
0.5
  9
$CHAMFERB
 40
0.5
  9
$CHAMFERC
 40
1.0
  9
$CHAMFERD
 40
0.0
  9
$SKPOLY
 70
     0
  9
$TDCREATE
 40
2457917.591828704
  9
$TDUCREATE
 40
2457917.216828704
  9
$TDUPDATE
 40
2457917.591828704
  9
$TDUUPDATE
 40
2457917.216828704
  9
$TDINDWG
 40
0.0000000116
  9
$TDUSRTIMER
 40
0.0000000116
  9
$USRTIMER
 70
     1
  9
$ANGBASE
 50
0.0
  9
$ANGDIR
 70
     0
  9
$PDMODE
 70
     0
  9
$PDSIZE
 40
0.0
  9
$PLINEWID
 40
0.0
  9
$SPLFRAME
 70
     0
  9
$SPLINETYPE
 70
     6
  9
$SPLINESEGS
 70
     8
  9
$HANDSEED
  5
136
  9
$SURFTAB1
 70
     6
  9
$SURFTAB2
 70
     6
  9
$SURFTYPE
 70
     6
  9
$SURFU
 70
     6
  9
$SURFV
 70
     6
  9
$UCSBASE
  2

  9
$UCSNAME
  2

  9
$UCSORG
 10
0.0
 20
0.0
 30
0.0
  9
$UCSXDIR
 10
1.0
 20
0.0
 30
0.0
  9
$UCSYDIR
 10
0.0
 20
1.0
 30
0.0
  9
$UCSORTHOREF
  2

  9
$UCSORTHOVIEW
 70
     0
  9
$UCSORGTOP
 10
0.0
 20
0.0
 30
0.0
  9
$UCSORGBOTTOM
 10
0.0
 20
0.0
 30
0.0
  9
$UCSORGLEFT
 10
0.0
 20
0.0
 30
0.0
  9
$UCSORGRIGHT
 10
0.0
 20
0.0
 30
0.0
  9
$UCSORGFRONT
 10
0.0
 20
0.0
 30
0.0
  9
$UCSORGBACK
 10
0.0
 20
0.0
 30
0.0
  9
$PUCSBASE
  2

  9
$PUCSNAME
  2

  9
$PUCSORG
 10
0.0
 20
0.0
 30
0.0
  9
$PUCSXDIR
 10
1.0
 20
0.0
 30
0.0
  9
$PUCSYDIR
 10
0.0
 20
1.0
 30
0.0
  9
$PUCSORTHOREF
  2

  9
$PUCSORTHOVIEW
 70
     0
  9
$PUCSORGTOP
 10
0.0
 20
0.0
 30
0.0
  9
$PUCSORGBOTTOM
 10
0.0
 20
0.0
 30
0.0
  9
$PUCSORGLEFT
 10
0.0
 20
0.0
 30
0.0
  9
$PUCSORGRIGHT
 10
0.0
 20
0.0
 30
0.0
  9
$PUCSORGFRONT
 10
0.0
 20
0.0
 30
0.0
  9
$PUCSORGBACK
 10
0.0
 20
0.0
 30
0.0
  9
$USERI1
 70
     0
  9
$USERI2
 70
     0
  9
$USERI3
 70
     0
  9
$USERI4
 70
     0
  9
$USERI5
 70
     0
  9
$USERR1
 40
0.0
  9
$USERR2
 40
0.0
  9
$USERR3
 40
0.0
  9
$USERR4
 40
0.0
  9
$USERR5
 40
0.0
  9
$WORLDVIEW
 70
     1
  9
$SHADEDGE
 70
     3
  9
$SHADEDIF
 70
    70
  9
$TILEMODE
 70
     1
  9
$MAXACTVP
 70
    64
  9
$PINSBASE
 10
0.0
 20
0.0
 30
0.0
  9
$PLIMCHECK
 70
     0
  9
$PEXTMIN
 10
1.000000000000000E+20
 20
1.000000000000000E+20
 30
1.000000000000000E+20
  9
$PEXTMAX
 10
-1.000000000000000E+20
 20
-1.000000000000000E+20
 30
-1.000000000000000E+20
  9
$PLIMMIN
 10
0.0
 20
0.0
  9
$PLIMMAX
 10
12.0
 20
9.0
  9
$UNITMODE
 70
     0
  9
$VISRETAIN
 70
     1
  9
$PLINEGEN
 70
     0
  9
$PSLTSCALE
 70
     1
  9
$TREEDEPTH
 70
  3020
  9
$CMLSTYLE
  2
Standard
  9
$CMLJUST
 70
     0
  9
$CMLSCALE
 40
1.0
  9
$PROXYGRAPHICS
 70
     1
  9
$MEASUREMENT
 70
     0
  9
$CELWEIGHT
370
    -1
  9
$ENDCAPS
280
     0
  9
$JOINSTYLE
280
     0
  9
$LWDISPLAY
290
     1
  9
$INSUNITS
 70
     1
  9
$HYPERLINKBASE
  1

  9
$STYLESHEET
  1

  9
$XEDIT
290
     1
  9
$CEPSNTYPE
380
     0
  9
$PSTYLEMODE
290
     1
  9
$FINGERPRINTGUID
  2
{FBE8D522-5FE1-D001-8130-266063FF8FE9}
  9
$VERSIONGUID
  2
{FAEB1C32-E019-11D5-929B-00C0DF256EC4}
  9
$EXTNAMES
290
     1
  9
$PSVPSCALE
 40
0.0
  9
$OLESTARTUP
290
     0
  9
$SORTENTS
280
   127
  9
$INDEXCTL
280
     0
  9
$HIDETEXT
280
     1
  9
$XCLIPFRAME
280
     2
  9
$HALOGAP
280
     0
  9
$OBSCOLOR
 70
   257
  9
$OBSLTYPE
280
     0
  9
$INTERSECTIONDISPLAY
280
     0
  9
$INTERSECTIONCOLOR
 70
   257
  9
$DIMASSOC
280
     2
  9
$PROJECTNAME
  1

  9
$CAMERADISPLAY
290
     0
  9
$LENSLENGTH
 40
50.0
  9
$CAMERAHEIGHT
 40
0.0
  9
$STEPSPERSEC
 40
2.0
  9
$STEPSIZE
 40
6.0
  9
$3DDWFPREC
 40
2.0
  9
$PSOLWIDTH
 40
0.25
  9
$PSOLHEIGHT
 40
4.0
  9
$LOFTANG1
 40
1.570796326794897
  9
$LOFTANG2
 40
1.570796326794897
  9
$LOFTMAG1
 40
0.0
  9
$LOFTMAG2
 40
0.0
  9
$LOFTPARAM
 70
     7
  9
$LOFTNORMALS
280
     1
  9
$LATITUDE
 40
37.795
  9
$LONGITUDE
 40
-122.394
  9
$NORTHDIRECTION
 40
0.0
  9
$TIMEZONE
 70
 -8000
  9
$LIGHTGLYPHDISPLAY
280
     1
  9
$TILEMODELIGHTSYNCH
280
     1
  9
$CMATERIAL
347
3C
  9
$SOLIDHIST
280
     1
  9
$SHOWHIST
280
     1
  9
$DWFFRAME
280
     2
  9
$DGNFRAME
280
     2
  9
$REALWORLDSCALE
290
     1
  9
$INTERFERECOLOR
 62
   256
  9
$CSHADOW
280
     0
  9
$SHADOWPLANELOCATION
 40
0.0
  0
ENDSEC
  0
SECTION
  2
CLASSES
  0
CLASS
  1
ACDBDICTIONARYWDFLT
  2
AcDbDictionaryWithDefault
  3
ObjectDBX Classes
 90
        0
 91
        4
280
     0
281
     0
  0
CLASS
  1
VISUALSTYLE
  2
AcDbVisualStyle
  3
ObjectDBX Classes
 90
     4095
 91
        4
280
     0
281
     0
  0
CLASS
  1
MATERIAL
  2
AcDbMaterial
  3
ObjectDBX Classes
 90
     1153
 91
        4
280
     0
281
     0
  0
CLASS
  1
SUN
  2
AcDbSun
  3
SCENEOE
 90
     1024
 91
        4
280
     0
281
     0
  0
ENDSEC
  0
SECTION
  2
TABLES
  0
TABLE
  2
VPORT
  5
8
330
0
100
AcDbSymbolTable
 70
     1
  0
VPORT
  5
29
330
8
100
AcDbSymbolTableRecord
100
AcDbViewportTableRecord
  2
*Active
 70
     0
 10
0.0
 20
0.0
 11
1.0
 21
1.0
 12
0.0
 22
0.0
 13
0.0
 23
0.0
 14
0.5
 24
0.5
 15
0.5
 25
0.5
 16
0.0
 26
0.0
 36
1.0
 17
91.00082462281999
 27
-128.4993055234307
 37
0.0
 40
256.9986110468615
 41
0.7081814508812795
 42
50.0
 43
0.0
 44
0.0
 50
0.0
 51
0.0
 71
     0
 72
   100
 73
     1
 74
     3
 75
     0
 76
     0
 77
     0
 78
     0
281
     0
 65
     1
110
0.0
120
0.0
130
0.0
111
1.0
121
0.0
131
0.0
112
0.0
122
1.0
132
0.0
 79
     0
146
0.0
 60
     3
 61
     5
292
     1
282
     1
141
0.0
142
0.0
 63
   250
361
3F
  0
ENDTAB
  0
TABLE
  2
LTYPE
  5
5
330
0
100
AcDbSymbolTable
 70
     1
  0
LTYPE
  5
14
330
5
100
AcDbSymbolTableRecord
100
AcDbLinetypeTableRecord
  2
ByBlock
 70
     0
  3

 72
    65
 73
     0
 40
0.0
  0
LTYPE
  5
15
330
5
100
AcDbSymbolTableRecord
100
AcDbLinetypeTableRecord
  2
ByLayer
 70
     0
  3

 72
    65
 73
     0
 40
0.0
  0
LTYPE
  5
16
330
5
100
AcDbSymbolTableRecord
100
AcDbLinetypeTableRecord
  2
Continuous
 70
     0
  3
Solid line
 72
    65
 73
     0
 40
0.0
  0
ENDTAB
  0
TABLE
  2
LAYER
  5
2
330
0
100
AcDbSymbolTable
 70
     2
  0
LAYER
  5
10
330
2
100
AcDbSymbolTableRecord
100
AcDbLayerTableRecord
  2
0
 70
     0
 62
     7
  6
Continuous
370
    -3
390
F
347
3E
  0
LAYER
  5
40
330
2
100
AcDbSymbolTableRecord
100
AcDbLayerTableRecord
  2
_U+30EC_U+30A4_U+30E4_U+30FC 1
 70
     0
 62
     7
  6
Continuous
370
    -3
390
F
347
3E
  0
ENDTAB
  0
TABLE
  2
STYLE
  5
3
330
0
100
AcDbSymbolTable
 70
     1
  0
STYLE
  5
11
330
3
100
AcDbSymbolTableRecord
100
AcDbTextStyleTableRecord
  2
Standard
 70
     0
 40
0.0
 41
1.0
 50
0.0
 71
     0
 42
0.2
  3
txt
  4

  0
ENDTAB
  0
TABLE
  2
VIEW
  5
6
330
0
100
AcDbSymbolTable
 70
     0
  0
ENDTAB
  0
TABLE
  2
UCS
  5
7
330
0
100
AcDbSymbolTable
 70
     0
  0
ENDTAB
  0
TABLE
  2
APPID
  5
9
330
0
100
AcDbSymbolTable
 70
     1
  0
APPID
  5
12
330
9
100
AcDbSymbolTableRecord
100
AcDbRegAppTableRecord
  2
ACAD
 70
     0
  0
ENDTAB
  0
TABLE
  2
DIMSTYLE
  5
A
330
0
100
AcDbSymbolTable
 70
     1
100
AcDbDimStyleTable
  0
DIMSTYLE
105
27
330
A
100
AcDbSymbolTableRecord
100
AcDbDimStyleTableRecord
  2
Standard
 70
     0
178
     0
340
11
  0
ENDTAB
  0
TABLE
  2
BLOCK_RECORD
  5
1
330
0
100
AcDbSymbolTable
 70
     9
  0
BLOCK_RECORD
  5
1F
330
1
100
AcDbSymbolTableRecord
100
AcDbBlockTableRecord
  2
*Model_Space
340
22
 70
     0
280
     1
281
     0
  0
BLOCK_RECORD
  5
1B
330
1
100
AcDbSymbolTableRecord
100
AcDbBlockTableRecord
  2
*Paper_Space
340
1E
 70
     0
280
     1
281
     0
  0
BLOCK_RECORD
  5
23
330
1
100
AcDbSymbolTableRecord
100
AcDbBlockTableRecord
  2
*Paper_Space0
340
26
 70
     0
280
     1
281
     0
  0
BLOCK_RECORD
  5
A1
330
1
100
AcDbSymbolTableRecord
100
AcDbBlockTableRecord
  2
block 2
340
0
102
{BLKREFS
331
A2
102
}
 70
     0
280
     1
281
     0
  0
BLOCK_RECORD
  5
B3
330
1
100
AcDbSymbolTableRecord
100
AcDbBlockTableRecord
  2
block 3
340
0
102
{BLKREFS
331
B4
102
}
 70
     0
280
     1
281
     0
  0
BLOCK_RECORD
  5
CE
330
1
100
AcDbSymbolTableRecord
100
AcDbBlockTableRecord
  2
block 4
340
0
102
{BLKREFS
331
CF
102
}
 70
     0
280
     1
281
     0
  0
BLOCK_RECORD
  5
D8
330
1
100
AcDbSymbolTableRecord
100
AcDbBlockTableRecord
  2
block 5
340
0
102
{BLKREFS
331
D9
102
}
 70
     0
280
     1
281
     0
  0
BLOCK_RECORD
  5
EC
330
1
100
AcDbSymbolTableRecord
100
AcDbBlockTableRecord
  2
block 6
340
0
102
{BLKREFS
331
ED
102
}
 70
     0
280
     1
281
     0
  0
BLOCK_RECORD
  5
F2
330
1
100
AcDbSymbolTableRecord
100
AcDbBlockTableRecord
  2
block 7
340
0
102
{BLKREFS
331
F3
102
}
 70
     0
280
     1
281
     0
  0
BLOCK_RECORD
  5
112
330
1
100
AcDbSymbolTableRecord
100
AcDbBlockTableRecord
  2
block 8
340
0
102
{BLKREFS
331
113
102
}
 70
     0
280
     1
281
     0
  0
BLOCK_RECORD
  5
124
330
1
100
AcDbSymbolTableRecord
100
AcDbBlockTableRecord
  2
block 9
340
0
102
{BLKREFS
331
125
102
}
 70
     0
280
     1
281
     0
  0
ENDTAB
  0
ENDSEC
  0
SECTION
  2
BLOCKS
  0
BLOCK
  5
20
330
1F
100
AcDbEntity
  8
0
100
AcDbBlockBegin
  2
*Model_Space
 70
     0
 10
0.0
 20
0.0
 30
0.0
  3
*Model_Space
  1

  0
ENDBLK
  5
21
330
1F
100
AcDbEntity
  8
0
100
AcDbBlockEnd
  0
BLOCK
  5
1C
330
1B
100
AcDbEntity
 67
     1
  8
0
100
AcDbBlockBegin
  2
*Paper_Space
 70
     0
 10
0.0
 20
0.0
 30
0.0
  3
*Paper_Space
  1

  0
ENDBLK
  5
1D
330
1B
100
AcDbEntity
 67
     1
  8
0
100
AcDbBlockEnd
  0
BLOCK
  5
24
330
23
100
AcDbEntity
  8
0
100
AcDbBlockBegin
  2
*Paper_Space0
 70
     0
 10
0.0
 20
0.0
 30
0.0
  3
*Paper_Space0
  1

  0
ENDBLK
  5
25
330
23
100
AcDbEntity
  8
0
100
AcDbBlockEnd
  0
BLOCK
  5
A3
330
A1
100
AcDbEntity
  8
0
100
AcDbBlockBegin
  2
block 2
 70
     0
 10
0.0
 20
0.0
 30
0.0
  3
block 2
  1

  0
SPLINE
  5
A5
330
A1
100
AcDbEntity
  8
_U+30EC_U+30A4_U+30E4_U+30FC 1
370
     0
100
AcDbSpline
210
0.0
220
0.0
230
1.0
 70
    11
 71
     3
 72
    29
 73
    25
 74
     0
 42
0.0000000001
 43
0.0000000001
 12
1.0
 22
0.0
 32
0.0
 13
1.0
 23
0.0
 33
0.0
 40
0.0
 40
0.0
 40
0.0
 40
0.0
 40
1.0
 40
1.0
 40
1.0
 40
2.0
 40
2.0
 40
2.0
 40
3.0
 40
3.0
 40
3.0
 40
4.0
 40
4.0
 40
4.0
 40
5.0
 40
5.0
 40
5.0
 40
6.0
 40
6.0
 40
6.0
 40
7.0
 40
7.0
 40
7.0
 40
8.0
 40
8.0
 40
8.0
 40
8.0
 10
104.9947970657652
 20
-148.007847727755
 30
0.0
 10
104.9947970657652
 20
-148.2744981183133
 30
0.0
 10
104.8569932463552
 20
-148.5284016555762
 30
0.0
 10
104.5083495832479
 20
-148.5284016555762
 30
0.0
 10
104.2520344791453
 20
-148.5284016555762
 30
0.0
 10
104.1569498437524
 20
-148.3864637215839
 30
0.0
 10
104.095627144115
 20
-148.2806992901868
 30
0.0
 10
104.0363715017687
 20
-148.4054117467528
 30
0.0
 10
103.9219943316584
 20
-148.4815483569768
 30
0.0
 10
103.7614528820458
 20
-148.4815483569768
 30
0.0
 10
103.4865342623228
 20
-148.4815483569768
 30
0.0
 10
103.350797500204
 20
-148.2827663474779
 30
0.0
 10
103.350797500204
 20
-148.007847727755
 30
0.0
 10
103.350797500204
 20
-147.7243163693189
 30
0.0
 10
103.4948024914874
 20
-147.5338025889846
 30
0.0
 10
103.7614528820458
 20
-147.5338025889846
 30
0.0
 10
103.9219943316584
 20
-147.5338025889846
 30
0.0
 10
104.0363715017687
 20
-147.6123507660483
 30
0.0
 10
104.095627144115
 20
-147.7370632226144
 30
0.0
 10
104.1466145572967
 20
-147.6481797590949
 30
0.0
 10
104.2416991926896
 20
-147.4893608572249
 30
0.0
 10
104.5042154686656
 20
-147.4893608572249
 30
0.0
 10
104.8783528383638
 20
-147.4893608572249
 30
0.0
 10
104.9947970657652
 20
-147.7687581010786
 30
0.0
 10
104.9947970657652
 20
-148.007847727755
 30
0.0
  0
SPLINE
  5
A6
330
A1
100
AcDbEntity
  8
_U+30EC_U+30A4_U+30E4_U+30FC 1
370
     0
100
AcDbSpline
210
0.0
220
0.0
230
1.0
 70
    11
 71
     3
 72
    17
 73
    13
 74
     0
 42
0.0000000001
 43
0.0000000001
 12
1.0
 22
0.0
 32
0.0
 13
1.0
 23
0.0
 33
0.0
 40
0.0
 40
0.0
 40
0.0
 40
0.0
 40
1.0
 40
1.0
 40
1.0
 40
2.0
 40
2.0
 40
2.0
 40
3.0
 40
3.0
 40
3.0
 40
4.0
 40
4.0
 40
4.0
 40
4.0
 10
103.543722847378
 20
-148.007847727755
 30
0.0
 10
103.543722847378
 20
-148.1728678014985
 30
0.0
 10
103.6388074827709
 20
-148.2576171504356
 30
0.0
 10
103.7738552257927
 20
-148.2576171504356
 30
0.0
 10
103.8965006250675
 20
-148.2576171504356
 30
0.0
 10
104.0150119097601
 20
-148.1856146547939
 30
0.0
 10
104.0150119097601
 20
-148.007847727755
 30
0.0
 10
104.0150119097601
 20
-147.8300808007161
 30
0.0
 10
103.8965006250675
 20
-147.7580783050744
 30
0.0
 10
103.7738552257927
 20
-147.7580783050744
 30
0.0
 10
103.6388074827709
 20
-147.7580783050744
 30
0.0
 10
103.543722847378
 20
-147.8448947113027
 30
0.0
 10
103.543722847378
 20
-148.007847727755
 30
0.0
  0
SPLINE
  5
A7
330
A1
100
AcDbEntity
  8
_U+30EC_U+30A4_U+30E4_U+30FC 1
370
     0
100
AcDbSpline
210
0.0
220
0.0
230
1.0
 70
    11
 71
     3
 72
    17
 73
    13
 74
     0
 42
0.0000000001
 43
0.0000000001
 12
1.0
 22
0.0
 32
0.0
 13
1.0
 23
0.0
 33
0.0
 40
0.0
 40
0.0
 40
0.0
 40
0.0
 40
1.0
 40
1.0
 40
1.0
 40
2.0
 40
2.0
 40
2.0
 40
3.0
 40
3.0
 40
3.0
 40
4.0
 40
4.0
 40
4.0
 40
4.0
 10
104.2038031423518
 20
-148.007847727755
 30
0.0
 10
104.2038031423518
 20
-148.1515082094899
 30
0.0
 10
104.2906195485801
 20
-148.3041259394865
 30
0.0
 10
104.4931911631128
 20
-148.3041259394865
 30
0.0
 10
104.6985188540337
 20
-148.3041259394865
 30
0.0
 10
104.7998046613001
 20
-148.1770019160808
 30
0.0
 10
104.7998046613001
 20
-148.007847727755
 30
0.0
 10
104.7998046613001
 20
-147.8218125715515
 30
0.0
 10
104.6771592620252
 20
-147.7115695160235
 30
0.0
 10
104.4993923349863
 20
-147.7115695160235
 30
0.0
 10
104.2775281857362
 20
-147.7115695160235
 30
0.0
 10
104.2038031423518
 20
-147.8745225324758
 30
0.0
 10
104.2038031423518
 20
-148.007847727755
 30
0.0
  0
HATCH
  5
A8
330
A1
100
AcDbEntity
  8
_U+30EC_U+30A4_U+30E4_U+30FC 1
 62
   179
420
  2234388
100
AcDbHatch
 10
0.0
 20
0.0
 30
0.0
210
0.0
220
0.0
230
1.0
  2
SOLID
 70
     1
 71
     0
 91
        3
 92
        1
 93
        1
 72
     4
 94
        3
 73
     0
 74
     1
 95
       29
 96
       25
 40
0.0
 40
0.0
 40
0.0
 40
0.0
 40
1.0
 40
1.0
 40
1.0
 40
2.0
 40
2.0
 40
2.0
 40
3.0
 40
3.0
 40
3.0
 40
4.0
 40
4.0
 40
4.0
 40
5.0
 40
5.0
 40
5.0
 40
6.0
 40
6.0
 40
6.0
 40
7.0
 40
7.0
 40
7.0
 40
8.0
 40
8.0
 40
8.0
 40
8.0
 10
104.9947970657652
 20
-148.007847727755
 10
104.9947970657652
 20
-148.2744981183133
 10
104.8569932463552
 20
-148.5284016555762
 10
104.5083495832479
 20
-148.5284016555762
 10
104.2520344791453
 20
-148.5284016555762
 10
104.1569498437524
 20
-148.3864637215839
 10
104.095627144115
 20
-148.2806992901868
 10
104.0363715017687
 20
-148.4054117467528
 10
103.9219943316584
 20
-148.4815483569768
 10
103.7614528820458
 20
-148.4815483569768
 10
103.4865342623228
 20
-148.4815483569768
 10
103.350797500204
 20
-148.2827663474779
 10
103.350797500204
 20
-148.007847727755
 10
103.350797500204
 20
-147.7243163693189
 10
103.4948024914874
 20
-147.5338025889846
 10
103.7614528820458
 20
-147.5338025889846
 10
103.9219943316584
 20
-147.5338025889846
 10
104.0363715017687
 20
-147.6123507660483
 10
104.095627144115
 20
-147.7370632226144
 10
104.1466145572967
 20
-147.6481797590949
 10
104.2416991926896
 20
-147.4893608572249
 10
104.5042154686656
 20
-147.4893608572249
 10
104.8783528383638
 20
-147.4893608572249
 10
104.9947970657652
 20
-147.7687581010786
 10
104.9947970657652
 20
-148.007847727755
 97
        0
 97
        0
 92
        1
 93
        1
 72
     4
 94
        3
 73
     0
 74
     1
 95
       17
 96
       13
 40
0.0
 40
0.0
 40
0.0
 40
0.0
 40
1.0
 40
1.0
 40
1.0
 40
2.0
 40
2.0
 40
2.0
 40
3.0
 40
3.0
 40
3.0
 40
4.0
 40
4.0
 40
4.0
 40
4.0
 10
103.543722847378
 20
-148.007847727755
 10
103.543722847378
 20
-148.1728678014985
 10
103.6388074827709
 20
-148.2576171504356
 10
103.7738552257927
 20
-148.2576171504356
 10
103.8965006250675
 20
-148.2576171504356
 10
104.0150119097601
 20
-148.1856146547939
 10
104.0150119097601
 20
-148.007847727755
 10
104.0150119097601
 20
-147.8300808007161
 10
103.8965006250675
 20
-147.7580783050744
 10
103.7738552257927
 20
-147.7580783050744
 10
103.6388074827709
 20
-147.7580783050744
 10
103.543722847378
 20
-147.8448947113027
 10
103.543722847378
 20
-148.007847727755
 97
        0
 97
        0
 92
        1
 93
        1
 72
     4
 94
        3
 73
     0
 74
     1
 95
       17
 96
       13
 40
0.0
 40
0.0
 40
0.0
 40
0.0
 40
1.0
 40
1.0
 40
1.0
 40
2.0
 40
2.0
 40
2.0
 40
3.0
 40
3.0
 40
3.0
 40
4.0
 40
4.0
 40
4.0
 40
4.0
 10
104.2038031423518
 20
-148.007847727755
 10
104.2038031423518
 20
-148.1515082094899
 10
104.2906195485801
 20
-148.3041259394865
 10
104.4931911631128
 20
-148.3041259394865
 10
104.6985188540337
 20
-148.3041259394865
 10
104.7998046613001
 20
-148.1770019160808
 10
104.7998046613001
 20
-148.007847727755
 10
104.7998046613001
 20
-147.8218125715515
 10
104.6771592620252
 20
-147.7115695160235
 10
104.4993923349863
 20
-147.7115695160235
 10
104.2775281857362
 20
-147.7115695160235
 10
104.2038031423518
 20
-147.8745225324758
 10
104.2038031423518
 20
-148.007847727755
 97
        0
 97
        0
 75
     2
 76
     1
 98
        0
  0
POLYLINE
  5
A9
330
A1
100
AcDbEntity
  8
_U+30EC_U+30A4_U+30E4_U+30FC 1
370
     0
100
AcDb2dPolyline
 66
     1
 10
0.0
 20
0.0
 30
0.0
  0
VERTEX
  5
AA
330
A9
100
AcDbEntity
  8
_U+30EC_U+30A4_U+30E4_U+30FC 1
370
     0
100
AcDbVertex
100
AcDb2dVertex
 10
104.9438096525835
 20
-147.2709418034601
 30
0.0
  0
VERTEX
  5
AB
330
A9
100
AcDbEntity
  8
_U+30EC_U+30A4_U+30E4_U+30FC 1
370
     0
100
AcDbVertex
100
AcDb2dVertex
 10
104.6923176821603
 20
-147.2709418034601
 30
0.0
  0
VERTEX
  5
AC
330
A9
100
AcDbEntity
  8
_U+30EC_U+30A4_U+30E4_U+30FC 1
370
     0
100
AcDbVertex
100
AcDb2dVertex
 10
104.6923176821603
 20
-147.0191053234883
 30
0.0
  0
VERTEX
  5
AD
330
A9
100
AcDbEntity
  8
_U+30EC_U+30A4_U+30E4_U+30FC 1
370
     0
100
AcDbVertex
100
AcDb2dVertex
 10
104.9438096525835
 20
-147.0191053234883
 30
0.0
  0
VERTEX
  5
AE
330
A9
100
AcDbEntity
  8
_U+30EC_U+30A4_U+30E4_U+30FC 1
370
     0
100
AcDbVertex
100
AcDb2dVertex
 10
104.9438096525835
 20
-147.2709418034601
 30
0.0
  0
SEQEND
  5
AF
330
A9
100
AcDbEntity
  8
_U+30EC_U+30A4_U+30E4_U+30FC 1
370
     0
  0
HATCH
  5
B0
330
A1
100
AcDbEntity
  8
_U+30EC_U+30A4_U+30E4_U+30FC 1
 62
   179
420
  2234388
100
AcDbHatch
 10
0.0
 20
0.0
 30
0.0
210
0.0
220
0.0
230
1.0
  2
SOLID
 70
     1
 71
     0
 91
        1
 92
        1
 93
        4
 72
     1
 10
104.9438096525835
 20
-147.2709418034601
 11
104.6923176821603
 21
-147.2709418034601
 72
     1
 10
104.6923176821603
 20
-147.2709418034601
 11
104.6923176821603
 21
-147.0191053234883
 72
     1
 10
104.6923176821603
 20
-147.0191053234883
 11
104.9438096525835
 21
-147.0191053234883
 72
     1
 10
104.9438096525835
 20
-147.0191053234883
 11
104.9438096525835
 21
-147.2709418034601
 97
        0
 75
     2
 76
     1
 98
        0
  0
SPLINE
  5
B1
330
A1
100
AcDbEntity
  8
_U+30EC_U+30A4_U+30E4_U+30FC 1
370
     0
100
AcDbSpline
210
0.0
220
0.0
230
1.0
 70
    11
 71
     3
 72
    53
 73
    49
 74
     0
 42
0.0000000001
 43
0.0000000001
 12
1.0
 22
0.0
 32
0.0
 13
1.0
 23
0.0
 33
0.0
 40
0.0
 40
0.0
 40
0.0
 40
0.0
 40
1.0
 40
1.0
 40
1.0
 40
2.0
 40
2.0
 40
2.0
 40
3.0
 40
3.0
 40
3.0
 40
4.0
 40
4.0
 40
4.0
 40
5.0
 40
5.0
 40
5.0
 40
6.0
 40
6.0
 40
6.0
 40
7.0
 40
7.0
 40
7.0
 40
8.0
 40
8.0
 40
8.0
 40
9.0
 40
9.0
 40
9.0
 40
10.0
 40
10.0
 40
10.0
 40
11.0
 40
11.0
 40
11.0
 40
12.0
 40
12.0
 40
12.0
 40
13.0
 40
13.0
 40
13.0
 40
14.0
 40
14.0
 40
14.0
 40
15.0
 40
15.0
 40
15.0
 40
16.0
 40
16.0
 40
16.0
 40
16.0
 10
104.9947970657652
 20
-146.3018364434593
 30
0.0
 10
104.9947970657652
 20
-146.3800401109744
 30
0.0
 10
104.9775715883389
 20
-146.4816704277893
 30
0.0
 10
104.9141818314103
 20
-146.5833007446042
 30
0.0
 10
104.8046277949794
 20
-146.7565890475123
 30
0.0
 10
104.6730251474429
 20
-146.7779486395208
 30
0.0
 10
104.5655381683031
 20
-146.7968966646897
 30
0.0
 10
104.5655381683031
 20
-146.7968966646897
 30
0.0
 10
104.5655381683031
 20
-146.5746880058911
 30
0.0
 10
104.5655381683031
 20
-146.5746880058911
 30
0.0
 10
104.7639756682535
 20
-146.5199109876756
 30
0.0
 10
104.7936034894266
 20
-146.3927869642699
 30
0.0
 10
104.7936034894266
 20
-146.2997693861681
 30
0.0
 10
104.7936034894266
 20
-146.1602430190155
 30
0.0
 10
104.6943847394514
 20
-146.0079697985675
 30
0.0
 10
104.4614962846485
 20
-146.0079697985675
 30
0.0
 10
104.205870199643
 20
-146.0079697985675
 30
0.0
 10
104.1355902517439
 20
-146.1878037828975
 30
0.0
 10
104.1355902517439
 20
-146.3083821248812
 30
0.0
 10
104.1355902517439
 20
-146.3400770033456
 30
0.0
 10
104.1355902517439
 20
-146.4816704277893
 30
0.0
 10
104.2651258419893
 20
-146.5705538913087
 30
0.0
 10
104.2651258419893
 20
-146.5705538913087
 30
0.0
 10
104.2458333072719
 20
-146.7462537610565
 30
0.0
 10
104.2458333072719
 20
-146.7462537610565
 30
0.0
 10
104.2458333072719
 20
-146.7462537610565
 30
0.0
 10
103.3997178560945
 20
-146.6256754190728
 30
0.0
 10
103.3997178560945
 20
-146.6256754190728
 30
0.0
 10
103.3997178560945
 20
-146.6256754190728
 30
0.0
 10
103.3997178560945
 20
-145.8470838394063
 30
0.0
 10
103.3997178560945
 20
-145.8470838394063
 30
0.0
 10
103.3997178560945
 20
-145.8470838394063
 30
0.0
 10
103.5940212414626
 20
-145.8470838394063
 30
0.0
 10
103.5940212414626
 20
-145.8470838394063
 30
0.0
 10
103.5940212414626
 20
-145.8470838394063
 30
0.0
 10
103.5940212414626
 20
-146.4627224026204
 30
0.0
 10
103.5940212414626
 20
-146.4627224026204
 30
0.0
 10
103.5940212414626
 20
-146.4627224026204
 30
0.0
 10
104.0170789670513
 20
-146.5281792168402
 30
0.0
 10
104.0170789670513
 20
-146.5281792168402
 30
0.0
 10
103.9833170312958
 20
-146.4668565172027
 30
0.0
 10
103.9433539236669
 20
-146.3845187351053
 30
0.0
 10
103.9433539236669
 20
-146.2660074504127
 30
0.0
 10
103.9433539236669
 20
-146.0121039131498
 30
0.0
 10
104.1293890798704
 20
-145.7750813437646
 30
0.0
 10
104.4428927690282
 20
-145.7750813437646
 30
0.0
 10
104.7598415536712
 20
-145.7750813437646
 30
0.0
 10
104.9947970657652
 20
-145.9993570598543
 30
0.0
 10
104.9947970657652
 20
-146.3018364434593
 30
0.0
  0
HATCH
  5
B2
330
A1
100
AcDbEntity
  8
_U+30EC_U+30A4_U+30E4_U+30FC 1
 62
   179
420
  2234388
100
AcDbHatch
 10
0.0
 20
0.0
 30
0.0
210
0.0
220
0.0
230
1.0
  2
SOLID
 70
     1
 71
     0
 91
        1
 92
        1
 93
        1
 72
     4
 94
        3
 73
     0
 74
     1
 95
       53
 96
       49
 40
0.0
 40
0.0
 40
0.0
 40
0.0
 40
1.0
 40
1.0
 40
1.0
 40
2.0
 40
2.0
 40
2.0
 40
3.0
 40
3.0
 40
3.0
 40
4.0
 40
4.0
 40
4.0
 40
5.0
 40
5.0
 40
5.0
 40
6.0
 40
6.0
 40
6.0
 40
7.0
 40
7.0
 40
7.0
 40
8.0
 40
8.0
 40
8.0
 40
9.0
 40
9.0
 40
9.0
 40
10.0
 40
10.0
 40
10.0
 40
11.0
 40
11.0
 40
11.0
 40
12.0
 40
12.0
 40
12.0
 40
13.0
 40
13.0
 40
13.0
 40
14.0
 40
14.0
 40
14.0
 40
15.0
 40
15.0
 40
15.0
 40
16.0
 40
16.0
 40
16.0
 40
16.0
 10
104.9947970657652
 20
-146.3018364434593
 10
104.9947970657652
 20
-146.3800401109744
 10
104.9775715883389
 20
-146.4816704277893
 10
104.9141818314103
 20
-146.5833007446042
 10
104.8046277949794
 20
-146.7565890475123
 10
104.6730251474429
 20
-146.7779486395208
 10
104.5655381683031
 20
-146.7968966646897
 10
104.5655381683031
 20
-146.7968966646897
 10
104.5655381683031
 20
-146.5746880058911
 10
104.5655381683031
 20
-146.5746880058911
 10
104.7639756682535
 20
-146.5199109876756
 10
104.7936034894266
 20
-146.3927869642699
 10
104.7936034894266
 20
-146.2997693861681
 10
104.7936034894266
 20
-146.1602430190155
 10
104.6943847394514
 20
-146.0079697985675
 10
104.4614962846485
 20
-146.0079697985675
 10
104.205870199643
 20
-146.0079697985675
 10
104.1355902517439
 20
-146.1878037828975
 10
104.1355902517439
 20
-146.3083821248812
 10
104.1355902517439
 20
-146.3400770033456
 10
104.1355902517439
 20
-146.4816704277893
 10
104.2651258419893
 20
-146.5705538913087
 10
104.2651258419893
 20
-146.5705538913087
 10
104.2458333072719
 20
-146.7462537610565
 10
104.2458333072719
 20
-146.7462537610565
 10
104.2458333072719
 20
-146.7462537610565
 10
103.3997178560945
 20
-146.6256754190728
 10
103.3997178560945
 20
-146.6256754190728
 10
103.3997178560945
 20
-146.6256754190728
 10
103.3997178560945
 20
-145.8470838394063
 10
103.3997178560945
 20
-145.8470838394063
 10
103.3997178560945
 20
-145.8470838394063
 10
103.5940212414626
 20
-145.8470838394063
 10
103.5940212414626
 20
-145.8470838394063
 10
103.5940212414626
 20
-145.8470838394063
 10
103.5940212414626
 20
-146.4627224026204
 10
103.5940212414626
 20
-146.4627224026204
 10
103.5940212414626
 20
-146.4627224026204
 10
104.0170789670513
 20
-146.5281792168402
 10
104.0170789670513
 20
-146.5281792168402
 10
103.9833170312958
 20
-146.4668565172027
 10
103.9433539236669
 20
-146.3845187351053
 10
103.9433539236669
 20
-146.2660074504127
 10
103.9433539236669
 20
-146.0121039131498
 10
104.1293890798704
 20
-145.7750813437646
 10
104.4428927690282
 20
-145.7750813437646
 10
104.7598415536712
 20
-145.7750813437646
 10
104.9947970657652
 20
-145.9993570598543
 10
104.9947970657652
 20
-146.3018364434593
 97
        0
 97
        0
 75
     2
 76
     1
 98
        0
  0
ENDBLK
  5
A4
330
A1
100
AcDbEntity
  8
0
100
AcDbBlockEnd
  0
BLOCK
  5
B5
330
B3
100
AcDbEntity
  8
0
100
AcDbBlockBegin
  2
block 3
 70
     0
 10
0.0
 20
0.0
 30
0.0
  3
block 3
  1

  0
POLYLINE
  5
B7
330
B3
100
AcDbEntity
  8
_U+30EC_U+30A4_U+30E4_U+30FC 1
370
     0
100
AcDb2dPolyline
 66
     1
 10
0.0
 20
0.0
 30
0.0
  0
VERTEX
  5
B8
330
B7
100
AcDbEntity
  8
_U+30EC_U+30A4_U+30E4_U+30FC 1
370
     0
100
AcDbVertex
100
AcDb2dVertex
 10
101.7147216542588
 20
-119.9757947833741
 30
0.0
  0
VERTEX
  5
B9
330
B7
100
AcDbEntity
  8
_U+30EC_U+30A4_U+30E4_U+30FC 1
370
     0
100
AcDbVertex
100
AcDb2dVertex
 10
102.0616427696235
 20
-119.9757947833741
 30
0.0
  0
VERTEX
  5
BA
330
B7
100
AcDbEntity
  8
_U+30EC_U+30A4_U+30E4_U+30FC 1
370
     0
100
AcDbVertex
100
AcDb2dVertex
 10
102.0616427696235
 20
-120.1935248180419
 30
0.0
  0
VERTEX
  5
BB
330
B7
100
AcDbEntity
  8
_U+30EC_U+30A4_U+30E4_U+30FC 1
370
     0
100
AcDbVertex
100
AcDb2dVertex
 10
101.7147216542588
 20
-120.1935248180419
 30
0.0
  0
VERTEX
  5
BC
330
B7
100
AcDbEntity
  8
_U+30EC_U+30A4_U+30E4_U+30FC 1
370
     0
100
AcDbVertex
100
AcDb2dVertex
 10
101.7147216542588
 20
-120.8494709984335
 30
0.0
  0
VERTEX
  5
BD
330
B7
100
AcDbEntity
  8
_U+30EC_U+30A4_U+30E4_U+30FC 1
370
     0
100
AcDbVertex
100
AcDb2dVertex
 10
101.4904459381691
 20
-120.8494709984335
 30
0.0
  0
VERTEX
  5
BE
330
B7
100
AcDbEntity
  8
_U+30EC_U+30A4_U+30E4_U+30FC 1
370
     0
100
AcDbVertex
100
AcDb2dVertex
 10
100.517206463586
 20
-120.1704426782907
 30
0.0
  0
VERTEX
  5
BF
330
B7
100
AcDbEntity
  8
_U+30EC_U+30A4_U+30E4_U+30FC 1
370
     0
100
AcDbVertex
100
AcDb2dVertex
 10
100.517206463586
 20
-119.9757947833741
 30
0.0
  0
VERTEX
  5
C0
330
B7
100
AcDbEntity
  8
_U+30EC_U+30A4_U+30E4_U+30FC 1
370
     0
100
AcDbVertex
100
AcDb2dVertex
 10
101.5159396447599
 20
-119.9757947833741
 30
0.0
  0
VERTEX
  5
C1
330
B7
100
AcDbEntity
  8
_U+30EC_U+30A4_U+30E4_U+30FC 1
370
     0
100
AcDbVertex
100
AcDb2dVertex
 10
101.5159396447599
 20
-119.7684000351621
 30
0.0
  0
VERTEX
  5
C2
330
B7
100
AcDbEntity
  8
_U+30EC_U+30A4_U+30E4_U+30FC 1
370
     0
100
AcDbVertex
100
AcDb2dVertex
 10
101.7147216542588
 20
-119.7684000351621
 30
0.0
  0
VERTEX
  5
C3
330
B7
100
AcDbEntity
  8
_U+30EC_U+30A4_U+30E4_U+30FC 1
370
     0
100
AcDbVertex
100
AcDb2dVertex
 10
101.7147216542588
 20
-119.9757947833741
 30
0.0
  0
SEQEND
  5
C4
330
B7
100
AcDbEntity
  8
_U+30EC_U+30A4_U+30E4_U+30FC 1
370
     0
  0
POLYLINE
  5
C5
330
B3
100
AcDbEntity
  8
_U+30EC_U+30A4_U+30E4_U+30FC 1
370
     0
100
AcDb2dPolyline
 66
     1
 10
0.0
 20
0.0
 30
0.0
  0
VERTEX
  5
C6
330
C5
100
AcDbEntity
  8
_U+30EC_U+30A4_U+30E4_U+30FC 1
370
     0
100
AcDbVertex
100
AcDb2dVertex
 10
100.8599934643683
 20
-120.1935248180419
 30
0.0
  0
VERTEX
  5
C7
330
C5
100
AcDbEntity
  8
_U+30EC_U+30A4_U+30E4_U+30FC 1
370
     0
100
AcDbVertex
100
AcDb2dVertex
 10
101.5159396447599
 20
-120.6506889889346
 30
0.0
  0
VERTEX
  5
C8
330
C5
100
AcDbEntity
  8
_U+30EC_U+30A4_U+30E4_U+30FC 1
370
     0
100
AcDbVertex
100
AcDb2dVertex
 10
101.5159396447599
 20
-120.1935248180419
 30
0.0
  0
VERTEX
  5
C9
330
C5
100
AcDbEntity
  8
_U+30EC_U+30A4_U+30E4_U+30FC 1
370
     0
100
AcDbVertex
100
AcDb2dVertex
 10
100.8599934643683
 20
-120.1935248180419
 30
0.0
  0
SEQEND
  5
CA
330
C5
100
AcDbEntity
  8
_U+30EC_U+30A4_U+30E4_U+30FC 1
370
     0
  0
HATCH
  5
CB
330
B3
100
AcDbEntity
  8
_U+30EC_U+30A4_U+30E4_U+30FC 1
 62
   179
420
  2234388
100
AcDbHatch
 10
0.0
 20
0.0
 30
0.0
210
0.0
220
0.0
230
1.0
  2
SOLID
 70
     1
 71
     0
 91
        2
 92
        1
 93
       11
 72
     1
 10
101.7147216542588
 20
-119.9757947833741
 11
102.0616427696235
 21
-119.9757947833741
 72
     1
 10
102.0616427696235
 20
-119.9757947833741
 11
102.0616427696235
 21
-120.1935248180419
 72
     1
 10
102.0616427696235
 20
-120.1935248180419
 11
101.7147216542588
 21
-120.1935248180419
 72
     1
 10
101.7147216542588
 20
-120.1935248180419
 11
101.7147216542588
 21
-120.8494709984335
 72
     1
 10
101.7147216542588
 20
-120.8494709984335
 11
101.4904459381691
 21
-120.8494709984335
 72
     1
 10
101.4904459381691
 20
-120.8494709984335
 11
100.517206463586
 21
-120.1704426782907
 72
     1
 10
100.517206463586
 20
-120.1704426782907
 11
100.517206463586
 21
-119.9757947833741
 72
     1
 10
100.517206463586
 20
-119.9757947833741
 11
101.5159396447599
 21
-119.9757947833741
 72
     1
 10
101.5159396447599
 20
-119.9757947833741
 11
101.5159396447599
 21
-119.7684000351621
 72
     1
 10
101.5159396447599
 20
-119.7684000351621
 11
101.7147216542588
 21
-119.7684000351621
 72
     1
 10
101.7147216542588
 20
-119.7684000351621
 11
101.7147216542588
 21
-119.9757947833741
 97
        0
 92
        1
 93
        3
 72
     1
 10
100.8599934643683
 20
-120.1935248180419
 11
101.5159396447599
 21
-120.6506889889346
 72
     1
 10
101.5159396447599
 20
-120.6506889889346
 11
101.5159396447599
 21
-120.1935248180419
 72
     1
 10
101.5159396447599
 20
-120.1935248180419
 11
100.8599934643683
 21
-120.1935248180419
 97
        0
 75
     2
 76
     1
 98
        0
  0
SPLINE
  5
CC
330
B3
100
AcDbEntity
  8
_U+30EC_U+30A4_U+30E4_U+30FC 1
370
     0
100
AcDbSpline
210
0.0
220
0.0
230
1.0
 70
    11
 71
     3
 72
    53
 73
    49
 74
     0
 42
0.0000000001
 43
0.0000000001
 12
1.0
 22
0.0
 32
0.0
 13
1.0
 23
0.0
 33
0.0
 40
0.0
 40
0.0
 40
0.0
 40
0.0
 40
1.0
 40
1.0
 40
1.0
 40
2.0
 40
2.0
 40
2.0
 40
3.0
 40
3.0
 40
3.0
 40
4.0
 40
4.0
 40
4.0
 40
5.0
 40
5.0
 40
5.0
 40
6.0
 40
6.0
 40
6.0
 40
7.0
 40
7.0
 40
7.0
 40
8.0
 40
8.0
 40
8.0
 40
9.0
 40
9.0
 40
9.0
 40
10.0
 40
10.0
 40
10.0
 40
11.0
 40
11.0
 40
11.0
 40
12.0
 40
12.0
 40
12.0
 40
13.0
 40
13.0
 40
13.0
 40
14.0
 40
14.0
 40
14.0
 40
15.0
 40
15.0
 40
15.0
 40
16.0
 40
16.0
 40
16.0
 40
16.0
 10
102.1122856732567
 20
-119.1500053955597
 30
0.0
 10
102.1122856732567
 20
-119.2282090630749
 30
0.0
 10
102.0954047053789
 20
-119.3298393798898
 30
0.0
 10
102.0320149484503
 20
-119.4314696967046
 30
0.0
 10
101.9221164024709
 20
-119.6047579996127
 30
0.0
 10
101.7908582644828
 20
-119.6261175916213
 30
0.0
 10
101.6830267757945
 20
-119.6450656167901
 30
0.0
 10
101.6830267757945
 20
-119.6450656167901
 30
0.0
 10
101.6830267757945
 20
-119.4228569579915
 30
0.0
 10
101.6830267757945
 20
-119.4228569579915
 30
0.0
 10
101.8818087852934
 20
-119.368079939776
 30
0.0
 10
101.9114366064666
 20
-119.2409559163703
 30
0.0
 10
101.9114366064666
 20
-119.1479383382686
 30
0.0
 10
101.9114366064666
 20
-119.008411971116
 30
0.0
 10
101.8118733469429
 20
-118.8561387506679
 30
0.0
 10
101.5793294016885
 20
-118.8561387506679
 30
0.0
 10
101.3233588071344
 20
-118.8561387506679
 30
0.0
 10
101.2534233687839
 20
-119.035972734998
 30
0.0
 10
101.2534233687839
 20
-119.1565510769817
 30
0.0
 10
101.2534233687839
 20
-119.188245955446
 30
0.0
 10
101.2534233687839
 20
-119.3298393798898
 30
0.0
 10
101.3826144494807
 20
-119.4187228434092
 30
0.0
 10
101.3826144494807
 20
-119.4187228434092
 30
0.0
 10
101.3636664243119
 20
-119.594422713157
 30
0.0
 10
101.3636664243119
 20
-119.594422713157
 30
0.0
 10
101.3636664243119
 20
-119.594422713157
 30
0.0
 10
100.517206463586
 20
-119.4738443711732
 30
0.0
 10
100.517206463586
 20
-119.4738443711732
 30
0.0
 10
100.517206463586
 20
-119.4738443711732
 30
0.0
 10
100.517206463586
 20
-118.6952527915067
 30
0.0
 10
100.517206463586
 20
-118.6952527915067
 30
0.0
 10
100.517206463586
 20
-118.6952527915067
 30
0.0
 10
100.7118543585026
 20
-118.6952527915067
 30
0.0
 10
100.7118543585026
 20
-118.6952527915067
 30
0.0
 10
100.7118543585026
 20
-118.6952527915067
 30
0.0
 10
100.7118543585026
 20
-119.3108913547209
 30
0.0
 10
100.7118543585026
 20
-119.3108913547209
 30
0.0
 10
100.7118543585026
 20
-119.3108913547209
 30
0.0
 10
101.1349120840913
 20
-119.3763481689406
 30
0.0
 10
101.1349120840913
 20
-119.3763481689406
 30
0.0
 10
101.1011501483358
 20
-119.3150254693032
 30
0.0
 10
101.0608425311584
 20
-119.2326876872057
 30
0.0
 10
101.0608425311584
 20
-119.1141764025131
 30
0.0
 10
101.0608425311584
 20
-118.8602728652502
 30
0.0
 10
101.2472221969104
 20
-118.623250295865
 30
0.0
 10
101.5603813765196
 20
-118.623250295865
 30
0.0
 10
101.8776746707111
 20
-118.623250295865
 30
0.0
 10
102.1122856732567
 20
-118.8475260119548
 30
0.0
 10
102.1122856732567
 20
-119.1500053955597
 30
0.0
  0
HATCH
  5
CD
330
B3
100
AcDbEntity
  8
_U+30EC_U+30A4_U+30E4_U+30FC 1
 62
   179
420
  2234388
100
AcDbHatch
 10
0.0
 20
0.0
 30
0.0
210
0.0
220
0.0
230
1.0
  2
SOLID
 70
     1
 71
     0
 91
        1
 92
        1
 93
        1
 72
     4
 94
        3
 73
     0
 74
     1
 95
       53
 96
       49
 40
0.0
 40
0.0
 40
0.0
 40
0.0
 40
1.0
 40
1.0
 40
1.0
 40
2.0
 40
2.0
 40
2.0
 40
3.0
 40
3.0
 40
3.0
 40
4.0
 40
4.0
 40
4.0
 40
5.0
 40
5.0
 40
5.0
 40
6.0
 40
6.0
 40
6.0
 40
7.0
 40
7.0
 40
7.0
 40
8.0
 40
8.0
 40
8.0
 40
9.0
 40
9.0
 40
9.0
 40
10.0
 40
10.0
 40
10.0
 40
11.0
 40
11.0
 40
11.0
 40
12.0
 40
12.0
 40
12.0
 40
13.0
 40
13.0
 40
13.0
 40
14.0
 40
14.0
 40
14.0
 40
15.0
 40
15.0
 40
15.0
 40
16.0
 40
16.0
 40
16.0
 40
16.0
 10
102.1122856732567
 20
-119.1500053955597
 10
102.1122856732567
 20
-119.2282090630749
 10
102.0954047053789
 20
-119.3298393798898
 10
102.0320149484503
 20
-119.4314696967046
 10
101.9221164024709
 20
-119.6047579996127
 10
101.7908582644828
 20
-119.6261175916213
 10
101.6830267757945
 20
-119.6450656167901
 10
101.6830267757945
 20
-119.6450656167901
 10
101.6830267757945
 20
-119.4228569579915
 10
101.6830267757945
 20
-119.4228569579915
 10
101.8818087852934
 20
-119.368079939776
 10
101.9114366064666
 20
-119.2409559163703
 10
101.9114366064666
 20
-119.1479383382686
 10
101.9114366064666
 20
-119.008411971116
 10
101.8118733469429
 20
-118.8561387506679
 10
101.5793294016885
 20
-118.8561387506679
 10
101.3233588071344
 20
-118.8561387506679
 10
101.2534233687839
 20
-119.035972734998
 10
101.2534233687839
 20
-119.1565510769817
 10
101.2534233687839
 20
-119.188245955446
 10
101.2534233687839
 20
-119.3298393798898
 10
101.3826144494807
 20
-119.4187228434092
 10
101.3826144494807
 20
-119.4187228434092
 10
101.3636664243119
 20
-119.594422713157
 10
101.3636664243119
 20
-119.594422713157
 10
101.3636664243119
 20
-119.594422713157
 10
100.517206463586
 20
-119.4738443711732
 10
100.517206463586
 20
-119.4738443711732
 10
100.517206463586
 20
-119.4738443711732
 10
100.517206463586
 20
-118.6952527915067
 10
100.517206463586
 20
-118.6952527915067
 10
100.517206463586
 20
-118.6952527915067
 10
100.7118543585026
 20
-118.6952527915067
 10
100.7118543585026
 20
-118.6952527915067
 10
100.7118543585026
 20
-118.6952527915067
 10
100.7118543585026
 20
-119.3108913547209
 10
100.7118543585026
 20
-119.3108913547209
 10
100.7118543585026
 20
-119.3108913547209
 10
101.1349120840913
 20
-119.3763481689406
 10
101.1349120840913
 20
-119.3763481689406
 10
101.1011501483358
 20
-119.3150254693032
 10
101.0608425311584
 20
-119.2326876872057
 10
101.0608425311584
 20
-119.1141764025131
 10
101.0608425311584
 20
-118.8602728652502
 10
101.2472221969104
 20
-118.623250295865
 10
101.5603813765196
 20
-118.623250295865
 10
101.8776746707111
 20
-118.623250295865
 10
102.1122856732567
 20
-118.8475260119548
 10
102.1122856732567
 20
-119.1500053955597
 97
        0
 97
        0
 75
     2
 76
     1
 98
        0
  0
ENDBLK
  5
B6
330
B3
100
AcDbEntity
  8
0
100
AcDbBlockEnd
  0
BLOCK
  5
D0
330
CE
100
AcDbEntity
  8
0
100
AcDbBlockBegin
  2
block 4
 70
     0
 10
0.0
 20
0.0
 30
0.0
  3
block 4
  1

  0
SPLINE
  5
D2
330
CE
100
AcDbEntity
  8
_U+30EC_U+30A4_U+30E4_U+30FC 1
370
     0
100
AcDbSpline
210
0.0
220
0.0
230
1.0
 70
    11
 71
     3
 72
    62
 73
    58
 74
     0
 42
0.0000000001
 43
0.0000000001
 12
1.0
 22
0.0
 32
0.0
 13
1.0
 23
0.0
 33
0.0
 40
0.0
 40
0.0
 40
0.0
 40
0.0
 40
1.0
 40
1.0
 40
1.0
 40
2.0
 40
2.0
 40
2.0
 40
3.0
 40
3.0
 40
3.0
 40
4.0
 40
4.0
 40
4.0
 40
5.0
 40
5.0
 40
5.0
 40
6.0
 40
6.0
 40
6.0
 40
7.0
 40
7.0
 40
7.0
 40
8.0
 40
8.0
 40
8.0
 40
9.0
 40
9.0
 40
9.0
 40
10.0
 40
10.0
 40
10.0
 40
11.0
 40
11.0
 40
11.0
 40
12.0
 40
12.0
 40
12.0
 40
13.0
 40
13.0
 40
13.0
 40
14.0
 40
14.0
 40
14.0
 40
15.0
 40
15.0
 40
15.0
 40
16.0
 40
16.0
 40
16.0
 40
17.0
 40
17.0
 40
17.0
 40
18.0
 40
18.0
 40
18.0
 40
19.0
 40
19.0
 40
19.0
 40
19.0
 10
104.9947970657652
 20
-152.571910226614
 30
0.0
 10
104.9947970657652
 20
-152.6673393715554
 30
0.0
 10
104.9734374737566
 20
-152.8850694062232
 30
0.0
 10
104.7874023175532
 20
-153.0101263723378
 30
0.0
 10
104.675092204734
 20
-153.0841959252706
 30
0.0
 10
104.5758734547588
 20
-153.0883300398529
 30
0.0
 10
104.4911241058217
 20
-153.0924641544352
 30
0.0
 10
104.4911241058217
 20
-153.0924641544352
 30
0.0
 10
104.4911241058217
 20
-152.8723225529278
 30
0.0
 10
104.4911241058217
 20
-152.8723225529278
 30
0.0
 10
104.5655381683031
 20
-152.8702554956366
 30
0.0
 10
104.7998046613001
 20
-152.8599202091809
 30
0.0
 10
104.7998046613001
 20
-152.5763888507448
 30
0.0
 10
104.7998046613001
 20
-152.4389295408833
 30
0.0
 10
104.730213732498
 20
-152.2863118108868
 30
0.0
 10
104.5021484113745
 20
-152.2863118108868
 30
0.0
 10
104.385704183973
 20
-152.2863118108868
 30
0.0
 10
104.3367838280825
 20
-152.324552370773
 30
0.0
 10
104.3050889496182
 20
-152.3562472492373
 30
0.0
 10
104.2313639062338
 20
-152.4303168021702
 30
0.0
 10
104.2182725433899
 20
-152.5467610295717
 30
0.0
 10
104.2182725433899
 20
-152.6015380477871
 30
0.0
 10
104.2182725433899
 20
-152.6208305825045
 30
0.0
 10
104.220339600681
 20
-152.6566595755511
 30
0.0
 10
104.2244737152633
 20
-152.6842203394331
 30
0.0
 10
104.2244737152633
 20
-152.6842203394331
 30
0.0
 10
104.0301703298952
 20
-152.6842203394331
 30
0.0
 10
104.0301703298952
 20
-152.6842203394331
 30
0.0
 10
104.0363715017687
 20
-152.6459797795468
 30
0.0
 10
104.0384385590598
 20
-152.6039496146268
 30
0.0
 10
104.0384385590598
 20
-152.5974039332048
 30
0.0
 10
104.0384385590598
 20
-152.5319471189851
 30
0.0
 10
104.0170789670513
 20
-152.3331651094862
 30
0.0
 10
103.7807454167632
 20
-152.3331651094862
 30
0.0
 10
103.6029784897243
 20
-152.3331651094862
 30
0.0
 10
103.5478569619603
 20
-152.4640787379257
 30
0.0
 10
103.5478569619603
 20
-152.5743217934536
 30
0.0
 10
103.5478569619603
 20
-152.8385606171723
 30
0.0
 10
103.7807454167632
 20
-152.8471733558854
 30
0.0
 10
103.8524034028564
 20
-152.8513074704677
 30
0.0
 10
103.8524034028564
 20
-152.8513074704677
 30
0.0
 10
103.8524034028564
 20
-153.0545681040975
 30
0.0
 10
103.8524034028564
 20
-153.0545681040975
 30
0.0
 10
103.7276909462903
 20
-153.0459553653843
 30
0.0
 10
103.350797500204
 20
-153.0183946015024
 30
0.0
 10
103.350797500204
 20
-152.5615749401582
 30
0.0
 10
103.350797500204
 20
-152.3372992240685
 30
0.0
 10
103.4782660331582
 20
-152.096142540101
 30
0.0
 10
103.7738552257927
 20
-152.096142540101
 30
0.0
 10
103.9605794010932
 20
-152.096142540101
 30
0.0
 10
104.0425726736421
 20
-152.1912271754939
 30
0.0
 10
104.1038953732796
 20
-152.2907904350176
 30
0.0
 10
104.1314561371616
 20
-152.2294677353801
 30
0.0
 10
104.2120713715164
 20
-152.0475666937589
 30
0.0
 10
104.4890570485305
 20
-152.0475666937589
 30
0.0
 10
104.8273654251821
 20
-152.0475666937589
 30
0.0
 10
104.9947970657652
 20
-152.2949245495999
 30
0.0
 10
104.9947970657652
 20
-152.571910226614
 30
0.0
  0
HATCH
  5
D3
330
CE
100
AcDbEntity
  8
_U+30EC_U+30A4_U+30E4_U+30FC 1
 62
   179
420
  2234388
100
AcDbHatch
 10
0.0
 20
0.0
 30
0.0
210
0.0
220
0.0
230
1.0
  2
SOLID
 70
     1
 71
     0
 91
        1
 92
        1
 93
        1
 72
     4
 94
        3
 73
     0
 74
     1
 95
       62
 96
       58
 40
0.0
 40
0.0
 40
0.0
 40
0.0
 40
1.0
 40
1.0
 40
1.0
 40
2.0
 40
2.0
 40
2.0
 40
3.0
 40
3.0
 40
3.0
 40
4.0
 40
4.0
 40
4.0
 40
5.0
 40
5.0
 40
5.0
 40
6.0
 40
6.0
 40
6.0
 40
7.0
 40
7.0
 40
7.0
 40
8.0
 40
8.0
 40
8.0
 40
9.0
 40
9.0
 40
9.0
 40
10.0
 40
10.0
 40
10.0
 40
11.0
 40
11.0
 40
11.0
 40
12.0
 40
12.0
 40
12.0
 40
13.0
 40
13.0
 40
13.0
 40
14.0
 40
14.0
 40
14.0
 40
15.0
 40
15.0
 40
15.0
 40
16.0
 40
16.0
 40
16.0
 40
17.0
 40
17.0
 40
17.0
 40
18.0
 40
18.0
 40
18.0
 40
19.0
 40
19.0
 40
19.0
 40
19.0
 10
104.9947970657652
 20
-152.571910226614
 10
104.9947970657652
 20
-152.6673393715554
 10
104.9734374737566
 20
-152.8850694062232
 10
104.7874023175532
 20
-153.0101263723378
 10
104.675092204734
 20
-153.0841959252706
 10
104.5758734547588
 20
-153.0883300398529
 10
104.4911241058217
 20
-153.0924641544352
 10
104.4911241058217
 20
-153.0924641544352
 10
104.4911241058217
 20
-152.8723225529278
 10
104.4911241058217
 20
-152.8723225529278
 10
104.5655381683031
 20
-152.8702554956366
 10
104.7998046613001
 20
-152.8599202091809
 10
104.7998046613001
 20
-152.5763888507448
 10
104.7998046613001
 20
-152.4389295408833
 10
104.730213732498
 20
-152.2863118108868
 10
104.5021484113745
 20
-152.2863118108868
 10
104.385704183973
 20
-152.2863118108868
 10
104.3367838280825
 20
-152.324552370773
 10
104.3050889496182
 20
-152.3562472492373
 10
104.2313639062338
 20
-152.4303168021702
 10
104.2182725433899
 20
-152.5467610295717
 10
104.2182725433899
 20
-152.6015380477871
 10
104.2182725433899
 20
-152.6208305825045
 10
104.220339600681
 20
-152.6566595755511
 10
104.2244737152633
 20
-152.6842203394331
 10
104.2244737152633
 20
-152.6842203394331
 10
104.0301703298952
 20
-152.6842203394331
 10
104.0301703298952
 20
-152.6842203394331
 10
104.0363715017687
 20
-152.6459797795468
 10
104.0384385590598
 20
-152.6039496146268
 10
104.0384385590598
 20
-152.5974039332048
 10
104.0384385590598
 20
-152.5319471189851
 10
104.0170789670513
 20
-152.3331651094862
 10
103.7807454167632
 20
-152.3331651094862
 10
103.6029784897243
 20
-152.3331651094862
 10
103.5478569619603
 20
-152.4640787379257
 10
103.5478569619603
 20
-152.5743217934536
 10
103.5478569619603
 20
-152.8385606171723
 10
103.7807454167632
 20
-152.8471733558854
 10
103.8524034028564
 20
-152.8513074704677
 10
103.8524034028564
 20
-152.8513074704677
 10
103.8524034028564
 20
-153.0545681040975
 10
103.8524034028564
 20
-153.0545681040975
 10
103.7276909462903
 20
-153.0459553653843
 10
103.350797500204
 20
-153.0183946015024
 10
103.350797500204
 20
-152.5615749401582
 10
103.350797500204
 20
-152.3372992240685
 10
103.4782660331582
 20
-152.096142540101
 10
103.7738552257927
 20
-152.096142540101
 10
103.9605794010932
 20
-152.096142540101
 10
104.0425726736421
 20
-152.1912271754939
 10
104.1038953732796
 20
-152.2907904350176
 10
104.1314561371616
 20
-152.2294677353801
 10
104.2120713715164
 20
-152.0475666937589
 10
104.4890570485305
 20
-152.0475666937589
 10
104.8273654251821
 20
-152.0475666937589
 10
104.9947970657652
 20
-152.2949245495999
 10
104.9947970657652
 20
-152.571910226614
 97
        0
 97
        0
 75
     2
 76
     1
 98
        0
  0
ENDBLK
  5
D1
330
CE
100
AcDbEntity
  8
0
100
AcDbBlockEnd
  0
BLOCK
  5
DA
330
D8
100
AcDbEntity
  8
0
100
AcDbBlockBegin
  2
block 5
 70
     0
 10
0.0
 20
0.0
 30
0.0
  3
block 5
  1

  0
SPLINE
  5
DC
330
D8
100
AcDbEntity
  8
_U+30EC_U+30A4_U+30E4_U+30FC 1
370
     0
100
AcDbSpline
210
0.0
220
0.0
230
1.0
 70
    11
 71
     3
 72
    26
 73
    22
 74
     0
 42
0.0000000001
 43
0.0000000001
 12
1.0
 22
0.0
 32
0.0
 13
1.0
 23
0.0
 33
0.0
 40
0.0
 40
0.0
 40
0.0
 40
0.0
 40
1.0
 40
1.0
 40
1.0
 40
2.0
 40
2.0
 40
2.0
 40
3.0
 40
3.0
 40
3.0
 40
4.0
 40
4.0
 40
4.0
 40
5.0
 40
5.0
 40
5.0
 40
6.0
 40
6.0
 40
6.0
 40
7.0
 40
7.0
 40
7.0
 40
7.0
 10
90.49215085628322
 20
-106.1619954161678
 30
0.0
 10
90.49215085628322
 20
-106.1619954161678
 30
0.0
 10
90.49215085628322
 20
-105.0578423131453
 30
0.0
 10
90.49215085628322
 20
-105.0578423131453
 30
0.0
 10
90.49215085628322
 20
-105.0578423131453
 30
0.0
 10
90.16211070879628
 20
-105.0578423131453
 30
0.0
 10
90.16211070879628
 20
-105.0578423131453
 30
0.0
 10
90.16211070879628
 20
-105.0578423131453
 30
0.0
 10
90.16211070879628
 20
-104.9097032072795
 30
0.0
 10
90.16211070879628
 20
-104.9097032072795
 30
0.0
 10
90.49421791357436
 20
-104.894889296693
 30
0.0
 10
90.54072670262524
 20
-104.7319362802406
 30
0.0
 10
90.57035452379839
 20
-104.6175591101303
 30
0.0
 10
90.57035452379839
 20
-104.6175591101303
 30
0.0
 10
90.71642657237298
 20
-104.6175591101303
 30
0.0
 10
90.71642657237298
 20
-104.6175591101303
 30
0.0
 10
90.71642657237298
 20
-104.6175591101303
 30
0.0
 10
90.71642657237298
 20
-106.1619954161678
 30
0.0
 10
90.71642657237298
 20
-106.1619954161678
 30
0.0
 10
90.71642657237298
 20
-106.1619954161678
 30
0.0
 10
90.49215085628322
 20
-106.1619954161678
 30
0.0
 10
90.49215085628322
 20
-106.1619954161678
 30
0.0
  0
HATCH
  5
DD
330
D8
100
AcDbEntity
  8
_U+30EC_U+30A4_U+30E4_U+30FC 1
 62
   179
420
  2234388
100
AcDbHatch
 10
0.0
 20
0.0
 30
0.0
210
0.0
220
0.0
230
1.0
  2
SOLID
 70
     1
 71
     0
 91
        1
 92
        1
 93
        1
 72
     4
 94
        3
 73
     0
 74
     1
 95
       26
 96
       22
 40
0.0
 40
0.0
 40
0.0
 40
0.0
 40
1.0
 40
1.0
 40
1.0
 40
2.0
 40
2.0
 40
2.0
 40
3.0
 40
3.0
 40
3.0
 40
4.0
 40
4.0
 40
4.0
 40
5.0
 40
5.0
 40
5.0
 40
6.0
 40
6.0
 40
6.0
 40
7.0
 40
7.0
 40
7.0
 40
7.0
 10
90.49215085628322
 20
-106.1619954161678
 10
90.49215085628322
 20
-106.1619954161678
 10
90.49215085628322
 20
-105.0578423131453
 10
90.49215085628322
 20
-105.0578423131453
 10
90.49215085628322
 20
-105.0578423131453
 10
90.16211070879628
 20
-105.0578423131453
 10
90.16211070879628
 20
-105.0578423131453
 10
90.16211070879628
 20
-105.0578423131453
 10
90.16211070879628
 20
-104.9097032072795
 10
90.16211070879628
 20
-104.9097032072795
 10
90.49421791357436
 20
-104.894889296693
 10
90.54072670262524
 20
-104.7319362802406
 10
90.57035452379839
 20
-104.6175591101303
 10
90.57035452379839
 20
-104.6175591101303
 10
90.71642657237298
 20
-104.6175591101303
 10
90.71642657237298
 20
-104.6175591101303
 10
90.71642657237298
 20
-104.6175591101303
 10
90.71642657237298
 20
-106.1619954161678
 10
90.71642657237298
 20
-106.1619954161678
 10
90.71642657237298
 20
-106.1619954161678
 10
90.49215085628322
 20
-106.1619954161678
 10
90.49215085628322
 20
-106.1619954161678
 97
        0
 97
        0
 75
     2
 76
     1
 98
        0
  0
ENDBLK
  5
DB
330
D8
100
AcDbEntity
  8
0
100
AcDbBlockEnd
  0
BLOCK
  5
EE
330
EC
100
AcDbEntity
  8
0
100
AcDbBlockBegin
  2
block 6
 70
     0
 10
0.0
 20
0.0
 30
0.0
  3
block 6
  1

  0
SPLINE
  5
F0
330
EC
100
AcDbEntity
  8
_U+30EC_U+30A4_U+30E4_U+30FC 1
370
     0
100
AcDbSpline
210
0.0
220
0.0
230
1.0
 70
    11
 71
     3
 72
    62
 73
    58
 74
     0
 42
0.0000000001
 43
0.0000000001
 12
1.0
 22
0.0
 32
0.0
 13
1.0
 23
0.0
 33
0.0
 40
0.0
 40
0.0
 40
0.0
 40
0.0
 40
1.0
 40
1.0
 40
1.0
 40
2.0
 40
2.0
 40
2.0
 40
3.0
 40
3.0
 40
3.0
 40
4.0
 40
4.0
 40
4.0
 40
5.0
 40
5.0
 40
5.0
 40
6.0
 40
6.0
 40
6.0
 40
7.0
 40
7.0
 40
7.0
 40
8.0
 40
8.0
 40
8.0
 40
9.0
 40
9.0
 40
9.0
 40
10.0
 40
10.0
 40
10.0
 40
11.0
 40
11.0
 40
11.0
 40
12.0
 40
12.0
 40
12.0
 40
13.0
 40
13.0
 40
13.0
 40
14.0
 40
14.0
 40
14.0
 40
15.0
 40
15.0
 40
15.0
 40
16.0
 40
16.0
 40
16.0
 40
17.0
 40
17.0
 40
17.0
 40
18.0
 40
18.0
 40
18.0
 40
19.0
 40
19.0
 40
19.0
 40
19.0
 10
83.38044024608197
 20
-132.7867268548242
 30
0.0
 10
83.28501110114055
 20
-132.7867268548242
 30
0.0
 10
83.06728106647277
 20
-132.7657117723641
 30
0.0
 10
82.9422241003582
 20
-132.5796766161606
 30
0.0
 10
82.86815454742532
 20
-132.4673665033415
 30
0.0
 10
82.86402043284302
 20
-132.3681477533663
 30
0.0
 10
82.85988631826072
 20
-132.2833984044292
 30
0.0
 10
82.85988631826072
 20
-132.2833984044292
 30
0.0
 10
83.08002791976818
 20
-132.2833984044292
 30
0.0
 10
83.08002791976818
 20
-132.2833984044292
 30
0.0
 10
83.08209497705934
 20
-132.357467957362
 30
0.0
 10
83.09243026351508
 20
-132.5920789599076
 30
0.0
 10
83.37596162195115
 20
-132.5920789599076
 30
0.0
 10
83.51342093181262
 20
-132.5920789599076
 30
0.0
 10
83.66603866180918
 20
-132.5224880311055
 30
0.0
 10
83.66603866180918
 20
-132.2940782004334
 30
0.0
 10
83.66603866180918
 20
-132.177633973032
 30
0.0
 10
83.62779810192292
 20
-132.12905812669
 30
0.0
 10
83.59610322345861
 20
-132.0973632482257
 30
0.0
 10
83.52203367052574
 20
-132.0232936952928
 30
0.0
 10
83.4055894431243
 20
-132.0105468419974
 30
0.0
 10
83.35081242490882
 20
-132.0105468419974
 30
0.0
 10
83.33151989019143
 20
-132.0105468419974
 30
0.0
 10
83.29569089714484
 20
-132.0126138992885
 30
0.0
 10
83.26813013326283
 20
-132.0167480138708
 30
0.0
 10
83.26813013326283
 20
-132.0167480138708
 30
0.0
 10
83.26813013326283
 20
-131.8221001189542
 30
0.0
 10
83.26813013326283
 20
-131.8221001189542
 30
0.0
 10
83.3063706931491
 20
-131.8286458003762
 30
0.0
 10
83.34840085806916
 20
-131.8307128576673
 30
0.0
 10
83.35494653949112
 20
-131.8307128576673
 30
0.0
 10
83.42040335371088
 20
-131.8307128576673
 30
0.0
 10
83.6191853632098
 20
-131.8093532656588
 30
0.0
 10
83.6191853632098
 20
-131.5726752058221
 30
0.0
 10
83.6191853632098
 20
-131.3949082787832
 30
0.0
 10
83.4882717347703
 20
-131.3397867510192
 30
0.0
 10
83.3780286792423
 20
-131.3397867510192
 30
0.0
 10
83.11378985552363
 20
-131.3397867510192
 30
0.0
 10
83.10517711681051
 20
-131.5726752058221
 30
0.0
 10
83.10104300222821
 20
-131.6443331919153
 30
0.0
 10
83.10104300222821
 20
-131.6443331919153
 30
0.0
 10
82.89778236859847
 20
-131.6443331919153
 30
0.0
 10
82.89778236859847
 20
-131.6443331919153
 30
0.0
 10
82.9063951073116
 20
-131.5196207353493
 30
0.0
 10
82.9339558711936
 20
-131.1430717988115
 30
0.0
 10
83.39077553253773
 20
-131.1430717988115
 30
0.0
 10
83.6150512486275
 20
-131.1430717988115
 30
0.0
 10
83.85620793259498
 20
-131.2701958222172
 30
0.0
 10
83.85620793259498
 20
-131.5661295244001
 30
0.0
 10
83.85620793259498
 20
-131.7525091901522
 30
0.0
 10
83.76112329720209
 20
-131.8348469722496
 30
0.0
 10
83.66156003767837
 20
-131.8961696718871
 30
0.0
 10
83.72288273731581
 20
-131.9237304357691
 30
0.0
 10
83.904783778937
 20
-132.0040011605754
 30
0.0
 10
83.904783778937
 20
-132.281331347138
 30
0.0
 10
83.904783778937
 20
-132.6196397237895
 30
0.0
 10
83.65742592309607
 20
-132.7867268548242
 30
0.0
 10
83.38044024608197
 20
-132.7867268548242
 30
0.0
  0
HATCH
  5
F1
330
EC
100
AcDbEntity
  8
_U+30EC_U+30A4_U+30E4_U+30FC 1
 62
   179
420
  2234388
100
AcDbHatch
 10
0.0
 20
0.0
 30
0.0
210
0.0
220
0.0
230
1.0
  2
SOLID
 70
     1
 71
     0
 91
        1
 92
        1
 93
        1
 72
     4
 94
        3
 73
     0
 74
     1
 95
       62
 96
       58
 40
0.0
 40
0.0
 40
0.0
 40
0.0
 40
1.0
 40
1.0
 40
1.0
 40
2.0
 40
2.0
 40
2.0
 40
3.0
 40
3.0
 40
3.0
 40
4.0
 40
4.0
 40
4.0
 40
5.0
 40
5.0
 40
5.0
 40
6.0
 40
6.0
 40
6.0
 40
7.0
 40
7.0
 40
7.0
 40
8.0
 40
8.0
 40
8.0
 40
9.0
 40
9.0
 40
9.0
 40
10.0
 40
10.0
 40
10.0
 40
11.0
 40
11.0
 40
11.0
 40
12.0
 40
12.0
 40
12.0
 40
13.0
 40
13.0
 40
13.0
 40
14.0
 40
14.0
 40
14.0
 40
15.0
 40
15.0
 40
15.0
 40
16.0
 40
16.0
 40
16.0
 40
17.0
 40
17.0
 40
17.0
 40
18.0
 40
18.0
 40
18.0
 40
19.0
 40
19.0
 40
19.0
 40
19.0
 10
83.38044024608197
 20
-132.7867268548242
 10
83.28501110114055
 20
-132.7867268548242
 10
83.06728106647277
 20
-132.7657117723641
 10
82.9422241003582
 20
-132.5796766161606
 10
82.86815454742532
 20
-132.4673665033415
 10
82.86402043284302
 20
-132.3681477533663
 10
82.85988631826072
 20
-132.2833984044292
 10
82.85988631826072
 20
-132.2833984044292
 10
83.08002791976818
 20
-132.2833984044292
 10
83.08002791976818
 20
-132.2833984044292
 10
83.08209497705934
 20
-132.357467957362
 10
83.09243026351508
 20
-132.5920789599076
 10
83.37596162195115
 20
-132.5920789599076
 10
83.51342093181262
 20
-132.5920789599076
 10
83.66603866180918
 20
-132.5224880311055
 10
83.66603866180918
 20
-132.2940782004334
 10
83.66603866180918
 20
-132.177633973032
 10
83.62779810192292
 20
-132.12905812669
 10
83.59610322345861
 20
-132.0973632482257
 10
83.52203367052574
 20
-132.0232936952928
 10
83.4055894431243
 20
-132.0105468419974
 10
83.35081242490882
 20
-132.0105468419974
 10
83.33151989019143
 20
-132.0105468419974
 10
83.29569089714484
 20
-132.0126138992885
 10
83.26813013326283
 20
-132.0167480138708
 10
83.26813013326283
 20
-132.0167480138708
 10
83.26813013326283
 20
-131.8221001189542
 10
83.26813013326283
 20
-131.8221001189542
 10
83.3063706931491
 20
-131.8286458003762
 10
83.34840085806916
 20
-131.8307128576673
 10
83.35494653949112
 20
-131.8307128576673
 10
83.42040335371088
 20
-131.8307128576673
 10
83.6191853632098
 20
-131.8093532656588
 10
83.6191853632098
 20
-131.5726752058221
 10
83.6191853632098
 20
-131.3949082787832
 10
83.4882717347703
 20
-131.3397867510192
 10
83.3780286792423
 20
-131.3397867510192
 10
83.11378985552363
 20
-131.3397867510192
 10
83.10517711681051
 20
-131.5726752058221
 10
83.10104300222821
 20
-131.6443331919153
 10
83.10104300222821
 20
-131.6443331919153
 10
82.89778236859847
 20
-131.6443331919153
 10
82.89778236859847
 20
-131.6443331919153
 10
82.9063951073116
 20
-131.5196207353493
 10
82.9339558711936
 20
-131.1430717988115
 10
83.39077553253773
 20
-131.1430717988115
 10
83.6150512486275
 20
-131.1430717988115
 10
83.85620793259498
 20
-131.2701958222172
 10
83.85620793259498
 20
-131.5661295244001
 10
83.85620793259498
 20
-131.7525091901522
 10
83.76112329720209
 20
-131.8348469722496
 10
83.66156003767837
 20
-131.8961696718871
 10
83.72288273731581
 20
-131.9237304357691
 10
83.904783778937
 20
-132.0040011605754
 10
83.904783778937
 20
-132.281331347138
 10
83.904783778937
 20
-132.6196397237895
 10
83.65742592309607
 20
-132.7867268548242
 10
83.38044024608197
 20
-132.7867268548242
 97
        0
 97
        0
 75
     2
 76
     1
 98
        0
  0
ENDBLK
  5
EF
330
EC
100
AcDbEntity
  8
0
100
AcDbBlockEnd
  0
BLOCK
  5
F4
330
F2
100
AcDbEntity
  8
0
100
AcDbBlockBegin
  2
block 7
 70
     0
 10
0.0
 20
0.0
 30
0.0
  3
block 7
  1

  0
SPLINE
  5
F6
330
F2
100
AcDbEntity
  8
_U+30EC_U+30A4_U+30E4_U+30FC 1
370
     0
100
AcDbSpline
210
0.0
220
0.0
230
1.0
 70
    11
 71
     3
 72
    29
 73
    25
 74
     0
 42
0.0000000001
 43
0.0000000001
 12
1.0
 22
0.0
 32
0.0
 13
1.0
 23
0.0
 33
0.0
 40
0.0
 40
0.0
 40
0.0
 40
0.0
 40
1.0
 40
1.0
 40
1.0
 40
2.0
 40
2.0
 40
2.0
 40
3.0
 40
3.0
 40
3.0
 40
4.0
 40
4.0
 40
4.0
 40
5.0
 40
5.0
 40
5.0
 40
6.0
 40
6.0
 40
6.0
 40
7.0
 40
7.0
 40
7.0
 40
8.0
 40
8.0
 40
8.0
 40
8.0
 10
88.275920930622
 20
-132.7867268548242
 30
0.0
 10
88.00927054006365
 20
-132.7867268548242
 30
0.0
 10
87.75536700280074
 20
-132.6492675449627
 30
0.0
 10
87.75536700280074
 20
-132.3002793723069
 30
0.0
 10
87.75536700280074
 20
-132.0443087777528
 30
0.0
 10
87.89730493679303
 20
-131.9492241423599
 30
0.0
 10
88.00306936819021
 20
-131.8879014427225
 30
0.0
 10
87.87835691162417
 20
-131.8286458003762
 30
0.0
 10
87.80222030140014
 20
-131.7142686302659
 30
0.0
 10
87.80222030140014
 20
-131.5533826711047
 30
0.0
 10
87.80222030140014
 20
-131.2784640513818
 30
0.0
 10
88.00100231089905
 20
-131.1430717988115
 30
0.0
 10
88.275920930622
 20
-131.1430717988115
 30
0.0
 10
88.55945228905806
 20
-131.1430717988115
 30
0.0
 10
88.74996606939237
 20
-131.2870767900949
 30
0.0
 10
88.74996606939237
 20
-131.5533826711047
 30
0.0
 10
88.74996606939237
 20
-131.7142686302659
 30
0.0
 10
88.67141789232868
 20
-131.8286458003762
 30
0.0
 10
88.54670543576263
 20
-131.8879014427225
 30
0.0
 10
88.63558889928208
 20
-131.9385443463557
 30
0.0
 10
88.79440780115209
 20
-132.0336289817485
 30
0.0
 10
88.79440780115209
 20
-132.2961452577246
 30
0.0
 10
88.79440780115209
 20
-132.6706271369712
 30
0.0
 10
88.51501055729834
 20
-132.7867268548242
 30
0.0
 10
88.275920930622
 20
-132.7867268548242
 30
0.0
  0
SPLINE
  5
F7
330
F2
100
AcDbEntity
  8
_U+30EC_U+30A4_U+30E4_U+30FC 1
370
     0
100
AcDbSpline
210
0.0
220
0.0
230
1.0
 70
    11
 71
     3
 72
    17
 73
    13
 74
     0
 42
0.0000000001
 43
0.0000000001
 12
1.0
 22
0.0
 32
0.0
 13
1.0
 23
0.0
 33
0.0
 40
0.0
 40
0.0
 40
0.0
 40
0.0
 40
1.0
 40
1.0
 40
1.0
 40
2.0
 40
2.0
 40
2.0
 40
3.0
 40
3.0
 40
3.0
 40
4.0
 40
4.0
 40
4.0
 40
4.0
 10
88.275920930622
 20
-131.9957329314108
 30
0.0
 10
88.13226044888708
 20
-131.9957329314108
 30
0.0
 10
87.97964271889052
 20
-132.0825493376391
 30
0.0
 10
87.97964271889052
 20
-132.2854654617203
 30
0.0
 10
87.97964271889052
 20
-132.4907931526412
 30
0.0
 10
88.10676674229623
 20
-132.5920789599076
 30
0.0
 10
88.275920930622
 20
-132.5920789599076
 30
0.0
 10
88.46195608682548
 20
-132.5920789599076
 30
0.0
 10
88.57219914235348
 20
-132.4694335606326
 30
0.0
 10
88.57219914235348
 20
-132.2916666335938
 30
0.0
 10
88.57219914235348
 20
-132.0698024843437
 30
0.0
 10
88.40924612590116
 20
-131.9957329314108
 30
0.0
 10
88.275920930622
 20
-131.9957329314108
 30
0.0
  0
SPLINE
  5
F8
330
F2
100
AcDbEntity
  8
_U+30EC_U+30A4_U+30E4_U+30FC 1
370
     0
100
AcDbSpline
210
0.0
220
0.0
230
1.0
 70
    11
 71
     3
 72
    17
 73
    13
 74
     0
 42
0.0000000001
 43
0.0000000001
 12
1.0
 22
0.0
 32
0.0
 13
1.0
 23
0.0
 33
0.0
 40
0.0
 40
0.0
 40
0.0
 40
0.0
 40
1.0
 40
1.0
 40
1.0
 40
2.0
 40
2.0
 40
2.0
 40
3.0
 40
3.0
 40
3.0
 40
4.0
 40
4.0
 40
4.0
 40
4.0
 10
88.275920930622
 20
-131.3356526364369
 30
0.0
 10
88.11090085687853
 20
-131.3356526364369
 30
0.0
 10
88.02615150794138
 20
-131.4307372718298
 30
0.0
 10
88.02615150794138
 20
-131.5661295244001
 30
0.0
 10
88.02615150794138
 20
-131.688774923675
 30
0.0
 10
88.0981540035831
 20
-131.8072862083676
 30
0.0
 10
88.275920930622
 20
-131.8072862083676
 30
0.0
 10
88.45368785766088
 20
-131.8072862083676
 30
0.0
 10
88.52569035330261
 20
-131.688774923675
 30
0.0
 10
88.52569035330261
 20
-131.5661295244001
 30
0.0
 10
88.52569035330261
 20
-131.4307372718298
 30
0.0
 10
88.43887394707431
 20
-131.3356526364369
 30
0.0
 10
88.275920930622
 20
-131.3356526364369
 30
0.0
  0
HATCH
  5
F9
330
F2
100
AcDbEntity
  8
_U+30EC_U+30A4_U+30E4_U+30FC 1
 62
   179
420
  2234388
100
AcDbHatch
 10
0.0
 20
0.0
 30
0.0
210
0.0
220
0.0
230
1.0
  2
SOLID
 70
     1
 71
     0
 91
        3
 92
        1
 93
        1
 72
     4
 94
        3
 73
     0
 74
     1
 95
       29
 96
       25
 40
0.0
 40
0.0
 40
0.0
 40
0.0
 40
1.0
 40
1.0
 40
1.0
 40
2.0
 40
2.0
 40
2.0
 40
3.0
 40
3.0
 40
3.0
 40
4.0
 40
4.0
 40
4.0
 40
5.0
 40
5.0
 40
5.0
 40
6.0
 40
6.0
 40
6.0
 40
7.0
 40
7.0
 40
7.0
 40
8.0
 40
8.0
 40
8.0
 40
8.0
 10
88.275920930622
 20
-132.7867268548242
 10
88.00927054006365
 20
-132.7867268548242
 10
87.75536700280074
 20
-132.6492675449627
 10
87.75536700280074
 20
-132.3002793723069
 10
87.75536700280074
 20
-132.0443087777528
 10
87.89730493679303
 20
-131.9492241423599
 10
88.00306936819021
 20
-131.8879014427225
 10
87.87835691162417
 20
-131.8286458003762
 10
87.80222030140014
 20
-131.7142686302659
 10
87.80222030140014
 20
-131.5533826711047
 10
87.80222030140014
 20
-131.2784640513818
 10
88.00100231089905
 20
-131.1430717988115
 10
88.275920930622
 20
-131.1430717988115
 10
88.55945228905806
 20
-131.1430717988115
 10
88.74996606939237
 20
-131.2870767900949
 10
88.74996606939237
 20
-131.5533826711047
 10
88.74996606939237
 20
-131.7142686302659
 10
88.67141789232868
 20
-131.8286458003762
 10
88.54670543576263
 20
-131.8879014427225
 10
88.63558889928208
 20
-131.9385443463557
 10
88.79440780115209
 20
-132.0336289817485
 10
88.79440780115209
 20
-132.2961452577246
 10
88.79440780115209
 20
-132.6706271369712
 10
88.51501055729834
 20
-132.7867268548242
 10
88.275920930622
 20
-132.7867268548242
 97
        0
 97
        0
 92
        1
 93
        1
 72
     4
 94
        3
 73
     0
 74
     1
 95
       17
 96
       13
 40
0.0
 40
0.0
 40
0.0
 40
0.0
 40
1.0
 40
1.0
 40
1.0
 40
2.0
 40
2.0
 40
2.0
 40
3.0
 40
3.0
 40
3.0
 40
4.0
 40
4.0
 40
4.0
 40
4.0
 10
88.275920930622
 20
-131.9957329314108
 10
88.13226044888708
 20
-131.9957329314108
 10
87.97964271889052
 20
-132.0825493376391
 10
87.97964271889052
 20
-132.2854654617203
 10
87.97964271889052
 20
-132.4907931526412
 10
88.10676674229623
 20
-132.5920789599076
 10
88.275920930622
 20
-132.5920789599076
 10
88.46195608682548
 20
-132.5920789599076
 10
88.57219914235348
 20
-132.4694335606326
 10
88.57219914235348
 20
-132.2916666335938
 10
88.57219914235348
 20
-132.0698024843437
 10
88.40924612590116
 20
-131.9957329314108
 10
88.275920930622
 20
-131.9957329314108
 97
        0
 97
        0
 92
        1
 93
        1
 72
     4
 94
        3
 73
     0
 74
     1
 95
       17
 96
       13
 40
0.0
 40
0.0
 40
0.0
 40
0.0
 40
1.0
 40
1.0
 40
1.0
 40
2.0
 40
2.0
 40
2.0
 40
3.0
 40
3.0
 40
3.0
 40
4.0
 40
4.0
 40
4.0
 40
4.0
 10
88.275920930622
 20
-131.3356526364369
 10
88.11090085687853
 20
-131.3356526364369
 10
88.02615150794138
 20
-131.4307372718298
 10
88.02615150794138
 20
-131.5661295244001
 10
88.02615150794138
 20
-131.688774923675
 10
88.0981540035831
 20
-131.8072862083676
 10
88.275920930622
 20
-131.8072862083676
 10
88.45368785766088
 20
-131.8072862083676
 10
88.52569035330261
 20
-131.688774923675
 10
88.52569035330261
 20
-131.5661295244001
 10
88.52569035330261
 20
-131.4307372718298
 10
88.43887394707431
 20
-131.3356526364369
 10
88.275920930622
 20
-131.3356526364369
 97
        0
 97
        0
 75
     2
 76
     1
 98
        0
  0
POLYLINE
  5
FA
330
F2
100
AcDbEntity
  8
_U+30EC_U+30A4_U+30E4_U+30FC 1
370
     0
100
AcDb2dPolyline
 66
     1
 10
0.0
 20
0.0
 30
0.0
  0
VERTEX
  5
FB
330
FA
100
AcDbEntity
  8
_U+30EC_U+30A4_U+30E4_U+30FC 1
370
     0
100
AcDbVertex
100
AcDb2dVertex
 10
89.01282685491694
 20
-132.736083951191
 30
0.0
  0
VERTEX
  5
FC
330
FA
100
AcDbEntity
  8
_U+30EC_U+30A4_U+30E4_U+30FC 1
370
     0
100
AcDbVertex
100
AcDb2dVertex
 10
89.01282685491694
 20
-132.4842474712192
 30
0.0
  0
VERTEX
  5
FD
330
FA
100
AcDbEntity
  8
_U+30EC_U+30A4_U+30E4_U+30FC 1
370
     0
100
AcDbVertex
100
AcDb2dVertex
 10
89.2646633348887
 20
-132.4842474712192
 30
0.0
  0
VERTEX
  5
FE
330
FA
100
AcDbEntity
  8
_U+30EC_U+30A4_U+30E4_U+30FC 1
370
     0
100
AcDbVertex
100
AcDb2dVertex
 10
89.2646633348887
 20
-132.736083951191
 30
0.0
  0
VERTEX
  5
FF
330
FA
100
AcDbEntity
  8
_U+30EC_U+30A4_U+30E4_U+30FC 1
370
     0
100
AcDbVertex
100
AcDb2dVertex
 10
89.01282685491694
 20
-132.736083951191
 30
0.0
  0
SEQEND
  5
100
330
FA
100
AcDbEntity
  8
_U+30EC_U+30A4_U+30E4_U+30FC 1
370
     0
  0
HATCH
  5
101
330
F2
100
AcDbEntity
  8
_U+30EC_U+30A4_U+30E4_U+30FC 1
 62
   179
420
  2234388
100
AcDbHatch
 10
0.0
 20
0.0
 30
0.0
210
0.0
220
0.0
230
1.0
  2
SOLID
 70
     1
 71
     0
 91
        1
 92
        1
 93
        4
 72
     1
 10
89.01282685491694
 20
-132.736083951191
 11
89.01282685491694
 21
-132.4842474712192
 72
     1
 10
89.01282685491694
 20
-132.4842474712192
 11
89.2646633348887
 21
-132.4842474712192
 72
     1
 10
89.2646633348887
 20
-132.4842474712192
 11
89.2646633348887
 21
-132.736083951191
 72
     1
 10
89.2646633348887
 20
-132.736083951191
 11
89.01282685491694
 21
-132.736083951191
 97
        0
 75
     2
 76
     1
 98
        0
  0
SPLINE
  5
102
330
F2
100
AcDbEntity
  8
_U+30EC_U+30A4_U+30E4_U+30FC 1
370
     0
100
AcDbSpline
210
0.0
220
0.0
230
1.0
 70
    11
 71
     3
 72
    53
 73
    49
 74
     0
 42
0.0000000001
 43
0.0000000001
 12
1.0
 22
0.0
 32
0.0
 13
1.0
 23
0.0
 33
0.0
 40
0.0
 40
0.0
 40
0.0
 40
0.0
 40
1.0
 40
1.0
 40
1.0
 40
2.0
 40
2.0
 40
2.0
 40
3.0
 40
3.0
 40
3.0
 40
4.0
 40
4.0
 40
4.0
 40
5.0
 40
5.0
 40
5.0
 40
6.0
 40
6.0
 40
6.0
 40
7.0
 40
7.0
 40
7.0
 40
8.0
 40
8.0
 40
8.0
 40
9.0
 40
9.0
 40
9.0
 40
10.0
 40
10.0
 40
10.0
 40
11.0
 40
11.0
 40
11.0
 40
12.0
 40
12.0
 40
12.0
 40
13.0
 40
13.0
 40
13.0
 40
14.0
 40
14.0
 40
14.0
 40
15.0
 40
15.0
 40
15.0
 40
16.0
 40
16.0
 40
16.0
 40
16.0
 10
89.98193221491772
 20
-132.7867268548242
 30
0.0
 10
89.90372854740255
 20
-132.7867268548242
 30
0.0
 10
89.80209823058767
 20
-132.7698458869464
 30
0.0
 10
89.7004679137728
 20
-132.7064561300178
 30
0.0
 10
89.52717961086474
 20
-132.5965575840384
 30
0.0
 10
89.50582001885618
 20
-132.4652994460504
 30
0.0
 10
89.48687199368732
 20
-132.357467957362
 30
0.0
 10
89.48687199368732
 20
-132.357467957362
 30
0.0
 10
89.70908065248592
 20
-132.357467957362
 30
0.0
 10
89.70908065248592
 20
-132.357467957362
 30
0.0
 10
89.7638576707014
 20
-132.5562499668609
 30
0.0
 10
89.89098169410713
 20
-132.5858777880341
 30
0.0
 10
89.98399927220886
 20
-132.5858777880341
 30
0.0
 10
90.12352563936149
 20
-132.5858777880341
 30
0.0
 10
90.27579885980953
 20
-132.4863145285104
 30
0.0
 10
90.27579885980953
 20
-132.253770583256
 30
0.0
 10
90.27579885980953
 20
-131.997799988702
 30
0.0
 10
90.09596487547948
 20
-131.9278645503514
 30
0.0
 10
89.97538653349574
 20
-131.9278645503514
 30
0.0
 10
89.94369165503144
 20
-131.9278645503514
 30
0.0
 10
89.80209823058767
 20
-131.9278645503514
 30
0.0
 10
89.71321476706822
 20
-132.0570556310482
 30
0.0
 10
89.71321476706822
 20
-132.0570556310482
 30
0.0
 10
89.53751489732049
 20
-132.0381076058794
 30
0.0
 10
89.53751489732049
 20
-132.0381076058794
 30
0.0
 10
89.53751489732049
 20
-132.0381076058794
 30
0.0
 10
89.65809323930424
 20
-131.1916476451535
 30
0.0
 10
89.65809323930424
 20
-131.1916476451535
 30
0.0
 10
89.65809323930424
 20
-131.1916476451535
 30
0.0
 10
90.43668481897069
 20
-131.1916476451535
 30
0.0
 10
90.43668481897069
 20
-131.1916476451535
 30
0.0
 10
90.43668481897069
 20
-131.1916476451535
 30
0.0
 10
90.43668481897069
 20
-131.3862955400701
 30
0.0
 10
90.43668481897069
 20
-131.3862955400701
 30
0.0
 10
90.43668481897069
 20
-131.3862955400701
 30
0.0
 10
89.82104625575654
 20
-131.3862955400701
 30
0.0
 10
89.82104625575654
 20
-131.3862955400701
 30
0.0
 10
89.82104625575654
 20
-131.3862955400701
 30
0.0
 10
89.7555894415368
 20
-131.8093532656588
 30
0.0
 10
89.7555894415368
 20
-131.8093532656588
 30
0.0
 10
89.81691214117424
 20
-131.7755913299033
 30
0.0
 10
89.89924992327173
 20
-131.7352837127259
 30
0.0
 10
90.01776120796431
 20
-131.7352837127259
 30
0.0
 10
90.27166474522723
 20
-131.7352837127259
 30
0.0
 10
90.50868731461242
 20
-131.9216633784779
 30
0.0
 10
90.50868731461242
 20
-132.2348225580871
 30
0.0
 10
90.50868731461242
 20
-132.5521158522786
 30
0.0
 10
90.28441159852265
 20
-132.7867268548242
 30
0.0
 10
89.98193221491772
 20
-132.7867268548242
 30
0.0
  0
HATCH
  5
103
330
F2
100
AcDbEntity
  8
_U+30EC_U+30A4_U+30E4_U+30FC 1
 62
   179
420
  2234388
100
AcDbHatch
 10
0.0
 20
0.0
 30
0.0
210
0.0
220
0.0
230
1.0
  2
SOLID
 70
     1
 71
     0
 91
        1
 92
        1
 93
        1
 72
     4
 94
        3
 73
     0
 74
     1
 95
       53
 96
       49
 40
0.0
 40
0.0
 40
0.0
 40
0.0
 40
1.0
 40
1.0
 40
1.0
 40
2.0
 40
2.0
 40
2.0
 40
3.0
 40
3.0
 40
3.0
 40
4.0
 40
4.0
 40
4.0
 40
5.0
 40
5.0
 40
5.0
 40
6.0
 40
6.0
 40
6.0
 40
7.0
 40
7.0
 40
7.0
 40
8.0
 40
8.0
 40
8.0
 40
9.0
 40
9.0
 40
9.0
 40
10.0
 40
10.0
 40
10.0
 40
11.0
 40
11.0
 40
11.0
 40
12.0
 40
12.0
 40
12.0
 40
13.0
 40
13.0
 40
13.0
 40
14.0
 40
14.0
 40
14.0
 40
15.0
 40
15.0
 40
15.0
 40
16.0
 40
16.0
 40
16.0
 40
16.0
 10
89.98193221491772
 20
-132.7867268548242
 10
89.90372854740255
 20
-132.7867268548242
 10
89.80209823058767
 20
-132.7698458869464
 10
89.7004679137728
 20
-132.7064561300178
 10
89.52717961086474
 20
-132.5965575840384
 10
89.50582001885618
 20
-132.4652994460504
 10
89.48687199368732
 20
-132.357467957362
 10
89.48687199368732
 20
-132.357467957362
 10
89.70908065248592
 20
-132.357467957362
 10
89.70908065248592
 20
-132.357467957362
 10
89.7638576707014
 20
-132.5562499668609
 10
89.89098169410713
 20
-132.5858777880341
 10
89.98399927220886
 20
-132.5858777880341
 10
90.12352563936149
 20
-132.5858777880341
 10
90.27579885980953
 20
-132.4863145285104
 10
90.27579885980953
 20
-132.253770583256
 10
90.27579885980953
 20
-131.997799988702
 10
90.09596487547948
 20
-131.9278645503514
 10
89.97538653349574
 20
-131.9278645503514
 10
89.94369165503144
 20
-131.9278645503514
 10
89.80209823058767
 20
-131.9278645503514
 10
89.71321476706822
 20
-132.0570556310482
 10
89.71321476706822
 20
-132.0570556310482
 10
89.53751489732049
 20
-132.0381076058794
 10
89.53751489732049
 20
-132.0381076058794
 10
89.53751489732049
 20
-132.0381076058794
 10
89.65809323930424
 20
-131.1916476451535
 10
89.65809323930424
 20
-131.1916476451535
 10
89.65809323930424
 20
-131.1916476451535
 10
90.43668481897069
 20
-131.1916476451535
 10
90.43668481897069
 20
-131.1916476451535
 10
90.43668481897069
 20
-131.1916476451535
 10
90.43668481897069
 20
-131.3862955400701
 10
90.43668481897069
 20
-131.3862955400701
 10
90.43668481897069
 20
-131.3862955400701
 10
89.82104625575654
 20
-131.3862955400701
 10
89.82104625575654
 20
-131.3862955400701
 10
89.82104625575654
 20
-131.3862955400701
 10
89.7555894415368
 20
-131.8093532656588
 10
89.7555894415368
 20
-131.8093532656588
 10
89.81691214117424
 20
-131.7755913299033
 10
89.89924992327173
 20
-131.7352837127259
 10
90.01776120796431
 20
-131.7352837127259
 10
90.27166474522723
 20
-131.7352837127259
 10
90.50868731461242
 20
-131.9216633784779
 10
90.50868731461242
 20
-132.2348225580871
 10
90.50868731461242
 20
-132.5521158522786
 10
90.28441159852265
 20
-132.7867268548242
 10
89.98193221491772
 20
-132.7867268548242
 97
        0
 97
        0
 75
     2
 76
     1
 98
        0
  0
ENDBLK
  5
F5
330
F2
100
AcDbEntity
  8
0
100
AcDbBlockEnd
  0
BLOCK
  5
114
330
112
100
AcDbEntity
  8
0
100
AcDbBlockBegin
  2
block 8
 70
     0
 10
0.0
 20
0.0
 30
0.0
  3
block 8
  1

  0
SPLINE
  5
116
330
112
100
AcDbEntity
  8
_U+30EC_U+30A4_U+30E4_U+30FC 1
370
     0
100
AcDbSpline
210
0.0
220
0.0
230
1.0
 70
    11
 71
     3
 72
    26
 73
    22
 74
     0
 42
0.0000000001
 43
0.0000000001
 12
1.0
 22
0.0
 32
0.0
 13
1.0
 23
0.0
 33
0.0
 40
0.0
 40
0.0
 40
0.0
 40
0.0
 40
1.0
 40
1.0
 40
1.0
 40
2.0
 40
2.0
 40
2.0
 40
3.0
 40
3.0
 40
3.0
 40
4.0
 40
4.0
 40
4.0
 40
5.0
 40
5.0
 40
5.0
 40
6.0
 40
6.0
 40
6.0
 40
7.0
 40
7.0
 40
7.0
 40
7.0
 10
90.27855493619772
 20
-157.5176893052386
 30
0.0
 10
90.27855493619772
 20
-157.5176893052386
 30
0.0
 10
90.27855493619772
 20
-156.4135362022161
 30
0.0
 10
90.27855493619772
 20
-156.4135362022161
 30
0.0
 10
90.27855493619772
 20
-156.4135362022161
 30
0.0
 10
89.9485147887108
 20
-156.4135362022161
 30
0.0
 10
89.9485147887108
 20
-156.4135362022161
 30
0.0
 10
89.9485147887108
 20
-156.4135362022161
 30
0.0
 10
89.9485147887108
 20
-156.2653970963503
 30
0.0
 10
89.9485147887108
 20
-156.2653970963503
 30
0.0
 10
90.28062199348888
 20
-156.2505831857638
 30
0.0
 10
90.32713078253975
 20
-156.0876301693114
 30
0.0
 10
90.3567586037129
 20
-155.9732529992012
 30
0.0
 10
90.3567586037129
 20
-155.9732529992012
 30
0.0
 10
90.50283065228749
 20
-155.9732529992012
 30
0.0
 10
90.50283065228749
 20
-155.9732529992012
 30
0.0
 10
90.50283065228749
 20
-155.9732529992012
 30
0.0
 10
90.50283065228749
 20
-157.5176893052386
 30
0.0
 10
90.50283065228749
 20
-157.5176893052386
 30
0.0
 10
90.50283065228749
 20
-157.5176893052386
 30
0.0
 10
90.27855493619772
 20
-157.5176893052386
 30
0.0
 10
90.27855493619772
 20
-157.5176893052386
 30
0.0
  0
HATCH
  5
117
330
112
100
AcDbEntity
  8
_U+30EC_U+30A4_U+30E4_U+30FC 1
 62
   179
420
  2234388
100
AcDbHatch
 10
0.0
 20
0.0
 30
0.0
210
0.0
220
0.0
230
1.0
  2
SOLID
 70
     1
 71
     0
 91
        1
 92
        1
 93
        1
 72
     4
 94
        3
 73
     0
 74
     1
 95
       26
 96
       22
 40
0.0
 40
0.0
 40
0.0
 40
0.0
 40
1.0
 40
1.0
 40
1.0
 40
2.0
 40
2.0
 40
2.0
 40
3.0
 40
3.0
 40
3.0
 40
4.0
 40
4.0
 40
4.0
 40
5.0
 40
5.0
 40
5.0
 40
6.0
 40
6.0
 40
6.0
 40
7.0
 40
7.0
 40
7.0
 40
7.0
 10
90.27855493619772
 20
-157.5176893052386
 10
90.27855493619772
 20
-157.5176893052386
 10
90.27855493619772
 20
-156.4135362022161
 10
90.27855493619772
 20
-156.4135362022161
 10
90.27855493619772
 20
-156.4135362022161
 10
89.9485147887108
 20
-156.4135362022161
 10
89.9485147887108
 20
-156.4135362022161
 10
89.9485147887108
 20
-156.4135362022161
 10
89.9485147887108
 20
-156.2653970963503
 10
89.9485147887108
 20
-156.2653970963503
 10
90.28062199348888
 20
-156.2505831857638
 10
90.32713078253975
 20
-156.0876301693114
 10
90.3567586037129
 20
-155.9732529992012
 10
90.3567586037129
 20
-155.9732529992012
 10
90.50283065228749
 20
-155.9732529992012
 10
90.50283065228749
 20
-155.9732529992012
 10
90.50283065228749
 20
-155.9732529992012
 10
90.50283065228749
 20
-157.5176893052386
 10
90.50283065228749
 20
-157.5176893052386
 10
90.50283065228749
 20
-157.5176893052386
 10
90.27855493619772
 20
-157.5176893052386
 10
90.27855493619772
 20
-157.5176893052386
 97
        0
 97
        0
 75
     2
 76
     1
 98
        0
  0
SPLINE
  5
118
330
112
100
AcDbEntity
  8
_U+30EC_U+30A4_U+30E4_U+30FC 1
370
     0
100
AcDbSpline
210
0.0
220
0.0
230
1.0
 70
    11
 71
     3
 72
    29
 73
    25
 74
     0
 42
0.0000000001
 43
0.0000000001
 12
1.0
 22
0.0
 32
0.0
 13
1.0
 23
0.0
 33
0.0
 40
0.0
 40
0.0
 40
0.0
 40
0.0
 40
1.0
 40
1.0
 40
1.0
 40
2.0
 40
2.0
 40
2.0
 40
3.0
 40
3.0
 40
3.0
 40
4.0
 40
4.0
 40
4.0
 40
5.0
 40
5.0
 40
5.0
 40
6.0
 40
6.0
 40
6.0
 40
7.0
 40
7.0
 40
7.0
 40
8.0
 40
8.0
 40
8.0
 40
8.0
 10
91.50380314552683
 20
-157.5683322088718
 30
0.0
 10
91.23732500974276
 20
-157.5683322088718
 30
0.0
 10
90.98376598202837
 20
-157.4308728990104
 30
0.0
 10
90.98376598202837
 20
-157.0818847263545
 30
0.0
 10
90.98376598202837
 20
-156.8259141318005
 30
0.0
 10
91.12535940647214
 20
-156.7308294964076
 30
0.0
 10
91.2311238378693
 20
-156.6695067967701
 30
0.0
 10
91.10641138130326
 20
-156.6102511544238
 30
0.0
 10
91.03027477107923
 20
-156.4958739843135
 30
0.0
 10
91.03027477107923
 20
-156.3349880251524
 30
0.0
 10
91.03027477107923
 20
-156.0600694054294
 30
0.0
 10
91.22905678057816
 20
-155.9246771528591
 30
0.0
 10
91.50380314552683
 20
-155.9246771528591
 30
0.0
 10
91.78767901351142
 20
-155.9246771528591
 30
0.0
 10
91.97784828429721
 20
-156.0686821441426
 30
0.0
 10
91.97784828429721
 20
-156.3349880251524
 30
0.0
 10
91.97784828429721
 20
-156.4958739843135
 30
0.0
 10
91.89930010723351
 20
-156.6102511544238
 30
0.0
 10
91.77458765066747
 20
-156.6695067967701
 30
0.0
 10
91.86347111418691
 20
-156.7201497004033
 30
0.0
 10
92.02263452560545
 20
-156.8152343357962
 30
0.0
 10
92.02263452560545
 20
-157.0777506117722
 30
0.0
 10
92.02263452560545
 20
-157.4522324910189
 30
0.0
 10
91.74289277220316
 20
-157.5683322088718
 30
0.0
 10
91.50380314552683
 20
-157.5683322088718
 30
0.0
  0
SPLINE
  5
119
330
112
100
AcDbEntity
  8
_U+30EC_U+30A4_U+30E4_U+30FC 1
370
     0
100
AcDbSpline
210
0.0
220
0.0
230
1.0
 70
    11
 71
     3
 72
    17
 73
    13
 74
     0
 42
0.0000000001
 43
0.0000000001
 12
1.0
 22
0.0
 32
0.0
 13
1.0
 23
0.0
 33
0.0
 40
0.0
 40
0.0
 40
0.0
 40
0.0
 40
1.0
 40
1.0
 40
1.0
 40
2.0
 40
2.0
 40
2.0
 40
3.0
 40
3.0
 40
3.0
 40
4.0
 40
4.0
 40
4.0
 40
4.0
 10
91.50380314552683
 20
-156.7773382854585
 30
0.0
 10
91.36031491856617
 20
-156.7773382854585
 30
0.0
 10
91.20769718856961
 20
-156.8641546916867
 30
0.0
 10
91.20769718856961
 20
-157.0670708157679
 30
0.0
 10
91.20769718856961
 20
-157.2723985066889
 30
0.0
 10
91.33482121197532
 20
-157.3736843139552
 30
0.0
 10
91.50380314552683
 20
-157.3736843139552
 30
0.0
 10
91.68983830173032
 20
-157.3736843139552
 30
0.0
 10
91.80008135725832
 20
-157.2510389146803
 30
0.0
 10
91.80008135725832
 20
-157.0732719876414
 30
0.0
 10
91.80008135725832
 20
-156.8514078383913
 30
0.0
 10
91.63747285035453
 20
-156.7773382854585
 30
0.0
 10
91.50380314552683
 20
-156.7773382854585
 30
0.0
  0
SPLINE
  5
11A
330
112
100
AcDbEntity
  8
_U+30EC_U+30A4_U+30E4_U+30FC 1
370
     0
100
AcDbSpline
210
0.0
220
0.0
230
1.0
 70
    11
 71
     3
 72
    17
 73
    13
 74
     0
 42
0.0000000001
 43
0.0000000001
 12
1.0
 22
0.0
 32
0.0
 13
1.0
 23
0.0
 33
0.0
 40
0.0
 40
0.0
 40
0.0
 40
0.0
 40
1.0
 40
1.0
 40
1.0
 40
2.0
 40
2.0
 40
2.0
 40
3.0
 40
3.0
 40
3.0
 40
4.0
 40
4.0
 40
4.0
 40
4.0
 10
91.50380314552683
 20
-156.1172579904846
 30
0.0
 10
91.33895532655762
 20
-156.1172579904846
 30
0.0
 10
91.254550487169
 20
-156.2123426258775
 30
0.0
 10
91.254550487169
 20
-156.3477348784478
 30
0.0
 10
91.254550487169
 20
-156.4703802777227
 30
0.0
 10
91.3262084732622
 20
-156.5888915624153
 30
0.0
 10
91.50380314552683
 20
-156.5888915624153
 30
0.0
 10
91.68157007256572
 20
-156.5888915624153
 30
0.0
 10
91.75391707775597
 20
-156.4703802777227
 30
0.0
 10
91.75391707775597
 20
-156.3477348784478
 30
0.0
 10
91.75391707775597
 20
-156.2123426258775
 30
0.0
 10
91.66710067152768
 20
-156.1172579904846
 30
0.0
 10
91.50380314552683
 20
-156.1172579904846
 30
0.0
  0
HATCH
  5
11B
330
112
100
AcDbEntity
  8
_U+30EC_U+30A4_U+30E4_U+30FC 1
 62
   179
420
  2234388
100
AcDbHatch
 10
0.0
 20
0.0
 30
0.0
210
0.0
220
0.0
230
1.0
  2
SOLID
 70
     1
 71
     0
 91
        3
 92
        1
 93
        1
 72
     4
 94
        3
 73
     0
 74
     1
 95
       29
 96
       25
 40
0.0
 40
0.0
 40
0.0
 40
0.0
 40
1.0
 40
1.0
 40
1.0
 40
2.0
 40
2.0
 40
2.0
 40
3.0
 40
3.0
 40
3.0
 40
4.0
 40
4.0
 40
4.0
 40
5.0
 40
5.0
 40
5.0
 40
6.0
 40
6.0
 40
6.0
 40
7.0
 40
7.0
 40
7.0
 40
8.0
 40
8.0
 40
8.0
 40
8.0
 10
91.50380314552683
 20
-157.5683322088718
 10
91.23732500974276
 20
-157.5683322088718
 10
90.98376598202837
 20
-157.4308728990104
 10
90.98376598202837
 20
-157.0818847263545
 10
90.98376598202837
 20
-156.8259141318005
 10
91.12535940647214
 20
-156.7308294964076
 10
91.2311238378693
 20
-156.6695067967701
 10
91.10641138130326
 20
-156.6102511544238
 10
91.03027477107923
 20
-156.4958739843135
 10
91.03027477107923
 20
-156.3349880251524
 10
91.03027477107923
 20
-156.0600694054294
 10
91.22905678057816
 20
-155.9246771528591
 10
91.50380314552683
 20
-155.9246771528591
 10
91.78767901351142
 20
-155.9246771528591
 10
91.97784828429721
 20
-156.0686821441426
 10
91.97784828429721
 20
-156.3349880251524
 10
91.97784828429721
 20
-156.4958739843135
 10
91.89930010723351
 20
-156.6102511544238
 10
91.77458765066747
 20
-156.6695067967701
 10
91.86347111418691
 20
-156.7201497004033
 10
92.02263452560545
 20
-156.8152343357962
 10
92.02263452560545
 20
-157.0777506117722
 10
92.02263452560545
 20
-157.4522324910189
 10
91.74289277220316
 20
-157.5683322088718
 10
91.50380314552683
 20
-157.5683322088718
 97
        0
 97
        0
 92
        1
 93
        1
 72
     4
 94
        3
 73
     0
 74
     1
 95
       17
 96
       13
 40
0.0
 40
0.0
 40
0.0
 40
0.0
 40
1.0
 40
1.0
 40
1.0
 40
2.0
 40
2.0
 40
2.0
 40
3.0
 40
3.0
 40
3.0
 40
4.0
 40
4.0
 40
4.0
 40
4.0
 10
91.50380314552683
 20
-156.7773382854585
 10
91.36031491856617
 20
-156.7773382854585
 10
91.20769718856961
 20
-156.8641546916867
 10
91.20769718856961
 20
-157.0670708157679
 10
91.20769718856961
 20
-157.2723985066889
 10
91.33482121197532
 20
-157.3736843139552
 10
91.50380314552683
 20
-157.3736843139552
 10
91.68983830173032
 20
-157.3736843139552
 10
91.80008135725832
 20
-157.2510389146803
 10
91.80008135725832
 20
-157.0732719876414
 10
91.80008135725832
 20
-156.8514078383913
 10
91.63747285035453
 20
-156.7773382854585
 10
91.50380314552683
 20
-156.7773382854585
 97
        0
 97
        0
 92
        1
 93
        1
 72
     4
 94
        3
 73
     0
 74
     1
 95
       17
 96
       13
 40
0.0
 40
0.0
 40
0.0
 40
0.0
 40
1.0
 40
1.0
 40
1.0
 40
2.0
 40
2.0
 40
2.0
 40
3.0
 40
3.0
 40
3.0
 40
4.0
 40
4.0
 40
4.0
 40
4.0
 10
91.50380314552683
 20
-156.1172579904846
 10
91.33895532655762
 20
-156.1172579904846
 10
91.254550487169
 20
-156.2123426258775
 10
91.254550487169
 20
-156.3477348784478
 10
91.254550487169
 20
-156.4703802777227
 10
91.3262084732622
 20
-156.5888915624153
 10
91.50380314552683
 20
-156.5888915624153
 10
91.68157007256572
 20
-156.5888915624153
 10
91.75391707775597
 20
-156.4703802777227
 10
91.75391707775597
 20
-156.3477348784478
 10
91.75391707775597
 20
-156.2123426258775
 10
91.66710067152768
 20
-156.1172579904846
 10
91.50380314552683
 20
-156.1172579904846
 97
        0
 97
        0
 75
     2
 76
     1
 98
        0
  0
ENDBLK
  5
115
330
112
100
AcDbEntity
  8
0
100
AcDbBlockEnd
  0
BLOCK
  5
126
330
124
100
AcDbEntity
  8
0
100
AcDbBlockBegin
  2
block 9
 70
     0
 10
0.0
 20
0.0
 30
0.0
  3
block 9
  1

  0
SPLINE
  5
128
330
124
100
AcDbEntity
  8
_U+30EC_U+30A4_U+30E4_U+30FC 1
370
     0
100
AcDbSpline
210
0.0
220
0.0
230
1.0
 70
    11
 71
     3
 72
    26
 73
    22
 74
     0
 42
0.0000000001
 43
0.0000000001
 12
1.0
 22
0.0
 32
0.0
 13
1.0
 23
0.0
 33
0.0
 40
0.0
 40
0.0
 40
0.0
 40
0.0
 40
1.0
 40
1.0
 40
1.0
 40
2.0
 40
2.0
 40
2.0
 40
3.0
 40
3.0
 40
3.0
 40
4.0
 40
4.0
 40
4.0
 40
5.0
 40
5.0
 40
5.0
 40
6.0
 40
6.0
 40
6.0
 40
7.0
 40
7.0
 40
7.0
 40
7.0
 10
78.68184676852398
 20
-145.8643093168325
 30
0.0
 10
78.68184676852398
 20
-145.8643093168325
 30
0.0
 10
77.57752141072716
 20
-145.8643093168325
 30
0.0
 10
77.57752141072716
 20
-145.8643093168325
 30
0.0
 10
77.57752141072716
 20
-145.8643093168325
 30
0.0
 10
77.57752141072716
 20
-146.1943494643195
 30
0.0
 10
77.57752141072716
 20
-146.1943494643195
 30
0.0
 10
77.57752141072716
 20
-146.1943494643195
 30
0.0
 10
77.42955455963568
 20
-146.1943494643195
 30
0.0
 10
77.42955455963568
 20
-146.1943494643195
 30
0.0
 10
77.4147406490491
 20
-145.8622422595414
 30
0.0
 10
77.25178763259677
 20
-145.8157334704905
 30
0.0
 10
77.13758271726074
 20
-145.7861056493174
 30
0.0
 10
77.13758271726074
 20
-145.7861056493174
 30
0.0
 10
77.13758271726074
 20
-145.6400336007428
 30
0.0
 10
77.13758271726074
 20
-145.6400336007428
 30
0.0
 10
77.13758271726074
 20
-145.6400336007428
 30
0.0
 10
78.68184676852398
 20
-145.6400336007428
 30
0.0
 10
78.68184676852398
 20
-145.6400336007428
 30
0.0
 10
78.68184676852398
 20
-145.6400336007428
 30
0.0
 10
78.68184676852398
 20
-145.8643093168325
 30
0.0
 10
78.68184676852398
 20
-145.8643093168325
 30
0.0
  0
HATCH
  5
129
330
124
100
AcDbEntity
  8
_U+30EC_U+30A4_U+30E4_U+30FC 1
 62
   179
420
  2234388
100
AcDbHatch
 10
0.0
 20
0.0
 30
0.0
210
0.0
220
0.0
230
1.0
  2
SOLID
 70
     1
 71
     0
 91
        1
 92
        1
 93
        1
 72
     4
 94
        3
 73
     0
 74
     1
 95
       26
 96
       22
 40
0.0
 40
0.0
 40
0.0
 40
0.0
 40
1.0
 40
1.0
 40
1.0
 40
2.0
 40
2.0
 40
2.0
 40
3.0
 40
3.0
 40
3.0
 40
4.0
 40
4.0
 40
4.0
 40
5.0
 40
5.0
 40
5.0
 40
6.0
 40
6.0
 40
6.0
 40
7.0
 40
7.0
 40
7.0
 40
7.0
 10
78.68184676852398
 20
-145.8643093168325
 10
78.68184676852398
 20
-145.8643093168325
 10
77.57752141072716
 20
-145.8643093168325
 10
77.57752141072716
 20
-145.8643093168325
 10
77.57752141072716
 20
-145.8643093168325
 10
77.57752141072716
 20
-146.1943494643195
 10
77.57752141072716
 20
-146.1943494643195
 10
77.57752141072716
 20
-146.1943494643195
 10
77.42955455963568
 20
-146.1943494643195
 10
77.42955455963568
 20
-146.1943494643195
 10
77.4147406490491
 20
-145.8622422595414
 10
77.25178763259677
 20
-145.8157334704905
 10
77.13758271726074
 20
-145.7861056493174
 10
77.13758271726074
 20
-145.7861056493174
 10
77.13758271726074
 20
-145.6400336007428
 10
77.13758271726074
 20
-145.6400336007428
 10
77.13758271726074
 20
-145.6400336007428
 10
78.68184676852398
 20
-145.6400336007428
 10
78.68184676852398
 20
-145.6400336007428
 10
78.68184676852398
 20
-145.6400336007428
 10
78.68184676852398
 20
-145.8643093168325
 10
78.68184676852398
 20
-145.8643093168325
 97
        0
 97
        0
 75
     2
 76
     1
 98
        0
  0
SPLINE
  5
12A
330
124
100
AcDbEntity
  8
_U+30EC_U+30A4_U+30E4_U+30FC 1
370
     0
100
AcDbSpline
210
0.0
220
0.0
230
1.0
 70
    11
 71
     3
 72
    29
 73
    25
 74
     0
 42
0.0000000001
 43
0.0000000001
 12
1.0
 22
0.0
 32
0.0
 13
1.0
 23
0.0
 33
0.0
 40
0.0
 40
0.0
 40
0.0
 40
0.0
 40
1.0
 40
1.0
 40
1.0
 40
2.0
 40
2.0
 40
2.0
 40
3.0
 40
3.0
 40
3.0
 40
4.0
 40
4.0
 40
4.0
 40
5.0
 40
5.0
 40
5.0
 40
6.0
 40
6.0
 40
6.0
 40
7.0
 40
7.0
 40
7.0
 40
8.0
 40
8.0
 40
8.0
 40
8.0
 10
78.73266192693143
 20
-144.6388888527292
 30
0.0
 10
78.73266192693143
 20
-144.9055392432875
 30
0.0
 10
78.59503036229569
 20
-145.1590982710019
 30
0.0
 10
78.24604218963988
 20
-145.1590982710019
 30
0.0
 10
77.99007159508582
 20
-145.1590982710019
 30
0.0
 10
77.89481470491866
 20
-145.0175048465581
 30
0.0
 10
77.83349200528122
 20
-144.9117404151609
 30
0.0
 10
77.77423636293491
 20
-145.036452871727
 30
0.0
 10
77.66003144759888
 20
-145.1129339914995
 30
0.0
 10
77.49931774321198
 20
-145.1129339914995
 30
0.0
 10
77.22422686871478
 20
-145.1129339914995
 30
0.0
 10
77.08883461614447
 20
-144.9138074724521
 30
0.0
 10
77.08883461614447
 20
-144.6388888527292
 30
0.0
 10
77.08883461614447
 20
-144.3553574942931
 30
0.0
 10
77.23266735265364
 20
-144.1648437139588
 30
0.0
 10
77.49931774321198
 20
-144.1648437139588
 30
0.0
 10
77.66003144759888
 20
-144.1648437139588
 30
0.0
 10
77.77423636293491
 20
-144.2433918910225
 30
0.0
 10
77.83349200528122
 20
-144.3681043475885
 30
0.0
 10
77.88430716368865
 20
-144.2792208840691
 30
0.0
 10
77.97956405385581
 20
-144.1207464917476
 30
0.0
 10
78.24190807505758
 20
-144.1207464917476
 30
0.0
 10
78.61621769952998
 20
-144.1207464917476
 30
0.0
 10
78.73266192693143
 20
-144.3997992260528
 30
0.0
 10
78.73266192693143
 20
-144.6388888527292
 30
0.0
  0
SPLINE
  5
12B
330
124
100
AcDbEntity
  8
_U+30EC_U+30A4_U+30E4_U+30FC 1
370
     0
100
AcDbSpline
210
0.0
220
0.0
230
1.0
 70
    11
 71
     3
 72
    17
 73
    13
 74
     0
 42
0.0000000001
 43
0.0000000001
 12
1.0
 22
0.0
 32
0.0
 13
1.0
 23
0.0
 33
0.0
 40
0.0
 40
0.0
 40
0.0
 40
0.0
 40
1.0
 40
1.0
 40
1.0
 40
2.0
 40
2.0
 40
2.0
 40
3.0
 40
3.0
 40
3.0
 40
4.0
 40
4.0
 40
4.0
 40
4.0
 10
77.28141545376992
 20
-144.6388888527292
 30
0.0
 10
77.28141545376992
 20
-144.8039089264726
 30
0.0
 10
77.37650008916282
 20
-144.8883137658613
 30
0.0
 10
77.51189234173314
 20
-144.8883137658613
 30
0.0
 10
77.6347099957823
 20
-144.8883137658613
 30
0.0
 10
77.75322128047489
 20
-144.8166557797681
 30
0.0
 10
77.75322128047489
 20
-144.6388888527292
 30
0.0
 10
77.75322128047489
 20
-144.4611219256903
 30
0.0
 10
77.6347099957823
 20
-144.3894639395971
 30
0.0
 10
77.51189234173314
 20
-144.3894639395971
 30
0.0
 10
77.37650008916282
 20
-144.3894639395971
 30
0.0
 10
77.28141545376992
 20
-144.4759358362768
 30
0.0
 10
77.28141545376992
 20
-144.6388888527292
 30
0.0
  0
SPLINE
  5
12C
330
124
100
AcDbEntity
  8
_U+30EC_U+30A4_U+30E4_U+30FC 1
370
     0
100
AcDbSpline
210
0.0
220
0.0
230
1.0
 70
    11
 71
     3
 72
    17
 73
    13
 74
     0
 42
0.0000000001
 43
0.0000000001
 12
1.0
 22
0.0
 32
0.0
 13
1.0
 23
0.0
 33
0.0
 40
0.0
 40
0.0
 40
0.0
 40
0.0
 40
1.0
 40
1.0
 40
1.0
 40
2.0
 40
2.0
 40
2.0
 40
3.0
 40
3.0
 40
3.0
 40
4.0
 40
4.0
 40
4.0
 40
4.0
 10
77.94149574874379
 20
-144.6388888527292
 30
0.0
 10
77.94149574874379
 20
-144.7828938440126
 30
0.0
 10
78.02813990019783
 20
-144.9351670644607
 30
0.0
 10
78.23122827905331
 20
-144.9351670644607
 30
0.0
 10
78.43638371519994
 20
-144.9351670644607
 30
0.0
 10
78.5380140320148
 20
-144.8080430410549
 30
0.0
 10
78.5380140320148
 20
-144.6388888527292
 30
0.0
 10
78.5380140320148
 20
-144.4528536965257
 30
0.0
 10
78.41536863273991
 20
-144.3426106409977
 30
0.0
 10
78.23760170570102
 20
-144.3426106409977
 30
0.0
 10
78.0153930469024
 20
-144.3426106409977
 30
0.0
 10
77.94149574874379
 20
-144.50556365745
 30
0.0
 10
77.94149574874379
 20
-144.6388888527292
 30
0.0
  0
HATCH
  5
12D
330
124
100
AcDbEntity
  8
_U+30EC_U+30A4_U+30E4_U+30FC 1
 62
   179
420
  2234388
100
AcDbHatch
 10
0.0
 20
0.0
 30
0.0
210
0.0
220
0.0
230
1.0
  2
SOLID
 70
     1
 71
     0
 91
        3
 92
        1
 93
        1
 72
     4
 94
        3
 73
     0
 74
     1
 95
       29
 96
       25
 40
0.0
 40
0.0
 40
0.0
 40
0.0
 40
1.0
 40
1.0
 40
1.0
 40
2.0
 40
2.0
 40
2.0
 40
3.0
 40
3.0
 40
3.0
 40
4.0
 40
4.0
 40
4.0
 40
5.0
 40
5.0
 40
5.0
 40
6.0
 40
6.0
 40
6.0
 40
7.0
 40
7.0
 40
7.0
 40
8.0
 40
8.0
 40
8.0
 40
8.0
 10
78.73266192693143
 20
-144.6388888527292
 10
78.73266192693143
 20
-144.9055392432875
 10
78.59503036229569
 20
-145.1590982710019
 10
78.24604218963988
 20
-145.1590982710019
 10
77.99007159508582
 20
-145.1590982710019
 10
77.89481470491866
 20
-145.0175048465581
 10
77.83349200528122
 20
-144.9117404151609
 10
77.77423636293491
 20
-145.036452871727
 10
77.66003144759888
 20
-145.1129339914995
 10
77.49931774321198
 20
-145.1129339914995
 10
77.22422686871478
 20
-145.1129339914995
 10
77.08883461614447
 20
-144.9138074724521
 10
77.08883461614447
 20
-144.6388888527292
 10
77.08883461614447
 20
-144.3553574942931
 10
77.23266735265364
 20
-144.1648437139588
 10
77.49931774321198
 20
-144.1648437139588
 10
77.66003144759888
 20
-144.1648437139588
 10
77.77423636293491
 20
-144.2433918910225
 10
77.83349200528122
 20
-144.3681043475885
 10
77.88430716368865
 20
-144.2792208840691
 10
77.97956405385581
 20
-144.1207464917476
 10
78.24190807505758
 20
-144.1207464917476
 10
78.61621769952998
 20
-144.1207464917476
 10
78.73266192693143
 20
-144.3997992260528
 10
78.73266192693143
 20
-144.6388888527292
 97
        0
 97
        0
 92
        1
 93
        1
 72
     4
 94
        3
 73
     0
 74
     1
 95
       17
 96
       13
 40
0.0
 40
0.0
 40
0.0
 40
0.0
 40
1.0
 40
1.0
 40
1.0
 40
2.0
 40
2.0
 40
2.0
 40
3.0
 40
3.0
 40
3.0
 40
4.0
 40
4.0
 40
4.0
 40
4.0
 10
77.28141545376992
 20
-144.6388888527292
 10
77.28141545376992
 20
-144.8039089264726
 10
77.37650008916282
 20
-144.8883137658613
 10
77.51189234173314
 20
-144.8883137658613
 10
77.6347099957823
 20
-144.8883137658613
 10
77.75322128047489
 20
-144.8166557797681
 10
77.75322128047489
 20
-144.6388888527292
 10
77.75322128047489
 20
-144.4611219256903
 10
77.6347099957823
 20
-144.3894639395971
 10
77.51189234173314
 20
-144.3894639395971
 10
77.37650008916282
 20
-144.3894639395971
 10
77.28141545376992
 20
-144.4759358362768
 10
77.28141545376992
 20
-144.6388888527292
 97
        0
 97
        0
 92
        1
 93
        1
 72
     4
 94
        3
 73
     0
 74
     1
 95
       17
 96
       13
 40
0.0
 40
0.0
 40
0.0
 40
0.0
 40
1.0
 40
1.0
 40
1.0
 40
2.0
 40
2.0
 40
2.0
 40
3.0
 40
3.0
 40
3.0
 40
4.0
 40
4.0
 40
4.0
 40
4.0
 10
77.94149574874379
 20
-144.6388888527292
 10
77.94149574874379
 20
-144.7828938440126
 10
78.02813990019783
 20
-144.9351670644607
 10
78.23122827905331
 20
-144.9351670644607
 10
78.43638371519994
 20
-144.9351670644607
 10
78.5380140320148
 20
-144.8080430410549
 10
78.5380140320148
 20
-144.6388888527292
 10
78.5380140320148
 20
-144.4528536965257
 10
78.41536863273991
 20
-144.3426106409977
 10
78.23760170570102
 20
-144.3426106409977
 10
78.0153930469024
 20
-144.3426106409977
 10
77.94149574874379
 20
-144.50556365745
 10
77.94149574874379
 20
-144.6388888527292
 97
        0
 97
        0
 75
     2
 76
     1
 98
        0
  0
ENDBLK
  5
127
330
124
100
AcDbEntity
  8
0
100
AcDbBlockEnd
  0
ENDSEC
  0
SECTION
  2
ENTITIES
  0
POLYLINE
  5
41
330
1F
100
AcDbEntity
  8
_U+30EC_U+30A4_U+30E4_U+30FC 1
 62
   179
420
  2234388
370
    25
100
AcDb2dPolyline
 66
     1
 10
0.0
 20
0.0
 30
0.0
  0
VERTEX
  5
42
330
41
100
AcDbEntity
  8
_U+30EC_U+30A4_U+30E4_U+30FC 1
 62
   179
420
  2234388
370
    25
100
AcDbVertex
100
AcDb2dVertex
 10
81.92642790988269
 20
-154.0949913503653
 30
0.0
  0
VERTEX
  5
43
330
41
100
AcDbEntity
  8
_U+30EC_U+30A4_U+30E4_U+30FC 1
 62
   179
420
  2234388
370
    25
100
AcDbVertex
100
AcDb2dVertex
 10
99.92638439510999
 20
-154.0949913503653
 30
0.0
  0
SEQEND
  5
44
330
41
100
AcDbEntity
  8
_U+30EC_U+30A4_U+30E4_U+30FC 1
 62
   179
420
  2234388
370
    25
  0
POLYLINE
  5
45
330
1F
100
AcDbEntity
  8
_U+30EC_U+30A4_U+30E4_U+30FC 1
 62
   179
420
  2234388
370
    25
100
AcDb2dPolyline
 66
     1
 10
0.0
 20
0.0
 30
0.0
  0
VERTEX
  5
46
330
45
100
AcDbEntity
  8
_U+30EC_U+30A4_U+30E4_U+30FC 1
 62
   179
420
  2234388
370
    25
100
AcDbVertex
100
AcDb2dVertex
 10
93.42652456093523
 20
-97.59509025337903
 30
0.0
  0
VERTEX
  5
47
330
45
100
AcDbEntity
  8
_U+30EC_U+30A4_U+30E4_U+30FC 1
 62
   179
420
  2234388
370
    25
100
AcDbVertex
100
AcDb2dVertex
 10
94.42661664305976
 20
-97.59509025337903
 30
0.0
  0
SEQEND
  5
48
330
45
100
AcDbEntity
  8
_U+30EC_U+30A4_U+30E4_U+30FC 1
 62
   179
420
  2234388
370
    25
  0
POLYLINE
  5
49
330
1F
100
AcDbEntity
  8
_U+30EC_U+30A4_U+30E4_U+30FC 1
 62
   179
420
  2234388
370
    25
100
AcDb2dPolyline
 66
     1
 10
0.0
 20
0.0
 30
0.0
  0
VERTEX
  5
4A
330
49
100
AcDbEntity
  8
_U+30EC_U+30A4_U+30E4_U+30FC 1
 62
   179
420
  2234388
370
    25
100
AcDbVertex
100
AcDb2dVertex
 10
81.92642790988269
 20
-136.0950696881987
 30
0.0
  0
VERTEX
  5
4B
330
49
100
AcDbEntity
  8
_U+30EC_U+30A4_U+30E4_U+30FC 1
 62
   179
420
  2234388
370
    25
100
AcDbVertex
100
AcDb2dVertex
 10
81.92642790988269
 20
-154.0949913503653
 30
0.0
  0
SEQEND
  5
4C
330
49
100
AcDbEntity
  8
_U+30EC_U+30A4_U+30E4_U+30FC 1
 62
   179
420
  2234388
370
    25
  0
POLYLINE
  5
4D
330
1F
100
AcDbEntity
  8
_U+30EC_U+30A4_U+30E4_U+30FC 1
 62
   179
420
  2234388
370
    25
100
AcDb2dPolyline
 66
     1
 10
0.0
 20
0.0
 30
0.0
  0
VERTEX
  5
4E
330
4D
100
AcDbEntity
  8
_U+30EC_U+30A4_U+30E4_U+30FC 1
 62
   179
420
  2234388
370
    25
100
AcDbVertex
100
AcDb2dVertex
 10
99.92638439510999
 20
-151.095004406671
 30
0.0
  0
VERTEX
  5
4F
330
4D
100
AcDbEntity
  8
_U+30EC_U+30A4_U+30E4_U+30FC 1
 62
   179
420
  2234388
370
    25
100
AcDbVertex
100
AcDb2dVertex
 10
99.92638439510999
 20
-154.0949913503653
 30
0.0
  0
SEQEND
  5
50
330
4D
100
AcDbEntity
  8
_U+30EC_U+30A4_U+30E4_U+30FC 1
 62
   179
420
  2234388
370
    25
  0
POLYLINE
  5
51
330
1F
100
AcDbEntity
  8
_U+30EC_U+30A4_U+30E4_U+30FC 1
 62
   179
420
  2234388
370
    25
100
AcDb2dPolyline
 66
     1
 10
0.0
 20
0.0
 30
0.0
  0
VERTEX
  5
52
330
51
100
AcDbEntity
  8
_U+30EC_U+30A4_U+30E4_U+30FC 1
 62
   179
420
  2234388
370
    25
100
AcDbVertex
100
AcDb2dVertex
 10
98.9262594206253
 20
-152.0954469064203
 30
0.0
  0
VERTEX
  5
53
330
51
100
AcDbEntity
  8
_U+30EC_U+30A4_U+30E4_U+30FC 1
 62
   179
420
  2234388
370
    25
100
AcDbVertex
100
AcDb2dVertex
 10
98.9262594206253
 20
-153.0952191283928
 30
0.0
  0
SEQEND
  5
54
330
51
100
AcDbEntity
  8
_U+30EC_U+30A4_U+30E4_U+30FC 1
 62
   179
420
  2234388
370
    25
  0
POLYLINE
  5
55
330
1F
100
AcDbEntity
  8
_U+30EC_U+30A4_U+30E4_U+30FC 1
 62
   179
420
  2234388
370
    25
100
AcDb2dPolyline
 66
     1
 10
0.0
 20
0.0
 30
0.0
  0
VERTEX
  5
56
330
55
100
AcDbEntity
  8
_U+30EC_U+30A4_U+30E4_U+30FC 1
 62
   179
420
  2234388
370
    25
100
AcDbVertex
100
AcDb2dVertex
 10
96.92639997576855
 20
-151.095004406671
 30
0.0
  0
VERTEX
  5
57
330
55
100
AcDbEntity
  8
_U+30EC_U+30A4_U+30E4_U+30FC 1
 62
   179
420
  2234388
370
    25
100
AcDbVertex
100
AcDb2dVertex
 10
99.92638439510999
 20
-151.095004406671
 30
0.0
  0
SEQEND
  5
58
330
55
100
AcDbEntity
  8
_U+30EC_U+30A4_U+30E4_U+30FC 1
 62
   179
420
  2234388
370
    25
  0
POLYLINE
  5
59
330
1F
100
AcDbEntity
  8
_U+30EC_U+30A4_U+30E4_U+30FC 1
 62
   179
420
  2234388
370
    25
100
AcDb2dPolyline
 66
     1
 10
0.0
 20
0.0
 30
0.0
  0
VERTEX
  5
5A
330
59
100
AcDbEntity
  8
_U+30EC_U+30A4_U+30E4_U+30FC 1
 62
   179
420
  2234388
370
    25
100
AcDbVertex
100
AcDb2dVertex
 10
82.9262001065986
 20
-153.0952191283928
 30
0.0
  0
VERTEX
  5
5B
330
59
100
AcDbEntity
  8
_U+30EC_U+30A4_U+30E4_U+30FC 1
 62
   179
420
  2234388
370
    25
100
AcDbVertex
100
AcDb2dVertex
 10
98.9262594206253
 20
-153.0952191283928
 30
0.0
  0
SEQEND
  5
5C
330
59
100
AcDbEntity
  8
_U+30EC_U+30A4_U+30E4_U+30FC 1
 62
   179
420
  2234388
370
    25
  0
POLYLINE
  5
5D
330
1F
100
AcDbEntity
  8
_U+30EC_U+30A4_U+30E4_U+30FC 1
 62
   179
420
  2234388
370
    25
100
AcDb2dPolyline
 66
     1
 10
0.0
 20
0.0
 30
0.0
  0
VERTEX
  5
5E
330
5D
100
AcDbEntity
  8
_U+30EC_U+30A4_U+30E4_U+30FC 1
 62
   179
420
  2234388
370
    25
100
AcDbVertex
100
AcDb2dVertex
 10
82.9262001065986
 20
-142.5949296865733
 30
0.0
  0
VERTEX
  5
5F
330
5D
100
AcDbEntity
  8
_U+30EC_U+30A4_U+30E4_U+30FC 1
 62
   179
420
  2234388
370
    25
100
AcDbVertex
100
AcDb2dVertex
 10
82.9262001065986
 20
-153.0952191283928
 30
0.0
  0
SEQEND
  5
60
330
5D
100
AcDbEntity
  8
_U+30EC_U+30A4_U+30E4_U+30FC 1
 62
   179
420
  2234388
370
    25
  0
POLYLINE
  5
61
330
1F
100
AcDbEntity
  8
_U+30EC_U+30A4_U+30E4_U+30FC 1
 62
   179
420
  2234388
370
    25
100
AcDb2dPolyline
 66
     1
 10
0.0
 20
0.0
 30
0.0
  0
VERTEX
  5
62
330
61
100
AcDbEntity
  8
_U+30EC_U+30A4_U+30E4_U+30FC 1
 62
   179
420
  2234388
370
    25
100
AcDbVertex
100
AcDb2dVertex
 10
82.9262001065986
 20
-142.5949296865733
 30
0.0
  0
VERTEX
  5
63
330
61
100
AcDbEntity
  8
_U+30EC_U+30A4_U+30E4_U+30FC 1
 62
   179
420
  2234388
370
    25
100
AcDbVertex
100
AcDb2dVertex
 10
94.42661664305976
 20
-142.5949296865733
 30
0.0
  0
SEQEND
  5
64
330
61
100
AcDbEntity
  8
_U+30EC_U+30A4_U+30E4_U+30FC 1
 62
   179
420
  2234388
370
    25
  0
POLYLINE
  5
65
330
1F
100
AcDbEntity
  8
_U+30EC_U+30A4_U+30E4_U+30FC 1
 62
   179
420
  2234388
370
    25
100
AcDb2dPolyline
 66
     1
 10
0.0
 20
0.0
 30
0.0
  0
VERTEX
  5
66
330
65
100
AcDbEntity
  8
_U+30EC_U+30A4_U+30E4_U+30FC 1
 62
   179
420
  2234388
370
    25
100
AcDbVertex
100
AcDb2dVertex
 10
84.9264147777911
 20
-136.0950696881987
 30
0.0
  0
VERTEX
  5
67
330
65
100
AcDbEntity
  8
_U+30EC_U+30A4_U+30E4_U+30FC 1
 62
   179
420
  2234388
370
    25
100
AcDbVertex
100
AcDb2dVertex
 10
84.9264147777911
 20
-137.0955121879486
 30
0.0
  0
SEQEND
  5
68
330
65
100
AcDbEntity
  8
_U+30EC_U+30A4_U+30E4_U+30FC 1
 62
   179
420
  2234388
370
    25
  0
POLYLINE
  5
69
330
1F
100
AcDbEntity
  8
_U+30EC_U+30A4_U+30E4_U+30FC 1
 62
   179
420
  2234388
370
    25
100
AcDb2dPolyline
 66
     1
 10
0.0
 20
0.0
 30
0.0
  0
VERTEX
  5
6A
330
69
100
AcDbEntity
  8
_U+30EC_U+30A4_U+30E4_U+30FC 1
 62
   179
420
  2234388
370
    25
100
AcDbVertex
100
AcDb2dVertex
 10
81.92642790988269
 20
-136.0950696881987
 30
0.0
  0
VERTEX
  5
6B
330
69
100
AcDbEntity
  8
_U+30EC_U+30A4_U+30E4_U+30FC 1
 62
   179
420
  2234388
370
    25
100
AcDbVertex
100
AcDb2dVertex
 10
84.9264147777911
 20
-136.0950696881987
 30
0.0
  0
SEQEND
  5
6C
330
69
100
AcDbEntity
  8
_U+30EC_U+30A4_U+30E4_U+30FC 1
 62
   179
420
  2234388
370
    25
  0
POLYLINE
  5
6D
330
1F
100
AcDbEntity
  8
_U+30EC_U+30A4_U+30E4_U+30FC 1
 62
   179
420
  2234388
370
    25
100
AcDb2dPolyline
 66
     1
 10
0.0
 20
0.0
 30
0.0
  0
VERTEX
  5
6E
330
6D
100
AcDbEntity
  8
_U+30EC_U+30A4_U+30E4_U+30FC 1
 62
   179
420
  2234388
370
    25
100
AcDbVertex
100
AcDb2dVertex
 10
82.9262001065986
 20
-137.0955121879486
 30
0.0
  0
VERTEX
  5
6F
330
6D
100
AcDbEntity
  8
_U+30EC_U+30A4_U+30E4_U+30FC 1
 62
   179
420
  2234388
370
    25
100
AcDbVertex
100
AcDb2dVertex
 10
84.9264147777911
 20
-137.0955121879486
 30
0.0
  0
SEQEND
  5
70
330
6D
100
AcDbEntity
  8
_U+30EC_U+30A4_U+30E4_U+30FC 1
 62
   179
420
  2234388
370
    25
  0
POLYLINE
  5
71
330
1F
100
AcDbEntity
  8
_U+30EC_U+30A4_U+30E4_U+30FC 1
 62
   179
420
  2234388
370
    25
100
AcDb2dPolyline
 66
     1
 10
0.0
 20
0.0
 30
0.0
  0
VERTEX
  5
72
330
71
100
AcDbEntity
  8
_U+30EC_U+30A4_U+30E4_U+30FC 1
 62
   179
420
  2234388
370
    25
100
AcDbVertex
100
AcDb2dVertex
 10
82.9262001065986
 20
-141.5944519090459
 30
0.0
  0
VERTEX
  5
73
330
71
100
AcDbEntity
  8
_U+30EC_U+30A4_U+30E4_U+30FC 1
 62
   179
420
  2234388
370
    25
100
AcDbVertex
100
AcDb2dVertex
 10
93.4230673388012
 20
-141.5944519090459
 30
0.0
  0
SEQEND
  5
74
330
71
100
AcDbEntity
  8
_U+30EC_U+30A4_U+30E4_U+30FC 1
 62
   179
420
  2234388
370
    25
  0
POLYLINE
  5
75
330
1F
100
AcDbEntity
  8
_U+30EC_U+30A4_U+30E4_U+30FC 1
 62
   179
420
  2234388
370
    25
100
AcDb2dPolyline
 66
     1
 10
0.0
 20
0.0
 30
0.0
  0
VERTEX
  5
76
330
75
100
AcDbEntity
  8
_U+30EC_U+30A4_U+30E4_U+30FC 1
 62
   179
420
  2234388
370
    25
100
AcDbVertex
100
AcDb2dVertex
 10
93.42652456093523
 20
-97.59509025337903
 30
0.0
  0
VERTEX
  5
77
330
75
100
AcDbEntity
  8
_U+30EC_U+30A4_U+30E4_U+30FC 1
 62
   179
420
  2234388
370
    25
100
AcDbVertex
100
AcDb2dVertex
 10
93.42652456093523
 20
-141.5910299646021
 30
0.0
  0
SEQEND
  5
78
330
75
100
AcDbEntity
  8
_U+30EC_U+30A4_U+30E4_U+30FC 1
 62
   179
420
  2234388
370
    25
  0
POLYLINE
  5
79
330
1F
100
AcDbEntity
  8
_U+30EC_U+30A4_U+30E4_U+30FC 1
 62
   179
420
  2234388
370
    25
100
AcDb2dPolyline
 66
     1
 10
0.0
 20
0.0
 30
0.0
  0
VERTEX
  5
7A
330
79
100
AcDbEntity
  8
_U+30EC_U+30A4_U+30E4_U+30FC 1
 62
   179
420
  2234388
370
    25
100
AcDbVertex
100
AcDb2dVertex
 10
94.42661664305976
 20
-97.59509025337903
 30
0.0
  0
VERTEX
  5
7B
330
79
100
AcDbEntity
  8
_U+30EC_U+30A4_U+30E4_U+30FC 1
 62
   179
420
  2234388
370
    25
100
AcDbVertex
100
AcDb2dVertex
 10
94.42661664305976
 20
-142.5949296865733
 30
0.0
  0
SEQEND
  5
7C
330
79
100
AcDbEntity
  8
_U+30EC_U+30A4_U+30E4_U+30FC 1
 62
   179
420
  2234388
370
    25
  0
POLYLINE
  5
7D
330
1F
100
AcDbEntity
  8
_U+30EC_U+30A4_U+30E4_U+30FC 1
 62
   179
420
  2234388
370
    25
100
AcDb2dPolyline
 66
     1
 10
0.0
 20
0.0
 30
0.0
  0
VERTEX
  5
7E
330
7D
100
AcDbEntity
  8
_U+30EC_U+30A4_U+30E4_U+30FC 1
 62
   179
420
  2234388
370
    25
100
AcDbVertex
100
AcDb2dVertex
 10
82.9262001065986
 20
-137.0955121879486
 30
0.0
  0
VERTEX
  5
7F
330
7D
100
AcDbEntity
  8
_U+30EC_U+30A4_U+30E4_U+30FC 1
 62
   179
420
  2234388
370
    25
100
AcDbVertex
100
AcDb2dVertex
 10
82.9262001065986
 20
-141.5944519090459
 30
0.0
  0
SEQEND
  5
80
330
7D
100
AcDbEntity
  8
_U+30EC_U+30A4_U+30E4_U+30FC 1
 62
   179
420
  2234388
370
    25
  0
POLYLINE
  5
81
330
1F
100
AcDbEntity
  8
_U+30EC_U+30A4_U+30E4_U+30FC 1
 62
   179
420
  2234388
370
    25
100
AcDb2dPolyline
 66
     1
 10
0.0
 20
0.0
 30
0.0
  0
VERTEX
  5
82
330
81
100
AcDbEntity
  8
_U+30EC_U+30A4_U+30E4_U+30FC 1
 62
   179
420
  2234388
370
    25
100
AcDbVertex
100
AcDb2dVertex
 10
96.92639997576855
 20
-151.095004406671
 30
0.0
  0
VERTEX
  5
83
330
81
100
AcDbEntity
  8
_U+30EC_U+30A4_U+30E4_U+30FC 1
 62
   179
420
  2234388
370
    25
100
AcDbVertex
100
AcDb2dVertex
 10
96.92639997576855
 20
-152.0954469064203
 30
0.0
  0
SEQEND
  5
84
330
81
100
AcDbEntity
  8
_U+30EC_U+30A4_U+30E4_U+30FC 1
 62
   179
420
  2234388
370
    25
  0
POLYLINE
  5
85
330
1F
100
AcDbEntity
  8
_U+30EC_U+30A4_U+30E4_U+30FC 1
 62
   179
420
  2234388
370
    25
100
AcDb2dPolyline
 66
     1
 10
0.0
 20
0.0
 30
0.0
  0
VERTEX
  5
86
330
85
100
AcDbEntity
  8
_U+30EC_U+30A4_U+30E4_U+30FC 1
 62
   179
420
  2234388
370
    25
100
AcDbVertex
100
AcDb2dVertex
 10
96.92639997576855
 20
-152.0954469064203
 30
0.0
  0
VERTEX
  5
87
330
85
100
AcDbEntity
  8
_U+30EC_U+30A4_U+30E4_U+30FC 1
 62
   179
420
  2234388
370
    25
100
AcDbVertex
100
AcDb2dVertex
 10
98.9262594206253
 20
-152.0954469064203
 30
0.0
  0
SEQEND
  5
88
330
85
100
AcDbEntity
  8
_U+30EC_U+30A4_U+30E4_U+30FC 1
 62
   179
420
  2234388
370
    25
  0
SPLINE
  5
89
330
1F
100
AcDbEntity
  8
_U+30EC_U+30A4_U+30E4_U+30FC 1
 62
   179
420
  2234388
370
     9
100
AcDbSpline
210
0.0
220
0.0
230
1.0
 70
    11
 71
     3
 72
    17
 73
    13
 74
     0
 42
0.0000000001
 43
0.0000000001
 12
1.0
 22
0.0
 32
0.0
 13
1.0
 23
0.0
 33
0.0
 40
0.0
 40
0.0
 40
0.0
 40
0.0
 40
1.0
 40
1.0
 40
1.0
 40
2.0
 40
2.0
 40
2.0
 40
3.0
 40
3.0
 40
3.0
 40
4.0
 40
4.0
 40
4.0
 40
4.0
 10
102.6004398824447
 20
-154.0949913503653
 30
0.0
 10
102.6004398824447
 20
-154.1500952392403
 30
0.0
 10
102.6452426590795
 20
-154.194898017007
 30
0.0
 10
102.7003465465625
 20
-154.194898017007
 30
0.0
 10
102.7554857118225
 20
-154.194898017007
 30
0.0
 10
102.8002532106804
 20
-154.1500952392403
 30
0.0
 10
102.8002532106804
 20
-154.0949913503653
 30
0.0
 10
102.8002532106804
 20
-154.0398521837123
 30
0.0
 10
102.7554857118225
 20
-153.9950846837237
 30
0.0
 10
102.7003465465625
 20
-153.9950846837237
 30
0.0
 10
102.6452426590795
 20
-153.9950846837237
 30
0.0
 10
102.6004398824447
 20
-154.0398521837123
 30
0.0
 10
102.6004398824447
 20
-154.0949913503653
 30
0.0
  0
POLYLINE
  5
8A
330
1F
100
AcDbEntity
  8
_U+30EC_U+30A4_U+30E4_U+30FC 1
 62
   179
420
  2234388
370
     9
100
AcDb2dPolyline
 66
     1
 10
0.0
 20
0.0
 30
0.0
  0
VERTEX
  5
8B
330
8A
100
AcDbEntity
  8
_U+30EC_U+30A4_U+30E4_U+30FC 1
 62
   179
420
  2234388
370
     9
100
AcDbVertex
100
AcDb2dVertex
 10
102.7003465465625
 20
-97.59851219782247
 30
0.0
  0
VERTEX
  5
8C
330
8A
100
AcDbEntity
  8
_U+30EC_U+30A4_U+30E4_U+30FC 1
 62
   179
420
  2234388
370
     9
100
AcDbVertex
100
AcDb2dVertex
 10
102.7003465465625
 20
-154.0949913503653
 30
0.0
  0
SEQEND
  5
8D
330
8A
100
AcDbEntity
  8
_U+30EC_U+30A4_U+30E4_U+30FC 1
 62
   179
420
  2234388
370
     9
  0
POLYLINE
  5
8E
330
1F
100
AcDbEntity
  8
_U+30EC_U+30A4_U+30E4_U+30FC 1
 62
   179
420
  2234388
370
     9
100
AcDb2dPolyline
 66
     1
 10
0.0
 20
0.0
 30
0.0
  0
VERTEX
  5
8F
330
8E
100
AcDbEntity
  8
_U+30EC_U+30A4_U+30E4_U+30FC 1
 62
   179
420
  2234388
370
     9
100
AcDbVertex
100
AcDb2dVertex
 10
101.0763340879946
 20
-154.0949913503653
 30
0.0
  0
VERTEX
  5
90
330
8E
100
AcDbEntity
  8
_U+30EC_U+30A4_U+30E4_U+30FC 1
 62
   179
420
  2234388
370
     9
100
AcDbVertex
100
AcDb2dVertex
 10
103.7001187432785
 20
-154.0949913503653
 30
0.0
  0
SEQEND
  5
91
330
8E
100
AcDbEntity
  8
_U+30EC_U+30A4_U+30E4_U+30FC 1
 62
   179
420
  2234388
370
     9
  0
SPLINE
  5
92
330
1F
100
AcDbEntity
  8
_U+30EC_U+30A4_U+30E4_U+30FC 1
 62
   179
420
  2234388
370
     9
100
AcDbSpline
210
0.0
220
0.0
230
1.0
 70
    11
 71
     3
 72
    17
 73
    13
 74
     0
 42
0.0000000001
 43
0.0000000001
 12
1.0
 22
0.0
 32
0.0
 13
1.0
 23
0.0
 33
0.0
 40
0.0
 40
0.0
 40
0.0
 40
0.0
 40
1.0
 40
1.0
 40
1.0
 40
2.0
 40
2.0
 40
2.0
 40
3.0
 40
3.0
 40
3.0
 40
4.0
 40
4.0
 40
4.0
 40
4.0
 10
102.6004398824447
 20
-151.095004406671
 30
0.0
 10
102.6004398824447
 20
-151.1501082955459
 30
0.0
 10
102.6452426590795
 20
-151.1949110733127
 30
0.0
 10
102.7003465465625
 20
-151.1949110733127
 30
0.0
 10
102.7554857118225
 20
-151.1949110733127
 30
0.0
 10
102.8002532106804
 20
-151.1501082955459
 30
0.0
 10
102.8002532106804
 20
-151.095004406671
 30
0.0
 10
102.8002532106804
 20
-151.0398652400179
 30
0.0
 10
102.7554857118225
 20
-150.9950977400287
 30
0.0
 10
102.7003465465625
 20
-150.9950977400287
 30
0.0
 10
102.6452426590795
 20
-150.9950977400287
 30
0.0
 10
102.6004398824447
 20
-151.0398652400179
 30
0.0
 10
102.6004398824447
 20
-151.095004406671
 30
0.0
  0
POLYLINE
  5
93
330
1F
100
AcDbEntity
  8
_U+30EC_U+30A4_U+30E4_U+30FC 1
 62
   179
420
  2234388
370
     9
100
AcDb2dPolyline
 66
     1
 10
0.0
 20
0.0
 30
0.0
  0
VERTEX
  5
94
330
93
100
AcDbEntity
  8
_U+30EC_U+30A4_U+30E4_U+30FC 1
 62
   179
420
  2234388
370
     9
100
AcDbVertex
100
AcDb2dVertex
 10
101.0763340879946
 20
-151.095004406671
 30
0.0
  0
VERTEX
  5
95
330
93
100
AcDbEntity
  8
_U+30EC_U+30A4_U+30E4_U+30FC 1
 62
   179
420
  2234388
370
     9
100
AcDbVertex
100
AcDb2dVertex
 10
103.7001187432785
 20
-151.095004406671
 30
0.0
  0
SEQEND
  5
96
330
93
100
AcDbEntity
  8
_U+30EC_U+30A4_U+30E4_U+30FC 1
 62
   179
420
  2234388
370
     9
  0
SPLINE
  5
97
330
1F
100
AcDbEntity
  8
_U+30EC_U+30A4_U+30E4_U+30FC 1
 62
   179
420
  2234388
370
     9
100
AcDbSpline
210
0.0
220
0.0
230
1.0
 70
    11
 71
     3
 72
    17
 73
    13
 74
     0
 42
0.0000000001
 43
0.0000000001
 12
1.0
 22
0.0
 32
0.0
 13
1.0
 23
0.0
 33
0.0
 40
0.0
 40
0.0
 40
0.0
 40
0.0
 40
1.0
 40
1.0
 40
1.0
 40
2.0
 40
2.0
 40
2.0
 40
3.0
 40
3.0
 40
3.0
 40
4.0
 40
4.0
 40
4.0
 40
4.0
 10
102.6004398824447
 20
-142.5949296865733
 30
0.0
 10
102.6004398824447
 20
-142.6500335754488
 30
0.0
 10
102.6452426590795
 20
-142.6948363532149
 30
0.0
 10
102.7003465465625
 20
-142.6948363532149
 30
0.0
 10
102.7554857118225
 20
-142.6948363532149
 30
0.0
 10
102.8002532106804
 20
-142.6500335754488
 30
0.0
 10
102.8002532106804
 20
-142.5949296865733
 30
0.0
 10
102.8002532106804
 20
-142.5397905199209
 30
0.0
 10
102.7554857118225
 20
-142.4950230199317
 30
0.0
 10
102.7003465465625
 20
-142.4950230199317
 30
0.0
 10
102.6452426590795
 20
-142.4950230199317
 30
0.0
 10
102.6004398824447
 20
-142.5397905199209
 30
0.0
 10
102.6004398824447
 20
-142.5949296865733
 30
0.0
  0
POLYLINE
  5
98
330
1F
100
AcDbEntity
  8
_U+30EC_U+30A4_U+30E4_U+30FC 1
 62
   179
420
  2234388
370
     9
100
AcDb2dPolyline
 66
     1
 10
0.0
 20
0.0
 30
0.0
  0
VERTEX
  5
99
330
98
100
AcDbEntity
  8
_U+30EC_U+30A4_U+30E4_U+30FC 1
 62
   179
420
  2234388
370
     9
100
AcDbVertex
100
AcDb2dVertex
 10
101.0763340879946
 20
-142.5949296865733
 30
0.0
  0
VERTEX
  5
9A
330
98
100
AcDbEntity
  8
_U+30EC_U+30A4_U+30E4_U+30FC 1
 62
   179
420
  2234388
370
     9
100
AcDbVertex
100
AcDb2dVertex
 10
103.7001187432785
 20
-142.5949296865733
 30
0.0
  0
SEQEND
  5
9B
330
98
100
AcDbEntity
  8
_U+30EC_U+30A4_U+30E4_U+30FC 1
 62
   179
420
  2234388
370
     9
  0
SPLINE
  5
9C
330
1F
100
AcDbEntity
  8
_U+30EC_U+30A4_U+30E4_U+30FC 1
 62
   179
420
  2234388
370
     9
100
AcDbSpline
210
0.0
220
0.0
230
1.0
 70
    11
 71
     3
 72
    17
 73
    13
 74
     0
 42
0.0000000001
 43
0.0000000001
 12
1.0
 22
0.0
 32
0.0
 13
1.0
 23
0.0
 33
0.0
 40
0.0
 40
0.0
 40
0.0
 40
0.0
 40
1.0
 40
1.0
 40
1.0
 40
2.0
 40
2.0
 40
2.0
 40
3.0
 40
3.0
 40
3.0
 40
4.0
 40
4.0
 40
4.0
 40
4.0
 10
102.6004398824447
 20
-97.59491386449014
 30
0.0
 10
102.6004398824447
 20
-97.65001775336538
 30
0.0
 10
102.6452426590795
 20
-97.69482053113178
 30
0.0
 10
102.7003465465625
 20
-97.69482053113178
 30
0.0
 10
102.7554857118225
 20
-97.69482053113178
 30
0.0
 10
102.8002532106804
 20
-97.65001775336538
 30
0.0
 10
102.8002532106804
 20
-97.59491386449014
 30
0.0
 10
102.8002532106804
 20
-97.53977469783739
 30
0.0
 10
102.7554857118225
 20
-97.49500719784851
 30
0.0
 10
102.7003465465625
 20
-97.49500719784851
 30
0.0
 10
102.6452426590795
 20
-97.49500719784851
 30
0.0
 10
102.6004398824447
 20
-97.53977469783739
 30
0.0
 10
102.6004398824447
 20
-97.59491386449014
 30
0.0
  0
POLYLINE
  5
9D
330
1F
100
AcDbEntity
  8
_U+30EC_U+30A4_U+30E4_U+30FC 1
 62
   179
420
  2234388
370
     9
100
AcDb2dPolyline
 66
     1
 10
0.0
 20
0.0
 30
0.0
  0
VERTEX
  5
9E
330
9D
100
AcDbEntity
  8
_U+30EC_U+30A4_U+30E4_U+30FC 1
 62
   179
420
  2234388
370
     9
100
AcDbVertex
100
AcDb2dVertex
 10
95.57659922830447
 20
-97.59491386449014
 30
0.0
  0
VERTEX
  5
9F
330
9D
100
AcDbEntity
  8
_U+30EC_U+30A4_U+30E4_U+30FC 1
 62
   179
420
  2234388
370
     9
100
AcDbVertex
100
AcDb2dVertex
 10
103.7001187432785
 20
-97.59491386449014
 30
0.0
  0
SEQEND
  5
A0
330
9D
100
AcDbEntity
  8
_U+30EC_U+30A4_U+30E4_U+30FC 1
 62
   179
420
  2234388
370
     9
  0
INSERT
  5
A2
330
1F
100
AcDbEntity
  8
_U+30EC_U+30A4_U+30E4_U+30FC 1
100
AcDbBlockReference
  2
block 2
 10
0.0
 20
0.0
 30
0.0
  0
INSERT
  5
B4
330
1F
100
AcDbEntity
  8
_U+30EC_U+30A4_U+30E4_U+30FC 1
100
AcDbBlockReference
  2
block 3
 10
0.0
 20
0.0
 30
0.0
  0
INSERT
  5
CF
330
1F
100
AcDbEntity
  8
_U+30EC_U+30A4_U+30E4_U+30FC 1
100
AcDbBlockReference
  2
block 4
 10
0.0
 20
0.0
 30
0.0
  0
POLYLINE
  5
D4
330
1F
100
AcDbEntity
  8
_U+30EC_U+30A4_U+30E4_U+30FC 1
 62
   179
420
  2234388
370
     9
100
AcDb2dPolyline
 66
     1
 10
0.0
 20
0.0
 30
0.0
  0
VERTEX
  5
D5
330
D4
100
AcDbEntity
  8
_U+30EC_U+30A4_U+30E4_U+30FC 1
 62
   179
420
  2234388
370
     9
100
AcDbVertex
100
AcDb2dVertex
 10
96.22563976730163
 20
-106.7404308066481
 30
0.0
  0
VERTEX
  5
D6
330
D4
100
AcDbEntity
  8
_U+30EC_U+30A4_U+30E4_U+30FC 1
 62
   179
420
  2234388
370
     9
100
AcDbVertex
100
AcDb2dVertex
 10
90.41789463769177
 20
-106.7404308066481
 30
0.0
  0
SEQEND
  5
D7
330
D4
100
AcDbEntity
  8
_U+30EC_U+30A4_U+30E4_U+30FC 1
 62
   179
420
  2234388
370
     9
  0
INSERT
  5
D9
330
1F
100
AcDbEntity
  8
_U+30EC_U+30A4_U+30E4_U+30FC 1
100
AcDbBlockReference
  2
block 5
 10
0.0
 20
0.0
 30
0.0
  0
POLYLINE
  5
DE
330
1F
100
AcDbEntity
  8
_U+30EC_U+30A4_U+30E4_U+30FC 1
 62
   179
420
  2234388
370
     9
100
AcDb2dPolyline
 66
     1
 10
0.0
 20
0.0
 30
0.0
  0
VERTEX
  5
DF
330
DE
100
AcDbEntity
  8
_U+30EC_U+30A4_U+30E4_U+30FC 1
 62
   179
420
  2234388
370
     9
100
AcDbVertex
100
AcDb2dVertex
 10
93.40754511697499
 20
-133.3148633000048
 30
0.0
  0
VERTEX
  5
E0
330
DE
100
AcDbEntity
  8
_U+30EC_U+30A4_U+30E4_U+30FC 1
 62
   179
420
  2234388
370
     9
100
AcDbVertex
100
AcDb2dVertex
 10
81.90748374369933
 20
-133.3148633000048
 30
0.0
  0
SEQEND
  5
E1
330
DE
100
AcDbEntity
  8
_U+30EC_U+30A4_U+30E4_U+30FC 1
 62
   179
420
  2234388
370
     9
  0
SPLINE
  5
E2
330
1F
100
AcDbEntity
  8
_U+30EC_U+30A4_U+30E4_U+30FC 1
 62
   179
420
  2234388
370
     9
100
AcDbSpline
210
0.0
220
0.0
230
1.0
 70
    11
 71
     3
 72
    17
 73
    13
 74
     0
 42
0.0000000001
 43
0.0000000001
 12
1.0
 22
0.0
 32
0.0
 13
1.0
 23
0.0
 33
0.0
 40
0.0
 40
0.0
 40
0.0
 40
0.0
 40
1.0
 40
1.0
 40
1.0
 40
2.0
 40
2.0
 40
2.0
 40
3.0
 40
3.0
 40
3.0
 40
4.0
 40
4.0
 40
4.0
 40
4.0
 10
81.92642790988269
 20
-133.2149566333631
 30
0.0
 10
81.87132402239962
 20
-133.2149566333631
 30
0.0
 10
81.82652124576487
 20
-133.2597241333517
 30
0.0
 10
81.82652124576487
 20
-133.3148633000048
 30
0.0
 10
81.82652124576487
 20
-133.3699671888797
 30
0.0
 10
81.87132402239962
 20
-133.4147699666464
 30
0.0
 10
81.92642790988269
 20
-133.4147699666464
 30
0.0
 10
81.98156707514265
 20
-133.4147699666464
 30
0.0
 10
82.02633457400053
 20
-133.3699671888797
 30
0.0
 10
82.02633457400053
 20
-133.3148633000048
 30
0.0
 10
82.02633457400053
 20
-133.2597241333517
 30
0.0
 10
81.98156707514265
 20
-133.2149566333631
 30
0.0
 10
81.92642790988269
 20
-133.2149566333631
 30
0.0
  0
POLYLINE
  5
E3
330
1F
100
AcDbEntity
  8
_U+30EC_U+30A4_U+30E4_U+30FC 1
 62
   179
420
  2234388
370
     9
100
AcDb2dPolyline
 66
     1
 10
0.0
 20
0.0
 30
0.0
  0
VERTEX
  5
E4
330
E3
100
AcDbEntity
  8
_U+30EC_U+30A4_U+30E4_U+30FC 1
 62
   179
420
  2234388
370
     9
100
AcDbVertex
100
AcDb2dVertex
 10
81.92642790988269
 20
-131.8548219114804
 30
0.0
  0
VERTEX
  5
E5
330
E3
100
AcDbEntity
  8
_U+30EC_U+30A4_U+30E4_U+30FC 1
 62
   179
420
  2234388
370
     9
100
AcDbVertex
100
AcDb2dVertex
 10
81.92642790988269
 20
-134.5950585774624
 30
0.0
  0
SEQEND
  5
E6
330
E3
100
AcDbEntity
  8
_U+30EC_U+30A4_U+30E4_U+30FC 1
 62
   179
420
  2234388
370
     9
  0
SPLINE
  5
E7
330
1F
100
AcDbEntity
  8
_U+30EC_U+30A4_U+30E4_U+30FC 1
 62
   179
420
  2234388
370
     9
100
AcDbSpline
210
0.0
220
0.0
230
1.0
 70
    11
 71
     3
 72
    17
 73
    13
 74
     0
 42
0.0000000001
 43
0.0000000001
 12
1.0
 22
0.0
 32
0.0
 13
1.0
 23
0.0
 33
0.0
 40
0.0
 40
0.0
 40
0.0
 40
0.0
 40
1.0
 40
1.0
 40
1.0
 40
2.0
 40
2.0
 40
2.0
 40
3.0
 40
3.0
 40
3.0
 40
4.0
 40
4.0
 40
4.0
 40
4.0
 10
84.9264147777911
 20
-133.2149566333631
 30
0.0
 10
84.87131089030802
 20
-133.2149566333631
 30
0.0
 10
84.82650811367326
 20
-133.2597241333517
 30
0.0
 10
84.82650811367326
 20
-133.3148633000048
 30
0.0
 10
84.82650811367326
 20
-133.3699671888797
 30
0.0
 10
84.87131089030802
 20
-133.4147699666464
 30
0.0
 10
84.9264147777911
 20
-133.4147699666464
 30
0.0
 10
84.98155394305105
 20
-133.4147699666464
 30
0.0
 10
85.02632144190893
 20
-133.3699671888797
 30
0.0
 10
85.02632144190893
 20
-133.3148633000048
 30
0.0
 10
85.02632144190893
 20
-133.2597241333517
 30
0.0
 10
84.98155394305105
 20
-133.2149566333631
 30
0.0
 10
84.9264147777911
 20
-133.2149566333631
 30
0.0
  0
POLYLINE
  5
E8
330
1F
100
AcDbEntity
  8
_U+30EC_U+30A4_U+30E4_U+30FC 1
 62
   179
420
  2234388
370
     9
100
AcDb2dPolyline
 66
     1
 10
0.0
 20
0.0
 30
0.0
  0
VERTEX
  5
E9
330
E8
100
AcDbEntity
  8
_U+30EC_U+30A4_U+30E4_U+30FC 1
 62
   179
420
  2234388
370
     9
100
AcDbVertex
100
AcDb2dVertex
 10
84.9264147777911
 20
-131.8548219114804
 30
0.0
  0
VERTEX
  5
EA
330
E8
100
AcDbEntity
  8
_U+30EC_U+30A4_U+30E4_U+30FC 1
 62
   179
420
  2234388
370
     9
100
AcDbVertex
100
AcDb2dVertex
 10
84.9264147777911
 20
-134.5950585774624
 30
0.0
  0
SEQEND
  5
EB
330
E8
100
AcDbEntity
  8
_U+30EC_U+30A4_U+30E4_U+30FC 1
 62
   179
420
  2234388
370
     9
  0
INSERT
  5
ED
330
1F
100
AcDbEntity
  8
_U+30EC_U+30A4_U+30E4_U+30FC 1
100
AcDbBlockReference
  2
block 6
 10
0.0
 20
0.0
 30
0.0
  0
INSERT
  5
F3
330
1F
100
AcDbEntity
  8
_U+30EC_U+30A4_U+30E4_U+30FC 1
100
AcDbBlockReference
  2
block 7
 10
0.0
 20
0.0
 30
0.0
  0
SPLINE
  5
104
330
1F
100
AcDbEntity
  8
_U+30EC_U+30A4_U+30E4_U+30FC 1
 62
   179
420
  2234388
370
     9
100
AcDbSpline
210
0.0
220
0.0
230
1.0
 70
    11
 71
     3
 72
    17
 73
    13
 74
     0
 42
0.0000000001
 43
0.0000000001
 12
1.0
 22
0.0
 32
0.0
 13
1.0
 23
0.0
 33
0.0
 40
0.0
 40
0.0
 40
0.0
 40
0.0
 40
1.0
 40
1.0
 40
1.0
 40
2.0
 40
2.0
 40
2.0
 40
3.0
 40
3.0
 40
3.0
 40
4.0
 40
4.0
 40
4.0
 40
4.0
 10
82.00841346334663
 20
-158.1140474604714
 30
0.0
 10
82.00841346334663
 20
-158.0589082938183
 30
0.0
 10
81.96364596448873
 20
-158.0141407938298
 30
0.0
 10
81.90783652146811
 20
-158.0141407938298
 30
0.0
 10
81.85269735620817
 20
-158.0141407938298
 30
0.0
 10
81.80792985735027
 20
-158.0589082938183
 30
0.0
 10
81.80792985735027
 20
-158.1140474604714
 30
0.0
 10
81.80792985735027
 20
-158.1691513493464
 30
0.0
 10
81.85269735620817
 20
-158.2139541271131
 30
0.0
 10
81.90783652146811
 20
-158.2139541271131
 30
0.0
 10
81.96364596448873
 20
-158.2139541271131
 30
0.0
 10
82.00841346334663
 20
-158.1691513493464
 30
0.0
 10
82.00841346334663
 20
-158.1140474604714
 30
0.0
  0
POLYLINE
  5
105
330
1F
100
AcDbEntity
  8
_U+30EC_U+30A4_U+30E4_U+30FC 1
 62
   179
420
  2234388
370
     9
100
AcDb2dPolyline
 66
     1
 10
0.0
 20
0.0
 30
0.0
  0
VERTEX
  5
106
330
105
100
AcDbEntity
  8
_U+30EC_U+30A4_U+30E4_U+30FC 1
 62
   179
420
  2234388
370
     9
100
AcDbVertex
100
AcDb2dVertex
 10
81.90783652146811
 20
-158.1140474604714
 30
0.0
  0
VERTEX
  5
107
330
105
100
AcDbEntity
  8
_U+30EC_U+30A4_U+30E4_U+30FC 1
 62
   179
420
  2234388
370
     9
100
AcDbVertex
100
AcDb2dVertex
 10
99.90740495114976
 20
-158.1140474604714
 30
0.0
  0
SEQEND
  5
108
330
105
100
AcDbEntity
  8
_U+30EC_U+30A4_U+30E4_U+30FC 1
 62
   179
420
  2234388
370
     9
  0
POLYLINE
  5
109
330
1F
100
AcDbEntity
  8
_U+30EC_U+30A4_U+30E4_U+30FC 1
 62
   179
420
  2234388
370
     9
100
AcDb2dPolyline
 66
     1
 10
0.0
 20
0.0
 30
0.0
  0
VERTEX
  5
10A
330
109
100
AcDbEntity
  8
_U+30EC_U+30A4_U+30E4_U+30FC 1
 62
   179
420
  2234388
370
     9
100
AcDbVertex
100
AcDb2dVertex
 10
81.90783652146811
 20
-155.6532107944201
 30
0.0
  0
VERTEX
  5
10B
330
109
100
AcDbEntity
  8
_U+30EC_U+30A4_U+30E4_U+30FC 1
 62
   179
420
  2234388
370
     9
100
AcDbVertex
100
AcDb2dVertex
 10
81.90783652146811
 20
-159.113819682444
 30
0.0
  0
SEQEND
  5
10C
330
109
100
AcDbEntity
  8
_U+30EC_U+30A4_U+30E4_U+30FC 1
 62
   179
420
  2234388
370
     9
  0
SPLINE
  5
10D
330
1F
100
AcDbEntity
  8
_U+30EC_U+30A4_U+30E4_U+30FC 1
 62
   179
420
  2234388
370
     9
100
AcDbSpline
210
0.0
220
0.0
230
1.0
 70
    11
 71
     3
 72
    17
 73
    13
 74
     0
 42
0.0000000001
 43
0.0000000001
 12
1.0
 22
0.0
 32
0.0
 13
1.0
 23
0.0
 33
0.0
 40
0.0
 40
0.0
 40
0.0
 40
0.0
 40
1.0
 40
1.0
 40
1.0
 40
2.0
 40
2.0
 40
2.0
 40
3.0
 40
3.0
 40
3.0
 40
4.0
 40
4.0
 40
4.0
 40
4.0
 10
100.0080171708051
 20
-158.1140474604714
 30
0.0
 10
100.0080171708051
 20
-158.0589082938183
 30
0.0
 10
99.96324967194725
 20
-158.0141407938298
 30
0.0
 10
99.90740495114976
 20
-158.0141407938298
 30
0.0
 10
99.85230106366669
 20
-158.0141407938298
 30
0.0
 10
99.80749828703192
 20
-158.0589082938183
 30
0.0
 10
99.80749828703192
 20
-158.1140474604714
 30
0.0
 10
99.80749828703192
 20
-158.1691513493464
 30
0.0
 10
99.85230106366669
 20
-158.2139541271131
 30
0.0
 10
99.90740495114976
 20
-158.2139541271131
 30
0.0
 10
99.96324967194725
 20
-158.2139541271131
 30
0.0
 10
100.0080171708051
 20
-158.1691513493464
 30
0.0
 10
100.0080171708051
 20
-158.1140474604714
 30
0.0
  0
POLYLINE
  5
10E
330
1F
100
AcDbEntity
  8
_U+30EC_U+30A4_U+30E4_U+30FC 1
 62
   179
420
  2234388
370
     9
100
AcDb2dPolyline
 66
     1
 10
0.0
 20
0.0
 30
0.0
  0
VERTEX
  5
10F
330
10E
100
AcDbEntity
  8
_U+30EC_U+30A4_U+30E4_U+30FC 1
 62
   179
420
  2234388
370
     9
100
AcDbVertex
100
AcDb2dVertex
 10
99.90740495114976
 20
-155.6532107944201
 30
0.0
  0
VERTEX
  5
110
330
10E
100
AcDbEntity
  8
_U+30EC_U+30A4_U+30E4_U+30FC 1
 62
   179
420
  2234388
370
     9
100
AcDbVertex
100
AcDb2dVertex
 10
99.90740495114976
 20
-159.113819682444
 30
0.0
  0
SEQEND
  5
111
330
10E
100
AcDbEntity
  8
_U+30EC_U+30A4_U+30E4_U+30FC 1
 62
   179
420
  2234388
370
     9
  0
INSERT
  5
113
330
1F
100
AcDbEntity
  8
_U+30EC_U+30A4_U+30E4_U+30FC 1
100
AcDbBlockReference
  2
block 8
 10
0.0
 20
0.0
 30
0.0
  0
POLYLINE
  5
11C
330
1F
100
AcDbEntity
  8
_U+30EC_U+30A4_U+30E4_U+30FC 1
 62
   179
420
  2234388
370
     9
100
AcDb2dPolyline
 66
     1
 10
0.0
 20
0.0
 30
0.0
  0
VERTEX
  5
11D
330
11C
100
AcDbEntity
  8
_U+30EC_U+30A4_U+30E4_U+30FC 1
 62
   179
420
  2234388
370
     9
100
AcDbVertex
100
AcDb2dVertex
 10
79.42459852926524
 20
-154.0949913503653
 30
0.0
  0
VERTEX
  5
11E
330
11C
100
AcDbEntity
  8
_U+30EC_U+30A4_U+30E4_U+30FC 1
 62
   179
420
  2234388
370
     9
100
AcDbVertex
100
AcDb2dVertex
 10
79.42459852926524
 20
-136.0953871881983
 30
0.0
  0
SEQEND
  5
11F
330
11C
100
AcDbEntity
  8
_U+30EC_U+30A4_U+30E4_U+30FC 1
 62
   179
420
  2234388
370
     9
  0
POLYLINE
  5
120
330
1F
100
AcDbEntity
  8
_U+30EC_U+30A4_U+30E4_U+30FC 1
 62
   179
420
  2234388
370
     9
100
AcDb2dPolyline
 66
     1
 10
0.0
 20
0.0
 30
0.0
  0
VERTEX
  5
121
330
120
100
AcDbEntity
  8
_U+30EC_U+30A4_U+30E4_U+30FC 1
 62
   179
420
  2234388
370
     9
100
AcDbVertex
100
AcDb2dVertex
 10
80.42645211481693
 20
-154.0949913503653
 30
0.0
  0
VERTEX
  5
122
330
120
100
AcDbEntity
  8
_U+30EC_U+30A4_U+30E4_U+30FC 1
 62
   179
420
  2234388
370
     9
100
AcDbVertex
100
AcDb2dVertex
 10
77.952174677941
 20
-154.0949913503653
 30
0.0
  0
SEQEND
  5
123
330
120
100
AcDbEntity
  8
_U+30EC_U+30A4_U+30E4_U+30FC 1
 62
   179
420
  2234388
370
     9
  0
INSERT
  5
125
330
1F
100
AcDbEntity
  8
_U+30EC_U+30A4_U+30E4_U+30FC 1
100
AcDbBlockReference
  2
block 9
 10
0.0
 20
0.0
 30
0.0
  0
SPLINE
  5
12E
330
1F
100
AcDbEntity
  8
_U+30EC_U+30A4_U+30E4_U+30FC 1
 62
   179
420
  2234388
370
     9
100
AcDbSpline
210
0.0
220
0.0
230
1.0
 70
    11
 71
     3
 72
    17
 73
    13
 74
     0
 42
0.0000000001
 43
0.0000000001
 12
1.0
 22
0.0
 32
0.0
 13
1.0
 23
0.0
 33
0.0
 40
0.0
 40
0.0
 40
0.0
 40
0.0
 40
1.0
 40
1.0
 40
1.0
 40
2.0
 40
2.0
 40
2.0
 40
3.0
 40
3.0
 40
3.0
 40
4.0
 40
4.0
 40
4.0
 40
4.0
 10
79.51833158242947
 20
-154.0936155170325
 30
0.0
 10
79.51833158242947
 20
-154.0384763503794
 30
0.0
 10
79.47388158356348
 20
-153.9940616281679
 30
0.0
 10
79.41839164681193
 20
-153.9940616281679
 30
0.0
 10
79.36328575305167
 20
-153.9940616281679
 30
0.0
 10
79.31848297641692
 20
-154.0384763503794
 30
0.0
 10
79.31848297641692
 20
-154.0936155170325
 30
0.0
 10
79.31848297641692
 20
-154.1494249614629
 30
0.0
 10
79.36328575305167
 20
-154.1941924614515
 30
0.0
 10
79.41839164681193
 20
-154.1941924614515
 30
0.0
 10
79.47388158356348
 20
-154.1941924614515
 30
0.0
 10
79.51833158242947
 20
-154.1494249614629
 30
0.0
 10
79.51833158242947
 20
-154.0936155170325
 30
0.0
  0
POLYLINE
  5
12F
330
1F
100
AcDbEntity
  8
_U+30EC_U+30A4_U+30E4_U+30FC 1
 62
   179
420
  2234388
370
     9
100
AcDb2dPolyline
 66
     1
 10
0.0
 20
0.0
 30
0.0
  0
VERTEX
  5
130
330
12F
100
AcDbEntity
  8
_U+30EC_U+30A4_U+30E4_U+30FC 1
 62
   179
420
  2234388
370
     9
100
AcDbVertex
100
AcDb2dVertex
 10
80.42645211481693
 20
-136.0950696881987
 30
0.0
  0
VERTEX
  5
131
330
12F
100
AcDbEntity
  8
_U+30EC_U+30A4_U+30E4_U+30FC 1
 62
   179
420
  2234388
370
     9
100
AcDbVertex
100
AcDb2dVertex
 10
77.952174677941
 20
-136.0950696881987
 30
0.0
  0
SEQEND
  5
132
330
12F
100
AcDbEntity
  8
_U+30EC_U+30A4_U+30E4_U+30FC 1
 62
   179
420
  2234388
370
     9
  0
SPLINE
  5
133
330
1F
100
AcDbEntity
  8
_U+30EC_U+30A4_U+30E4_U+30FC 1
 62
   179
420
  2234388
370
     9
100
AcDbSpline
210
0.0
220
0.0
230
1.0
 70
    11
 71
     3
 72
    17
 73
    13
 74
     0
 42
0.0000000001
 43
0.0000000001
 12
1.0
 22
0.0
 32
0.0
 13
1.0
 23
0.0
 33
0.0
 40
0.0
 40
0.0
 40
0.0
 40
0.0
 40
1.0
 40
1.0
 40
1.0
 40
2.0
 40
2.0
 40
2.0
 40
3.0
 40
3.0
 40
3.0
 40
4.0
 40
4.0
 40
4.0
 40
4.0
 10
79.51833158242947
 20
-136.0936585770876
 30
0.0
 10
79.51833158242947
 20
-136.0385546882127
 30
0.0
 10
79.47388158356348
 20
-135.9941046882237
 30
0.0
 10
79.41839164681193
 20
-135.9941046882237
 30
0.0
 10
79.36328575305167
 20
-135.9941046882237
 30
0.0
 10
79.31848297641692
 20
-136.0385546882127
 30
0.0
 10
79.31848297641692
 20
-136.0936585770876
 30
0.0
 10
79.31848297641692
 20
-136.1494680215181
 30
0.0
 10
79.36328575305167
 20
-136.1942707992848
 30
0.0
 10
79.41839164681193
 20
-136.1942707992848
 30
0.0
 10
79.47388158356348
 20
-136.1942707992848
 30
0.0
 10
79.51833158242947
 20
-136.1494680215181
 30
0.0
 10
79.51833158242947
 20
-136.0936585770876
 30
0.0
  0
ENDSEC
  0
SECTION
  2
OBJECTS
  0
DICTIONARY
  5
C
330
0
100
AcDbDictionary
281
     1
  3
ACAD_GROUP
350
D
  3
ACAD_LAYOUT
350
1A
  3
ACAD_MATERIAL
350
3B
  3
ACAD_MLEADERSTYLE
350
135
  3
ACAD_MLINESTYLE
350
17
  3
ACAD_PLOTSETTINGS
350
19
  3
ACAD_PLOTSTYLENAME
350
E
  3
ACAD_TABLESTYLE
350
134
  3
ACAD_VISUALSTYLE
350
2A
  0
SUN
  5
3F
330
29
100
AcDbSun
 90
        1
290
     0
 63
     7
421
 16777215
 40
1.0
291
     1
 91
  2455826
 92
 54000000
292
     0
 70
     2
 71
   256
280
     1
  0
DICTIONARY
  5
D
102
{ACAD_REACTORS
330
C
102
}
330
C
100
AcDbDictionary
281
     1
  0
DICTIONARY
  5
1A
102
{ACAD_REACTORS
330
C
102
}
330
C
100
AcDbDictionary
281
     1
  3
Layout1
350
1E
  3
Layout2
350
26
  3
Model
350
22
  0
DICTIONARY
  5
3B
102
{ACAD_REACTORS
330
C
102
}
330
C
100
AcDbDictionary
281
     1
  3
ByBlock
350
3D
  3
ByLayer
350
3C
  3
Global
350
3E
  0
DICTIONARY
  5
135
102
{ACAD_REACTORS
330
C
102
}
330
C
100
AcDbDictionary
281
     1
  0
DICTIONARY
  5
17
102
{ACAD_REACTORS
330
C
102
}
330
C
100
AcDbDictionary
281
     1
  3
Standard
350
18
  0
DICTIONARY
  5
19
102
{ACAD_REACTORS
330
C
102
}
330
C
100
AcDbDictionary
281
     1
  0
ACDBDICTIONARYWDFLT
  5
E
102
{ACAD_REACTORS
330
C
102
}
330
C
100
AcDbDictionary
281
     1
  3
Normal
350
F
100
AcDbDictionaryWithDefault
340
F
  0
DICTIONARY
  5
134
102
{ACAD_REACTORS
330
C
102
}
330
C
100
AcDbDictionary
281
     1
  0
DICTIONARY
  5
2A
102
{ACAD_REACTORS
330
C
102
}
330
C
100
AcDbDictionary
281
     1
  3
2dWireframe
350
2F
  3
3D Hidden
350
31
  3
3dWireframe
350
30
  3
Basic
350
32
  3
Brighten
350
36
  3
ColorChange
350
3A
  3
Conceptual
350
34
  3
Dim
350
35
  3
Facepattern
350
39
  3
Flat
350
2B
  3
FlatWithEdges
350
2C
  3
Gouraud
350
2D
  3
GouraudWithEdges
350
2E
  3
Linepattern
350
38
  3
Realistic
350
33
  3
Thicken
350
37
  0
LAYOUT
  5
1E
102
{ACAD_REACTORS
330
1A
102
}
330
1A
100
AcDbPlotSettings
  1

  2
none_device
  4

  6

 40
0.0
 41
0.0
 42
0.0
 43
0.0
 44
0.0
 45
0.0
 46
0.0
 47
0.0
 48
0.0
 49
0.0
140
0.0
141
0.0
142
1.0
143
1.0
 70
   688
 72
     0
 73
     0
 74
     5
  7

 75
    16
 76
     0
 77
     2
 78
   300
147
1.0
148
0.0
149
0.0
100
AcDbLayout
  1
Layout1
 70
     1
 71
     1
 10
0.0
 20
0.0
 11
12.0
 21
9.0
 12
0.0
 22
0.0
 32
0.0
 14
1.000000000000000E+20
 24
1.000000000000000E+20
 34
1.000000000000000E+20
 15
-1.000000000000000E+20
 25
-1.000000000000000E+20
 35
-1.000000000000000E+20
146
0.0
 13
0.0
 23
0.0
 33
0.0
 16
1.0
 26
0.0
 36
0.0
 17
0.0
 27
1.0
 37
0.0
 76
     0
330
1B
  0
LAYOUT
  5
26
102
{ACAD_REACTORS
330
1A
102
}
330
1A
100
AcDbPlotSettings
  1

  2
none_device
  4

  6

 40
0.0
 41
0.0
 42
0.0
 43
0.0
 44
0.0
 45
0.0
 46
0.0
 47
0.0
 48
0.0
 49
0.0
140
0.0
141
0.0
142
1.0
143
1.0
 70
   688
 72
     0
 73
     0
 74
     5
  7

 75
    16
 76
     0
 77
     2
 78
   300
147
1.0
148
0.0
149
0.0
100
AcDbLayout
  1
Layout2
 70
     1
 71
     2
 10
0.0
 20
0.0
 11
0.0
 21
0.0
 12
0.0
 22
0.0
 32
0.0
 14
0.0
 24
0.0
 34
0.0
 15
0.0
 25
0.0
 35
0.0
146
0.0
 13
0.0
 23
0.0
 33
0.0
 16
1.0
 26
0.0
 36
0.0
 17
0.0
 27
1.0
 37
0.0
 76
     0
330
23
  0
LAYOUT
  5
22
102
{ACAD_REACTORS
330
1A
102
}
330
1A
100
AcDbPlotSettings
  1

  2
none_device
  4

  6

 40
0.0
 41
0.0
 42
0.0
 43
0.0
 44
0.0
 45
0.0
 46
0.0
 47
0.0
 48
0.0
 49
0.0
140
0.0
141
0.0
142
1.0
143
1.0
 70
  1712
 72
     0
 73
     0
 74
     0
  7

 75
     0
 76
     0
 77
     2
 78
   300
147
1.0
148
0.0
149
0.0
100
AcDbLayout
  1
Model
 70
     1
 71
     0
 10
0.0
 20
0.0
 11
12.0
 21
9.0
 12
0.0
 22
0.0
 32
0.0
 14
1.000000000000000E+20
 24
1.000000000000000E+20
 34
1.000000000000000E+20
 15
-1.000000000000000E+20
 25
-1.000000000000000E+20
 35
-1.000000000000000E+20
146
0.0
 13
0.0
 23
0.0
 33
0.0
 16
1.0
 26
0.0
 36
0.0
 17
0.0
 27
1.0
 37
0.0
 76
     0
330
1F
331
29
  0
MATERIAL
  5
3D
102
{ACAD_REACTORS
330
3B
102
}
330
3B
100
AcDbMaterial
  1
ByBlock
 72
     1
 94
      127
  0
MATERIAL
  5
3C
102
{ACAD_REACTORS
330
3B
102
}
330
3B
100
AcDbMaterial
  1
ByLayer
 72
     1
 94
      127
  0
MATERIAL
  5
3E
102
{ACAD_REACTORS
330
3B
102
}
330
3B
100
AcDbMaterial
  1
Global
 72
     1
 94
      127
  0
MLINESTYLE
  5
18
102
{ACAD_REACTORS
330
17
102
}
330
17
100
AcDbMlineStyle
  2
Standard
 70
     0
  3

 62
   256
 51
90.0
 52
90.0
 71
     2
 49
0.5
 62
   256
  6
BYLAYER
 49
-0.5
 62
   256
  6
BYLAYER
  0
ACDBPLACEHOLDER
  5
F
102
{ACAD_REACTORS
330
E
102
}
330
E
  0
VISUALSTYLE
  5
2F
102
{ACAD_REACTORS
330
2A
102
}
330
2A
100
AcDbVisualStyle
  2
2dWireframe
 70
     4
177
     2
291
     0
 71
     0
176
     1
 72
     2
176
     1
 73
     0
176
     1
 90
        0
176
     1
 40
-0.6
176
     1
 41
-30.0
176
     1
 62
     5
 63
     7
421
 16777215
176
     1
 74
     1
176
     1
 91
        4
176
     1
 64
     7
176
     1
 65
   257
176
     1
 75
     1
176
     1
175
     1
176
     1
 42
1.0
176
     1
 92
        0
176
     1
 66
   257
176
     1
 43
1.0
176
     1
 76
     1
176
     1
 77
     6
176
     1
 78
     2
176
     1
 67
     7
176
     1
 79
     5
176
     1
170
     0
176
     1
171
     0
176
     1
290
     0
176
     1
 93
        1
176
     1
 44
0.0
176
     1
173
     0
176
     1
  0
VISUALSTYLE
  5
31
102
{ACAD_REACTORS
330
2A
102
}
330
2A
100
AcDbVisualStyle
  2
3D Hidden
 70
     6
177
     2
291
     0
 71
     1
176
     1
 72
     2
176
     1
 73
     2
176
     1
 90
        0
176
     1
 40
-0.6
176
     1
 41
-30.0
176
     1
 62
     5
 63
     7
421
 16777215
176
     1
 74
     2
176
     1
 91
        2
176
     1
 64
     7
176
     1
 65
   257
176
     1
 75
     2
176
     1
175
     1
176
     1
 42
40.0
176
     1
 92
        0
176
     1
 66
   257
176
     1
 43
1.0
176
     1
 76
     1
176
     1
 77
     6
176
     1
 78
     2
176
     1
 67
     7
176
     1
 79
     3
176
     1
170
     0
176
     1
171
     0
176
     1
290
     0
176
     1
 93
        1
176
     1
 44
0.0
176
     1
173
     0
176
     1
  0
VISUALSTYLE
  5
30
102
{ACAD_REACTORS
330
2A
102
}
330
2A
100
AcDbVisualStyle
  2
3dWireframe
 70
     5
177
     2
291
     0
 71
     0
176
     1
 72
     2
176
     1
 73
     0
176
     1
 90
        0
176
     1
 40
-0.6
176
     1
 41
-30.0
176
     1
 62
     5
 63
     7
421
 16777215
176
     1
 74
     1
176
     1
 91
        4
176
     1
 64
     7
176
     1
 65
   257
176
     1
 75
     1
176
     1
175
     1
176
     1
 42
1.0
176
     1
 92
        0
176
     1
 66
   257
176
     1
 43
1.0
176
     1
 76
     1
176
     1
 77
     6
176
     1
 78
     2
176
     1
 67
     7
176
     1
 79
     5
176
     1
170
     0
176
     1
171
     0
176
     1
290
     0
176
     1
 93
        1
176
     1
 44
0.0
176
     1
173
     0
176
     1
  0
VISUALSTYLE
  5
32
102
{ACAD_REACTORS
330
2A
102
}
330
2A
100
AcDbVisualStyle
  2
Basic
 70
     7
177
     2
291
     1
 71
     1
176
     1
 72
     0
176
     1
 73
     1
176
     1
 90
        0
176
     1
 40
-0.6
176
     1
 41
-30.0
176
     1
 62
     5
 63
     7
421
 16777215
176
     1
 74
     0
176
     1
 91
        4
176
     1
 64
     7
176
     1
 65
   257
176
     1
 75
     1
176
     1
175
     1
176
     1
 42
1.0
176
     1
 92
        8
176
     1
 66
     7
176
     1
 43
1.0
176
     1
 76
     1
176
     1
 77
     6
176
     1
 78
     2
176
     1
 67
     7
176
     1
 79
     5
176
     1
170
     0
176
     1
171
     0
176
     1
290
     0
176
     1
 93
        1
176
     1
 44
0.0
176
     1
173
     0
176
     1
  0
VISUALSTYLE
  5
36
102
{ACAD_REACTORS
330
2A
102
}
330
2A
100
AcDbVisualStyle
  2
Brighten
 70
    12
177
     2
291
     1
 71
     2
176
     1
 72
     2
176
     1
 73
     0
176
     1
 90
        0
176
     1
 40
-0.6
176
     1
 41
-30.0
176
     1
 62
     5
 63
     7
421
 16777215
176
     1
 74
     1
176
     1
 91
        4
176
     1
 64
     7
176
     1
 65
   257
176
     1
 75
     1
176
     1
175
     1
176
     1
 42
1.0
176
     1
 92
        8
176
     1
 66
     7
176
     1
 43
1.0
176
     1
 76
     1
176
     1
 77
     6
176
     1
 78
     2
176
     1
 67
     7
176
     1
 79
     5
176
     1
170
     0
176
     1
171
     0
176
     1
290
     0
176
     1
 93
        1
176
     1
 44
50.0
176
     1
173
     0
176
     1
  0
VISUALSTYLE
  5
3A
102
{ACAD_REACTORS
330
2A
102
}
330
2A
100
AcDbVisualStyle
  2
ColorChange
 70
    16
177
     2
291
     1
 71
     2
176
     1
 72
     2
176
     1
 73
     3
176
     1
 90
        0
176
     1
 40
-0.6
176
     1
 41
-30.0
176
     1
 62
     5
 63
     8
421
  8421504
176
     1
 74
     1
176
     1
 91
        4
176
     1
 64
     7
176
     1
 65
   257
176
     1
 75
     1
176
     1
175
     1
176
     1
 42
1.0
176
     1
 92
        8
176
     1
 66
     8
424
  8421504
176
     1
 43
1.0
176
     1
 76
     1
176
     1
 77
     6
176
     1
 78
     2
176
     1
 67
     7
176
     1
 79
     5
176
     1
170
     0
176
     1
171
     0
176
     1
290
     0
176
     1
 93
        1
176
     1
 44
0.0
176
     1
173
     0
176
     1
  0
VISUALSTYLE
  5
34
102
{ACAD_REACTORS
330
2A
102
}
330
2A
100
AcDbVisualStyle
  2
Conceptual
 70
     9
177
     2
291
     0
 71
     3
176
     1
 72
     2
176
     1
 73
     0
176
     1
 90
        0
176
     1
 40
-0.6
176
     1
 41
-30.0
176
     1
 62
     5
 63
     7
421
 16777215
176
     1
 74
     2
176
     1
 91
        2
176
     1
 64
     7
176
     1
 65
   257
176
     1
 75
     1
176
     1
175
     1
176
     1
 42
40.0
176
     1
 92
        8
176
     1
 66
     7
176
     1
 43
1.0
176
     1
 76
     1
176
     1
 77
     6
176
     1
 78
     2
176
     1
 67
     7
176
     1
 79
     3
176
     1
170
     0
176
     1
171
     0
176
     1
290
     0
176
     1
 93
        1
176
     1
 44
0.0
176
     1
173
     0
176
     1
  0
VISUALSTYLE
  5
35
102
{ACAD_REACTORS
330
2A
102
}
330
2A
100
AcDbVisualStyle
  2
Dim
 70
    11
177
     2
291
     1
 71
     2
176
     1
 72
     2
176
     1
 73
     0
176
     1
 90
        0
176
     1
 40
-0.6
176
     1
 41
-30.0
176
     1
 62
     5
 63
     7
421
 16777215
176
     1
 74
     1
176
     1
 91
        4
176
     1
 64
     7
176
     1
 65
   257
176
     1
 75
     1
176
     1
175
     1
176
     1
 42
1.0
176
     1
 92
        8
176
     1
 66
     7
176
     1
 43
1.0
176
     1
 76
     1
176
     1
 77
     6
176
     1
 78
     2
176
     1
 67
     7
176
     1
 79
     5
176
     1
170
     0
176
     1
171
     0
176
     1
290
     0
176
     1
 93
        1
176
     1
 44
-50.0
176
     1
173
     0
176
     1
  0
VISUALSTYLE
  5
39
102
{ACAD_REACTORS
330
2A
102
}
330
2A
100
AcDbVisualStyle
  2
Facepattern
 70
    15
177
     2
291
     1
 71
     2
176
     1
 72
     2
176
     1
 73
     0
176
     1
 90
        0
176
     1
 40
-0.6
176
     1
 41
-30.0
176
     1
 62
     5
 63
     7
421
 16777215
176
     1
 74
     1
176
     1
 91
        4
176
     1
 64
     7
176
     1
 65
   257
176
     1
 75
     1
176
     1
175
     1
176
     1
 42
1.0
176
     1
 92
        8
176
     1
 66
     7
176
     1
 43
1.0
176
     1
 76
     1
176
     1
 77
     6
176
     1
 78
     2
176
     1
 67
     7
176
     1
 79
     5
176
     1
170
     0
176
     1
171
     0
176
     1
290
     0
176
     1
 93
        1
176
     1
 44
0.0
176
     1
173
     0
176
     1
  0
VISUALSTYLE
  5
2B
102
{ACAD_REACTORS
330
2A
102
}
330
2A
100
AcDbVisualStyle
  2
Flat
 70
     0
177
     2
291
     1
 71
     2
176
     1
 72
     1
176
     1
 73
     1
176
     1
 90
        2
176
     1
 40
-0.6
176
     1
 41
30.0
176
     1
 62
     5
 63
     7
421
 16777215
176
     1
 74
     0
176
     1
 91
        4
176
     1
 64
     7
176
     1
 65
   257
176
     1
 75
     1
176
     1
175
     1
176
     1
 42
1.0
176
     1
 92
        8
176
     1
 66
     7
176
     1
 43
1.0
176
     1
 76
     1
176
     1
 77
     6
176
     1
 78
     2
176
     1
 67
     7
176
     1
 79
     5
176
     1
170
     0
176
     1
171
     0
176
     1
290
     0
176
     1
 93
       13
176
     1
 44
0.0
176
     1
173
     0
176
     1
  0
VISUALSTYLE
  5
2C
102
{ACAD_REACTORS
330
2A
102
}
330
2A
100
AcDbVisualStyle
  2
FlatWithEdges
 70
     1
177
     2
291
     1
 71
     2
176
     1
 72
     1
176
     1
 73
     1
176
     1
 90
        2
176
     1
 40
-0.6
176
     1
 41
30.0
176
     1
 62
     5
 63
     7
421
 16777215
176
     1
 74
     1
176
     1
 91
        4
176
     1
 64
     7
176
     1
 65
   257
176
     1
 75
     1
176
     1
175
     1
176
     1
 42
1.0
176
     1
 92
        0
176
     1
 66
   257
176
     1
 43
1.0
176
     1
 76
     1
176
     1
 77
     6
176
     1
 78
     2
176
     1
 67
     7
176
     1
 79
     5
176
     1
170
     0
176
     1
171
     0
176
     1
290
     0
176
     1
 93
       13
176
     1
 44
0.0
176
     1
173
     0
176
     1
  0
VISUALSTYLE
  5
2D
102
{ACAD_REACTORS
330
2A
102
}
330
2A
100
AcDbVisualStyle
  2
Gouraud
 70
     2
177
     2
291
     1
 71
     2
176
     1
 72
     2
176
     1
 73
     1
176
     1
 90
        2
176
     1
 40
-0.6
176
     1
 41
30.0
176
     1
 62
     5
 63
     7
421
 16777215
176
     1
 74
     0
176
     1
 91
        4
176
     1
 64
     7
176
     1
 65
   257
176
     1
 75
     1
176
     1
175
     1
176
     1
 42
1.0
176
     1
 92
        0
176
     1
 66
     7
176
     1
 43
1.0
176
     1
 76
     1
176
     1
 77
     6
176
     1
 78
     2
176
     1
 67
     7
176
     1
 79
     5
176
     1
170
     0
176
     1
171
     0
176
     1
290
     0
176
     1
 93
       13
176
     1
 44
0.0
176
     1
173
     0
176
     1
  0
VISUALSTYLE
  5
2E
102
{ACAD_REACTORS
330
2A
102
}
330
2A
100
AcDbVisualStyle
  2
GouraudWithEdges
 70
     3
177
     2
291
     1
 71
     2
176
     1
 72
     2
176
     1
 73
     1
176
     1
 90
        2
176
     1
 40
-0.6
176
     1
 41
30.0
176
     1
 62
     5
 63
     7
421
 16777215
176
     1
 74
     1
176
     1
 91
        4
176
     1
 64
     7
176
     1
 65
   257
176
     1
 75
     1
176
     1
175
     1
176
     1
 42
1.0
176
     1
 92
        0
176
     1
 66
   257
176
     1
 43
1.0
176
     1
 76
     1
176
     1
 77
     6
176
     1
 78
     2
176
     1
 67
     7
176
     1
 79
     5
176
     1
170
     0
176
     1
171
     0
176
     1
290
     0
176
     1
 93
       13
176
     1
 44
0.0
176
     1
173
     0
176
     1
  0
VISUALSTYLE
  5
38
102
{ACAD_REACTORS
330
2A
102
}
330
2A
100
AcDbVisualStyle
  2
Linepattern
 70
    14
177
     2
291
     1
 71
     2
176
     1
 72
     2
176
     1
 73
     0
176
     1
 90
        0
176
     1
 40
-0.6
176
     1
 41
-30.0
176
     1
 62
     5
 63
     7
421
 16777215
176
     1
 74
     1
176
     1
 91
        4
176
     1
 64
     7
176
     1
 65
   257
176
     1
 75
     7
176
     1
175
     7
176
     1
 42
1.0
176
     1
 92
        8
176
     1
 66
     7
176
     1
 43
1.0
176
     1
 76
     1
176
     1
 77
     6
176
     1
 78
     2
176
     1
 67
     7
176
     1
 79
     5
176
     1
170
     0
176
     1
171
     0
176
     1
290
     0
176
     1
 93
        1
176
     1
 44
0.0
176
     1
173
     0
176
     1
  0
VISUALSTYLE
  5
33
102
{ACAD_REACTORS
330
2A
102
}
330
2A
100
AcDbVisualStyle
  2
Realistic
 70
     8
177
     2
291
     0
 71
     2
176
     1
 72
     2
176
     1
 73
     0
176
     1
 90
        0
176
     1
 40
-0.6
176
     1
 41
-30.0
176
     1
 62
     5
 63
     7
421
 16777215
176
     1
 74
     1
176
     1
 91
        0
176
     1
 64
     7
176
     1
 65
   257
176
     1
 75
     1
176
     1
175
     1
176
     1
 42
1.0
176
     1
 92
        8
176
     1
 66
     8
424
  7895160
176
     1
 43
1.0
176
     1
 76
     1
176
     1
 77
     6
176
     1
 78
     2
176
     1
 67
     7
176
     1
 79
     5
176
     1
170
     0
176
     1
171
     0
176
     1
290
     0
176
     1
 93
       13
176
     1
 44
0.0
176
     1
173
     0
176
     1
  0
VISUALSTYLE
  5
37
102
{ACAD_REACTORS
330
2A
102
}
330
2A
100
AcDbVisualStyle
  2
Thicken
 70
    13
177
     2
291
     1
 71
     2
176
     1
 72
     2
176
     1
 73
     0
176
     1
 90
        0
176
     1
 40
-0.6
176
     1
 41
-30.0
176
     1
 62
     5
 63
     7
421
 16777215
176
     1
 74
     1
176
     1
 91
        4
176
     1
 64
     7
176
     1
 65
   257
176
     1
 75
     1
176
     1
175
     1
176
     1
 42
1.0
176
     1
 92
       12
176
     1
 66
     7
176
     1
 43
1.0
176
     1
 76
     1
176
     1
 77
     6
176
     1
 78
     2
176
     1
 67
     7
176
     1
 79
     5
176
     1
170
     0
176
     1
171
     0
176
     1
290
     0
176
     1
 93
        1
176
     1
 44
0.0
176
     1
173
     0
176
     1
  0
ENDSEC
  0
EOF
