  0
SECTION
  2
HEADER
  9
$ACADVER
  1
AC1024
  9
$ACADMAINTVER
 70
     6
  9
$DWGCODEPAGE
  3
UNDEFINED
  9
$INSBASE
 10
0.0
 20
0.0
 30
0.0
  9
$EXTMIN
 10
1.000000000000000E+20
 20
1.000000000000000E+20
 30
1.000000000000000E+20
  9
$EXTMAX
 10
-1.000000000000000E+20
 20
-1.000000000000000E+20
 30
-1.000000000000000E+20
  9
$LIMMIN
 10
0.0
 20
0.0
  9
$LIMMAX
 10
12.0
 20
9.0
  9
$ORTHOMODE
 70
     0
  9
$REGENMODE
 70
     1
  9
$FILLMODE
 70
     1
  9
$QTEXTMODE
 70
     0
  9
$MIRRTEXT
 70
     1
  9
$LTSCALE
 40
1.0
  9
$ATTMODE
 70
     1
  9
$TEXTSIZE
 40
0.2
  9
$TRACEWID
 40
0.05
  9
$TEXTSTYLE
  7
Standard
  9
$CLAYER
  8
0
  9
$CELTYPE
  6
ByLayer
  9
$CECOLOR
 62
   256
  9
$CELTSCALE
 40
1.0
  9
$DISPSILH
 70
     0
  9
$DIMSCALE
 40
1.0
  9
$DIMASZ
 40
0.18
  9
$DIMEXO
 40
0.0625
  9
$DIMDLI
 40
0.38
  9
$DIMRND
 40
0.0
  9
$DIMDLE
 40
0.0
  9
$DIMEXE
 40
0.18
  9
$DIMTP
 40
0.0
  9
$DIMTM
 40
0.0
  9
$DIMTXT
 40
0.18
  9
$DIMCEN
 40
0.09
  9
$DIMTSZ
 40
0.0
  9
$DIMTOL
 70
     0
  9
$DIMLIM
 70
     0
  9
$DIMTIH
 70
     1
  9
$DIMTOH
 70
     1
  9
$DIMSE1
 70
     0
  9
$DIMSE2
 70
     0
  9
$DIMTAD
 70
     0
  9
$DIMZIN
 70
     0
  9
$DIMBLK
  1

  9
$DIMASO
 70
     1
  9
$DIMSHO
 70
     1
  9
$DIMPOST
  1

  9
$DIMAPOST
  1

  9
$DIMALT
 70
     0
  9
$DIMALTD
 70
     2
  9
$DIMALTF
 40
25.4
  9
$DIMLFAC
 40
1.0
  9
$DIMTOFL
 70
     0
  9
$DIMTVP
 40
0.0
  9
$DIMTIX
 70
     0
  9
$DIMSOXD
 70
     0
  9
$DIMSAH
 70
     0
  9
$DIMBLK1
  1

  9
$DIMBLK2
  1

  9
$DIMSTYLE
  2
Standard
  9
$DIMCLRD
 70
     0
  9
$DIMCLRE
 70
     0
  9
$DIMCLRT
 70
     0
  9
$DIMTFAC
 40
1.0
  9
$DIMGAP
 40
0.09
  9
$DIMJUST
 70
     0
  9
$DIMSD1
 70
     0
  9
$DIMSD2
 70
     0
  9
$DIMTOLJ
 70
     1
  9
$DIMTZIN
 70
     0
  9
$DIMALTZ
 70
     0
  9
$DIMALTTZ
 70
     0
  9
$DIMUPT
 70
     0
  9
$DIMDEC
 70
     4
  9
$DIMTDEC
 70
     4
  9
$DIMALTU
 70
     2
  9
$DIMALTTD
 70
     2
  9
$DIMTXSTY
  7
Standard
  9
$DIMAUNIT
 70
     0
  9
$DIMADEC
 70
     0
  9
$DIMALTRND
 40
0.0
  9
$DIMAZIN
 70
     0
  9
$DIMDSEP
 70
    46
  9
$DIMATFIT
 70
     3
  9
$DIMFRAC
 70
     0
  9
$DIMLDRBLK
  1

  9
$DIMLUNIT
 70
     2
  9
$DIMLWD
 70
    -2
  9
$DIMLWE
 70
    -2
  9
$DIMTMOVE
 70
     0
  9
$DIMFXL
 40
1.0
  9
$DIMFXLON
 70
     0
  9
$DIMJOGANG
 40
0.7853981633974483
  9
$DIMTFILL
 70
     0
  9
$DIMTFILLCLR
 70
     0
  9
$DIMARCSYM
 70
     0
  9
$DIMLTYPE
  6

  9
$DIMLTEX1
  6

  9
$DIMLTEX2
  6

  9
$DIMTXTDIRECTION
 70
     0
  9
$LUNITS
 70
     2
  9
$LUPREC
 70
     4
  9
$SKETCHINC
 40
0.1
  9
$FILLETRAD
 40
0.5
  9
$AUNITS
 70
     0
  9
$AUPREC
 70
     0
  9
$MENU
  1
.
  9
$ELEVATION
 40
0.0
  9
$PELEVATION
 40
0.0
  9
$THICKNESS
 40
0.0
  9
$LIMCHECK
 70
     0
  9
$CHAMFERA
 40
0.5
  9
$CHAMFERB
 40
0.5
  9
$CHAMFERC
 40
1.0
  9
$CHAMFERD
 40
0.0
  9
$SKPOLY
 70
     0
  9
$TDCREATE
 40
2457917.591770833
  9
$TDUCREATE
 40
2457917.216770833
  9
$TDUPDATE
 40
2457917.591770833
  9
$TDUUPDATE
 40
2457917.216770833
  9
$TDINDWG
 40
0.0000000116
  9
$TDUSRTIMER
 40
0.0000000116
  9
$USRTIMER
 70
     1
  9
$ANGBASE
 50
0.0
  9
$ANGDIR
 70
     0
  9
$PDMODE
 70
     0
  9
$PDSIZE
 40
0.0
  9
$PLINEWID
 40
0.0
  9
$SPLFRAME
 70
     0
  9
$SPLINETYPE
 70
     6
  9
$SPLINESEGS
 70
     8
  9
$HANDSEED
  5
143
  9
$SURFTAB1
 70
     6
  9
$SURFTAB2
 70
     6
  9
$SURFTYPE
 70
     6
  9
$SURFU
 70
     6
  9
$SURFV
 70
     6
  9
$UCSBASE
  2

  9
$UCSNAME
  2

  9
$UCSORG
 10
0.0
 20
0.0
 30
0.0
  9
$UCSXDIR
 10
1.0
 20
0.0
 30
0.0
  9
$UCSYDIR
 10
0.0
 20
1.0
 30
0.0
  9
$UCSORTHOREF
  2

  9
$UCSORTHOVIEW
 70
     0
  9
$UCSORGTOP
 10
0.0
 20
0.0
 30
0.0
  9
$UCSORGBOTTOM
 10
0.0
 20
0.0
 30
0.0
  9
$UCSORGLEFT
 10
0.0
 20
0.0
 30
0.0
  9
$UCSORGRIGHT
 10
0.0
 20
0.0
 30
0.0
  9
$UCSORGFRONT
 10
0.0
 20
0.0
 30
0.0
  9
$UCSORGBACK
 10
0.0
 20
0.0
 30
0.0
  9
$PUCSBASE
  2

  9
$PUCSNAME
  2

  9
$PUCSORG
 10
0.0
 20
0.0
 30
0.0
  9
$PUCSXDIR
 10
1.0
 20
0.0
 30
0.0
  9
$PUCSYDIR
 10
0.0
 20
1.0
 30
0.0
  9
$PUCSORTHOREF
  2

  9
$PUCSORTHOVIEW
 70
     0
  9
$PUCSORGTOP
 10
0.0
 20
0.0
 30
0.0
  9
$PUCSORGBOTTOM
 10
0.0
 20
0.0
 30
0.0
  9
$PUCSORGLEFT
 10
0.0
 20
0.0
 30
0.0
  9
$PUCSORGRIGHT
 10
0.0
 20
0.0
 30
0.0
  9
$PUCSORGFRONT
 10
0.0
 20
0.0
 30
0.0
  9
$PUCSORGBACK
 10
0.0
 20
0.0
 30
0.0
  9
$USERI1
 70
     0
  9
$USERI2
 70
     0
  9
$USERI3
 70
     0
  9
$USERI4
 70
     0
  9
$USERI5
 70
     0
  9
$USERR1
 40
0.0
  9
$USERR2
 40
0.0
  9
$USERR3
 40
0.0
  9
$USERR4
 40
0.0
  9
$USERR5
 40
0.0
  9
$WORLDVIEW
 70
     1
  9
$SHADEDGE
 70
     3
  9
$SHADEDIF
 70
    70
  9
$TILEMODE
 70
     1
  9
$MAXACTVP
 70
    64
  9
$PINSBASE
 10
0.0
 20
0.0
 30
0.0
  9
$PLIMCHECK
 70
     0
  9
$PEXTMIN
 10
1.000000000000000E+20
 20
1.000000000000000E+20
 30
1.000000000000000E+20
  9
$PEXTMAX
 10
-1.000000000000000E+20
 20
-1.000000000000000E+20
 30
-1.000000000000000E+20
  9
$PLIMMIN
 10
0.0
 20
0.0
  9
$PLIMMAX
 10
12.0
 20
9.0
  9
$UNITMODE
 70
     0
  9
$VISRETAIN
 70
     1
  9
$PLINEGEN
 70
     0
  9
$PSLTSCALE
 70
     1
  9
$TREEDEPTH
 70
  3020
  9
$CMLSTYLE
  2
Standard
  9
$CMLJUST
 70
     0
  9
$CMLSCALE
 40
1.0
  9
$PROXYGRAPHICS
 70
     1
  9
$MEASUREMENT
 70
     0
  9
$CELWEIGHT
370
    -1
  9
$ENDCAPS
280
     0
  9
$JOINSTYLE
280
     0
  9
$LWDISPLAY
290
     1
  9
$INSUNITS
 70
     1
  9
$HYPERLINKBASE
  1

  9
$STYLESHEET
  1

  9
$XEDIT
290
     1
  9
$CEPSNTYPE
380
     0
  9
$PSTYLEMODE
290
     1
  9
$FINGERPRINTGUID
  2
{DCBEC768-C1E0-CF15-D47D-225F500B2ABE}
  9
$VERSIONGUID
  2
{FAEB1C32-E019-11D5-929B-00C0DF256EC4}
  9
$EXTNAMES
290
     1
  9
$PSVPSCALE
 40
0.0
  9
$OLESTARTUP
290
     0
  9
$SORTENTS
280
   127
  9
$INDEXCTL
280
     0
  9
$HIDETEXT
280
     1
  9
$XCLIPFRAME
280
     2
  9
$HALOGAP
280
     0
  9
$OBSCOLOR
 70
   257
  9
$OBSLTYPE
280
     0
  9
$INTERSECTIONDISPLAY
280
     0
  9
$INTERSECTIONCOLOR
 70
   257
  9
$DIMASSOC
280
     2
  9
$PROJECTNAME
  1

  9
$CAMERADISPLAY
290
     0
  9
$LENSLENGTH
 40
50.0
  9
$CAMERAHEIGHT
 40
0.0
  9
$STEPSPERSEC
 40
2.0
  9
$STEPSIZE
 40
6.0
  9
$3DDWFPREC
 40
2.0
  9
$PSOLWIDTH
 40
0.25
  9
$PSOLHEIGHT
 40
4.0
  9
$LOFTANG1
 40
1.570796326794897
  9
$LOFTANG2
 40
1.570796326794897
  9
$LOFTMAG1
 40
0.0
  9
$LOFTMAG2
 40
0.0
  9
$LOFTPARAM
 70
     7
  9
$LOFTNORMALS
280
     1
  9
$LATITUDE
 40
37.795
  9
$LONGITUDE
 40
-122.394
  9
$NORTHDIRECTION
 40
0.0
  9
$TIMEZONE
 70
 -8000
  9
$LIGHTGLYPHDISPLAY
280
     1
  9
$TILEMODELIGHTSYNCH
280
     1
  9
$CMATERIAL
347
3C
  9
$SOLIDHIST
280
     1
  9
$SHOWHIST
280
     1
  9
$DWFFRAME
280
     2
  9
$DGNFRAME
280
     2
  9
$REALWORLDSCALE
290
     1
  9
$INTERFERECOLOR
 62
   256
  9
$CSHADOW
280
     0
  9
$SHADOWPLANELOCATION
 40
0.0
  0
ENDSEC
  0
SECTION
  2
CLASSES
  0
CLASS
  1
ACDBDICTIONARYWDFLT
  2
AcDbDictionaryWithDefault
  3
ObjectDBX Classes
 90
        0
 91
        4
280
     0
281
     0
  0
CLASS
  1
VISUALSTYLE
  2
AcDbVisualStyle
  3
ObjectDBX Classes
 90
     4095
 91
        4
280
     0
281
     0
  0
CLASS
  1
MATERIAL
  2
AcDbMaterial
  3
ObjectDBX Classes
 90
     1153
 91
        4
280
     0
281
     0
  0
CLASS
  1
SUN
  2
AcDbSun
  3
SCENEOE
 90
     1024
 91
        4
280
     0
281
     0
  0
ENDSEC
  0
SECTION
  2
TABLES
  0
TABLE
  2
VPORT
  5
8
330
0
100
AcDbSymbolTable
 70
     1
  0
VPORT
  5
29
330
8
100
AcDbSymbolTableRecord
100
AcDbViewportTableRecord
  2
*Active
 70
     0
 10
0.0
 20
0.0
 11
1.0
 21
1.0
 12
0.0
 22
0.0
 13
0.0
 23
0.0
 14
0.5
 24
0.5
 15
0.5
 25
0.5
 16
0.0
 26
0.0
 36
1.0
 17
91.00082462281999
 27
-128.4993055234307
 37
0.0
 40
256.9986110468615
 41
0.7081814508812795
 42
50.0
 43
0.0
 44
0.0
 50
0.0
 51
0.0
 71
     0
 72
   100
 73
     1
 74
     3
 75
     0
 76
     0
 77
     0
 78
     0
281
     0
 65
     1
110
0.0
120
0.0
130
0.0
111
1.0
121
0.0
131
0.0
112
0.0
122
1.0
132
0.0
 79
     0
146
0.0
 60
     3
 61
     5
292
     1
282
     1
141
0.0
142
0.0
 63
   250
361
3F
  0
ENDTAB
  0
TABLE
  2
LTYPE
  5
5
330
0
100
AcDbSymbolTable
 70
     1
  0
LTYPE
  5
14
330
5
100
AcDbSymbolTableRecord
100
AcDbLinetypeTableRecord
  2
ByBlock
 70
     0
  3

 72
    65
 73
     0
 40
0.0
  0
LTYPE
  5
15
330
5
100
AcDbSymbolTableRecord
100
AcDbLinetypeTableRecord
  2
ByLayer
 70
     0
  3

 72
    65
 73
     0
 40
0.0
  0
LTYPE
  5
16
330
5
100
AcDbSymbolTableRecord
100
AcDbLinetypeTableRecord
  2
Continuous
 70
     0
  3
Solid line
 72
    65
 73
     0
 40
0.0
  0
ENDTAB
  0
TABLE
  2
LAYER
  5
2
330
0
100
AcDbSymbolTable
 70
     2
  0
LAYER
  5
10
330
2
100
AcDbSymbolTableRecord
100
AcDbLayerTableRecord
  2
0
 70
     0
 62
     7
  6
Continuous
370
    -3
390
F
347
3E
  0
LAYER
  5
40
330
2
100
AcDbSymbolTableRecord
100
AcDbLayerTableRecord
  2
_U+30EC_U+30A4_U+30E4_U+30FC 1
 70
     0
 62
     7
  6
Continuous
370
    -3
390
F
347
3E
  0
ENDTAB
  0
TABLE
  2
STYLE
  5
3
330
0
100
AcDbSymbolTable
 70
     1
  0
STYLE
  5
11
330
3
100
AcDbSymbolTableRecord
100
AcDbTextStyleTableRecord
  2
Standard
 70
     0
 40
0.0
 41
1.0
 50
0.0
 71
     0
 42
0.2
  3
txt
  4

  0
ENDTAB
  0
TABLE
  2
VIEW
  5
6
330
0
100
AcDbSymbolTable
 70
     0
  0
ENDTAB
  0
TABLE
  2
UCS
  5
7
330
0
100
AcDbSymbolTable
 70
     0
  0
ENDTAB
  0
TABLE
  2
APPID
  5
9
330
0
100
AcDbSymbolTable
 70
     1
  0
APPID
  5
12
330
9
100
AcDbSymbolTableRecord
100
AcDbRegAppTableRecord
  2
ACAD
 70
     0
  0
ENDTAB
  0
TABLE
  2
DIMSTYLE
  5
A
330
0
100
AcDbSymbolTable
 70
     1
100
AcDbDimStyleTable
  0
DIMSTYLE
105
27
330
A
100
AcDbSymbolTableRecord
100
AcDbDimStyleTableRecord
  2
Standard
 70
     0
178
     0
340
11
  0
ENDTAB
  0
TABLE
  2
BLOCK_RECORD
  5
1
330
0
100
AcDbSymbolTable
 70
     9
  0
BLOCK_RECORD
  5
1F
330
1
100
AcDbSymbolTableRecord
100
AcDbBlockTableRecord
  2
*Model_Space
340
22
 70
     0
280
     1
281
     0
  0
BLOCK_RECORD
  5
1B
330
1
100
AcDbSymbolTableRecord
100
AcDbBlockTableRecord
  2
*Paper_Space
340
1E
 70
     0
280
     1
281
     0
  0
BLOCK_RECORD
  5
23
330
1
100
AcDbSymbolTableRecord
100
AcDbBlockTableRecord
  2
*Paper_Space0
340
26
 70
     0
280
     1
281
     0
  0
BLOCK_RECORD
  5
AC
330
1
100
AcDbSymbolTableRecord
100
AcDbBlockTableRecord
  2
block 2
340
0
102
{BLKREFS
331
AD
102
}
 70
     0
280
     1
281
     0
  0
BLOCK_RECORD
  5
C0
330
1
100
AcDbSymbolTableRecord
100
AcDbBlockTableRecord
  2
block 3
340
0
102
{BLKREFS
331
C1
102
}
 70
     0
280
     1
281
     0
  0
BLOCK_RECORD
  5
E1
330
1
100
AcDbSymbolTableRecord
100
AcDbBlockTableRecord
  2
block 4
340
0
102
{BLKREFS
331
E2
102
}
 70
     0
280
     1
281
     0
  0
BLOCK_RECORD
  5
F1
330
1
100
AcDbSymbolTableRecord
100
AcDbBlockTableRecord
  2
block 5
340
0
102
{BLKREFS
331
F2
102
}
 70
     0
280
     1
281
     0
  0
BLOCK_RECORD
  5
118
330
1
100
AcDbSymbolTableRecord
100
AcDbBlockTableRecord
  2
block 6
340
0
102
{BLKREFS
331
119
102
}
 70
     0
280
     1
281
     0
  0
BLOCK_RECORD
  5
124
330
1
100
AcDbSymbolTableRecord
100
AcDbBlockTableRecord
  2
block 7
340
0
102
{BLKREFS
331
125
102
}
 70
     0
280
     1
281
     0
  0
BLOCK_RECORD
  5
12D
330
1
100
AcDbSymbolTableRecord
100
AcDbBlockTableRecord
  2
block 8
340
0
102
{BLKREFS
331
12E
102
}
 70
     0
280
     1
281
     0
  0
BLOCK_RECORD
  5
13B
330
1
100
AcDbSymbolTableRecord
100
AcDbBlockTableRecord
  2
block 9
340
0
102
{BLKREFS
331
13C
102
}
 70
     0
280
     1
281
     0
  0
ENDTAB
  0
ENDSEC
  0
SECTION
  2
BLOCKS
  0
BLOCK
  5
20
330
1F
100
AcDbEntity
  8
0
100
AcDbBlockBegin
  2
*Model_Space
 70
     0
 10
0.0
 20
0.0
 30
0.0
  3
*Model_Space
  1

  0
ENDBLK
  5
21
330
1F
100
AcDbEntity
  8
0
100
AcDbBlockEnd
  0
BLOCK
  5
1C
330
1B
100
AcDbEntity
 67
     1
  8
0
100
AcDbBlockBegin
  2
*Paper_Space
 70
     0
 10
0.0
 20
0.0
 30
0.0
  3
*Paper_Space
  1

  0
ENDBLK
  5
1D
330
1B
100
AcDbEntity
 67
     1
  8
0
100
AcDbBlockEnd
  0
BLOCK
  5
24
330
23
100
AcDbEntity
  8
0
100
AcDbBlockBegin
  2
*Paper_Space0
 70
     0
 10
0.0
 20
0.0
 30
0.0
  3
*Paper_Space0
  1

  0
ENDBLK
  5
25
330
23
100
AcDbEntity
  8
0
100
AcDbBlockEnd
  0
BLOCK
  5
AE
330
AC
100
AcDbEntity
  8
0
100
AcDbBlockBegin
  2
block 2
 70
     0
 10
0.0
 20
0.0
 30
0.0
  3
block 2
  1

  0
SPLINE
  5
B0
330
AC
100
AcDbEntity
  8
_U+30EC_U+30A4_U+30E4_U+30FC 1
370
     0
100
AcDbSpline
210
0.0
220
0.0
230
1.0
 70
    11
 71
     3
 72
    44
 73
    40
 74
     0
 42
0.0000000001
 43
0.0000000001
 12
1.0
 22
0.0
 32
0.0
 13
1.0
 23
0.0
 33
0.0
 40
0.0
 40
0.0
 40
0.0
 40
0.0
 40
1.0
 40
1.0
 40
1.0
 40
2.0
 40
2.0
 40
2.0
 40
3.0
 40
3.0
 40
3.0
 40
4.0
 40
4.0
 40
4.0
 40
5.0
 40
5.0
 40
5.0
 40
6.0
 40
6.0
 40
6.0
 40
7.0
 40
7.0
 40
7.0
 40
8.0
 40
8.0
 40
8.0
 40
9.0
 40
9.0
 40
9.0
 40
10.0
 40
10.0
 40
10.0
 40
11.0
 40
11.0
 40
11.0
 40
12.0
 40
12.0
 40
12.0
 40
13.0
 40
13.0
 40
13.0
 40
13.0
 10
79.17690698975439
 20
-145.8808457751617
 30
0.0
 10
79.33555363685014
 20
-146.1137342299646
 30
0.0
 10
79.40962318978302
 20
-146.2132974894884
 30
0.0
 10
79.5534559262922
 20
-146.2649739217671
 30
0.0
 10
79.5534559262922
 20
-146.2649739217671
 30
0.0
 10
79.5534559262922
 20
-145.4333278716278
 30
0.0
 10
79.5534559262922
 20
-145.4333278716278
 30
0.0
 10
79.5534559262922
 20
-145.4333278716278
 30
0.0
 10
79.75861136243883
 20
-145.4333278716278
 30
0.0
 10
79.75861136243883
 20
-145.4333278716278
 30
0.0
 10
79.75861136243883
 20
-145.4333278716278
 30
0.0
 10
79.75861136243883
 20
-146.531968821874
 30
0.0
 10
79.75861136243883
 20
-146.531968821874
 30
0.0
 10
79.4010104510699
 20
-146.49786237657
 30
0.0
 10
79.32280678355473
 20
-146.4279269382194
 30
0.0
 10
79.02446151453208
 20
-146.0165825372806
 30
0.0
 10
78.82567950503316
 20
-145.7430419557517
 30
0.0
 10
78.75798337874801
 20
-145.6727620078526
 30
0.0
 10
78.62052406888654
 20
-145.6727620078526
 30
0.0
 10
78.50201278419395
 20
-145.6727620078526
 30
0.0
 10
78.37075464620592
 20
-145.7495876371737
 30
0.0
 10
78.37075464620592
 20
-145.9600829713225
 30
0.0
 10
78.37075464620592
 20
-146.2381021769822
 30
0.0
 10
78.6014037889434
 20
-146.2470594252438
 30
0.0
 10
78.71784801634485
 20
-146.2515380493746
 30
0.0
 10
78.71784801634485
 20
-146.2515380493746
 30
0.0
 10
78.71784801634485
 20
-146.491316695148
 30
0.0
 10
78.71784801634485
 20
-146.491316695148
 30
0.0
 10
78.59089624771339
 20
-146.4820149373378
 30
0.0
 10
78.47875838966851
 20
-146.470990631785
 30
0.0
 10
78.36024710497591
 20
-146.3848632446538
 30
0.0
 10
78.199533400589
 20
-146.2673854886068
 30
0.0
 10
78.1655992100593
 20
-146.0686034791078
 30
0.0
 10
78.1655992100593
 20
-145.9442355320903
 30
0.0
 10
78.1655992100593
 20
-145.6479573203588
 30
0.0
 10
78.3497395637459
 20
-145.4264376806573
 30
0.0
 10
78.6225911261777
 20
-145.4264376806573
 30
0.0
 10
78.85100095684976
 20
-145.4264376806573
 30
0.0
 10
78.95056421637348
 20
-145.5508056276748
 30
0.0
 10
79.17690698975439
 20
-145.8808457751617
 30
0.0
  0
HATCH
  5
B1
330
AC
100
AcDbEntity
  8
_U+30EC_U+30A4_U+30E4_U+30FC 1
 62
   179
420
  2234388
100
AcDbHatch
 10
0.0
 20
0.0
 30
0.0
210
0.0
220
0.0
230
1.0
  2
SOLID
 70
     1
 71
     0
 91
        1
 92
        1
 93
        1
 72
     4
 94
        3
 73
     0
 74
     1
 95
       44
 96
       40
 40
0.0
 40
0.0
 40
0.0
 40
0.0
 40
1.0
 40
1.0
 40
1.0
 40
2.0
 40
2.0
 40
2.0
 40
3.0
 40
3.0
 40
3.0
 40
4.0
 40
4.0
 40
4.0
 40
5.0
 40
5.0
 40
5.0
 40
6.0
 40
6.0
 40
6.0
 40
7.0
 40
7.0
 40
7.0
 40
8.0
 40
8.0
 40
8.0
 40
9.0
 40
9.0
 40
9.0
 40
10.0
 40
10.0
 40
10.0
 40
11.0
 40
11.0
 40
11.0
 40
12.0
 40
12.0
 40
12.0
 40
13.0
 40
13.0
 40
13.0
 40
13.0
 10
79.17690698975439
 20
-145.8808457751617
 10
79.33555363685014
 20
-146.1137342299646
 10
79.40962318978302
 20
-146.2132974894884
 10
79.5534559262922
 20
-146.2649739217671
 10
79.5534559262922
 20
-146.2649739217671
 10
79.5534559262922
 20
-145.4333278716278
 10
79.5534559262922
 20
-145.4333278716278
 10
79.5534559262922
 20
-145.4333278716278
 10
79.75861136243883
 20
-145.4333278716278
 10
79.75861136243883
 20
-145.4333278716278
 10
79.75861136243883
 20
-145.4333278716278
 10
79.75861136243883
 20
-146.531968821874
 10
79.75861136243883
 20
-146.531968821874
 10
79.4010104510699
 20
-146.49786237657
 10
79.32280678355473
 20
-146.4279269382194
 10
79.02446151453208
 20
-146.0165825372806
 10
78.82567950503316
 20
-145.7430419557517
 10
78.75798337874801
 20
-145.6727620078526
 10
78.62052406888654
 20
-145.6727620078526
 10
78.50201278419395
 20
-145.6727620078526
 10
78.37075464620592
 20
-145.7495876371737
 10
78.37075464620592
 20
-145.9600829713225
 10
78.37075464620592
 20
-146.2381021769822
 10
78.6014037889434
 20
-146.2470594252438
 10
78.71784801634485
 20
-146.2515380493746
 10
78.71784801634485
 20
-146.2515380493746
 10
78.71784801634485
 20
-146.491316695148
 10
78.71784801634485
 20
-146.491316695148
 10
78.59089624771339
 20
-146.4820149373378
 10
78.47875838966851
 20
-146.470990631785
 10
78.36024710497591
 20
-146.3848632446538
 10
78.199533400589
 20
-146.2673854886068
 10
78.1655992100593
 20
-146.0686034791078
 10
78.1655992100593
 20
-145.9442355320903
 10
78.1655992100593
 20
-145.6479573203588
 10
78.3497395637459
 20
-145.4264376806573
 10
78.6225911261777
 20
-145.4264376806573
 10
78.85100095684976
 20
-145.4264376806573
 10
78.95056421637348
 20
-145.5508056276748
 10
79.17690698975439
 20
-145.8808457751617
 97
        0
 97
        0
 75
     2
 76
     1
 98
        0
  0
SPLINE
  5
B2
330
AC
100
AcDbEntity
  8
_U+30EC_U+30A4_U+30E4_U+30FC 1
370
     0
100
AcDbSpline
210
0.0
220
0.0
230
1.0
 70
    11
 71
     3
 72
    62
 73
    58
 74
     0
 42
0.0000000001
 43
0.0000000001
 12
1.0
 22
0.0
 32
0.0
 13
1.0
 23
0.0
 33
0.0
 40
0.0
 40
0.0
 40
0.0
 40
0.0
 40
1.0
 40
1.0
 40
1.0
 40
2.0
 40
2.0
 40
2.0
 40
3.0
 40
3.0
 40
3.0
 40
4.0
 40
4.0
 40
4.0
 40
5.0
 40
5.0
 40
5.0
 40
6.0
 40
6.0
 40
6.0
 40
7.0
 40
7.0
 40
7.0
 40
8.0
 40
8.0
 40
8.0
 40
9.0
 40
9.0
 40
9.0
 40
10.0
 40
10.0
 40
10.0
 40
11.0
 40
11.0
 40
11.0
 40
12.0
 40
12.0
 40
12.0
 40
13.0
 40
13.0
 40
13.0
 40
14.0
 40
14.0
 40
14.0
 40
15.0
 40
15.0
 40
15.0
 40
16.0
 40
16.0
 40
16.0
 40
17.0
 40
17.0
 40
17.0
 40
18.0
 40
18.0
 40
18.0
 40
19.0
 40
19.0
 40
19.0
 40
19.0
 10
79.80942652084626
 20
-144.7315619212824
 30
0.0
 10
79.80942652084626
 20
-144.8331922380973
 30
0.0
 10
79.78823918361198
 20
-145.0660806929002
 30
0.0
 10
79.60203177263422
 20
-145.1994058881793
 30
0.0
 10
79.48989391458933
 20
-145.2786430843401
 30
0.0
 10
79.39050290983988
 20
-145.2831217084709
 30
0.0
 10
79.305925815677
 20
-145.2876003326017
 30
0.0
 10
79.305925815677
 20
-145.2876003326017
 30
0.0
 10
79.305925815677
 20
-145.0526448205077
 30
0.0
 10
79.305925815677
 20
-145.0526448205077
 30
0.0
 10
79.37999536860987
 20
-145.050233253668
 30
0.0
 10
79.61477862592965
 20
-145.0388644385667
 30
0.0
 10
79.61477862592965
 20
-144.7360405454132
 30
0.0
 10
79.61477862592965
 20
-144.5889349681931
 30
0.0
 10
79.54501544235333
 20
-144.4263264612892
 30
0.0
 10
79.31643335690701
 20
-144.4263264612892
 30
0.0
 10
79.20016138427982
 20
-144.4263264612892
 30
0.0
 10
79.15141328316354
 20
-144.4669785880152
 30
0.0
 10
79.11971840469924
 20
-144.5010850333192
 30
0.0
 10
79.04564885176637
 20
-144.5799777199314
 30
0.0
 10
79.0330742532452
 20
-144.7043456669489
 30
0.0
 10
79.0330742532452
 20
-144.7632567997467
 30
0.0
 10
79.0330742532452
 20
-144.7835828631097
 30
0.0
 10
79.03514131053636
 20
-144.8218234229959
 30
0.0
 10
79.03927542511866
 20
-144.8514512441691
 30
0.0
 10
79.03927542511866
 20
-144.8514512441691
 30
0.0
 10
78.8447997849763
 20
-144.8514512441691
 30
0.0
 10
78.8447997849763
 20
-144.8514512441691
 30
0.0
 10
78.85100095684976
 20
-144.8107991174431
 30
0.0
 10
78.85324026891517
 20
-144.7653238570379
 30
0.0
 10
78.85324026891517
 20
-144.7587781756159
 30
0.0
 10
78.85324026891517
 20
-144.6884982277168
 30
0.0
 10
78.83205293168088
 20
-144.4759358362768
 30
0.0
 10
78.59503036229569
 20
-144.4759358362768
 30
0.0
 10
78.41743569003106
 20
-144.4759358362768
 30
0.0
 10
78.36231416226707
 20
-144.6161512225265
 30
0.0
 10
78.36231416226707
 20
-144.7336289785735
 30
0.0
 10
78.36231416226707
 20
-145.0164713179126
 30
0.0
 10
78.59503036229569
 20
-145.0254285661742
 30
0.0
 10
78.66703285793741
 20
-145.029907190305
 30
0.0
 10
78.66703285793741
 20
-145.029907190305
 30
0.0
 10
78.66703285793741
 20
-145.2469482058758
 30
0.0
 10
78.66703285793741
 20
-145.2469482058758
 30
0.0
 10
78.5421481465971
 20
-145.2379909576141
 30
0.0
 10
78.1655992100593
 20
-145.2087076459895
 30
0.0
 10
78.1655992100593
 20
-144.7201931061811
 30
0.0
 10
78.1655992100593
 20
-144.4804144604077
 30
0.0
 10
78.29255097869076
 20
-144.222721318111
 30
0.0
 10
78.58865693564798
 20
-144.222721318111
 30
0.0
 10
78.77486434662573
 20
-144.222721318111
 30
0.0
 10
78.85737438349747
 20
-144.3246961444744
 30
0.0
 10
78.91869708313492
 20
-144.4308050854201
 30
0.0
 10
78.94625784701691
 20
-144.3653482712003
 30
0.0
 10
79.02670082659749
 20
-144.1707003762837
 30
0.0
 10
79.30385875838584
 20
-144.1707003762837
 30
0.0
 10
79.64233938981164
 20
-144.1707003762837
 30
0.0
 10
79.80942652084626
 20
-144.4352837095509
 30
0.0
 10
79.80942652084626
 20
-144.7315619212824
 30
0.0
  0
HATCH
  5
B3
330
AC
100
AcDbEntity
  8
_U+30EC_U+30A4_U+30E4_U+30FC 1
 62
   179
420
  2234388
100
AcDbHatch
 10
0.0
 20
0.0
 30
0.0
210
0.0
220
0.0
230
1.0
  2
SOLID
 70
     1
 71
     0
 91
        1
 92
        1
 93
        1
 72
     4
 94
        3
 73
     0
 74
     1
 95
       62
 96
       58
 40
0.0
 40
0.0
 40
0.0
 40
0.0
 40
1.0
 40
1.0
 40
1.0
 40
2.0
 40
2.0
 40
2.0
 40
3.0
 40
3.0
 40
3.0
 40
4.0
 40
4.0
 40
4.0
 40
5.0
 40
5.0
 40
5.0
 40
6.0
 40
6.0
 40
6.0
 40
7.0
 40
7.0
 40
7.0
 40
8.0
 40
8.0
 40
8.0
 40
9.0
 40
9.0
 40
9.0
 40
10.0
 40
10.0
 40
10.0
 40
11.0
 40
11.0
 40
11.0
 40
12.0
 40
12.0
 40
12.0
 40
13.0
 40
13.0
 40
13.0
 40
14.0
 40
14.0
 40
14.0
 40
15.0
 40
15.0
 40
15.0
 40
16.0
 40
16.0
 40
16.0
 40
17.0
 40
17.0
 40
17.0
 40
18.0
 40
18.0
 40
18.0
 40
19.0
 40
19.0
 40
19.0
 40
19.0
 10
79.80942652084626
 20
-144.7315619212824
 10
79.80942652084626
 20
-144.8331922380973
 10
79.78823918361198
 20
-145.0660806929002
 10
79.60203177263422
 20
-145.1994058881793
 10
79.48989391458933
 20
-145.2786430843401
 10
79.39050290983988
 20
-145.2831217084709
 10
79.305925815677
 20
-145.2876003326017
 10
79.305925815677
 20
-145.2876003326017
 10
79.305925815677
 20
-145.0526448205077
 10
79.305925815677
 20
-145.0526448205077
 10
79.37999536860987
 20
-145.050233253668
 10
79.61477862592965
 20
-145.0388644385667
 10
79.61477862592965
 20
-144.7360405454132
 10
79.61477862592965
 20
-144.5889349681931
 10
79.54501544235333
 20
-144.4263264612892
 10
79.31643335690701
 20
-144.4263264612892
 10
79.20016138427982
 20
-144.4263264612892
 10
79.15141328316354
 20
-144.4669785880152
 10
79.11971840469924
 20
-144.5010850333192
 10
79.04564885176637
 20
-144.5799777199314
 10
79.0330742532452
 20
-144.7043456669489
 10
79.0330742532452
 20
-144.7632567997467
 10
79.0330742532452
 20
-144.7835828631097
 10
79.03514131053636
 20
-144.8218234229959
 10
79.03927542511866
 20
-144.8514512441691
 10
79.03927542511866
 20
-144.8514512441691
 10
78.8447997849763
 20
-144.8514512441691
 10
78.8447997849763
 20
-144.8514512441691
 10
78.85100095684976
 20
-144.8107991174431
 10
78.85324026891517
 20
-144.7653238570379
 10
78.85324026891517
 20
-144.7587781756159
 10
78.85324026891517
 20
-144.6884982277168
 10
78.83205293168088
 20
-144.4759358362768
 10
78.59503036229569
 20
-144.4759358362768
 10
78.41743569003106
 20
-144.4759358362768
 10
78.36231416226707
 20
-144.6161512225265
 10
78.36231416226707
 20
-144.7336289785735
 10
78.36231416226707
 20
-145.0164713179126
 10
78.59503036229569
 20
-145.0254285661742
 10
78.66703285793741
 20
-145.029907190305
 10
78.66703285793741
 20
-145.029907190305
 10
78.66703285793741
 20
-145.2469482058758
 10
78.66703285793741
 20
-145.2469482058758
 10
78.5421481465971
 20
-145.2379909576141
 10
78.1655992100593
 20
-145.2087076459895
 10
78.1655992100593
 20
-144.7201931061811
 10
78.1655992100593
 20
-144.4804144604077
 10
78.29255097869076
 20
-144.222721318111
 10
78.58865693564798
 20
-144.222721318111
 10
78.77486434662573
 20
-144.222721318111
 10
78.85737438349747
 20
-144.3246961444744
 10
78.91869708313492
 20
-144.4308050854201
 10
78.94625784701691
 20
-144.3653482712003
 10
79.02670082659749
 20
-144.1707003762837
 10
79.30385875838584
 20
-144.1707003762837
 10
79.64233938981164
 20
-144.1707003762837
 10
79.80942652084626
 20
-144.4352837095509
 10
79.80942652084626
 20
-144.7315619212824
 97
        0
 97
        0
 75
     2
 76
     1
 98
        0
  0
ENDBLK
  5
AF
330
AC
100
AcDbEntity
  8
0
100
AcDbBlockEnd
  0
BLOCK
  5
C2
330
C0
100
AcDbEntity
  8
0
100
AcDbBlockBegin
  2
block 3
 70
     0
 10
0.0
 20
0.0
 30
0.0
  3
block 3
  1

  0
POLYLINE
  5
C4
330
C0
100
AcDbEntity
  8
_U+30EC_U+30A4_U+30E4_U+30FC 1
370
     0
100
AcDb2dPolyline
 66
     1
 10
0.0
 20
0.0
 30
0.0
  0
VERTEX
  5
C5
330
C4
100
AcDbEntity
  8
_U+30EC_U+30A4_U+30E4_U+30FC 1
370
     0
100
AcDbVertex
100
AcDb2dVertex
 10
102.4120089804734
 20
-154.4584445143368
 30
0.0
  0
VERTEX
  5
C6
330
C4
100
AcDbEntity
  8
_U+30EC_U+30A4_U+30E4_U+30FC 1
370
     0
100
AcDbVertex
100
AcDb2dVertex
 10
102.7589300958381
 20
-154.4584445143368
 30
0.0
  0
VERTEX
  5
C7
330
C4
100
AcDbEntity
  8
_U+30EC_U+30A4_U+30E4_U+30FC 1
370
     0
100
AcDbVertex
100
AcDb2dVertex
 10
102.7589300958381
 20
-154.6913329691397
 30
0.0
  0
VERTEX
  5
C8
330
C4
100
AcDbEntity
  8
_U+30EC_U+30A4_U+30E4_U+30FC 1
370
     0
100
AcDbVertex
100
AcDb2dVertex
 10
102.4120089804734
 20
-154.6913329691397
 30
0.0
  0
VERTEX
  5
C9
330
C4
100
AcDbEntity
  8
_U+30EC_U+30A4_U+30E4_U+30FC 1
370
     0
100
AcDbVertex
100
AcDb2dVertex
 10
102.4120089804734
 20
-155.392409900388
 30
0.0
  0
VERTEX
  5
CA
330
C4
100
AcDbEntity
  8
_U+30EC_U+30A4_U+30E4_U+30FC 1
370
     0
100
AcDbVertex
100
AcDb2dVertex
 10
102.1877332643836
 20
-155.392409900388
 30
0.0
  0
VERTEX
  5
CB
330
C4
100
AcDbEntity
  8
_U+30EC_U+30A4_U+30E4_U+30FC 1
370
     0
100
AcDbVertex
100
AcDb2dVertex
 10
101.2144937898005
 20
-154.6665282816459
 30
0.0
  0
VERTEX
  5
CC
330
C4
100
AcDbEntity
  8
_U+30EC_U+30A4_U+30E4_U+30FC 1
370
     0
100
AcDbVertex
100
AcDb2dVertex
 10
101.2144937898005
 20
-154.4584445143368
 30
0.0
  0
VERTEX
  5
CD
330
C4
100
AcDbEntity
  8
_U+30EC_U+30A4_U+30E4_U+30FC 1
370
     0
100
AcDbVertex
100
AcDb2dVertex
 10
102.2132269709745
 20
-154.4584445143368
 30
0.0
  0
VERTEX
  5
CE
330
C4
100
AcDbEntity
  8
_U+30EC_U+30A4_U+30E4_U+30FC 1
370
     0
100
AcDbVertex
100
AcDb2dVertex
 10
102.2132269709745
 20
-154.2369248746352
 30
0.0
  0
VERTEX
  5
CF
330
C4
100
AcDbEntity
  8
_U+30EC_U+30A4_U+30E4_U+30FC 1
370
     0
100
AcDbVertex
100
AcDb2dVertex
 10
102.4120089804734
 20
-154.2369248746352
 30
0.0
  0
VERTEX
  5
D0
330
C4
100
AcDbEntity
  8
_U+30EC_U+30A4_U+30E4_U+30FC 1
370
     0
100
AcDbVertex
100
AcDb2dVertex
 10
102.4120089804734
 20
-154.4584445143368
 30
0.0
  0
SEQEND
  5
D1
330
C4
100
AcDbEntity
  8
_U+30EC_U+30A4_U+30E4_U+30FC 1
370
     0
  0
POLYLINE
  5
D2
330
C0
100
AcDbEntity
  8
_U+30EC_U+30A4_U+30E4_U+30FC 1
370
     0
100
AcDb2dPolyline
 66
     1
 10
0.0
 20
0.0
 30
0.0
  0
VERTEX
  5
D3
330
D2
100
AcDbEntity
  8
_U+30EC_U+30A4_U+30E4_U+30FC 1
370
     0
100
AcDbVertex
100
AcDb2dVertex
 10
101.5572807905829
 20
-154.6913329691397
 30
0.0
  0
VERTEX
  5
D4
330
D2
100
AcDbEntity
  8
_U+30EC_U+30A4_U+30E4_U+30FC 1
370
     0
100
AcDbVertex
100
AcDb2dVertex
 10
102.2132269709745
 20
-155.1798475089481
 30
0.0
  0
VERTEX
  5
D5
330
D2
100
AcDbEntity
  8
_U+30EC_U+30A4_U+30E4_U+30FC 1
370
     0
100
AcDbVertex
100
AcDb2dVertex
 10
102.2132269709745
 20
-154.6913329691397
 30
0.0
  0
VERTEX
  5
D6
330
D2
100
AcDbEntity
  8
_U+30EC_U+30A4_U+30E4_U+30FC 1
370
     0
100
AcDbVertex
100
AcDb2dVertex
 10
101.5572807905829
 20
-154.6913329691397
 30
0.0
  0
SEQEND
  5
D7
330
D2
100
AcDbEntity
  8
_U+30EC_U+30A4_U+30E4_U+30FC 1
370
     0
  0
HATCH
  5
D8
330
C0
100
AcDbEntity
  8
_U+30EC_U+30A4_U+30E4_U+30FC 1
 62
   179
420
  2234388
100
AcDbHatch
 10
0.0
 20
0.0
 30
0.0
210
0.0
220
0.0
230
1.0
  2
SOLID
 70
     1
 71
     0
 91
        2
 92
        1
 93
       11
 72
     1
 10
102.4120089804734
 20
-154.4584445143368
 11
102.7589300958381
 21
-154.4584445143368
 72
     1
 10
102.7589300958381
 20
-154.4584445143368
 11
102.7589300958381
 21
-154.6913329691397
 72
     1
 10
102.7589300958381
 20
-154.6913329691397
 11
102.4120089804734
 21
-154.6913329691397
 72
     1
 10
102.4120089804734
 20
-154.6913329691397
 11
102.4120089804734
 21
-155.392409900388
 72
     1
 10
102.4120089804734
 20
-155.392409900388
 11
102.1877332643836
 21
-155.392409900388
 72
     1
 10
102.1877332643836
 20
-155.392409900388
 11
101.2144937898005
 21
-154.6665282816459
 72
     1
 10
101.2144937898005
 20
-154.6665282816459
 11
101.2144937898005
 21
-154.4584445143368
 72
     1
 10
101.2144937898005
 20
-154.4584445143368
 11
102.2132269709745
 21
-154.4584445143368
 72
     1
 10
102.2132269709745
 20
-154.4584445143368
 11
102.2132269709745
 21
-154.2369248746352
 72
     1
 10
102.2132269709745
 20
-154.2369248746352
 11
102.4120089804734
 21
-154.2369248746352
 72
     1
 10
102.4120089804734
 20
-154.2369248746352
 11
102.4120089804734
 21
-154.4584445143368
 97
        0
 92
        1
 93
        3
 72
     1
 10
101.5572807905829
 20
-154.6913329691397
 11
102.2132269709745
 21
-155.1798475089481
 72
     1
 10
102.2132269709745
 20
-155.1798475089481
 11
102.2132269709745
 21
-154.6913329691397
 72
     1
 10
102.2132269709745
 20
-154.6913329691397
 11
101.5572807905829
 21
-154.6913329691397
 97
        0
 75
     2
 76
     1
 98
        0
  0
ENDBLK
  5
C3
330
C0
100
AcDbEntity
  8
0
100
AcDbBlockEnd
  0
BLOCK
  5
E3
330
E1
100
AcDbEntity
  8
0
100
AcDbBlockBegin
  2
block 4
 70
     0
 10
0.0
 20
0.0
 30
0.0
  3
block 4
  1

  0
SPLINE
  5
E5
330
E1
100
AcDbEntity
  8
_U+30EC_U+30A4_U+30E4_U+30FC 1
370
     0
100
AcDbSpline
210
0.0
220
0.0
230
1.0
 70
    11
 71
     3
 72
    26
 73
    22
 74
     0
 42
0.0000000001
 43
0.0000000001
 12
1.0
 22
0.0
 32
0.0
 13
1.0
 23
0.0
 33
0.0
 40
0.0
 40
0.0
 40
0.0
 40
0.0
 40
1.0
 40
1.0
 40
1.0
 40
2.0
 40
2.0
 40
2.0
 40
3.0
 40
3.0
 40
3.0
 40
4.0
 40
4.0
 40
4.0
 40
5.0
 40
5.0
 40
5.0
 40
6.0
 40
6.0
 40
6.0
 40
7.0
 40
7.0
 40
7.0
 40
7.0
 10
102.7589300958381
 20
-147.0321966863322
 30
0.0
 10
102.7589300958381
 20
-147.0321966863322
 30
0.0
 10
101.6547769928155
 20
-147.0321966863322
 30
0.0
 10
101.6547769928155
 20
-147.0321966863322
 30
0.0
 10
101.6547769928155
 20
-147.0321966863322
 30
0.0
 10
101.6547769928155
 20
-147.3846299544733
 30
0.0
 10
101.6547769928155
 20
-147.3846299544733
 30
0.0
 10
101.6547769928155
 20
-147.3846299544733
 30
0.0
 10
101.5066378869497
 20
-147.3846299544733
 30
0.0
 10
101.5066378869497
 20
-147.3846299544733
 30
0.0
 10
101.4918239763632
 20
-147.0297851194926
 30
0.0
 10
101.3288709599108
 20
-146.980175744505
 30
0.0
 10
101.2144937898005
 20
-146.9484808660407
 30
0.0
 10
101.2144937898005
 20
-146.9484808660407
 30
0.0
 10
101.2144937898005
 20
-146.7924180405589
 30
0.0
 10
101.2144937898005
 20
-146.7924180405589
 30
0.0
 10
101.2144937898005
 20
-146.7924180405589
 30
0.0
 10
102.7589300958381
 20
-146.7924180405589
 30
0.0
 10
102.7589300958381
 20
-146.7924180405589
 30
0.0
 10
102.7589300958381
 20
-146.7924180405589
 30
0.0
 10
102.7589300958381
 20
-147.0321966863322
 30
0.0
 10
102.7589300958381
 20
-147.0321966863322
 30
0.0
  0
HATCH
  5
E6
330
E1
100
AcDbEntity
  8
_U+30EC_U+30A4_U+30E4_U+30FC 1
 62
   179
420
  2234388
100
AcDbHatch
 10
0.0
 20
0.0
 30
0.0
210
0.0
220
0.0
230
1.0
  2
SOLID
 70
     1
 71
     0
 91
        1
 92
        1
 93
        1
 72
     4
 94
        3
 73
     0
 74
     1
 95
       26
 96
       22
 40
0.0
 40
0.0
 40
0.0
 40
0.0
 40
1.0
 40
1.0
 40
1.0
 40
2.0
 40
2.0
 40
2.0
 40
3.0
 40
3.0
 40
3.0
 40
4.0
 40
4.0
 40
4.0
 40
5.0
 40
5.0
 40
5.0
 40
6.0
 40
6.0
 40
6.0
 40
7.0
 40
7.0
 40
7.0
 40
7.0
 10
102.7589300958381
 20
-147.0321966863322
 10
102.7589300958381
 20
-147.0321966863322
 10
101.6547769928155
 20
-147.0321966863322
 10
101.6547769928155
 20
-147.0321966863322
 10
101.6547769928155
 20
-147.0321966863322
 10
101.6547769928155
 20
-147.3846299544733
 10
101.6547769928155
 20
-147.3846299544733
 10
101.6547769928155
 20
-147.3846299544733
 10
101.5066378869497
 20
-147.3846299544733
 10
101.5066378869497
 20
-147.3846299544733
 10
101.4918239763632
 20
-147.0297851194926
 10
101.3288709599108
 20
-146.980175744505
 10
101.2144937898005
 20
-146.9484808660407
 10
101.2144937898005
 20
-146.9484808660407
 10
101.2144937898005
 20
-146.7924180405589
 10
101.2144937898005
 20
-146.7924180405589
 10
101.2144937898005
 20
-146.7924180405589
 10
102.7589300958381
 20
-146.7924180405589
 10
102.7589300958381
 20
-146.7924180405589
 10
102.7589300958381
 20
-146.7924180405589
 10
102.7589300958381
 20
-147.0321966863322
 10
102.7589300958381
 20
-147.0321966863322
 97
        0
 97
        0
 75
     2
 76
     1
 98
        0
  0
SPLINE
  5
E7
330
E1
100
AcDbEntity
  8
_U+30EC_U+30A4_U+30E4_U+30FC 1
370
     0
100
AcDbSpline
210
0.0
220
0.0
230
1.0
 70
    11
 71
     3
 72
    62
 73
    58
 74
     0
 42
0.0000000001
 43
0.0000000001
 12
1.0
 22
0.0
 32
0.0
 13
1.0
 23
0.0
 33
0.0
 40
0.0
 40
0.0
 40
0.0
 40
0.0
 40
1.0
 40
1.0
 40
1.0
 40
2.0
 40
2.0
 40
2.0
 40
3.0
 40
3.0
 40
3.0
 40
4.0
 40
4.0
 40
4.0
 40
5.0
 40
5.0
 40
5.0
 40
6.0
 40
6.0
 40
6.0
 40
7.0
 40
7.0
 40
7.0
 40
8.0
 40
8.0
 40
8.0
 40
9.0
 40
9.0
 40
9.0
 40
10.0
 40
10.0
 40
10.0
 40
11.0
 40
11.0
 40
11.0
 40
12.0
 40
12.0
 40
12.0
 40
13.0
 40
13.0
 40
13.0
 40
14.0
 40
14.0
 40
14.0
 40
15.0
 40
15.0
 40
15.0
 40
16.0
 40
16.0
 40
16.0
 40
17.0
 40
17.0
 40
17.0
 40
18.0
 40
18.0
 40
18.0
 40
19.0
 40
19.0
 40
19.0
 40
19.0
 10
102.8095729994712
 20
-145.7313286311019
 30
0.0
 10
102.8095729994712
 20
-145.8329589479168
 30
0.0
 10
102.7885579170112
 20
-146.0658474027197
 30
0.0
 10
102.6025227608077
 20
-146.1991725979988
 30
0.0
 10
102.4902126479886
 20
-146.2784097941596
 30
0.0
 10
102.3909938980134
 20
-146.2828884182904
 30
0.0
 10
102.3062445490762
 20
-146.2873670424212
 30
0.0
 10
102.3062445490762
 20
-146.2873670424212
 30
0.0
 10
102.3062445490762
 20
-146.0524115303272
 30
0.0
 10
102.3062445490762
 20
-146.0524115303272
 30
0.0
 10
102.3803141020091
 20
-146.0499999634875
 30
0.0
 10
102.6149251045546
 20
-146.0386311483862
 30
0.0
 10
102.6149251045546
 20
-145.7358072552327
 30
0.0
 10
102.6149251045546
 20
-145.5887016780125
 30
0.0
 10
102.5453341757526
 20
-145.4260931711088
 30
0.0
 10
102.3169243450805
 20
-145.4260931711088
 30
0.0
 10
102.200480117679
 20
-145.4260931711088
 30
0.0
 10
102.151904271337
 20
-145.4667452978347
 30
0.0
 10
102.1202093928727
 20
-145.5008517431387
 30
0.0
 10
102.0461398399399
 20
-145.5797444297509
 30
0.0
 10
102.0333929866444
 20
-145.7041123767684
 30
0.0
 10
102.0333929866444
 20
-145.7630235095662
 30
0.0
 10
102.0333929866444
 20
-145.7833495729292
 30
0.0
 10
102.0354600439356
 20
-145.8215901328154
 30
0.0
 10
102.0395941585179
 20
-145.8512179539886
 30
0.0
 10
102.0395941585179
 20
-145.8512179539886
 30
0.0
 10
101.8449462636013
 20
-145.8512179539886
 30
0.0
 10
101.8449462636013
 20
-145.8512179539886
 30
0.0
 10
101.8514919450232
 20
-145.8105658272626
 30
0.0
 10
101.8535590023144
 20
-145.7650905668573
 30
0.0
 10
101.8535590023144
 20
-145.7585448854354
 30
0.0
 10
101.8535590023144
 20
-145.6882649375363
 30
0.0
 10
101.8321994103058
 20
-145.4757025460964
 30
0.0
 10
101.5955213504692
 20
-145.4757025460964
 30
0.0
 10
101.4177544234303
 20
-145.4757025460964
 30
0.0
 10
101.3626328956663
 20
-145.615917932346
 30
0.0
 10
101.3626328956663
 20
-145.733395688393
 30
0.0
 10
101.3626328956663
 20
-146.0162380277321
 30
0.0
 10
101.5955213504692
 20
-146.0251952759937
 30
0.0
 10
101.6671793365624
 20
-146.0296739001245
 30
0.0
 10
101.6671793365624
 20
-146.0296739001245
 30
0.0
 10
101.6671793365624
 20
-146.2467149156953
 30
0.0
 10
101.6671793365624
 20
-146.2467149156953
 30
0.0
 10
101.5424668799963
 20
-146.2377576674336
 30
0.0
 10
101.1659179434585
 20
-146.208474355809
 30
0.0
 10
101.1659179434585
 20
-145.7199598160006
 30
0.0
 10
101.1659179434585
 20
-145.4801811702272
 30
0.0
 10
101.2930419668642
 20
-145.2224880279305
 30
0.0
 10
101.5889756690472
 20
-145.2224880279305
 30
0.0
 10
101.7753553347992
 20
-145.2224880279305
 30
0.0
 10
101.8576931168967
 20
-145.3244628542939
 30
0.0
 10
101.9190158165341
 20
-145.4305717952396
 30
0.0
 10
101.9465765804161
 20
-145.3651149810198
 30
0.0
 10
102.0268473052225
 20
-145.1704670861032
 30
0.0
 10
102.3041774917851
 20
-145.1704670861032
 30
0.0
 10
102.6424858684366
 20
-145.1704670861032
 30
0.0
 10
102.8095729994712
 20
-145.4350504193704
 30
0.0
 10
102.8095729994712
 20
-145.7313286311019
 30
0.0
  0
HATCH
  5
E8
330
E1
100
AcDbEntity
  8
_U+30EC_U+30A4_U+30E4_U+30FC 1
 62
   179
420
  2234388
100
AcDbHatch
 10
0.0
 20
0.0
 30
0.0
210
0.0
220
0.0
230
1.0
  2
SOLID
 70
     1
 71
     0
 91
        1
 92
        1
 93
        1
 72
     4
 94
        3
 73
     0
 74
     1
 95
       62
 96
       58
 40
0.0
 40
0.0
 40
0.0
 40
0.0
 40
1.0
 40
1.0
 40
1.0
 40
2.0
 40
2.0
 40
2.0
 40
3.0
 40
3.0
 40
3.0
 40
4.0
 40
4.0
 40
4.0
 40
5.0
 40
5.0
 40
5.0
 40
6.0
 40
6.0
 40
6.0
 40
7.0
 40
7.0
 40
7.0
 40
8.0
 40
8.0
 40
8.0
 40
9.0
 40
9.0
 40
9.0
 40
10.0
 40
10.0
 40
10.0
 40
11.0
 40
11.0
 40
11.0
 40
12.0
 40
12.0
 40
12.0
 40
13.0
 40
13.0
 40
13.0
 40
14.0
 40
14.0
 40
14.0
 40
15.0
 40
15.0
 40
15.0
 40
16.0
 40
16.0
 40
16.0
 40
17.0
 40
17.0
 40
17.0
 40
18.0
 40
18.0
 40
18.0
 40
19.0
 40
19.0
 40
19.0
 40
19.0
 10
102.8095729994712
 20
-145.7313286311019
 10
102.8095729994712
 20
-145.8329589479168
 10
102.7885579170112
 20
-146.0658474027197
 10
102.6025227608077
 20
-146.1991725979988
 10
102.4902126479886
 20
-146.2784097941596
 10
102.3909938980134
 20
-146.2828884182904
 10
102.3062445490762
 20
-146.2873670424212
 10
102.3062445490762
 20
-146.2873670424212
 10
102.3062445490762
 20
-146.0524115303272
 10
102.3062445490762
 20
-146.0524115303272
 10
102.3803141020091
 20
-146.0499999634875
 10
102.6149251045546
 20
-146.0386311483862
 10
102.6149251045546
 20
-145.7358072552327
 10
102.6149251045546
 20
-145.5887016780125
 10
102.5453341757526
 20
-145.4260931711088
 10
102.3169243450805
 20
-145.4260931711088
 10
102.200480117679
 20
-145.4260931711088
 10
102.151904271337
 20
-145.4667452978347
 10
102.1202093928727
 20
-145.5008517431387
 10
102.0461398399399
 20
-145.5797444297509
 10
102.0333929866444
 20
-145.7041123767684
 10
102.0333929866444
 20
-145.7630235095662
 10
102.0333929866444
 20
-145.7833495729292
 10
102.0354600439356
 20
-145.8215901328154
 10
102.0395941585179
 20
-145.8512179539886
 10
102.0395941585179
 20
-145.8512179539886
 10
101.8449462636013
 20
-145.8512179539886
 10
101.8449462636013
 20
-145.8512179539886
 10
101.8514919450232
 20
-145.8105658272626
 10
101.8535590023144
 20
-145.7650905668573
 10
101.8535590023144
 20
-145.7585448854354
 10
101.8535590023144
 20
-145.6882649375363
 10
101.8321994103058
 20
-145.4757025460964
 10
101.5955213504692
 20
-145.4757025460964
 10
101.4177544234303
 20
-145.4757025460964
 10
101.3626328956663
 20
-145.615917932346
 10
101.3626328956663
 20
-145.733395688393
 10
101.3626328956663
 20
-146.0162380277321
 10
101.5955213504692
 20
-146.0251952759937
 10
101.6671793365624
 20
-146.0296739001245
 10
101.6671793365624
 20
-146.0296739001245
 10
101.6671793365624
 20
-146.2467149156953
 10
101.6671793365624
 20
-146.2467149156953
 10
101.5424668799963
 20
-146.2377576674336
 10
101.1659179434585
 20
-146.208474355809
 10
101.1659179434585
 20
-145.7199598160006
 10
101.1659179434585
 20
-145.4801811702272
 10
101.2930419668642
 20
-145.2224880279305
 10
101.5889756690472
 20
-145.2224880279305
 10
101.7753553347992
 20
-145.2224880279305
 10
101.8576931168967
 20
-145.3244628542939
 10
101.9190158165341
 20
-145.4305717952396
 10
101.9465765804161
 20
-145.3651149810198
 10
102.0268473052225
 20
-145.1704670861032
 10
102.3041774917851
 20
-145.1704670861032
 10
102.6424858684366
 20
-145.1704670861032
 10
102.8095729994712
 20
-145.4350504193704
 10
102.8095729994712
 20
-145.7313286311019
 97
        0
 97
        0
 75
     2
 76
     1
 98
        0
  0
ENDBLK
  5
E4
330
E1
100
AcDbEntity
  8
0
100
AcDbBlockEnd
  0
BLOCK
  5
F3
330
F1
100
AcDbEntity
  8
0
100
AcDbBlockBegin
  2
block 5
 70
     0
 10
0.0
 20
0.0
 30
0.0
  3
block 5
  1

  0
POLYLINE
  5
F5
330
F1
100
AcDbEntity
  8
_U+30EC_U+30A4_U+30E4_U+30FC 1
370
     0
100
AcDb2dPolyline
 66
     1
 10
0.0
 20
0.0
 30
0.0
  0
VERTEX
  5
F6
330
F5
100
AcDbEntity
  8
_U+30EC_U+30A4_U+30E4_U+30FC 1
370
     0
100
AcDbVertex
100
AcDb2dVertex
 10
102.4120089804734
 20
-117.6252061337882
 30
0.0
  0
VERTEX
  5
F7
330
F5
100
AcDbEntity
  8
_U+30EC_U+30A4_U+30E4_U+30FC 1
370
     0
100
AcDbVertex
100
AcDb2dVertex
 10
102.7589300958381
 20
-117.6252061337882
 30
0.0
  0
VERTEX
  5
F8
330
F5
100
AcDbEntity
  8
_U+30EC_U+30A4_U+30E4_U+30FC 1
370
     0
100
AcDbVertex
100
AcDb2dVertex
 10
102.7589300958381
 20
-117.858094588591
 30
0.0
  0
VERTEX
  5
F9
330
F5
100
AcDbEntity
  8
_U+30EC_U+30A4_U+30E4_U+30FC 1
370
     0
100
AcDbVertex
100
AcDb2dVertex
 10
102.4120089804734
 20
-117.858094588591
 30
0.0
  0
VERTEX
  5
FA
330
F5
100
AcDbEntity
  8
_U+30EC_U+30A4_U+30E4_U+30FC 1
370
     0
100
AcDbVertex
100
AcDb2dVertex
 10
102.4120089804734
 20
-118.5588270102909
 30
0.0
  0
VERTEX
  5
FB
330
F5
100
AcDbEntity
  8
_U+30EC_U+30A4_U+30E4_U+30FC 1
370
     0
100
AcDbVertex
100
AcDb2dVertex
 10
102.1877332643836
 20
-118.5588270102909
 30
0.0
  0
VERTEX
  5
FC
330
F5
100
AcDbEntity
  8
_U+30EC_U+30A4_U+30E4_U+30FC 1
370
     0
100
AcDbVertex
100
AcDb2dVertex
 10
101.2144937898005
 20
-117.833117646323
 30
0.0
  0
VERTEX
  5
FD
330
F5
100
AcDbEntity
  8
_U+30EC_U+30A4_U+30E4_U+30FC 1
370
     0
100
AcDbVertex
100
AcDb2dVertex
 10
101.2144937898005
 20
-117.6252061337882
 30
0.0
  0
VERTEX
  5
FE
330
F5
100
AcDbEntity
  8
_U+30EC_U+30A4_U+30E4_U+30FC 1
370
     0
100
AcDbVertex
100
AcDb2dVertex
 10
102.2132269709745
 20
-117.6252061337882
 30
0.0
  0
VERTEX
  5
FF
330
F5
100
AcDbEntity
  8
_U+30EC_U+30A4_U+30E4_U+30FC 1
370
     0
100
AcDbVertex
100
AcDb2dVertex
 10
102.2132269709745
 20
-117.4035142393123
 30
0.0
  0
VERTEX
  5
100
330
F5
100
AcDbEntity
  8
_U+30EC_U+30A4_U+30E4_U+30FC 1
370
     0
100
AcDbVertex
100
AcDb2dVertex
 10
102.4120089804734
 20
-117.4035142393123
 30
0.0
  0
VERTEX
  5
101
330
F5
100
AcDbEntity
  8
_U+30EC_U+30A4_U+30E4_U+30FC 1
370
     0
100
AcDbVertex
100
AcDb2dVertex
 10
102.4120089804734
 20
-117.6252061337882
 30
0.0
  0
SEQEND
  5
102
330
F5
100
AcDbEntity
  8
_U+30EC_U+30A4_U+30E4_U+30FC 1
370
     0
  0
POLYLINE
  5
103
330
F1
100
AcDbEntity
  8
_U+30EC_U+30A4_U+30E4_U+30FC 1
370
     0
100
AcDb2dPolyline
 66
     1
 10
0.0
 20
0.0
 30
0.0
  0
VERTEX
  5
104
330
103
100
AcDbEntity
  8
_U+30EC_U+30A4_U+30E4_U+30FC 1
370
     0
100
AcDbVertex
100
AcDb2dVertex
 10
101.5572807905829
 20
-117.858094588591
 30
0.0
  0
VERTEX
  5
105
330
103
100
AcDbEntity
  8
_U+30EC_U+30A4_U+30E4_U+30FC 1
370
     0
100
AcDbVertex
100
AcDb2dVertex
 10
102.2132269709745
 20
-118.3462646188509
 30
0.0
  0
VERTEX
  5
106
330
103
100
AcDbEntity
  8
_U+30EC_U+30A4_U+30E4_U+30FC 1
370
     0
100
AcDbVertex
100
AcDb2dVertex
 10
102.2132269709745
 20
-117.858094588591
 30
0.0
  0
VERTEX
  5
107
330
103
100
AcDbEntity
  8
_U+30EC_U+30A4_U+30E4_U+30FC 1
370
     0
100
AcDbVertex
100
AcDb2dVertex
 10
101.5572807905829
 20
-117.858094588591
 30
0.0
  0
SEQEND
  5
108
330
103
100
AcDbEntity
  8
_U+30EC_U+30A4_U+30E4_U+30FC 1
370
     0
  0
HATCH
  5
109
330
F1
100
AcDbEntity
  8
_U+30EC_U+30A4_U+30E4_U+30FC 1
 62
   179
420
  2234388
100
AcDbHatch
 10
0.0
 20
0.0
 30
0.0
210
0.0
220
0.0
230
1.0
  2
SOLID
 70
     1
 71
     0
 91
        2
 92
        1
 93
       11
 72
     1
 10
102.4120089804734
 20
-117.6252061337882
 11
102.7589300958381
 21
-117.6252061337882
 72
     1
 10
102.7589300958381
 20
-117.6252061337882
 11
102.7589300958381
 21
-117.858094588591
 72
     1
 10
102.7589300958381
 20
-117.858094588591
 11
102.4120089804734
 21
-117.858094588591
 72
     1
 10
102.4120089804734
 20
-117.858094588591
 11
102.4120089804734
 21
-118.5588270102909
 72
     1
 10
102.4120089804734
 20
-118.5588270102909
 11
102.1877332643836
 21
-118.5588270102909
 72
     1
 10
102.1877332643836
 20
-118.5588270102909
 11
101.2144937898005
 21
-117.833117646323
 72
     1
 10
101.2144937898005
 20
-117.833117646323
 11
101.2144937898005
 21
-117.6252061337882
 72
     1
 10
101.2144937898005
 20
-117.6252061337882
 11
102.2132269709745
 21
-117.6252061337882
 72
     1
 10
102.2132269709745
 20
-117.6252061337882
 11
102.2132269709745
 21
-117.4035142393123
 72
     1
 10
102.2132269709745
 20
-117.4035142393123
 11
102.4120089804734
 21
-117.4035142393123
 72
     1
 10
102.4120089804734
 20
-117.4035142393123
 11
102.4120089804734
 21
-117.6252061337882
 97
        0
 92
        1
 93
        3
 72
     1
 10
101.5572807905829
 20
-117.858094588591
 11
102.2132269709745
 21
-118.3462646188509
 72
     1
 10
102.2132269709745
 20
-118.3462646188509
 11
102.2132269709745
 21
-117.858094588591
 72
     1
 10
102.2132269709745
 20
-117.858094588591
 11
101.5572807905829
 21
-117.858094588591
 97
        0
 75
     2
 76
     1
 98
        0
  0
SPLINE
  5
10A
330
F1
100
AcDbEntity
  8
_U+30EC_U+30A4_U+30E4_U+30FC 1
370
     0
100
AcDbSpline
210
0.0
220
0.0
230
1.0
 70
    11
 71
     3
 72
    53
 73
    49
 74
     0
 42
0.0000000001
 43
0.0000000001
 12
1.0
 22
0.0
 32
0.0
 13
1.0
 23
0.0
 33
0.0
 40
0.0
 40
0.0
 40
0.0
 40
0.0
 40
1.0
 40
1.0
 40
1.0
 40
2.0
 40
2.0
 40
2.0
 40
3.0
 40
3.0
 40
3.0
 40
4.0
 40
4.0
 40
4.0
 40
5.0
 40
5.0
 40
5.0
 40
6.0
 40
6.0
 40
6.0
 40
7.0
 40
7.0
 40
7.0
 40
8.0
 40
8.0
 40
8.0
 40
9.0
 40
9.0
 40
9.0
 40
10.0
 40
10.0
 40
10.0
 40
11.0
 40
11.0
 40
11.0
 40
12.0
 40
12.0
 40
12.0
 40
13.0
 40
13.0
 40
13.0
 40
14.0
 40
14.0
 40
14.0
 40
15.0
 40
15.0
 40
15.0
 40
16.0
 40
16.0
 40
16.0
 40
16.0
 10
102.8095729994712
 20
-116.7425726704671
 30
0.0
 10
102.8095729994712
 20
-116.8262884907587
 30
0.0
 10
102.7926920315935
 20
-116.9348089985441
 30
0.0
 10
102.7293022746649
 20
-117.0433295063295
 30
0.0
 10
102.6194037286854
 20
-117.2286756434359
 30
0.0
 10
102.4881455906974
 20
-117.2514132736385
 30
0.0
 10
102.3803141020091
 20
-117.2717393370015
 30
0.0
 10
102.3803141020091
 20
-117.2717393370015
 30
0.0
 10
102.3803141020091
 20
-117.0343722580678
 30
0.0
 10
102.3803141020091
 20
-117.0343722580678
 30
0.0
 10
102.579096111508
 20
-116.97546112527
 30
0.0
 10
102.6087239326812
 20
-116.8398966179254
 30
0.0
 10
102.6087239326812
 20
-116.7403333584017
 30
0.0
 10
102.6087239326812
 20
-116.5911607238904
 30
0.0
 10
102.5091606731574
 20
-116.4283799622124
 30
0.0
 10
102.2766167279031
 20
-116.4283799622124
 30
0.0
 10
102.020646133349
 20
-116.4283799622124
 30
0.0
 10
101.9507106949984
 20
-116.6206162902893
 30
0.0
 10
101.9507106949984
 20
-116.7494628614376
 30
0.0
 10
101.9507106949984
 20
-116.7833970519674
 30
0.0
 10
101.9507106949984
 20
-116.9348089985441
 30
0.0
 10
102.0799017756953
 20
-117.0297213791627
 30
0.0
 10
102.0799017756953
 20
-117.0297213791627
 30
0.0
 10
102.0609537505264
 20
-117.2174790831088
 30
0.0
 10
102.0609537505264
 20
-117.2174790831088
 30
0.0
 10
102.0609537505264
 20
-117.2174790831088
 30
0.0
 10
101.2144937898005
 20
-117.0884602571862
 30
0.0
 10
101.2144937898005
 20
-117.0884602571862
 30
0.0
 10
101.2144937898005
 20
-117.0884602571862
 30
0.0
 10
101.2144937898005
 20
-116.2564696974984
 30
0.0
 10
101.2144937898005
 20
-116.2564696974984
 30
0.0
 10
101.2144937898005
 20
-116.2564696974984
 30
0.0
 10
101.4091416847172
 20
-116.2564696974984
 30
0.0
 10
101.4091416847172
 20
-116.2564696974984
 30
0.0
 10
101.4091416847172
 20
-116.2564696974984
 30
0.0
 10
101.4091416847172
 20
-116.9144829351811
 30
0.0
 10
101.4091416847172
 20
-116.9144829351811
 30
0.0
 10
101.4091416847172
 20
-116.9144829351811
 30
0.0
 10
101.8321994103058
 20
-116.9845906283059
 30
0.0
 10
101.8321994103058
 20
-116.9845906283059
 30
0.0
 10
101.7984374745504
 20
-116.9189615593119
 30
0.0
 10
101.758129857373
 20
-116.8307671148895
 30
0.0
 10
101.758129857373
 20
-116.7041598558066
 30
0.0
 10
101.758129857373
 20
-116.4328585863432
 30
0.0
 10
101.944509523125
 20
-116.1796440681773
 30
0.0
 10
102.2576687027342
 20
-116.1796440681773
 30
0.0
 10
102.5749619969257
 20
-116.1796440681773
 30
0.0
 10
102.8095729994712
 20
-116.4194227139507
 30
0.0
 10
102.8095729994712
 20
-116.7425726704671
 30
0.0
  0
HATCH
  5
10B
330
F1
100
AcDbEntity
  8
_U+30EC_U+30A4_U+30E4_U+30FC 1
 62
   179
420
  2234388
100
AcDbHatch
 10
0.0
 20
0.0
 30
0.0
210
0.0
220
0.0
230
1.0
  2
SOLID
 70
     1
 71
     0
 91
        1
 92
        1
 93
        1
 72
     4
 94
        3
 73
     0
 74
     1
 95
       53
 96
       49
 40
0.0
 40
0.0
 40
0.0
 40
0.0
 40
1.0
 40
1.0
 40
1.0
 40
2.0
 40
2.0
 40
2.0
 40
3.0
 40
3.0
 40
3.0
 40
4.0
 40
4.0
 40
4.0
 40
5.0
 40
5.0
 40
5.0
 40
6.0
 40
6.0
 40
6.0
 40
7.0
 40
7.0
 40
7.0
 40
8.0
 40
8.0
 40
8.0
 40
9.0
 40
9.0
 40
9.0
 40
10.0
 40
10.0
 40
10.0
 40
11.0
 40
11.0
 40
11.0
 40
12.0
 40
12.0
 40
12.0
 40
13.0
 40
13.0
 40
13.0
 40
14.0
 40
14.0
 40
14.0
 40
15.0
 40
15.0
 40
15.0
 40
16.0
 40
16.0
 40
16.0
 40
16.0
 10
102.8095729994712
 20
-116.7425726704671
 10
102.8095729994712
 20
-116.8262884907587
 10
102.7926920315935
 20
-116.9348089985441
 10
102.7293022746649
 20
-117.0433295063295
 10
102.6194037286854
 20
-117.2286756434359
 10
102.4881455906974
 20
-117.2514132736385
 10
102.3803141020091
 20
-117.2717393370015
 10
102.3803141020091
 20
-117.2717393370015
 10
102.3803141020091
 20
-117.0343722580678
 10
102.3803141020091
 20
-117.0343722580678
 10
102.579096111508
 20
-116.97546112527
 10
102.6087239326812
 20
-116.8398966179254
 10
102.6087239326812
 20
-116.7403333584017
 10
102.6087239326812
 20
-116.5911607238904
 10
102.5091606731574
 20
-116.4283799622124
 10
102.2766167279031
 20
-116.4283799622124
 10
102.020646133349
 20
-116.4283799622124
 10
101.9507106949984
 20
-116.6206162902893
 10
101.9507106949984
 20
-116.7494628614376
 10
101.9507106949984
 20
-116.7833970519674
 10
101.9507106949984
 20
-116.9348089985441
 10
102.0799017756953
 20
-117.0297213791627
 10
102.0799017756953
 20
-117.0297213791627
 10
102.0609537505264
 20
-117.2174790831088
 10
102.0609537505264
 20
-117.2174790831088
 10
102.0609537505264
 20
-117.2174790831088
 10
101.2144937898005
 20
-117.0884602571862
 10
101.2144937898005
 20
-117.0884602571862
 10
101.2144937898005
 20
-117.0884602571862
 10
101.2144937898005
 20
-116.2564696974984
 10
101.2144937898005
 20
-116.2564696974984
 10
101.2144937898005
 20
-116.2564696974984
 10
101.4091416847172
 20
-116.2564696974984
 10
101.4091416847172
 20
-116.2564696974984
 10
101.4091416847172
 20
-116.2564696974984
 10
101.4091416847172
 20
-116.9144829351811
 10
101.4091416847172
 20
-116.9144829351811
 10
101.4091416847172
 20
-116.9144829351811
 10
101.8321994103058
 20
-116.9845906283059
 10
101.8321994103058
 20
-116.9845906283059
 10
101.7984374745504
 20
-116.9189615593119
 10
101.758129857373
 20
-116.8307671148895
 10
101.758129857373
 20
-116.7041598558066
 10
101.758129857373
 20
-116.4328585863432
 10
101.944509523125
 20
-116.1796440681773
 10
102.2576687027342
 20
-116.1796440681773
 10
102.5749619969257
 20
-116.1796440681773
 10
102.8095729994712
 20
-116.4194227139507
 10
102.8095729994712
 20
-116.7425726704671
 97
        0
 97
        0
 75
     2
 76
     1
 98
        0
  0
ENDBLK
  5
F4
330
F1
100
AcDbEntity
  8
0
100
AcDbBlockEnd
  0
BLOCK
  5
11A
330
118
100
AcDbEntity
  8
0
100
AcDbBlockBegin
  2
block 6
 70
     0
 10
0.0
 20
0.0
 30
0.0
  3
block 6
  1

  0
SPLINE
  5
11C
330
118
100
AcDbEntity
  8
_U+30EC_U+30A4_U+30E4_U+30FC 1
370
     0
100
AcDbSpline
210
0.0
220
0.0
230
1.0
 70
    11
 71
     3
 72
    26
 73
    22
 74
     0
 42
0.0000000001
 43
0.0000000001
 12
1.0
 22
0.0
 32
0.0
 13
1.0
 23
0.0
 33
0.0
 40
0.0
 40
0.0
 40
0.0
 40
0.0
 40
1.0
 40
1.0
 40
1.0
 40
2.0
 40
2.0
 40
2.0
 40
3.0
 40
3.0
 40
3.0
 40
4.0
 40
4.0
 40
4.0
 40
5.0
 40
5.0
 40
5.0
 40
6.0
 40
6.0
 40
6.0
 40
7.0
 40
7.0
 40
7.0
 40
7.0
 10
91.17893064126777
 20
-160.259640801949
 30
0.0
 10
91.17893064126777
 20
-160.259640801949
 30
0.0
 10
91.17893064126777
 20
-159.1554876989264
 30
0.0
 10
91.17893064126777
 20
-159.1554876989264
 30
0.0
 10
91.17893064126777
 20
-159.1554876989264
 30
0.0
 10
90.82649737312671
 20
-159.1554876989264
 30
0.0
 10
90.82649737312671
 20
-159.1554876989264
 30
0.0
 10
90.82649737312671
 20
-159.1554876989264
 30
0.0
 10
90.82649737312671
 20
-159.0073485930607
 30
0.0
 10
90.82649737312671
 20
-159.0073485930607
 30
0.0
 10
91.18134220810745
 20
-158.9925346824741
 30
0.0
 10
91.23095158309505
 20
-158.8295816660218
 30
0.0
 10
91.26264646155934
 20
-158.7152044959115
 30
0.0
 10
91.26264646155934
 20
-158.7152044959115
 30
0.0
 10
91.41870928704115
 20
-158.7152044959115
 30
0.0
 10
91.41870928704115
 20
-158.7152044959115
 30
0.0
 10
91.41870928704115
 20
-158.7152044959115
 30
0.0
 10
91.41870928704115
 20
-160.259640801949
 30
0.0
 10
91.41870928704115
 20
-160.259640801949
 30
0.0
 10
91.41870928704115
 20
-160.259640801949
 30
0.0
 10
91.17893064126777
 20
-160.259640801949
 30
0.0
 10
91.17893064126777
 20
-160.259640801949
 30
0.0
  0
HATCH
  5
11D
330
118
100
AcDbEntity
  8
_U+30EC_U+30A4_U+30E4_U+30FC 1
 62
   179
420
  2234388
100
AcDbHatch
 10
0.0
 20
0.0
 30
0.0
210
0.0
220
0.0
230
1.0
  2
SOLID
 70
     1
 71
     0
 91
        1
 92
        1
 93
        1
 72
     4
 94
        3
 73
     0
 74
     1
 95
       26
 96
       22
 40
0.0
 40
0.0
 40
0.0
 40
0.0
 40
1.0
 40
1.0
 40
1.0
 40
2.0
 40
2.0
 40
2.0
 40
3.0
 40
3.0
 40
3.0
 40
4.0
 40
4.0
 40
4.0
 40
5.0
 40
5.0
 40
5.0
 40
6.0
 40
6.0
 40
6.0
 40
7.0
 40
7.0
 40
7.0
 40
7.0
 10
91.17893064126777
 20
-160.259640801949
 10
91.17893064126777
 20
-160.259640801949
 10
91.17893064126777
 20
-159.1554876989264
 10
91.17893064126777
 20
-159.1554876989264
 10
91.17893064126777
 20
-159.1554876989264
 10
90.82649737312671
 20
-159.1554876989264
 10
90.82649737312671
 20
-159.1554876989264
 10
90.82649737312671
 20
-159.1554876989264
 10
90.82649737312671
 20
-159.0073485930607
 10
90.82649737312671
 20
-159.0073485930607
 10
91.18134220810745
 20
-158.9925346824741
 10
91.23095158309505
 20
-158.8295816660218
 10
91.26264646155934
 20
-158.7152044959115
 10
91.26264646155934
 20
-158.7152044959115
 10
91.41870928704115
 20
-158.7152044959115
 10
91.41870928704115
 20
-158.7152044959115
 10
91.41870928704115
 20
-158.7152044959115
 10
91.41870928704115
 20
-160.259640801949
 10
91.41870928704115
 20
-160.259640801949
 10
91.41870928704115
 20
-160.259640801949
 10
91.17893064126777
 20
-160.259640801949
 10
91.17893064126777
 20
-160.259640801949
 97
        0
 97
        0
 75
     2
 76
     1
 98
        0
  0
SPLINE
  5
11E
330
118
100
AcDbEntity
  8
_U+30EC_U+30A4_U+30E4_U+30FC 1
370
     0
100
AcDbSpline
210
0.0
220
0.0
230
1.0
 70
    11
 71
     3
 72
    53
 73
    49
 74
     0
 42
0.0000000001
 43
0.0000000001
 12
1.0
 22
0.0
 32
0.0
 13
1.0
 23
0.0
 33
0.0
 40
0.0
 40
0.0
 40
0.0
 40
0.0
 40
1.0
 40
1.0
 40
1.0
 40
2.0
 40
2.0
 40
2.0
 40
3.0
 40
3.0
 40
3.0
 40
4.0
 40
4.0
 40
4.0
 40
5.0
 40
5.0
 40
5.0
 40
6.0
 40
6.0
 40
6.0
 40
7.0
 40
7.0
 40
7.0
 40
8.0
 40
8.0
 40
8.0
 40
9.0
 40
9.0
 40
9.0
 40
10.0
 40
10.0
 40
10.0
 40
11.0
 40
11.0
 40
11.0
 40
12.0
 40
12.0
 40
12.0
 40
13.0
 40
13.0
 40
13.0
 40
14.0
 40
14.0
 40
14.0
 40
15.0
 40
15.0
 40
15.0
 40
16.0
 40
16.0
 40
16.0
 40
16.0
 10
92.46842988139679
 20
-160.3102837055822
 30
0.0
 10
92.38471406110521
 20
-160.3102837055822
 30
0.0
 10
92.27653806286837
 20
-160.2934027377044
 30
0.0
 10
92.16767304553447
 20
-160.2300129807758
 30
0.0
 10
91.98232690842804
 20
-160.1201144347964
 30
0.0
 10
91.9599337877739
 20
-159.9888562968083
 30
0.0
 10
91.93960772441093
 20
-159.88102480812
 30
0.0
 10
91.93960772441093
 20
-159.88102480812
 30
0.0
 10
92.17697480334465
 20
-159.88102480812
 30
0.0
 10
92.17697480334465
 20
-159.88102480812
 30
0.0
 10
92.2355414265939
 20
-160.0798068176189
 30
0.0
 10
92.37127818871274
 20
-160.1094346387921
 30
0.0
 10
92.47084144823646
 20
-160.1094346387921
 30
0.0
 10
92.62001408274777
 20
-160.1094346387921
 30
0.0
 10
92.78296709920009
 20
-160.0098713792684
 30
0.0
 10
92.78296709920009
 20
-159.777327434014
 30
0.0
 10
92.78296709920009
 20
-159.5213568394599
 30
0.0
 10
92.59073077112315
 20
-159.4514214011094
 30
0.0
 10
92.4618841999748
 20
-159.4514214011094
 30
0.0
 10
92.42777775467084
 20
-159.4514214011094
 30
0.0
 10
92.27653806286837
 20
-159.4514214011094
 30
0.0
 10
92.18145342747547
 20
-159.5806124818062
 30
0.0
 10
92.18145342747547
 20
-159.5806124818062
 30
0.0
 10
91.99369572352936
 20
-159.5616644566374
 30
0.0
 10
91.99369572352936
 20
-159.5616644566374
 30
0.0
 10
91.99369572352936
 20
-159.5616644566374
 30
0.0
 10
92.1225422946777
 20
-158.7152044959115
 30
0.0
 10
92.1225422946777
 20
-158.7152044959115
 30
0.0
 10
92.1225422946777
 20
-158.7152044959115
 30
0.0
 10
92.95453285436554
 20
-158.7152044959115
 30
0.0
 10
92.95453285436554
 20
-158.7152044959115
 30
0.0
 10
92.95453285436554
 20
-158.7152044959115
 30
0.0
 10
92.95453285436554
 20
-158.9098523908281
 30
0.0
 10
92.95453285436554
 20
-158.9098523908281
 30
0.0
 10
92.95453285436554
 20
-158.9098523908281
 30
0.0
 10
92.29686412623134
 20
-158.9098523908281
 30
0.0
 10
92.29686412623134
 20
-158.9098523908281
 30
0.0
 10
92.29686412623134
 20
-158.9098523908281
 30
0.0
 10
92.22658417833225
 20
-159.3329101164168
 30
0.0
 10
92.22658417833225
 20
-159.3329101164168
 30
0.0
 10
92.29204099255199
 20
-159.2991481806613
 30
0.0
 10
92.38023543697439
 20
-159.2588405634839
 30
0.0
 10
92.50701495083159
 20
-159.2588405634839
 30
0.0
 10
92.77814396552074
 20
-159.2588405634839
 30
0.0
 10
93.0313584836866
 20
-159.4452202292359
 30
0.0
 10
93.0313584836866
 20
-159.7583794088451
 30
0.0
 10
93.0313584836866
 20
-160.0756727030366
 30
0.0
 10
92.79192434746174
 20
-160.3102837055822
 30
0.0
 10
92.46842988139679
 20
-160.3102837055822
 30
0.0
  0
HATCH
  5
11F
330
118
100
AcDbEntity
  8
_U+30EC_U+30A4_U+30E4_U+30FC 1
 62
   179
420
  2234388
100
AcDbHatch
 10
0.0
 20
0.0
 30
0.0
210
0.0
220
0.0
230
1.0
  2
SOLID
 70
     1
 71
     0
 91
        1
 92
        1
 93
        1
 72
     4
 94
        3
 73
     0
 74
     1
 95
       53
 96
       49
 40
0.0
 40
0.0
 40
0.0
 40
0.0
 40
1.0
 40
1.0
 40
1.0
 40
2.0
 40
2.0
 40
2.0
 40
3.0
 40
3.0
 40
3.0
 40
4.0
 40
4.0
 40
4.0
 40
5.0
 40
5.0
 40
5.0
 40
6.0
 40
6.0
 40
6.0
 40
7.0
 40
7.0
 40
7.0
 40
8.0
 40
8.0
 40
8.0
 40
9.0
 40
9.0
 40
9.0
 40
10.0
 40
10.0
 40
10.0
 40
11.0
 40
11.0
 40
11.0
 40
12.0
 40
12.0
 40
12.0
 40
13.0
 40
13.0
 40
13.0
 40
14.0
 40
14.0
 40
14.0
 40
15.0
 40
15.0
 40
15.0
 40
16.0
 40
16.0
 40
16.0
 40
16.0
 10
92.46842988139679
 20
-160.3102837055822
 10
92.38471406110521
 20
-160.3102837055822
 10
92.27653806286837
 20
-160.2934027377044
 10
92.16767304553447
 20
-160.2300129807758
 10
91.98232690842804
 20
-160.1201144347964
 10
91.9599337877739
 20
-159.9888562968083
 10
91.93960772441093
 20
-159.88102480812
 10
91.93960772441093
 20
-159.88102480812
 10
92.17697480334465
 20
-159.88102480812
 10
92.17697480334465
 20
-159.88102480812
 10
92.2355414265939
 20
-160.0798068176189
 10
92.37127818871274
 20
-160.1094346387921
 10
92.47084144823646
 20
-160.1094346387921
 10
92.62001408274777
 20
-160.1094346387921
 10
92.78296709920009
 20
-160.0098713792684
 10
92.78296709920009
 20
-159.777327434014
 10
92.78296709920009
 20
-159.5213568394599
 10
92.59073077112315
 20
-159.4514214011094
 10
92.4618841999748
 20
-159.4514214011094
 10
92.42777775467084
 20
-159.4514214011094
 10
92.27653806286837
 20
-159.4514214011094
 10
92.18145342747547
 20
-159.5806124818062
 10
92.18145342747547
 20
-159.5806124818062
 10
91.99369572352936
 20
-159.5616644566374
 10
91.99369572352936
 20
-159.5616644566374
 10
91.99369572352936
 20
-159.5616644566374
 10
92.1225422946777
 20
-158.7152044959115
 10
92.1225422946777
 20
-158.7152044959115
 10
92.1225422946777
 20
-158.7152044959115
 10
92.95453285436554
 20
-158.7152044959115
 10
92.95453285436554
 20
-158.7152044959115
 10
92.95453285436554
 20
-158.7152044959115
 10
92.95453285436554
 20
-158.9098523908281
 10
92.95453285436554
 20
-158.9098523908281
 10
92.95453285436554
 20
-158.9098523908281
 10
92.29686412623134
 20
-158.9098523908281
 10
92.29686412623134
 20
-158.9098523908281
 10
92.29686412623134
 20
-158.9098523908281
 10
92.22658417833225
 20
-159.3329101164168
 10
92.22658417833225
 20
-159.3329101164168
 10
92.29204099255199
 20
-159.2991481806613
 10
92.38023543697439
 20
-159.2588405634839
 10
92.50701495083159
 20
-159.2588405634839
 10
92.77814396552074
 20
-159.2588405634839
 10
93.0313584836866
 20
-159.4452202292359
 10
93.0313584836866
 20
-159.7583794088451
 10
93.0313584836866
 20
-160.0756727030366
 10
92.79192434746174
 20
-160.3102837055822
 10
92.46842988139679
 20
-160.3102837055822
 97
        0
 97
        0
 75
     2
 76
     1
 98
        0
  0
ENDBLK
  5
11B
330
118
100
AcDbEntity
  8
0
100
AcDbBlockEnd
  0
BLOCK
  5
126
330
124
100
AcDbEntity
  8
0
100
AcDbBlockBegin
  2
block 7
 70
     0
 10
0.0
 20
0.0
 30
0.0
  3
block 7
  1

  0
SPLINE
  5
128
330
124
100
AcDbEntity
  8
_U+30EC_U+30A4_U+30E4_U+30FC 1
370
     0
100
AcDbSpline
210
0.0
220
0.0
230
1.0
 70
    11
 71
     3
 72
    26
 73
    22
 74
     0
 42
0.0000000001
 43
0.0000000001
 12
1.0
 22
0.0
 32
0.0
 13
1.0
 23
0.0
 33
0.0
 40
0.0
 40
0.0
 40
0.0
 40
0.0
 40
1.0
 40
1.0
 40
1.0
 40
2.0
 40
2.0
 40
2.0
 40
3.0
 40
3.0
 40
3.0
 40
4.0
 40
4.0
 40
4.0
 40
5.0
 40
5.0
 40
5.0
 40
6.0
 40
6.0
 40
6.0
 40
7.0
 40
7.0
 40
7.0
 40
7.0
 10
91.67881399617752
 20
-129.2596380970254
 30
0.0
 10
91.67881399617752
 20
-129.2596380970254
 30
0.0
 10
91.67881399617752
 20
-128.1554849940028
 30
0.0
 10
91.67881399617752
 20
-128.1554849940028
 30
0.0
 10
91.67881399617752
 20
-128.1554849940028
 30
0.0
 10
91.32638072803647
 20
-128.1554849940028
 30
0.0
 10
91.32638072803647
 20
-128.1554849940028
 30
0.0
 10
91.32638072803647
 20
-128.1554849940028
 30
0.0
 10
91.32638072803647
 20
-128.0073458881371
 30
0.0
 10
91.32638072803647
 20
-128.0073458881371
 30
0.0
 10
91.6812255630172
 20
-127.9925319775505
 30
0.0
 10
91.73083493800479
 20
-127.8295789610982
 30
0.0
 10
91.7625298164691
 20
-127.7153740457621
 30
0.0
 10
91.7625298164691
 20
-127.7153740457621
 30
0.0
 10
91.91859264195091
 20
-127.7153740457621
 30
0.0
 10
91.91859264195091
 20
-127.7153740457621
 30
0.0
 10
91.91859264195091
 20
-127.7153740457621
 30
0.0
 10
91.91859264195091
 20
-129.2596380970254
 30
0.0
 10
91.91859264195091
 20
-129.2596380970254
 30
0.0
 10
91.91859264195091
 20
-129.2596380970254
 30
0.0
 10
91.67881399617752
 20
-129.2596380970254
 30
0.0
 10
91.67881399617752
 20
-129.2596380970254
 30
0.0
  0
HATCH
  5
129
330
124
100
AcDbEntity
  8
_U+30EC_U+30A4_U+30E4_U+30FC 1
 62
   179
420
  2234388
100
AcDbHatch
 10
0.0
 20
0.0
 30
0.0
210
0.0
220
0.0
230
1.0
  2
SOLID
 70
     1
 71
     0
 91
        1
 92
        1
 93
        1
 72
     4
 94
        3
 73
     0
 74
     1
 95
       26
 96
       22
 40
0.0
 40
0.0
 40
0.0
 40
0.0
 40
1.0
 40
1.0
 40
1.0
 40
2.0
 40
2.0
 40
2.0
 40
3.0
 40
3.0
 40
3.0
 40
4.0
 40
4.0
 40
4.0
 40
5.0
 40
5.0
 40
5.0
 40
6.0
 40
6.0
 40
6.0
 40
7.0
 40
7.0
 40
7.0
 40
7.0
 10
91.67881399617752
 20
-129.2596380970254
 10
91.67881399617752
 20
-129.2596380970254
 10
91.67881399617752
 20
-128.1554849940028
 10
91.67881399617752
 20
-128.1554849940028
 10
91.67881399617752
 20
-128.1554849940028
 10
91.32638072803647
 20
-128.1554849940028
 10
91.32638072803647
 20
-128.1554849940028
 10
91.32638072803647
 20
-128.1554849940028
 10
91.32638072803647
 20
-128.0073458881371
 10
91.32638072803647
 20
-128.0073458881371
 10
91.6812255630172
 20
-127.9925319775505
 10
91.73083493800479
 20
-127.8295789610982
 10
91.7625298164691
 20
-127.7153740457621
 10
91.7625298164691
 20
-127.7153740457621
 10
91.91859264195091
 20
-127.7153740457621
 10
91.91859264195091
 20
-127.7153740457621
 10
91.91859264195091
 20
-127.7153740457621
 10
91.91859264195091
 20
-129.2596380970254
 10
91.91859264195091
 20
-129.2596380970254
 10
91.91859264195091
 20
-129.2596380970254
 10
91.67881399617752
 20
-129.2596380970254
 10
91.67881399617752
 20
-129.2596380970254
 97
        0
 97
        0
 75
     2
 76
     1
 98
        0
  0
SPLINE
  5
12A
330
124
100
AcDbEntity
  8
_U+30EC_U+30A4_U+30E4_U+30FC 1
370
     0
100
AcDbSpline
210
0.0
220
0.0
230
1.0
 70
    11
 71
     3
 72
    29
 73
    25
 74
     0
 42
0.0000000001
 43
0.0000000001
 12
1.0
 22
0.0
 32
0.0
 13
1.0
 23
0.0
 33
0.0
 40
0.0
 40
0.0
 40
0.0
 40
0.0
 40
1.0
 40
1.0
 40
1.0
 40
2.0
 40
2.0
 40
2.0
 40
3.0
 40
3.0
 40
3.0
 40
4.0
 40
4.0
 40
4.0
 40
5.0
 40
5.0
 40
5.0
 40
6.0
 40
6.0
 40
6.0
 40
7.0
 40
7.0
 40
7.0
 40
8.0
 40
8.0
 40
8.0
 40
8.0
 10
93.41376408254933
 20
-129.0818711699865
 30
0.0
 10
93.29835338379347
 20
-129.2913329754897
 30
0.0
 10
93.11300724668703
 20
-129.3102810006585
 30
0.0
 10
92.98863929966952
 20
-129.3102810006585
 30
0.0
 10
92.81707354450407
 20
-129.3102810006585
 30
0.0
 10
92.66548934315307
 20
-129.2637722116077
 30
0.0
 10
92.5638590263382
 20
-129.0818711699865
 30
0.0
 10
92.45292695171317
 20
-128.8872232750699
 30
0.0
 10
92.4326008883502
 20
-128.6502007056847
 30
0.0
 10
92.4326008883502
 20
-128.4875921987809
 30
0.0
 10
92.4326008883502
 20
-128.3435872074974
 30
0.0
 10
92.45085989442201
 20
-128.0919229822999
 30
0.0
 10
92.5638590263382
 20
-127.8929687180268
 30
0.0
 10
92.67892521554555
 20
-127.6898803391713
 30
0.0
 10
92.85083548025952
 20
-127.6666259446458
 30
0.0
 10
92.98863929966952
 20
-127.6666259446458
 30
0.0
 10
93.15848250709233
 20
-127.6666259446458
 30
0.0
 10
93.31213376573447
 20
-127.7110676764056
 30
0.0
 10
93.41376408254933
 20
-127.8929687180268
 30
0.0
 10
93.52021753304356
 20
-128.0855495556522
 30
0.0
 10
93.54502222053736
 20
-128.3139593863243
 30
0.0
 10
93.54502222053736
 20
-128.4875921987809
 30
0.0
 10
93.54502222053736
 20
-128.6588134443978
 30
0.0
 10
93.5222845903347
 20
-128.889290332361
 30
0.0
 10
93.41376408254933
 20
-129.0818711699865
 30
0.0
  0
SPLINE
  5
12B
330
124
100
AcDbEntity
  8
_U+30EC_U+30A4_U+30E4_U+30FC 1
370
     0
100
AcDbSpline
210
0.0
220
0.0
230
1.0
 70
    11
 71
     3
 72
    17
 73
    13
 74
     0
 42
0.0000000001
 43
0.0000000001
 12
1.0
 22
0.0
 32
0.0
 13
1.0
 23
0.0
 33
0.0
 40
0.0
 40
0.0
 40
0.0
 40
0.0
 40
1.0
 40
1.0
 40
1.0
 40
2.0
 40
2.0
 40
2.0
 40
3.0
 40
3.0
 40
3.0
 40
4.0
 40
4.0
 40
4.0
 40
4.0
 10
92.98863929966952
 20
-127.8592067822713
 30
0.0
 10
92.72198890911118
 20
-127.8592067822713
 30
0.0
 10
92.67237953412358
 20
-128.1427381407074
 30
0.0
 10
92.67237953412358
 20
-128.4875921987809
 30
0.0
 10
92.67237953412358
 20
-128.8069525502635
 30
0.0
 10
92.71062009400985
 20
-129.1156331057419
 30
0.0
 10
92.98863929966952
 20
-129.1156331057419
 30
0.0
 10
93.2532226329367
 20
-129.1156331057419
 30
0.0
 10
93.30524357476398
 20
-128.8345133141455
 30
0.0
 10
93.30524357476398
 20
-128.4875921987809
 30
0.0
 10
93.30524357476398
 20
-128.1678873377497
 30
0.0
 10
93.26459144803802
 20
-127.8592067822713
 30
0.0
 10
92.98863929966952
 20
-127.8592067822713
 30
0.0
  0
HATCH
  5
12C
330
124
100
AcDbEntity
  8
_U+30EC_U+30A4_U+30E4_U+30FC 1
 62
   179
420
  2234388
100
AcDbHatch
 10
0.0
 20
0.0
 30
0.0
210
0.0
220
0.0
230
1.0
  2
SOLID
 70
     1
 71
     0
 91
        2
 92
        1
 93
        1
 72
     4
 94
        3
 73
     0
 74
     1
 95
       29
 96
       25
 40
0.0
 40
0.0
 40
0.0
 40
0.0
 40
1.0
 40
1.0
 40
1.0
 40
2.0
 40
2.0
 40
2.0
 40
3.0
 40
3.0
 40
3.0
 40
4.0
 40
4.0
 40
4.0
 40
5.0
 40
5.0
 40
5.0
 40
6.0
 40
6.0
 40
6.0
 40
7.0
 40
7.0
 40
7.0
 40
8.0
 40
8.0
 40
8.0
 40
8.0
 10
93.41376408254933
 20
-129.0818711699865
 10
93.29835338379347
 20
-129.2913329754897
 10
93.11300724668703
 20
-129.3102810006585
 10
92.98863929966952
 20
-129.3102810006585
 10
92.81707354450407
 20
-129.3102810006585
 10
92.66548934315307
 20
-129.2637722116077
 10
92.5638590263382
 20
-129.0818711699865
 10
92.45292695171317
 20
-128.8872232750699
 10
92.4326008883502
 20
-128.6502007056847
 10
92.4326008883502
 20
-128.4875921987809
 10
92.4326008883502
 20
-128.3435872074974
 10
92.45085989442201
 20
-128.0919229822999
 10
92.5638590263382
 20
-127.8929687180268
 10
92.67892521554555
 20
-127.6898803391713
 10
92.85083548025952
 20
-127.6666259446458
 10
92.98863929966952
 20
-127.6666259446458
 10
93.15848250709233
 20
-127.6666259446458
 10
93.31213376573447
 20
-127.7110676764056
 10
93.41376408254933
 20
-127.8929687180268
 10
93.52021753304356
 20
-128.0855495556522
 10
93.54502222053736
 20
-128.3139593863243
 10
93.54502222053736
 20
-128.4875921987809
 10
93.54502222053736
 20
-128.6588134443978
 10
93.5222845903347
 20
-128.889290332361
 10
93.41376408254933
 20
-129.0818711699865
 97
        0
 97
        0
 92
        1
 93
        1
 72
     4
 94
        3
 73
     0
 74
     1
 95
       17
 96
       13
 40
0.0
 40
0.0
 40
0.0
 40
0.0
 40
1.0
 40
1.0
 40
1.0
 40
2.0
 40
2.0
 40
2.0
 40
3.0
 40
3.0
 40
3.0
 40
4.0
 40
4.0
 40
4.0
 40
4.0
 10
92.98863929966952
 20
-127.8592067822713
 10
92.72198890911118
 20
-127.8592067822713
 10
92.67237953412358
 20
-128.1427381407074
 10
92.67237953412358
 20
-128.4875921987809
 10
92.67237953412358
 20
-128.8069525502635
 10
92.71062009400985
 20
-129.1156331057419
 10
92.98863929966952
 20
-129.1156331057419
 10
93.2532226329367
 20
-129.1156331057419
 10
93.30524357476398
 20
-128.8345133141455
 10
93.30524357476398
 20
-128.4875921987809
 10
93.30524357476398
 20
-128.1678873377497
 10
93.26459144803802
 20
-127.8592067822713
 10
92.98863929966952
 20
-127.8592067822713
 97
        0
 97
        0
 75
     2
 76
     1
 98
        0
  0
ENDBLK
  5
127
330
124
100
AcDbEntity
  8
0
100
AcDbBlockEnd
  0
BLOCK
  5
12F
330
12D
100
AcDbEntity
  8
0
100
AcDbBlockBegin
  2
block 8
 70
     0
 10
0.0
 20
0.0
 30
0.0
  3
block 8
  1

  0
SPLINE
  5
131
330
12D
100
AcDbEntity
  8
_U+30EC_U+30A4_U+30E4_U+30FC 1
370
     0
100
AcDbSpline
210
0.0
220
0.0
230
1.0
 70
    11
 71
     3
 72
    62
 73
    58
 74
     0
 42
0.0000000001
 43
0.0000000001
 12
1.0
 22
0.0
 32
0.0
 13
1.0
 23
0.0
 33
0.0
 40
0.0
 40
0.0
 40
0.0
 40
0.0
 40
1.0
 40
1.0
 40
1.0
 40
2.0
 40
2.0
 40
2.0
 40
3.0
 40
3.0
 40
3.0
 40
4.0
 40
4.0
 40
4.0
 40
5.0
 40
5.0
 40
5.0
 40
6.0
 40
6.0
 40
6.0
 40
7.0
 40
7.0
 40
7.0
 40
8.0
 40
8.0
 40
8.0
 40
9.0
 40
9.0
 40
9.0
 40
10.0
 40
10.0
 40
10.0
 40
11.0
 40
11.0
 40
11.0
 40
12.0
 40
12.0
 40
12.0
 40
13.0
 40
13.0
 40
13.0
 40
14.0
 40
14.0
 40
14.0
 40
15.0
 40
15.0
 40
15.0
 40
16.0
 40
16.0
 40
16.0
 40
17.0
 40
17.0
 40
17.0
 40
18.0
 40
18.0
 40
18.0
 40
19.0
 40
19.0
 40
19.0
 40
19.0
 10
85.72465546902023
 20
-129.3102810006585
 30
0.0
 10
85.62302515220536
 20
-129.3102810006585
 30
0.0
 10
85.39013669740247
 20
-129.2892659181985
 30
0.0
 10
85.2568115021233
 20
-129.103230761995
 30
0.0
 10
85.17757430596255
 20
-128.9909206491759
 30
0.0
 10
85.17309568183173
 20
-128.8917018992007
 30
0.0
 10
85.1686170577009
 20
-128.8069525502635
 30
0.0
 10
85.1686170577009
 20
-128.8069525502635
 30
0.0
 10
85.40357256979495
 20
-128.8069525502635
 30
0.0
 10
85.40357256979495
 20
-128.8069525502635
 30
0.0
 10
85.40598413663461
 20
-128.8810221031964
 30
0.0
 10
85.41735295173595
 20
-129.1156331057419
 30
0.0
 10
85.72017684488941
 20
-129.1156331057419
 30
0.0
 10
85.86728242210957
 20
-129.1156331057419
 30
0.0
 10
86.02989092901336
 20
-129.0460421769399
 30
0.0
 10
86.02989092901336
 20
-128.8176323462678
 30
0.0
 10
86.02989092901336
 20
-128.7011881188664
 30
0.0
 10
85.98923880228742
 20
-128.6526122725244
 30
0.0
 10
85.95547686653197
 20
-128.6209173940601
 30
0.0
 10
85.87623967037122
 20
-128.5468478411272
 30
0.0
 10
85.7518717233537
 20
-128.5341009878317
 30
0.0
 10
85.69296059055593
 20
-128.5341009878317
 30
0.0
 10
85.67263452719295
 20
-128.5341009878317
 30
0.0
 10
85.63439396730668
 20
-128.5361680451229
 30
0.0
 10
85.60476614613353
 20
-128.5403021597052
 30
0.0
 10
85.60476614613353
 20
-128.5403021597052
 30
0.0
 10
85.60476614613353
 20
-128.3456542647886
 30
0.0
 10
85.60476614613353
 20
-128.3456542647886
 30
0.0
 10
85.64541827285949
 20
-128.3521999462106
 30
0.0
 10
85.69089353326478
 20
-128.3542670035017
 30
0.0
 10
85.69743921468675
 20
-128.3542670035017
 30
0.0
 10
85.76771916258585
 20
-128.3542670035017
 30
0.0
 10
85.98028155402577
 20
-128.3329074114932
 30
0.0
 10
85.98028155402577
 20
-128.0960570968822
 30
0.0
 10
85.98028155402577
 20
-127.9184624246176
 30
0.0
 10
85.8400661677761
 20
-127.8633408968536
 30
0.0
 10
85.72258841172908
 20
-127.8633408968536
 30
0.0
 10
85.43974607239007
 20
-127.8633408968536
 30
0.0
 10
85.43078882412841
 20
-128.0960570968822
 30
0.0
 10
85.42631019999759
 20
-128.1678873377497
 30
0.0
 10
85.42631019999759
 20
-128.1678873377497
 30
0.0
 10
85.20926918442686
 20
-128.1678873377497
 30
0.0
 10
85.20926918442686
 20
-128.1678873377497
 30
0.0
 10
85.2182264326885
 20
-128.0431748811837
 30
0.0
 10
85.24750974431312
 20
-127.6666259446458
 30
0.0
 10
85.73602428412156
 20
-127.6666259446458
 30
0.0
 10
85.97580292989494
 20
-127.6666259446458
 30
0.0
 10
86.23349607219163
 20
-127.7935777132773
 30
0.0
 10
86.23349607219163
 20
-128.0896836702345
 30
0.0
 10
86.23349607219163
 20
-128.2760633359865
 30
0.0
 10
86.13152124582824
 20
-128.358401118084
 30
0.0
 10
86.02541230488254
 20
-128.4197238177215
 30
0.0
 10
86.09086911910228
 20
-128.4472845816035
 30
0.0
 10
86.28551701401891
 20
-128.5275553064098
 30
0.0
 10
86.28551701401891
 20
-128.8048854929724
 30
0.0
 10
86.28551701401891
 20
-129.1431938696239
 30
0.0
 10
86.02093368075171
 20
-129.3102810006585
 30
0.0
 10
85.72465546902023
 20
-129.3102810006585
 30
0.0
  0
HATCH
  5
132
330
12D
100
AcDbEntity
  8
_U+30EC_U+30A4_U+30E4_U+30FC 1
 62
   179
420
  2234388
100
AcDbHatch
 10
0.0
 20
0.0
 30
0.0
210
0.0
220
0.0
230
1.0
  2
SOLID
 70
     1
 71
     0
 91
        1
 92
        1
 93
        1
 72
     4
 94
        3
 73
     0
 74
     1
 95
       62
 96
       58
 40
0.0
 40
0.0
 40
0.0
 40
0.0
 40
1.0
 40
1.0
 40
1.0
 40
2.0
 40
2.0
 40
2.0
 40
3.0
 40
3.0
 40
3.0
 40
4.0
 40
4.0
 40
4.0
 40
5.0
 40
5.0
 40
5.0
 40
6.0
 40
6.0
 40
6.0
 40
7.0
 40
7.0
 40
7.0
 40
8.0
 40
8.0
 40
8.0
 40
9.0
 40
9.0
 40
9.0
 40
10.0
 40
10.0
 40
10.0
 40
11.0
 40
11.0
 40
11.0
 40
12.0
 40
12.0
 40
12.0
 40
13.0
 40
13.0
 40
13.0
 40
14.0
 40
14.0
 40
14.0
 40
15.0
 40
15.0
 40
15.0
 40
16.0
 40
16.0
 40
16.0
 40
17.0
 40
17.0
 40
17.0
 40
18.0
 40
18.0
 40
18.0
 40
19.0
 40
19.0
 40
19.0
 40
19.0
 10
85.72465546902023
 20
-129.3102810006585
 10
85.62302515220536
 20
-129.3102810006585
 10
85.39013669740247
 20
-129.2892659181985
 10
85.2568115021233
 20
-129.103230761995
 10
85.17757430596255
 20
-128.9909206491759
 10
85.17309568183173
 20
-128.8917018992007
 10
85.1686170577009
 20
-128.8069525502635
 10
85.1686170577009
 20
-128.8069525502635
 10
85.40357256979495
 20
-128.8069525502635
 10
85.40357256979495
 20
-128.8069525502635
 10
85.40598413663461
 20
-128.8810221031964
 10
85.41735295173595
 20
-129.1156331057419
 10
85.72017684488941
 20
-129.1156331057419
 10
85.86728242210957
 20
-129.1156331057419
 10
86.02989092901336
 20
-129.0460421769399
 10
86.02989092901336
 20
-128.8176323462678
 10
86.02989092901336
 20
-128.7011881188664
 10
85.98923880228742
 20
-128.6526122725244
 10
85.95547686653197
 20
-128.6209173940601
 10
85.87623967037122
 20
-128.5468478411272
 10
85.7518717233537
 20
-128.5341009878317
 10
85.69296059055593
 20
-128.5341009878317
 10
85.67263452719295
 20
-128.5341009878317
 10
85.63439396730668
 20
-128.5361680451229
 10
85.60476614613353
 20
-128.5403021597052
 10
85.60476614613353
 20
-128.5403021597052
 10
85.60476614613353
 20
-128.3456542647886
 10
85.60476614613353
 20
-128.3456542647886
 10
85.64541827285949
 20
-128.3521999462106
 10
85.69089353326478
 20
-128.3542670035017
 10
85.69743921468675
 20
-128.3542670035017
 10
85.76771916258585
 20
-128.3542670035017
 10
85.98028155402577
 20
-128.3329074114932
 10
85.98028155402577
 20
-128.0960570968822
 10
85.98028155402577
 20
-127.9184624246176
 10
85.8400661677761
 20
-127.8633408968536
 10
85.72258841172908
 20
-127.8633408968536
 10
85.43974607239007
 20
-127.8633408968536
 10
85.43078882412841
 20
-128.0960570968822
 10
85.42631019999759
 20
-128.1678873377497
 10
85.42631019999759
 20
-128.1678873377497
 10
85.20926918442686
 20
-128.1678873377497
 10
85.20926918442686
 20
-128.1678873377497
 10
85.2182264326885
 20
-128.0431748811837
 10
85.24750974431312
 20
-127.6666259446458
 10
85.73602428412156
 20
-127.6666259446458
 10
85.97580292989494
 20
-127.6666259446458
 10
86.23349607219163
 20
-127.7935777132773
 10
86.23349607219163
 20
-128.0896836702345
 10
86.23349607219163
 20
-128.2760633359865
 10
86.13152124582824
 20
-128.358401118084
 10
86.02541230488254
 20
-128.4197238177215
 10
86.09086911910228
 20
-128.4472845816035
 10
86.28551701401891
 20
-128.5275553064098
 10
86.28551701401891
 20
-128.8048854929724
 10
86.28551701401891
 20
-129.1431938696239
 10
86.02093368075171
 20
-129.3102810006585
 10
85.72465546902023
 20
-129.3102810006585
 97
        0
 97
        0
 75
     2
 76
     1
 98
        0
  0
ENDBLK
  5
130
330
12D
100
AcDbEntity
  8
0
100
AcDbBlockEnd
  0
BLOCK
  5
13D
330
13B
100
AcDbEntity
  8
0
100
AcDbBlockBegin
  2
block 9
 70
     0
 10
0.0
 20
0.0
 30
0.0
  3
block 9
  1

  0
SPLINE
  5
13F
330
13B
100
AcDbEntity
  8
_U+30EC_U+30A4_U+30E4_U+30FC 1
370
     0
100
AcDbSpline
210
0.0
220
0.0
230
1.0
 70
    11
 71
     3
 72
    26
 73
    22
 74
     0
 42
0.0000000001
 43
0.0000000001
 12
1.0
 22
0.0
 32
0.0
 13
1.0
 23
0.0
 33
0.0
 40
0.0
 40
0.0
 40
0.0
 40
0.0
 40
1.0
 40
1.0
 40
1.0
 40
2.0
 40
2.0
 40
2.0
 40
3.0
 40
3.0
 40
3.0
 40
4.0
 40
4.0
 40
4.0
 40
5.0
 40
5.0
 40
5.0
 40
6.0
 40
6.0
 40
6.0
 40
7.0
 40
7.0
 40
7.0
 40
7.0
 10
95.25378958122128
 20
-104.2451442881748
 30
0.0
 10
95.25378958122128
 20
-104.2451442881748
 30
0.0
 10
95.25378958122128
 20
-103.140818930378
 30
0.0
 10
95.25378958122128
 20
-103.140818930378
 30
0.0
 10
95.25378958122128
 20
-103.140818930378
 30
0.0
 10
94.90135631308021
 20
-103.140818930378
 30
0.0
 10
94.90135631308021
 20
-103.140818930378
 30
0.0
 10
94.90135631308021
 20
-103.140818930378
 30
0.0
 10
94.90135631308021
 20
-102.9928520792865
 30
0.0
 10
94.90135631308021
 20
-102.9928520792865
 30
0.0
 10
95.25620114806095
 20
-102.9780381686999
 30
0.0
 10
95.30581052304855
 20
-102.8150851522476
 30
0.0
 10
95.33750540151286
 20
-102.7008802369116
 30
0.0
 10
95.33750540151286
 20
-102.7008802369116
 30
0.0
 10
95.49356822699467
 20
-102.7008802369116
 30
0.0
 10
95.49356822699467
 20
-102.7008802369116
 30
0.0
 10
95.49356822699467
 20
-102.7008802369116
 30
0.0
 10
95.49356822699467
 20
-104.2451442881748
 30
0.0
 10
95.49356822699467
 20
-104.2451442881748
 30
0.0
 10
95.49356822699467
 20
-104.2451442881748
 30
0.0
 10
95.25378958122128
 20
-104.2451442881748
 30
0.0
 10
95.25378958122128
 20
-104.2451442881748
 30
0.0
  0
HATCH
  5
140
330
13B
100
AcDbEntity
  8
_U+30EC_U+30A4_U+30E4_U+30FC 1
 62
   179
420
  2234388
100
AcDbHatch
 10
0.0
 20
0.0
 30
0.0
210
0.0
220
0.0
230
1.0
  2
SOLID
 70
     1
 71
     0
 91
        1
 92
        1
 93
        1
 72
     4
 94
        3
 73
     0
 74
     1
 95
       26
 96
       22
 40
0.0
 40
0.0
 40
0.0
 40
0.0
 40
1.0
 40
1.0
 40
1.0
 40
2.0
 40
2.0
 40
2.0
 40
3.0
 40
3.0
 40
3.0
 40
4.0
 40
4.0
 40
4.0
 40
5.0
 40
5.0
 40
5.0
 40
6.0
 40
6.0
 40
6.0
 40
7.0
 40
7.0
 40
7.0
 40
7.0
 10
95.25378958122128
 20
-104.2451442881748
 10
95.25378958122128
 20
-104.2451442881748
 10
95.25378958122128
 20
-103.140818930378
 10
95.25378958122128
 20
-103.140818930378
 10
95.25378958122128
 20
-103.140818930378
 10
94.90135631308021
 20
-103.140818930378
 10
94.90135631308021
 20
-103.140818930378
 10
94.90135631308021
 20
-103.140818930378
 10
94.90135631308021
 20
-102.9928520792865
 10
94.90135631308021
 20
-102.9928520792865
 10
95.25620114806095
 20
-102.9780381686999
 10
95.30581052304855
 20
-102.8150851522476
 10
95.33750540151286
 20
-102.7008802369116
 10
95.33750540151286
 20
-102.7008802369116
 10
95.49356822699467
 20
-102.7008802369116
 10
95.49356822699467
 20
-102.7008802369116
 10
95.49356822699467
 20
-102.7008802369116
 10
95.49356822699467
 20
-104.2451442881748
 10
95.49356822699467
 20
-104.2451442881748
 10
95.49356822699467
 20
-104.2451442881748
 10
95.25378958122128
 20
-104.2451442881748
 10
95.25378958122128
 20
-104.2451442881748
 97
        0
 97
        0
 75
     2
 76
     1
 98
        0
  0
ENDBLK
  5
13E
330
13B
100
AcDbEntity
  8
0
100
AcDbBlockEnd
  0
ENDSEC
  0
SECTION
  2
ENTITIES
  0
POLYLINE
  5
41
330
1F
100
AcDbEntity
  8
_U+30EC_U+30A4_U+30E4_U+30FC 1
 62
   179
420
  2234388
370
    25
100
AcDb2dPolyline
 66
     1
 10
0.0
 20
0.0
 30
0.0
  0
VERTEX
  5
42
330
41
100
AcDbEntity
  8
_U+30EC_U+30A4_U+30E4_U+30FC 1
 62
   179
420
  2234388
370
    25
100
AcDbVertex
100
AcDb2dVertex
 10
84.35523229236318
 20
-156.8559007941194
 30
0.0
  0
VERTEX
  5
43
330
41
100
AcDbEntity
  8
_U+30EC_U+30A4_U+30E4_U+30FC 1
 62
   179
420
  2234388
370
    25
100
AcDbVertex
100
AcDb2dVertex
 10
99.35516663190519
 20
-156.8559007941194
 30
0.0
  0
SEQEND
  5
44
330
41
100
AcDbEntity
  8
_U+30EC_U+30A4_U+30E4_U+30FC 1
 62
   179
420
  2234388
370
    25
  0
POLYLINE
  5
45
330
1F
100
AcDbEntity
  8
_U+30EC_U+30A4_U+30E4_U+30FC 1
 62
   179
420
  2234388
370
    25
100
AcDb2dPolyline
 66
     1
 10
0.0
 20
0.0
 30
0.0
  0
VERTEX
  5
46
330
45
100
AcDbEntity
  8
_U+30EC_U+30A4_U+30E4_U+30FC 1
 62
   179
420
  2234388
370
    25
100
AcDbVertex
100
AcDb2dVertex
 10
97.3549519607127
 20
-94.85587664295281
 30
0.0
  0
VERTEX
  5
47
330
45
100
AcDbEntity
  8
_U+30EC_U+30A4_U+30E4_U+30FC 1
 62
   179
420
  2234388
370
    25
100
AcDbVertex
100
AcDb2dVertex
 10
98.3547241574286
 20
-94.85587664295281
 30
0.0
  0
SEQEND
  5
48
330
45
100
AcDbEntity
  8
_U+30EC_U+30A4_U+30E4_U+30FC 1
 62
   179
420
  2234388
370
    25
  0
POLYLINE
  5
49
330
1F
100
AcDbEntity
  8
_U+30EC_U+30A4_U+30E4_U+30FC 1
 62
   179
420
  2234388
370
    25
100
AcDb2dPolyline
 66
     1
 10
0.0
 20
0.0
 30
0.0
  0
VERTEX
  5
4A
330
49
100
AcDbEntity
  8
_U+30EC_U+30A4_U+30E4_U+30FC 1
 62
   179
420
  2234388
370
    25
100
AcDbVertex
100
AcDb2dVertex
 10
84.35523229236318
 20
-133.8557421887584
 30
0.0
  0
VERTEX
  5
4B
330
49
100
AcDbEntity
  8
_U+30EC_U+30A4_U+30E4_U+30FC 1
 62
   179
420
  2234388
370
    25
100
AcDbVertex
100
AcDb2dVertex
 10
84.35523229236318
 20
-156.8559007941194
 30
0.0
  0
SEQEND
  5
4C
330
49
100
AcDbEntity
  8
_U+30EC_U+30A4_U+30E4_U+30FC 1
 62
   179
420
  2234388
370
    25
  0
POLYLINE
  5
4D
330
1F
100
AcDbEntity
  8
_U+30EC_U+30A4_U+30E4_U+30FC 1
 62
   179
420
  2234388
370
    25
100
AcDb2dPolyline
 66
     1
 10
0.0
 20
0.0
 30
0.0
  0
VERTEX
  5
4E
330
4D
100
AcDbEntity
  8
_U+30EC_U+30A4_U+30E4_U+30FC 1
 62
   179
420
  2234388
370
    25
100
AcDbVertex
100
AcDb2dVertex
 10
99.35516663190519
 20
-152.8561416284525
 30
0.0
  0
VERTEX
  5
4F
330
4D
100
AcDbEntity
  8
_U+30EC_U+30A4_U+30E4_U+30FC 1
 62
   179
420
  2234388
370
    25
100
AcDbVertex
100
AcDb2dVertex
 10
99.35516663190519
 20
-156.8559007941194
 30
0.0
  0
SEQEND
  5
50
330
4D
100
AcDbEntity
  8
_U+30EC_U+30A4_U+30E4_U+30FC 1
 62
   179
420
  2234388
370
    25
  0
POLYLINE
  5
51
330
1F
100
AcDbEntity
  8
_U+30EC_U+30A4_U+30E4_U+30FC 1
 62
   179
420
  2234388
370
    25
100
AcDb2dPolyline
 66
     1
 10
0.0
 20
0.0
 30
0.0
  0
VERTEX
  5
52
330
51
100
AcDbEntity
  8
_U+30EC_U+30A4_U+30E4_U+30FC 1
 62
   179
420
  2234388
370
    25
100
AcDbVertex
100
AcDb2dVertex
 10
95.3547372895202
 20
-152.8561416284525
 30
0.0
  0
VERTEX
  5
53
330
51
100
AcDbEntity
  8
_U+30EC_U+30A4_U+30E4_U+30FC 1
 62
   179
420
  2234388
370
    25
100
AcDbVertex
100
AcDb2dVertex
 10
99.35516663190519
 20
-152.8561416284525
 30
0.0
  0
SEQEND
  5
54
330
51
100
AcDbEntity
  8
_U+30EC_U+30A4_U+30E4_U+30FC 1
 62
   179
420
  2234388
370
    25
  0
POLYLINE
  5
55
330
1F
100
AcDbEntity
  8
_U+30EC_U+30A4_U+30E4_U+30FC 1
 62
   179
420
  2234388
370
    25
100
AcDb2dPolyline
 66
     1
 10
0.0
 20
0.0
 30
0.0
  0
VERTEX
  5
56
330
55
100
AcDbEntity
  8
_U+30EC_U+30A4_U+30E4_U+30FC 1
 62
   179
420
  2234388
370
    25
100
AcDbVertex
100
AcDb2dVertex
 10
98.3547241574286
 20
-153.8559138504251
 30
0.0
  0
VERTEX
  5
57
330
55
100
AcDbEntity
  8
_U+30EC_U+30A4_U+30E4_U+30FC 1
 62
   179
420
  2234388
370
    25
100
AcDbVertex
100
AcDb2dVertex
 10
98.3547241574286
 20
-155.8561285721469
 30
0.0
  0
SEQEND
  5
58
330
55
100
AcDbEntity
  8
_U+30EC_U+30A4_U+30E4_U+30FC 1
 62
   179
420
  2234388
370
    25
  0
POLYLINE
  5
59
330
1F
100
AcDbEntity
  8
_U+30EC_U+30A4_U+30E4_U+30FC 1
 62
   179
420
  2234388
370
    25
100
AcDb2dPolyline
 66
     1
 10
0.0
 20
0.0
 30
0.0
  0
VERTEX
  5
5A
330
59
100
AcDbEntity
  8
_U+30EC_U+30A4_U+30E4_U+30FC 1
 62
   179
420
  2234388
370
    25
100
AcDbVertex
100
AcDb2dVertex
 10
95.3547372895202
 20
-152.8561416284525
 30
0.0
  0
VERTEX
  5
5B
330
59
100
AcDbEntity
  8
_U+30EC_U+30A4_U+30E4_U+30FC 1
 62
   179
420
  2234388
370
    25
100
AcDbVertex
100
AcDb2dVertex
 10
95.3547372895202
 20
-153.8559138504251
 30
0.0
  0
SEQEND
  5
5C
330
59
100
AcDbEntity
  8
_U+30EC_U+30A4_U+30E4_U+30FC 1
 62
   179
420
  2234388
370
    25
  0
POLYLINE
  5
5D
330
1F
100
AcDbEntity
  8
_U+30EC_U+30A4_U+30E4_U+30FC 1
 62
   179
420
  2234388
370
    25
100
AcDb2dPolyline
 66
     1
 10
0.0
 20
0.0
 30
0.0
  0
VERTEX
  5
5E
330
5D
100
AcDbEntity
  8
_U+30EC_U+30A4_U+30E4_U+30FC 1
 62
   179
420
  2234388
370
    25
100
AcDbVertex
100
AcDb2dVertex
 10
95.3547372895202
 20
-153.8559138504251
 30
0.0
  0
VERTEX
  5
5F
330
5D
100
AcDbEntity
  8
_U+30EC_U+30A4_U+30E4_U+30FC 1
 62
   179
420
  2234388
370
    25
100
AcDbVertex
100
AcDb2dVertex
 10
98.3547241574286
 20
-153.8559138504251
 30
0.0
  0
SEQEND
  5
60
330
5D
100
AcDbEntity
  8
_U+30EC_U+30A4_U+30E4_U+30FC 1
 62
   179
420
  2234388
370
    25
  0
POLYLINE
  5
61
330
1F
100
AcDbEntity
  8
_U+30EC_U+30A4_U+30E4_U+30FC 1
 62
   179
420
  2234388
370
    25
100
AcDb2dPolyline
 66
     1
 10
0.0
 20
0.0
 30
0.0
  0
VERTEX
  5
62
330
61
100
AcDbEntity
  8
_U+30EC_U+30A4_U+30E4_U+30FC 1
 62
   179
420
  2234388
370
    25
100
AcDbVertex
100
AcDb2dVertex
 10
85.35500448907908
 20
-155.8561285721469
 30
0.0
  0
VERTEX
  5
63
330
61
100
AcDbEntity
  8
_U+30EC_U+30A4_U+30E4_U+30FC 1
 62
   179
420
  2234388
370
    25
100
AcDbVertex
100
AcDb2dVertex
 10
98.3547241574286
 20
-155.8561285721469
 30
0.0
  0
SEQEND
  5
64
330
61
100
AcDbEntity
  8
_U+30EC_U+30A4_U+30E4_U+30FC 1
 62
   179
420
  2234388
370
    25
  0
POLYLINE
  5
65
330
1F
100
AcDbEntity
  8
_U+30EC_U+30A4_U+30E4_U+30FC 1
 62
   179
420
  2234388
370
    25
100
AcDb2dPolyline
 66
     1
 10
0.0
 20
0.0
 30
0.0
  0
VERTEX
  5
66
330
65
100
AcDbEntity
  8
_U+30EC_U+30A4_U+30E4_U+30FC 1
 62
   179
420
  2234388
370
    25
100
AcDbVertex
100
AcDb2dVertex
 10
85.35500448907908
 20
-139.8557160761471
 30
0.0
  0
VERTEX
  5
67
330
65
100
AcDbEntity
  8
_U+30EC_U+30A4_U+30E4_U+30FC 1
 62
   179
420
  2234388
370
    25
100
AcDbVertex
100
AcDb2dVertex
 10
85.35500448907908
 20
-155.8561285721469
 30
0.0
  0
SEQEND
  5
68
330
65
100
AcDbEntity
  8
_U+30EC_U+30A4_U+30E4_U+30FC 1
 62
   179
420
  2234388
370
    25
  0
POLYLINE
  5
69
330
1F
100
AcDbEntity
  8
_U+30EC_U+30A4_U+30E4_U+30FC 1
 62
   179
420
  2234388
370
    25
100
AcDb2dPolyline
 66
     1
 10
0.0
 20
0.0
 30
0.0
  0
VERTEX
  5
6A
330
69
100
AcDbEntity
  8
_U+30EC_U+30A4_U+30E4_U+30FC 1
 62
   179
420
  2234388
370
    25
100
AcDbVertex
100
AcDb2dVertex
 10
85.35500448907908
 20
-139.8557160761471
 30
0.0
  0
VERTEX
  5
6B
330
69
100
AcDbEntity
  8
_U+30EC_U+30A4_U+30E4_U+30FC 1
 62
   179
420
  2234388
370
    25
100
AcDbVertex
100
AcDb2dVertex
 10
98.3547241574286
 20
-139.8557160761471
 30
0.0
  0
SEQEND
  5
6C
330
69
100
AcDbEntity
  8
_U+30EC_U+30A4_U+30E4_U+30FC 1
 62
   179
420
  2234388
370
    25
  0
POLYLINE
  5
6D
330
1F
100
AcDbEntity
  8
_U+30EC_U+30A4_U+30E4_U+30FC 1
 62
   179
420
  2234388
370
    25
100
AcDb2dPolyline
 66
     1
 10
0.0
 20
0.0
 30
0.0
  0
VERTEX
  5
6E
330
6D
100
AcDbEntity
  8
_U+30EC_U+30A4_U+30E4_U+30FC 1
 62
   179
420
  2234388
370
    25
100
AcDbVertex
100
AcDb2dVertex
 10
87.35521916027157
 20
-133.8557421887584
 30
0.0
  0
VERTEX
  5
6F
330
6D
100
AcDbEntity
  8
_U+30EC_U+30A4_U+30E4_U+30FC 1
 62
   179
420
  2234388
370
    25
100
AcDbVertex
100
AcDb2dVertex
 10
87.35521916027157
 20
-134.8561846885083
 30
0.0
  0
SEQEND
  5
70
330
6D
100
AcDbEntity
  8
_U+30EC_U+30A4_U+30E4_U+30FC 1
 62
   179
420
  2234388
370
    25
  0
POLYLINE
  5
71
330
1F
100
AcDbEntity
  8
_U+30EC_U+30A4_U+30E4_U+30FC 1
 62
   179
420
  2234388
370
    25
100
AcDb2dPolyline
 66
     1
 10
0.0
 20
0.0
 30
0.0
  0
VERTEX
  5
72
330
71
100
AcDbEntity
  8
_U+30EC_U+30A4_U+30E4_U+30FC 1
 62
   179
420
  2234388
370
    25
100
AcDbVertex
100
AcDb2dVertex
 10
84.35523229236318
 20
-133.8557421887584
 30
0.0
  0
VERTEX
  5
73
330
71
100
AcDbEntity
  8
_U+30EC_U+30A4_U+30E4_U+30FC 1
 62
   179
420
  2234388
370
    25
100
AcDbVertex
100
AcDb2dVertex
 10
87.35521916027157
 20
-133.8557421887584
 30
0.0
  0
SEQEND
  5
74
330
71
100
AcDbEntity
  8
_U+30EC_U+30A4_U+30E4_U+30FC 1
 62
   179
420
  2234388
370
    25
  0
POLYLINE
  5
75
330
1F
100
AcDbEntity
  8
_U+30EC_U+30A4_U+30E4_U+30FC 1
 62
   179
420
  2234388
370
    25
100
AcDb2dPolyline
 66
     1
 10
0.0
 20
0.0
 30
0.0
  0
VERTEX
  5
76
330
75
100
AcDbEntity
  8
_U+30EC_U+30A4_U+30E4_U+30FC 1
 62
   179
420
  2234388
370
    25
100
AcDbVertex
100
AcDb2dVertex
 10
85.35500448907908
 20
-134.8561846885083
 30
0.0
  0
VERTEX
  5
77
330
75
100
AcDbEntity
  8
_U+30EC_U+30A4_U+30E4_U+30FC 1
 62
   179
420
  2234388
370
    25
100
AcDbVertex
100
AcDb2dVertex
 10
87.35521916027157
 20
-134.8561846885083
 30
0.0
  0
SEQEND
  5
78
330
75
100
AcDbEntity
  8
_U+30EC_U+30A4_U+30E4_U+30FC 1
 62
   179
420
  2234388
370
    25
  0
POLYLINE
  5
79
330
1F
100
AcDbEntity
  8
_U+30EC_U+30A4_U+30E4_U+30FC 1
 62
   179
420
  2234388
370
    25
100
AcDb2dPolyline
 66
     1
 10
0.0
 20
0.0
 30
0.0
  0
VERTEX
  5
7A
330
79
100
AcDbEntity
  8
_U+30EC_U+30A4_U+30E4_U+30FC 1
 62
   179
420
  2234388
370
    25
100
AcDbVertex
100
AcDb2dVertex
 10
85.35500448907908
 20
-138.8559438541752
 30
0.0
  0
VERTEX
  5
7B
330
79
100
AcDbEntity
  8
_U+30EC_U+30A4_U+30E4_U+30FC 1
 62
   179
420
  2234388
370
    25
100
AcDbVertex
100
AcDb2dVertex
 10
97.3549519607127
 20
-138.8559438541752
 30
0.0
  0
SEQEND
  5
7C
330
79
100
AcDbEntity
  8
_U+30EC_U+30A4_U+30E4_U+30FC 1
 62
   179
420
  2234388
370
    25
  0
POLYLINE
  5
7D
330
1F
100
AcDbEntity
  8
_U+30EC_U+30A4_U+30E4_U+30FC 1
 62
   179
420
  2234388
370
    25
100
AcDb2dPolyline
 66
     1
 10
0.0
 20
0.0
 30
0.0
  0
VERTEX
  5
7E
330
7D
100
AcDbEntity
  8
_U+30EC_U+30A4_U+30E4_U+30FC 1
 62
   179
420
  2234388
370
    25
100
AcDbVertex
100
AcDb2dVertex
 10
97.3549519607127
 20
-94.85587664295281
 30
0.0
  0
VERTEX
  5
7F
330
7D
100
AcDbEntity
  8
_U+30EC_U+30A4_U+30E4_U+30FC 1
 62
   179
420
  2234388
370
    25
100
AcDbVertex
100
AcDb2dVertex
 10
97.3549519607127
 20
-138.8559438541752
 30
0.0
  0
SEQEND
  5
80
330
7D
100
AcDbEntity
  8
_U+30EC_U+30A4_U+30E4_U+30FC 1
 62
   179
420
  2234388
370
    25
  0
POLYLINE
  5
81
330
1F
100
AcDbEntity
  8
_U+30EC_U+30A4_U+30E4_U+30FC 1
 62
   179
420
  2234388
370
    25
100
AcDb2dPolyline
 66
     1
 10
0.0
 20
0.0
 30
0.0
  0
VERTEX
  5
82
330
81
100
AcDbEntity
  8
_U+30EC_U+30A4_U+30E4_U+30FC 1
 62
   179
420
  2234388
370
    25
100
AcDbVertex
100
AcDb2dVertex
 10
98.3547241574286
 20
-94.85587664295281
 30
0.0
  0
VERTEX
  5
83
330
81
100
AcDbEntity
  8
_U+30EC_U+30A4_U+30E4_U+30FC 1
 62
   179
420
  2234388
370
    25
100
AcDbVertex
100
AcDb2dVertex
 10
98.3547241574286
 20
-139.8557160761471
 30
0.0
  0
SEQEND
  5
84
330
81
100
AcDbEntity
  8
_U+30EC_U+30A4_U+30E4_U+30FC 1
 62
   179
420
  2234388
370
    25
  0
POLYLINE
  5
85
330
1F
100
AcDbEntity
  8
_U+30EC_U+30A4_U+30E4_U+30FC 1
 62
   179
420
  2234388
370
    25
100
AcDb2dPolyline
 66
     1
 10
0.0
 20
0.0
 30
0.0
  0
VERTEX
  5
86
330
85
100
AcDbEntity
  8
_U+30EC_U+30A4_U+30E4_U+30FC 1
 62
   179
420
  2234388
370
    25
100
AcDbVertex
100
AcDb2dVertex
 10
85.35500448907908
 20
-134.8561846885083
 30
0.0
  0
VERTEX
  5
87
330
85
100
AcDbEntity
  8
_U+30EC_U+30A4_U+30E4_U+30FC 1
 62
   179
420
  2234388
370
    25
100
AcDbVertex
100
AcDb2dVertex
 10
85.35500448907908
 20
-138.8559438541752
 30
0.0
  0
SEQEND
  5
88
330
85
100
AcDbEntity
  8
_U+30EC_U+30A4_U+30E4_U+30FC 1
 62
   179
420
  2234388
370
    25
  0
SPLINE
  5
89
330
1F
100
AcDbEntity
  8
_U+30EC_U+30A4_U+30E4_U+30FC 1
 62
   179
420
  2234388
370
     9
100
AcDbSpline
210
0.0
220
0.0
230
1.0
 70
    11
 71
     3
 72
    17
 73
    13
 74
     0
 42
0.0000000001
 43
0.0000000001
 12
1.0
 22
0.0
 32
0.0
 13
1.0
 23
0.0
 33
0.0
 40
0.0
 40
0.0
 40
0.0
 40
0.0
 40
1.0
 40
1.0
 40
1.0
 40
2.0
 40
2.0
 40
2.0
 40
3.0
 40
3.0
 40
3.0
 40
4.0
 40
4.0
 40
4.0
 40
4.0
 10
103.4548323606473
 20
-94.85587664295281
 30
0.0
 10
103.4548323606473
 20
-94.80041997629982
 30
0.0
 10
103.4100648617895
 20
-94.75561719853341
 30
0.0
 10
103.3549256965295
 20
-94.75561719853341
 30
0.0
 10
103.2998218090464
 20
-94.75561719853341
 30
0.0
 10
103.2550190324117
 20
-94.80041997629982
 30
0.0
 10
103.2550190324117
 20
-94.85587664295281
 30
0.0
 10
103.2550190324117
 20
-94.9113333096055
 30
0.0
 10
103.2998218090464
 20
-94.95578330959445
 30
0.0
 10
103.3549256965295
 20
-94.95578330959445
 30
0.0
 10
103.4100648617895
 20
-94.95578330959445
 30
0.0
 10
103.4548323606473
 20
-94.9113333096055
 30
0.0
 10
103.4548323606473
 20
-94.85587664295281
 30
0.0
  0
SPLINE
  5
8A
330
1F
100
AcDbEntity
  8
_U+30EC_U+30A4_U+30E4_U+30FC 1
 62
   179
420
  2234388
370
     9
100
AcDbSpline
210
0.0
220
0.0
230
1.0
 70
    11
 71
     3
 72
    17
 73
    13
 74
     0
 42
0.0000000001
 43
0.0000000001
 12
1.0
 22
0.0
 32
0.0
 13
1.0
 23
0.0
 33
0.0
 40
0.0
 40
0.0
 40
0.0
 40
0.0
 40
1.0
 40
1.0
 40
1.0
 40
2.0
 40
2.0
 40
2.0
 40
3.0
 40
3.0
 40
3.0
 40
4.0
 40
4.0
 40
4.0
 40
4.0
 10
103.4548323606473
 20
-139.8557160761471
 30
0.0
 10
103.4548323606473
 20
-139.8006121872722
 30
0.0
 10
103.4100648617895
 20
-139.7558094095054
 30
0.0
 10
103.3549256965295
 20
-139.7558094095054
 30
0.0
 10
103.2998218090464
 20
-139.7558094095054
 30
0.0
 10
103.2550190324117
 20
-139.8006121872722
 30
0.0
 10
103.2550190324117
 20
-139.8557160761471
 30
0.0
 10
103.2550190324117
 20
-139.9108552428002
 30
0.0
 10
103.2998218090464
 20
-139.9556227427887
 30
0.0
 10
103.3549256965295
 20
-139.9556227427887
 30
0.0
 10
103.4100648617895
 20
-139.9556227427887
 30
0.0
 10
103.4548323606473
 20
-139.9108552428002
 30
0.0
 10
103.4548323606473
 20
-139.8557160761471
 30
0.0
  0
SPLINE
  5
8B
330
1F
100
AcDbEntity
  8
_U+30EC_U+30A4_U+30E4_U+30FC 1
 62
   179
420
  2234388
370
     9
100
AcDbSpline
210
0.0
220
0.0
230
1.0
 70
    11
 71
     3
 72
    17
 73
    13
 74
     0
 42
0.0000000001
 43
0.0000000001
 12
1.0
 22
0.0
 32
0.0
 13
1.0
 23
0.0
 33
0.0
 40
0.0
 40
0.0
 40
0.0
 40
0.0
 40
1.0
 40
1.0
 40
1.0
 40
2.0
 40
2.0
 40
2.0
 40
3.0
 40
3.0
 40
3.0
 40
4.0
 40
4.0
 40
4.0
 40
4.0
 10
97.4548610867474
 20
-129.8559830230915
 30
0.0
 10
97.4548610867474
 20
-129.8008791342166
 30
0.0
 10
97.41005830898068
 20
-129.7560763564499
 30
0.0
 10
97.3549519607127
 20
-129.7560763564499
 30
0.0
 10
97.29981279545275
 20
-129.7560763564499
 30
0.0
 10
97.25504529659486
 20
-129.8008791342166
 30
0.0
 10
97.25504529659486
 20
-129.8559830230915
 30
0.0
 10
97.25504529659486
 20
-129.9111221897446
 30
0.0
 10
97.29981279545275
 20
-129.9558896897331
 30
0.0
 10
97.3549519607127
 20
-129.9558896897331
 30
0.0
 10
97.41005830898068
 20
-129.9558896897331
 30
0.0
 10
97.4548610867474
 20
-129.9111221897446
 30
0.0
 10
97.4548610867474
 20
-129.8559830230915
 30
0.0
  0
SPLINE
  5
8C
330
1F
100
AcDbEntity
  8
_U+30EC_U+30A4_U+30E4_U+30FC 1
 62
   179
420
  2234388
370
     9
100
AcDbSpline
210
0.0
220
0.0
230
1.0
 70
    11
 71
     3
 72
    17
 73
    13
 74
     0
 42
0.0000000001
 43
0.0000000001
 12
1.0
 22
0.0
 32
0.0
 13
1.0
 23
0.0
 33
0.0
 40
0.0
 40
0.0
 40
0.0
 40
0.0
 40
1.0
 40
1.0
 40
1.0
 40
2.0
 40
2.0
 40
2.0
 40
3.0
 40
3.0
 40
3.0
 40
4.0
 40
4.0
 40
4.0
 40
4.0
 10
87.45512582438941
 20
-129.8559830230915
 30
0.0
 10
87.45512582438941
 20
-129.8008791342166
 30
0.0
 10
87.41032304775466
 20
-129.7560763564499
 30
0.0
 10
87.35521916027157
 20
-129.7560763564499
 30
0.0
 10
87.30007999501163
 20
-129.7560763564499
 30
0.0
 10
87.25531249615375
 20
-129.8008791342166
 30
0.0
 10
87.25531249615375
 20
-129.8559830230915
 30
0.0
 10
87.25531249615375
 20
-129.9111221897446
 30
0.0
 10
87.30007999501163
 20
-129.9558896897331
 30
0.0
 10
87.35521916027157
 20
-129.9558896897331
 30
0.0
 10
87.41032304775466
 20
-129.9558896897331
 30
0.0
 10
87.45512582438941
 20
-129.9111221897446
 30
0.0
 10
87.45512582438941
 20
-129.8559830230915
 30
0.0
  0
SPLINE
  5
8D
330
1F
100
AcDbEntity
  8
_U+30EC_U+30A4_U+30E4_U+30FC 1
 62
   179
420
  2234388
370
     9
100
AcDbSpline
210
0.0
220
0.0
230
1.0
 70
    11
 71
     3
 72
    17
 73
    13
 74
     0
 42
0.0000000001
 43
0.0000000001
 12
1.0
 22
0.0
 32
0.0
 13
1.0
 23
0.0
 33
0.0
 40
0.0
 40
0.0
 40
0.0
 40
0.0
 40
1.0
 40
1.0
 40
1.0
 40
2.0
 40
2.0
 40
2.0
 40
3.0
 40
3.0
 40
3.0
 40
4.0
 40
4.0
 40
4.0
 40
4.0
 10
84.45513895648101
 20
-129.8559830230915
 30
0.0
 10
84.45513895648101
 20
-129.8008791342166
 30
0.0
 10
84.41033617984625
 20
-129.7560763564499
 30
0.0
 10
84.35523229236318
 20
-129.7560763564499
 30
0.0
 10
84.30009312710322
 20
-129.7560763564499
 30
0.0
 10
84.2553277567139
 20
-129.8008791342166
 30
0.0
 10
84.2553277567139
 20
-129.8559830230915
 30
0.0
 10
84.2553277567139
 20
-129.9111221897446
 30
0.0
 10
84.30009312710322
 20
-129.9558896897331
 30
0.0
 10
84.35523229236318
 20
-129.9558896897331
 30
0.0
 10
84.41033617984625
 20
-129.9558896897331
 30
0.0
 10
84.45513895648101
 20
-129.9111221897446
 30
0.0
 10
84.45513895648101
 20
-129.8559830230915
 30
0.0
  0
SPLINE
  5
8E
330
1F
100
AcDbEntity
  8
_U+30EC_U+30A4_U+30E4_U+30FC 1
 62
   179
420
  2234388
370
     9
100
AcDbSpline
210
0.0
220
0.0
230
1.0
 70
    11
 71
     3
 72
    17
 73
    13
 74
     0
 42
0.0000000001
 43
0.0000000001
 12
1.0
 22
0.0
 32
0.0
 13
1.0
 23
0.0
 33
0.0
 40
0.0
 40
0.0
 40
0.0
 40
0.0
 40
1.0
 40
1.0
 40
1.0
 40
2.0
 40
2.0
 40
2.0
 40
3.0
 40
3.0
 40
3.0
 40
4.0
 40
4.0
 40
4.0
 40
4.0
 10
80.4553798918567
 20
-133.8557421887584
 30
0.0
 10
80.4553798918567
 20
-133.8006030221053
 30
0.0
 10
80.41057711522194
 20
-133.7558355221168
 30
0.0
 10
80.35547322773887
 20
-133.7558355221168
 30
0.0
 10
80.29966378471823
 20
-133.7558355221168
 30
0.0
 10
80.25486100808348
 20
-133.8006030221053
 30
0.0
 10
80.25486100808348
 20
-133.8557421887584
 30
0.0
 10
80.25486100808348
 20
-133.9108460776333
 30
0.0
 10
80.29966378471823
 20
-133.9556488554
 30
0.0
 10
80.35547322773887
 20
-133.9556488554
 30
0.0
 10
80.41057711522194
 20
-133.9556488554
 30
0.0
 10
80.4553798918567
 20
-133.9108460776333
 30
0.0
 10
80.4553798918567
 20
-133.8557421887584
 30
0.0
  0
SPLINE
  5
8F
330
1F
100
AcDbEntity
  8
_U+30EC_U+30A4_U+30E4_U+30FC 1
 62
   179
420
  2234388
370
     9
100
AcDbSpline
210
0.0
220
0.0
230
1.0
 70
    11
 71
     3
 72
    17
 73
    13
 74
     0
 42
0.0000000001
 43
0.0000000001
 12
1.0
 22
0.0
 32
0.0
 13
1.0
 23
0.0
 33
0.0
 40
0.0
 40
0.0
 40
0.0
 40
0.0
 40
1.0
 40
1.0
 40
1.0
 40
2.0
 40
2.0
 40
2.0
 40
3.0
 40
3.0
 40
3.0
 40
4.0
 40
4.0
 40
4.0
 40
4.0
 10
80.4553798918567
 20
-156.8559007941194
 30
0.0
 10
80.4553798918567
 20
-156.8007616274663
 30
0.0
 10
80.41057711522194
 20
-156.7559941274778
 30
0.0
 10
80.35547322773887
 20
-156.7559941274778
 30
0.0
 10
80.29966378471823
 20
-156.7559941274778
 30
0.0
 10
80.25486100808348
 20
-156.8007616274663
 30
0.0
 10
80.25486100808348
 20
-156.8559007941194
 30
0.0
 10
80.25486100808348
 20
-156.9110046829943
 30
0.0
 10
80.29966378471823
 20
-156.955807460761
 30
0.0
 10
80.35547322773887
 20
-156.955807460761
 30
0.0
 10
80.41057711522194
 20
-156.955807460761
 30
0.0
 10
80.4553798918567
 20
-156.9110046829943
 30
0.0
 10
80.4553798918567
 20
-156.8559007941194
 30
0.0
  0
SPLINE
  5
90
330
1F
100
AcDbEntity
  8
_U+30EC_U+30A4_U+30E4_U+30FC 1
 62
   179
420
  2234388
370
     9
100
AcDbSpline
210
0.0
220
0.0
230
1.0
 70
    11
 71
     3
 72
    17
 73
    13
 74
     0
 42
0.0000000001
 43
0.0000000001
 12
1.0
 22
0.0
 32
0.0
 13
1.0
 23
0.0
 33
0.0
 40
0.0
 40
0.0
 40
0.0
 40
0.0
 40
1.0
 40
1.0
 40
1.0
 40
2.0
 40
2.0
 40
2.0
 40
3.0
 40
3.0
 40
3.0
 40
4.0
 40
4.0
 40
4.0
 40
4.0
 10
84.45513895648101
 20
-160.8556599597863
 30
0.0
 10
84.45513895648101
 20
-160.8005207931332
 30
0.0
 10
84.41033617984625
 20
-160.7557180153665
 30
0.0
 10
84.35523229236318
 20
-160.7557180153665
 30
0.0
 10
84.30009312710322
 20
-160.7557180153665
 30
0.0
 10
84.2553277567139
 20
-160.8005207931332
 30
0.0
 10
84.2553277567139
 20
-160.8556599597863
 30
0.0
 10
84.2553277567139
 20
-160.9107638486612
 30
0.0
 10
84.30009312710322
 20
-160.9555666264279
 30
0.0
 10
84.35523229236318
 20
-160.9555666264279
 30
0.0
 10
84.41033617984625
 20
-160.9555666264279
 30
0.0
 10
84.45513895648101
 20
-160.9107638486612
 30
0.0
 10
84.45513895648101
 20
-160.8556599597863
 30
0.0
  0
SPLINE
  5
91
330
1F
100
AcDbEntity
  8
_U+30EC_U+30A4_U+30E4_U+30FC 1
 62
   179
420
  2234388
370
     9
100
AcDbSpline
210
0.0
220
0.0
230
1.0
 70
    11
 71
     3
 72
    17
 73
    13
 74
     0
 42
0.0000000001
 43
0.0000000001
 12
1.0
 22
0.0
 32
0.0
 13
1.0
 23
0.0
 33
0.0
 40
0.0
 40
0.0
 40
0.0
 40
0.0
 40
1.0
 40
1.0
 40
1.0
 40
2.0
 40
2.0
 40
2.0
 40
3.0
 40
3.0
 40
3.0
 40
4.0
 40
4.0
 40
4.0
 40
4.0
 10
99.45507329602303
 20
-160.8556599597863
 30
0.0
 10
99.45507329602303
 20
-160.8005207931332
 30
0.0
 10
99.41030830848064
 20
-160.7557180153665
 30
0.0
 10
99.35516663190519
 20
-160.7557180153665
 30
0.0
 10
99.30006274442212
 20
-160.7557180153665
 30
0.0
 10
99.25525996778735
 20
-160.8005207931332
 30
0.0
 10
99.25525996778735
 20
-160.8556599597863
 30
0.0
 10
99.25525996778735
 20
-160.9107638486612
 30
0.0
 10
99.30006274442212
 20
-160.9555666264279
 30
0.0
 10
99.35516663190519
 20
-160.9555666264279
 30
0.0
 10
99.41030830848064
 20
-160.9555666264279
 30
0.0
 10
99.45507329602303
 20
-160.9107638486612
 30
0.0
 10
99.45507329602303
 20
-160.8556599597863
 30
0.0
  0
SPLINE
  5
92
330
1F
100
AcDbEntity
  8
_U+30EC_U+30A4_U+30E4_U+30FC 1
 62
   179
420
  2234388
370
     9
100
AcDbSpline
210
0.0
220
0.0
230
1.0
 70
    11
 71
     3
 72
    17
 73
    13
 74
     0
 42
0.0000000001
 43
0.0000000001
 12
1.0
 22
0.0
 32
0.0
 13
1.0
 23
0.0
 33
0.0
 40
0.0
 40
0.0
 40
0.0
 40
0.0
 40
1.0
 40
1.0
 40
1.0
 40
2.0
 40
2.0
 40
2.0
 40
3.0
 40
3.0
 40
3.0
 40
4.0
 40
4.0
 40
4.0
 40
4.0
 10
103.4548323606473
 20
-156.8559007941194
 30
0.0
 10
103.4548323606473
 20
-156.8007616274663
 30
0.0
 10
103.4100648617895
 20
-156.7559941274778
 30
0.0
 10
103.3549256965295
 20
-156.7559941274778
 30
0.0
 10
103.2998218090464
 20
-156.7559941274778
 30
0.0
 10
103.2550190324117
 20
-156.8007616274663
 30
0.0
 10
103.2550190324117
 20
-156.8559007941194
 30
0.0
 10
103.2550190324117
 20
-156.9110046829943
 30
0.0
 10
103.2998218090464
 20
-156.955807460761
 30
0.0
 10
103.3549256965295
 20
-156.955807460761
 30
0.0
 10
103.4100648617895
 20
-156.955807460761
 30
0.0
 10
103.4548323606473
 20
-156.9110046829943
 30
0.0
 10
103.4548323606473
 20
-156.8559007941194
 30
0.0
  0
SPLINE
  5
93
330
1F
100
AcDbEntity
  8
_U+30EC_U+30A4_U+30E4_U+30FC 1
 62
   179
420
  2234388
370
     9
100
AcDbSpline
210
0.0
220
0.0
230
1.0
 70
    11
 71
     3
 72
    17
 73
    13
 74
     0
 42
0.0000000001
 43
0.0000000001
 12
1.0
 22
0.0
 32
0.0
 13
1.0
 23
0.0
 33
0.0
 40
0.0
 40
0.0
 40
0.0
 40
0.0
 40
1.0
 40
1.0
 40
1.0
 40
2.0
 40
2.0
 40
2.0
 40
3.0
 40
3.0
 40
3.0
 40
4.0
 40
4.0
 40
4.0
 40
4.0
 10
103.4548323606473
 20
-152.8561416284525
 30
0.0
 10
103.4548323606473
 20
-152.8003321840221
 30
0.0
 10
103.4100648617895
 20
-152.7555294062554
 30
0.0
 10
103.3549256965295
 20
-152.7555294062554
 30
0.0
 10
103.2998218090464
 20
-152.7555294062554
 30
0.0
 10
103.2550190324117
 20
-152.8003321840221
 30
0.0
 10
103.2550190324117
 20
-152.8561416284525
 30
0.0
 10
103.2550190324117
 20
-152.9112455173274
 30
0.0
 10
103.2998218090464
 20
-152.9560482950941
 30
0.0
 10
103.3549256965295
 20
-152.9560482950941
 30
0.0
 10
103.4100648617895
 20
-152.9560482950941
 30
0.0
 10
103.4548323606473
 20
-152.9112455173274
 30
0.0
 10
103.4548323606473
 20
-152.8561416284525
 30
0.0
  0
POLYLINE
  5
94
330
1F
100
AcDbEntity
  8
_U+30EC_U+30A4_U+30E4_U+30FC 1
 62
   179
420
  2234388
370
     9
100
AcDb2dPolyline
 66
     1
 10
0.0
 20
0.0
 30
0.0
  0
VERTEX
  5
95
330
94
100
AcDbEntity
  8
_U+30EC_U+30A4_U+30E4_U+30FC 1
 62
   179
420
  2234388
370
     9
100
AcDbVertex
100
AcDb2dVertex
 10
84.35523229236318
 20
-129.8559830230915
 30
0.0
  0
VERTEX
  5
96
330
94
100
AcDbEntity
  8
_U+30EC_U+30A4_U+30E4_U+30FC 1
 62
   179
420
  2234388
370
     9
100
AcDbVertex
100
AcDb2dVertex
 10
87.35521916027157
 20
-129.8559830230915
 30
0.0
  0
SEQEND
  5
97
330
94
100
AcDbEntity
  8
_U+30EC_U+30A4_U+30E4_U+30FC 1
 62
   179
420
  2234388
370
     9
  0
POLYLINE
  5
98
330
1F
100
AcDbEntity
  8
_U+30EC_U+30A4_U+30E4_U+30FC 1
 62
   179
420
  2234388
370
     9
100
AcDb2dPolyline
 66
     1
 10
0.0
 20
0.0
 30
0.0
  0
VERTEX
  5
99
330
98
100
AcDbEntity
  8
_U+30EC_U+30A4_U+30E4_U+30FC 1
 62
   179
420
  2234388
370
     9
100
AcDbVertex
100
AcDb2dVertex
 10
84.35523229236318
 20
-131.3160244116152
 30
0.0
  0
VERTEX
  5
9A
330
98
100
AcDbEntity
  8
_U+30EC_U+30A4_U+30E4_U+30FC 1
 62
   179
420
  2234388
370
     9
100
AcDbVertex
100
AcDb2dVertex
 10
84.35523229236318
 20
-128.8555405233416
 30
0.0
  0
SEQEND
  5
9B
330
98
100
AcDbEntity
  8
_U+30EC_U+30A4_U+30E4_U+30FC 1
 62
   179
420
  2234388
370
     9
  0
POLYLINE
  5
9C
330
1F
100
AcDbEntity
  8
_U+30EC_U+30A4_U+30E4_U+30FC 1
 62
   179
420
  2234388
370
     9
100
AcDb2dPolyline
 66
     1
 10
0.0
 20
0.0
 30
0.0
  0
VERTEX
  5
9D
330
9C
100
AcDbEntity
  8
_U+30EC_U+30A4_U+30E4_U+30FC 1
 62
   179
420
  2234388
370
     9
100
AcDbVertex
100
AcDb2dVertex
 10
87.35521916027157
 20
-131.3160244116152
 30
0.0
  0
VERTEX
  5
9E
330
9C
100
AcDbEntity
  8
_U+30EC_U+30A4_U+30E4_U+30FC 1
 62
   179
420
  2234388
370
     9
100
AcDbVertex
100
AcDb2dVertex
 10
87.35521916027157
 20
-128.8555405233416
 30
0.0
  0
SEQEND
  5
9F
330
9C
100
AcDbEntity
  8
_U+30EC_U+30A4_U+30E4_U+30FC 1
 62
   179
420
  2234388
370
     9
  0
POLYLINE
  5
A0
330
1F
100
AcDbEntity
  8
_U+30EC_U+30A4_U+30E4_U+30FC 1
 62
   179
420
  2234388
370
     9
100
AcDb2dPolyline
 66
     1
 10
0.0
 20
0.0
 30
0.0
  0
VERTEX
  5
A1
330
A0
100
AcDbEntity
  8
_U+30EC_U+30A4_U+30E4_U+30FC 1
 62
   179
420
  2234388
370
     9
100
AcDbVertex
100
AcDb2dVertex
 10
80.35547322773887
 20
-133.8557421887584
 30
0.0
  0
VERTEX
  5
A2
330
A0
100
AcDbEntity
  8
_U+30EC_U+30A4_U+30E4_U+30FC 1
 62
   179
420
  2234388
370
     9
100
AcDbVertex
100
AcDb2dVertex
 10
80.35547322773887
 20
-156.8559007941194
 30
0.0
  0
SEQEND
  5
A3
330
A0
100
AcDbEntity
  8
_U+30EC_U+30A4_U+30E4_U+30FC 1
 62
   179
420
  2234388
370
     9
  0
POLYLINE
  5
A4
330
1F
100
AcDbEntity
  8
_U+30EC_U+30A4_U+30E4_U+30FC 1
 62
   179
420
  2234388
370
     9
100
AcDb2dPolyline
 66
     1
 10
0.0
 20
0.0
 30
0.0
  0
VERTEX
  5
A5
330
A4
100
AcDbEntity
  8
_U+30EC_U+30A4_U+30E4_U+30FC 1
 62
   179
420
  2234388
370
     9
100
AcDbVertex
100
AcDb2dVertex
 10
81.81481109065747
 20
-133.8557421887584
 30
0.0
  0
VERTEX
  5
A6
330
A4
100
AcDbEntity
  8
_U+30EC_U+30A4_U+30E4_U+30FC 1
 62
   179
420
  2234388
370
     9
100
AcDbVertex
100
AcDb2dVertex
 10
79.35503075326228
 20
-133.8557421887584
 30
0.0
  0
SEQEND
  5
A7
330
A4
100
AcDbEntity
  8
_U+30EC_U+30A4_U+30E4_U+30FC 1
 62
   179
420
  2234388
370
     9
  0
POLYLINE
  5
A8
330
1F
100
AcDbEntity
  8
_U+30EC_U+30A4_U+30E4_U+30FC 1
 62
   179
420
  2234388
370
     9
100
AcDb2dPolyline
 66
     1
 10
0.0
 20
0.0
 30
0.0
  0
VERTEX
  5
A9
330
A8
100
AcDbEntity
  8
_U+30EC_U+30A4_U+30E4_U+30FC 1
 62
   179
420
  2234388
370
     9
100
AcDbVertex
100
AcDb2dVertex
 10
81.81481109065747
 20
-156.8559007941194
 30
0.0
  0
VERTEX
  5
AA
330
A8
100
AcDbEntity
  8
_U+30EC_U+30A4_U+30E4_U+30FC 1
 62
   179
420
  2234388
370
     9
100
AcDbVertex
100
AcDb2dVertex
 10
79.35503075326228
 20
-156.8559007941194
 30
0.0
  0
SEQEND
  5
AB
330
A8
100
AcDbEntity
  8
_U+30EC_U+30A4_U+30E4_U+30FC 1
 62
   179
420
  2234388
370
     9
  0
INSERT
  5
AD
330
1F
100
AcDbEntity
  8
_U+30EC_U+30A4_U+30E4_U+30FC 1
100
AcDbBlockReference
  2
block 2
 10
0.0
 20
0.0
 30
0.0
  0
POLYLINE
  5
B4
330
1F
100
AcDbEntity
  8
_U+30EC_U+30A4_U+30E4_U+30FC 1
 62
   179
420
  2234388
370
     9
100
AcDb2dPolyline
 66
     1
 10
0.0
 20
0.0
 30
0.0
  0
VERTEX
  5
B5
330
B4
100
AcDbEntity
  8
_U+30EC_U+30A4_U+30E4_U+30FC 1
 62
   179
420
  2234388
370
     9
100
AcDbVertex
100
AcDb2dVertex
 10
103.3549256965295
 20
-152.8561416284525
 30
0.0
  0
VERTEX
  5
B6
330
B4
100
AcDbEntity
  8
_U+30EC_U+30A4_U+30E4_U+30FC 1
 62
   179
420
  2234388
370
     9
100
AcDbVertex
100
AcDb2dVertex
 10
103.3549256965295
 20
-156.8559007941194
 30
0.0
  0
SEQEND
  5
B7
330
B4
100
AcDbEntity
  8
_U+30EC_U+30A4_U+30E4_U+30FC 1
 62
   179
420
  2234388
370
     9
  0
POLYLINE
  5
B8
330
1F
100
AcDbEntity
  8
_U+30EC_U+30A4_U+30E4_U+30FC 1
 62
   179
420
  2234388
370
     9
100
AcDb2dPolyline
 66
     1
 10
0.0
 20
0.0
 30
0.0
  0
VERTEX
  5
B9
330
B8
100
AcDbEntity
  8
_U+30EC_U+30A4_U+30E4_U+30FC 1
 62
   179
420
  2234388
370
     9
100
AcDbVertex
100
AcDb2dVertex
 10
101.8948843448894
 20
-152.8561416284525
 30
0.0
  0
VERTEX
  5
BA
330
B8
100
AcDbEntity
  8
_U+30EC_U+30A4_U+30E4_U+30FC 1
 62
   179
420
  2234388
370
     9
100
AcDbVertex
100
AcDb2dVertex
 10
104.3553681710061
 20
-152.8561416284525
 30
0.0
  0
SEQEND
  5
BB
330
B8
100
AcDbEntity
  8
_U+30EC_U+30A4_U+30E4_U+30FC 1
 62
   179
420
  2234388
370
     9
  0
POLYLINE
  5
BC
330
1F
100
AcDbEntity
  8
_U+30EC_U+30A4_U+30E4_U+30FC 1
 62
   179
420
  2234388
370
     9
100
AcDb2dPolyline
 66
     1
 10
0.0
 20
0.0
 30
0.0
  0
VERTEX
  5
BD
330
BC
100
AcDbEntity
  8
_U+30EC_U+30A4_U+30E4_U+30FC 1
 62
   179
420
  2234388
370
     9
100
AcDbVertex
100
AcDb2dVertex
 10
101.8948843448894
 20
-156.8559007941194
 30
0.0
  0
VERTEX
  5
BE
330
BC
100
AcDbEntity
  8
_U+30EC_U+30A4_U+30E4_U+30FC 1
 62
   179
420
  2234388
370
     9
100
AcDbVertex
100
AcDb2dVertex
 10
104.3553681710061
 20
-156.8559007941194
 30
0.0
  0
SEQEND
  5
BF
330
BC
100
AcDbEntity
  8
_U+30EC_U+30A4_U+30E4_U+30FC 1
 62
   179
420
  2234388
370
     9
  0
INSERT
  5
C1
330
1F
100
AcDbEntity
  8
_U+30EC_U+30A4_U+30E4_U+30FC 1
100
AcDbBlockReference
  2
block 3
 10
0.0
 20
0.0
 30
0.0
  0
POLYLINE
  5
D9
330
1F
100
AcDbEntity
  8
_U+30EC_U+30A4_U+30E4_U+30FC 1
 62
   179
420
  2234388
370
     9
100
AcDb2dPolyline
 66
     1
 10
0.0
 20
0.0
 30
0.0
  0
VERTEX
  5
DA
330
D9
100
AcDbEntity
  8
_U+30EC_U+30A4_U+30E4_U+30FC 1
 62
   179
420
  2234388
370
     9
100
AcDbVertex
100
AcDb2dVertex
 10
103.3549256965295
 20
-152.8561416284525
 30
0.0
  0
VERTEX
  5
DB
330
D9
100
AcDbEntity
  8
_U+30EC_U+30A4_U+30E4_U+30FC 1
 62
   179
420
  2234388
370
     9
100
AcDbVertex
100
AcDb2dVertex
 10
103.3549256965295
 20
-139.8557160761471
 30
0.0
  0
SEQEND
  5
DC
330
D9
100
AcDbEntity
  8
_U+30EC_U+30A4_U+30E4_U+30FC 1
 62
   179
420
  2234388
370
     9
  0
POLYLINE
  5
DD
330
1F
100
AcDbEntity
  8
_U+30EC_U+30A4_U+30E4_U+30FC 1
 62
   179
420
  2234388
370
     9
100
AcDb2dPolyline
 66
     1
 10
0.0
 20
0.0
 30
0.0
  0
VERTEX
  5
DE
330
DD
100
AcDbEntity
  8
_U+30EC_U+30A4_U+30E4_U+30FC 1
 62
   179
420
  2234388
370
     9
100
AcDbVertex
100
AcDb2dVertex
 10
100.8951499747764
 20
-139.8557160761471
 30
0.0
  0
VERTEX
  5
DF
330
DD
100
AcDbEntity
  8
_U+30EC_U+30A4_U+30E4_U+30FC 1
 62
   179
420
  2234388
370
     9
100
AcDbVertex
100
AcDb2dVertex
 10
104.3553681710061
 20
-139.8557160761471
 30
0.0
  0
SEQEND
  5
E0
330
DD
100
AcDbEntity
  8
_U+30EC_U+30A4_U+30E4_U+30FC 1
 62
   179
420
  2234388
370
     9
  0
INSERT
  5
E2
330
1F
100
AcDbEntity
  8
_U+30EC_U+30A4_U+30E4_U+30FC 1
100
AcDbBlockReference
  2
block 4
 10
0.0
 20
0.0
 30
0.0
  0
POLYLINE
  5
E9
330
1F
100
AcDbEntity
  8
_U+30EC_U+30A4_U+30E4_U+30FC 1
 62
   179
420
  2234388
370
     9
100
AcDb2dPolyline
 66
     1
 10
0.0
 20
0.0
 30
0.0
  0
VERTEX
  5
EA
330
E9
100
AcDbEntity
  8
_U+30EC_U+30A4_U+30E4_U+30FC 1
 62
   179
420
  2234388
370
     9
100
AcDbVertex
100
AcDb2dVertex
 10
103.3549256965295
 20
-139.8557160761471
 30
0.0
  0
VERTEX
  5
EB
330
E9
100
AcDbEntity
  8
_U+30EC_U+30A4_U+30E4_U+30FC 1
 62
   179
420
  2234388
370
     9
100
AcDbVertex
100
AcDb2dVertex
 10
103.3549256965295
 20
-94.85587664295281
 30
0.0
  0
SEQEND
  5
EC
330
E9
100
AcDbEntity
  8
_U+30EC_U+30A4_U+30E4_U+30FC 1
 62
   179
420
  2234388
370
     9
  0
POLYLINE
  5
ED
330
1F
100
AcDbEntity
  8
_U+30EC_U+30A4_U+30E4_U+30FC 1
 62
   179
420
  2234388
370
     9
100
AcDb2dPolyline
 66
     1
 10
0.0
 20
0.0
 30
0.0
  0
VERTEX
  5
EE
330
ED
100
AcDbEntity
  8
_U+30EC_U+30A4_U+30E4_U+30FC 1
 62
   179
420
  2234388
370
     9
100
AcDbVertex
100
AcDb2dVertex
 10
100.8951499747764
 20
-94.85587664295281
 30
0.0
  0
VERTEX
  5
EF
330
ED
100
AcDbEntity
  8
_U+30EC_U+30A4_U+30E4_U+30FC 1
 62
   179
420
  2234388
370
     9
100
AcDbVertex
100
AcDb2dVertex
 10
104.3553681710061
 20
-94.85587664295281
 30
0.0
  0
SEQEND
  5
F0
330
ED
100
AcDbEntity
  8
_U+30EC_U+30A4_U+30E4_U+30FC 1
 62
   179
420
  2234388
370
     9
  0
INSERT
  5
F2
330
1F
100
AcDbEntity
  8
_U+30EC_U+30A4_U+30E4_U+30FC 1
100
AcDbBlockReference
  2
block 5
 10
0.0
 20
0.0
 30
0.0
  0
POLYLINE
  5
10C
330
1F
100
AcDbEntity
  8
_U+30EC_U+30A4_U+30E4_U+30FC 1
 62
   179
420
  2234388
370
     9
100
AcDb2dPolyline
 66
     1
 10
0.0
 20
0.0
 30
0.0
  0
VERTEX
  5
10D
330
10C
100
AcDbEntity
  8
_U+30EC_U+30A4_U+30E4_U+30FC 1
 62
   179
420
  2234388
370
     9
100
AcDbVertex
100
AcDb2dVertex
 10
84.35523229236318
 20
-160.8556599597863
 30
0.0
  0
VERTEX
  5
10E
330
10C
100
AcDbEntity
  8
_U+30EC_U+30A4_U+30E4_U+30FC 1
 62
   179
420
  2234388
370
     9
100
AcDbVertex
100
AcDb2dVertex
 10
99.35516663190519
 20
-160.8556599597863
 30
0.0
  0
SEQEND
  5
10F
330
10C
100
AcDbEntity
  8
_U+30EC_U+30A4_U+30E4_U+30FC 1
 62
   179
420
  2234388
370
     9
  0
POLYLINE
  5
110
330
1F
100
AcDbEntity
  8
_U+30EC_U+30A4_U+30E4_U+30FC 1
 62
   179
420
  2234388
370
     9
100
AcDb2dPolyline
 66
     1
 10
0.0
 20
0.0
 30
0.0
  0
VERTEX
  5
111
330
110
100
AcDbEntity
  8
_U+30EC_U+30A4_U+30E4_U+30FC 1
 62
   179
420
  2234388
370
     9
100
AcDbVertex
100
AcDb2dVertex
 10
84.35523229236318
 20
-159.3956185712619
 30
0.0
  0
VERTEX
  5
112
330
110
100
AcDbEntity
  8
_U+30EC_U+30A4_U+30E4_U+30FC 1
 62
   179
420
  2234388
370
     9
100
AcDbVertex
100
AcDb2dVertex
 10
84.35523229236318
 20
-161.8561024595362
 30
0.0
  0
SEQEND
  5
113
330
110
100
AcDbEntity
  8
_U+30EC_U+30A4_U+30E4_U+30FC 1
 62
   179
420
  2234388
370
     9
  0
POLYLINE
  5
114
330
1F
100
AcDbEntity
  8
_U+30EC_U+30A4_U+30E4_U+30FC 1
 62
   179
420
  2234388
370
     9
100
AcDb2dPolyline
 66
     1
 10
0.0
 20
0.0
 30
0.0
  0
VERTEX
  5
115
330
114
100
AcDbEntity
  8
_U+30EC_U+30A4_U+30E4_U+30FC 1
 62
   179
420
  2234388
370
     9
100
AcDbVertex
100
AcDb2dVertex
 10
99.35516663190519
 20
-159.3956185712619
 30
0.0
  0
VERTEX
  5
116
330
114
100
AcDbEntity
  8
_U+30EC_U+30A4_U+30E4_U+30FC 1
 62
   179
420
  2234388
370
     9
100
AcDbVertex
100
AcDb2dVertex
 10
99.35516663190519
 20
-161.8561024595362
 30
0.0
  0
SEQEND
  5
117
330
114
100
AcDbEntity
  8
_U+30EC_U+30A4_U+30E4_U+30FC 1
 62
   179
420
  2234388
370
     9
  0
INSERT
  5
119
330
1F
100
AcDbEntity
  8
_U+30EC_U+30A4_U+30E4_U+30FC 1
100
AcDbBlockReference
  2
block 6
 10
0.0
 20
0.0
 30
0.0
  0
POLYLINE
  5
120
330
1F
100
AcDbEntity
  8
_U+30EC_U+30A4_U+30E4_U+30FC 1
 62
   179
420
  2234388
370
     9
100
AcDb2dPolyline
 66
     1
 10
0.0
 20
0.0
 30
0.0
  0
VERTEX
  5
121
330
120
100
AcDbEntity
  8
_U+30EC_U+30A4_U+30E4_U+30FC 1
 62
   179
420
  2234388
370
     9
100
AcDbVertex
100
AcDb2dVertex
 10
87.35521916027157
 20
-129.8559830230915
 30
0.0
  0
VERTEX
  5
122
330
120
100
AcDbEntity
  8
_U+30EC_U+30A4_U+30E4_U+30FC 1
 62
   179
420
  2234388
370
     9
100
AcDbVertex
100
AcDb2dVertex
 10
97.3549519607127
 20
-129.8559830230915
 30
0.0
  0
SEQEND
  5
123
330
120
100
AcDbEntity
  8
_U+30EC_U+30A4_U+30E4_U+30FC 1
 62
   179
420
  2234388
370
     9
  0
INSERT
  5
125
330
1F
100
AcDbEntity
  8
_U+30EC_U+30A4_U+30E4_U+30FC 1
100
AcDbBlockReference
  2
block 7
 10
0.0
 20
0.0
 30
0.0
  0
INSERT
  5
12E
330
1F
100
AcDbEntity
  8
_U+30EC_U+30A4_U+30E4_U+30FC 1
100
AcDbBlockReference
  2
block 8
 10
0.0
 20
0.0
 30
0.0
  0
POLYLINE
  5
133
330
1F
100
AcDbEntity
  8
_U+30EC_U+30A4_U+30E4_U+30FC 1
 62
   179
420
  2234388
370
     9
100
AcDb2dPolyline
 66
     1
 10
0.0
 20
0.0
 30
0.0
  0
VERTEX
  5
134
330
133
100
AcDbEntity
  8
_U+30EC_U+30A4_U+30E4_U+30FC 1
 62
   179
420
  2234388
370
     9
100
AcDbVertex
100
AcDb2dVertex
 10
98.58621941979801
 20
-104.8421688626785
 30
0.0
  0
VERTEX
  5
135
330
133
100
AcDbEntity
  8
_U+30EC_U+30A4_U+30E4_U+30FC 1
 62
   179
420
  2234388
370
     9
100
AcDbVertex
100
AcDb2dVertex
 10
95.31614340161593
 20
-104.8421688626785
 30
0.0
  0
SEQEND
  5
136
330
133
100
AcDbEntity
  8
_U+30EC_U+30A4_U+30E4_U+30FC 1
 62
   179
420
  2234388
370
     9
  0
POLYLINE
  5
137
330
1F
100
AcDbEntity
  8
_U+30EC_U+30A4_U+30E4_U+30FC 1
 62
   179
420
  2234388
370
     9
100
AcDb2dPolyline
 66
     1
 10
0.0
 20
0.0
 30
0.0
  0
VERTEX
  5
138
330
137
100
AcDbEntity
  8
_U+30EC_U+30A4_U+30E4_U+30FC 1
 62
   179
420
  2234388
370
     9
100
AcDbVertex
100
AcDb2dVertex
 10
100.586469419298
 20
-104.8421688626785
 30
0.0
  0
VERTEX
  5
139
330
137
100
AcDbEntity
  8
_U+30EC_U+30A4_U+30E4_U+30FC 1
 62
   179
420
  2234388
370
     9
100
AcDbVertex
100
AcDb2dVertex
 10
98.58621941979801
 20
-104.8421688626785
 30
0.0
  0
SEQEND
  5
13A
330
137
100
AcDbEntity
  8
_U+30EC_U+30A4_U+30E4_U+30FC 1
 62
   179
420
  2234388
370
     9
  0
INSERT
  5
13C
330
1F
100
AcDbEntity
  8
_U+30EC_U+30A4_U+30E4_U+30FC 1
100
AcDbBlockReference
  2
block 9
 10
0.0
 20
0.0
 30
0.0
  0
ENDSEC
  0
SECTION
  2
OBJECTS
  0
DICTIONARY
  5
C
330
0
100
AcDbDictionary
281
     1
  3
ACAD_GROUP
350
D
  3
ACAD_LAYOUT
350
1A
  3
ACAD_MATERIAL
350
3B
  3
ACAD_MLEADERSTYLE
350
142
  3
ACAD_MLINESTYLE
350
17
  3
ACAD_PLOTSETTINGS
350
19
  3
ACAD_PLOTSTYLENAME
350
E
  3
ACAD_TABLESTYLE
350
141
  3
ACAD_VISUALSTYLE
350
2A
  0
SUN
  5
3F
330
29
100
AcDbSun
 90
        1
290
     0
 63
     7
421
 16777215
 40
1.0
291
     1
 91
  2455826
 92
 54000000
292
     0
 70
     2
 71
   256
280
     1
  0
DICTIONARY
  5
D
102
{ACAD_REACTORS
330
C
102
}
330
C
100
AcDbDictionary
281
     1
  0
DICTIONARY
  5
1A
102
{ACAD_REACTORS
330
C
102
}
330
C
100
AcDbDictionary
281
     1
  3
Layout1
350
1E
  3
Layout2
350
26
  3
Model
350
22
  0
DICTIONARY
  5
3B
102
{ACAD_REACTORS
330
C
102
}
330
C
100
AcDbDictionary
281
     1
  3
ByBlock
350
3D
  3
ByLayer
350
3C
  3
Global
350
3E
  0
DICTIONARY
  5
142
102
{ACAD_REACTORS
330
C
102
}
330
C
100
AcDbDictionary
281
     1
  0
DICTIONARY
  5
17
102
{ACAD_REACTORS
330
C
102
}
330
C
100
AcDbDictionary
281
     1
  3
Standard
350
18
  0
DICTIONARY
  5
19
102
{ACAD_REACTORS
330
C
102
}
330
C
100
AcDbDictionary
281
     1
  0
ACDBDICTIONARYWDFLT
  5
E
102
{ACAD_REACTORS
330
C
102
}
330
C
100
AcDbDictionary
281
     1
  3
Normal
350
F
100
AcDbDictionaryWithDefault
340
F
  0
DICTIONARY
  5
141
102
{ACAD_REACTORS
330
C
102
}
330
C
100
AcDbDictionary
281
     1
  0
DICTIONARY
  5
2A
102
{ACAD_REACTORS
330
C
102
}
330
C
100
AcDbDictionary
281
     1
  3
2dWireframe
350
2F
  3
3D Hidden
350
31
  3
3dWireframe
350
30
  3
Basic
350
32
  3
Brighten
350
36
  3
ColorChange
350
3A
  3
Conceptual
350
34
  3
Dim
350
35
  3
Facepattern
350
39
  3
Flat
350
2B
  3
FlatWithEdges
350
2C
  3
Gouraud
350
2D
  3
GouraudWithEdges
350
2E
  3
Linepattern
350
38
  3
Realistic
350
33
  3
Thicken
350
37
  0
LAYOUT
  5
1E
102
{ACAD_REACTORS
330
1A
102
}
330
1A
100
AcDbPlotSettings
  1

  2
none_device
  4

  6

 40
0.0
 41
0.0
 42
0.0
 43
0.0
 44
0.0
 45
0.0
 46
0.0
 47
0.0
 48
0.0
 49
0.0
140
0.0
141
0.0
142
1.0
143
1.0
 70
   688
 72
     0
 73
     0
 74
     5
  7

 75
    16
 76
     0
 77
     2
 78
   300
147
1.0
148
0.0
149
0.0
100
AcDbLayout
  1
Layout1
 70
     1
 71
     1
 10
0.0
 20
0.0
 11
12.0
 21
9.0
 12
0.0
 22
0.0
 32
0.0
 14
1.000000000000000E+20
 24
1.000000000000000E+20
 34
1.000000000000000E+20
 15
-1.000000000000000E+20
 25
-1.000000000000000E+20
 35
-1.000000000000000E+20
146
0.0
 13
0.0
 23
0.0
 33
0.0
 16
1.0
 26
0.0
 36
0.0
 17
0.0
 27
1.0
 37
0.0
 76
     0
330
1B
  0
LAYOUT
  5
26
102
{ACAD_REACTORS
330
1A
102
}
330
1A
100
AcDbPlotSettings
  1

  2
none_device
  4

  6

 40
0.0
 41
0.0
 42
0.0
 43
0.0
 44
0.0
 45
0.0
 46
0.0
 47
0.0
 48
0.0
 49
0.0
140
0.0
141
0.0
142
1.0
143
1.0
 70
   688
 72
     0
 73
     0
 74
     5
  7

 75
    16
 76
     0
 77
     2
 78
   300
147
1.0
148
0.0
149
0.0
100
AcDbLayout
  1
Layout2
 70
     1
 71
     2
 10
0.0
 20
0.0
 11
0.0
 21
0.0
 12
0.0
 22
0.0
 32
0.0
 14
0.0
 24
0.0
 34
0.0
 15
0.0
 25
0.0
 35
0.0
146
0.0
 13
0.0
 23
0.0
 33
0.0
 16
1.0
 26
0.0
 36
0.0
 17
0.0
 27
1.0
 37
0.0
 76
     0
330
23
  0
LAYOUT
  5
22
102
{ACAD_REACTORS
330
1A
102
}
330
1A
100
AcDbPlotSettings
  1

  2
none_device
  4

  6

 40
0.0
 41
0.0
 42
0.0
 43
0.0
 44
0.0
 45
0.0
 46
0.0
 47
0.0
 48
0.0
 49
0.0
140
0.0
141
0.0
142
1.0
143
1.0
 70
  1712
 72
     0
 73
     0
 74
     0
  7

 75
     0
 76
     0
 77
     2
 78
   300
147
1.0
148
0.0
149
0.0
100
AcDbLayout
  1
Model
 70
     1
 71
     0
 10
0.0
 20
0.0
 11
12.0
 21
9.0
 12
0.0
 22
0.0
 32
0.0
 14
1.000000000000000E+20
 24
1.000000000000000E+20
 34
1.000000000000000E+20
 15
-1.000000000000000E+20
 25
-1.000000000000000E+20
 35
-1.000000000000000E+20
146
0.0
 13
0.0
 23
0.0
 33
0.0
 16
1.0
 26
0.0
 36
0.0
 17
0.0
 27
1.0
 37
0.0
 76
     0
330
1F
331
29
  0
MATERIAL
  5
3D
102
{ACAD_REACTORS
330
3B
102
}
330
3B
100
AcDbMaterial
  1
ByBlock
 72
     1
 94
      127
  0
MATERIAL
  5
3C
102
{ACAD_REACTORS
330
3B
102
}
330
3B
100
AcDbMaterial
  1
ByLayer
 72
     1
 94
      127
  0
MATERIAL
  5
3E
102
{ACAD_REACTORS
330
3B
102
}
330
3B
100
AcDbMaterial
  1
Global
 72
     1
 94
      127
  0
MLINESTYLE
  5
18
102
{ACAD_REACTORS
330
17
102
}
330
17
100
AcDbMlineStyle
  2
Standard
 70
     0
  3

 62
   256
 51
90.0
 52
90.0
 71
     2
 49
0.5
 62
   256
  6
BYLAYER
 49
-0.5
 62
   256
  6
BYLAYER
  0
ACDBPLACEHOLDER
  5
F
102
{ACAD_REACTORS
330
E
102
}
330
E
  0
VISUALSTYLE
  5
2F
102
{ACAD_REACTORS
330
2A
102
}
330
2A
100
AcDbVisualStyle
  2
2dWireframe
 70
     4
177
     2
291
     0
 71
     0
176
     1
 72
     2
176
     1
 73
     0
176
     1
 90
        0
176
     1
 40
-0.6
176
     1
 41
-30.0
176
     1
 62
     5
 63
     7
421
 16777215
176
     1
 74
     1
176
     1
 91
        4
176
     1
 64
     7
176
     1
 65
   257
176
     1
 75
     1
176
     1
175
     1
176
     1
 42
1.0
176
     1
 92
        0
176
     1
 66
   257
176
     1
 43
1.0
176
     1
 76
     1
176
     1
 77
     6
176
     1
 78
     2
176
     1
 67
     7
176
     1
 79
     5
176
     1
170
     0
176
     1
171
     0
176
     1
290
     0
176
     1
 93
        1
176
     1
 44
0.0
176
     1
173
     0
176
     1
  0
VISUALSTYLE
  5
31
102
{ACAD_REACTORS
330
2A
102
}
330
2A
100
AcDbVisualStyle
  2
3D Hidden
 70
     6
177
     2
291
     0
 71
     1
176
     1
 72
     2
176
     1
 73
     2
176
     1
 90
        0
176
     1
 40
-0.6
176
     1
 41
-30.0
176
     1
 62
     5
 63
     7
421
 16777215
176
     1
 74
     2
176
     1
 91
        2
176
     1
 64
     7
176
     1
 65
   257
176
     1
 75
     2
176
     1
175
     1
176
     1
 42
40.0
176
     1
 92
        0
176
     1
 66
   257
176
     1
 43
1.0
176
     1
 76
     1
176
     1
 77
     6
176
     1
 78
     2
176
     1
 67
     7
176
     1
 79
     3
176
     1
170
     0
176
     1
171
     0
176
     1
290
     0
176
     1
 93
        1
176
     1
 44
0.0
176
     1
173
     0
176
     1
  0
VISUALSTYLE
  5
30
102
{ACAD_REACTORS
330
2A
102
}
330
2A
100
AcDbVisualStyle
  2
3dWireframe
 70
     5
177
     2
291
     0
 71
     0
176
     1
 72
     2
176
     1
 73
     0
176
     1
 90
        0
176
     1
 40
-0.6
176
     1
 41
-30.0
176
     1
 62
     5
 63
     7
421
 16777215
176
     1
 74
     1
176
     1
 91
        4
176
     1
 64
     7
176
     1
 65
   257
176
     1
 75
     1
176
     1
175
     1
176
     1
 42
1.0
176
     1
 92
        0
176
     1
 66
   257
176
     1
 43
1.0
176
     1
 76
     1
176
     1
 77
     6
176
     1
 78
     2
176
     1
 67
     7
176
     1
 79
     5
176
     1
170
     0
176
     1
171
     0
176
     1
290
     0
176
     1
 93
        1
176
     1
 44
0.0
176
     1
173
     0
176
     1
  0
VISUALSTYLE
  5
32
102
{ACAD_REACTORS
330
2A
102
}
330
2A
100
AcDbVisualStyle
  2
Basic
 70
     7
177
     2
291
     1
 71
     1
176
     1
 72
     0
176
     1
 73
     1
176
     1
 90
        0
176
     1
 40
-0.6
176
     1
 41
-30.0
176
     1
 62
     5
 63
     7
421
 16777215
176
     1
 74
     0
176
     1
 91
        4
176
     1
 64
     7
176
     1
 65
   257
176
     1
 75
     1
176
     1
175
     1
176
     1
 42
1.0
176
     1
 92
        8
176
     1
 66
     7
176
     1
 43
1.0
176
     1
 76
     1
176
     1
 77
     6
176
     1
 78
     2
176
     1
 67
     7
176
     1
 79
     5
176
     1
170
     0
176
     1
171
     0
176
     1
290
     0
176
     1
 93
        1
176
     1
 44
0.0
176
     1
173
     0
176
     1
  0
VISUALSTYLE
  5
36
102
{ACAD_REACTORS
330
2A
102
}
330
2A
100
AcDbVisualStyle
  2
Brighten
 70
    12
177
     2
291
     1
 71
     2
176
     1
 72
     2
176
     1
 73
     0
176
     1
 90
        0
176
     1
 40
-0.6
176
     1
 41
-30.0
176
     1
 62
     5
 63
     7
421
 16777215
176
     1
 74
     1
176
     1
 91
        4
176
     1
 64
     7
176
     1
 65
   257
176
     1
 75
     1
176
     1
175
     1
176
     1
 42
1.0
176
     1
 92
        8
176
     1
 66
     7
176
     1
 43
1.0
176
     1
 76
     1
176
     1
 77
     6
176
     1
 78
     2
176
     1
 67
     7
176
     1
 79
     5
176
     1
170
     0
176
     1
171
     0
176
     1
290
     0
176
     1
 93
        1
176
     1
 44
50.0
176
     1
173
     0
176
     1
  0
VISUALSTYLE
  5
3A
102
{ACAD_REACTORS
330
2A
102
}
330
2A
100
AcDbVisualStyle
  2
ColorChange
 70
    16
177
     2
291
     1
 71
     2
176
     1
 72
     2
176
     1
 73
     3
176
     1
 90
        0
176
     1
 40
-0.6
176
     1
 41
-30.0
176
     1
 62
     5
 63
     8
421
  8421504
176
     1
 74
     1
176
     1
 91
        4
176
     1
 64
     7
176
     1
 65
   257
176
     1
 75
     1
176
     1
175
     1
176
     1
 42
1.0
176
     1
 92
        8
176
     1
 66
     8
424
  8421504
176
     1
 43
1.0
176
     1
 76
     1
176
     1
 77
     6
176
     1
 78
     2
176
     1
 67
     7
176
     1
 79
     5
176
     1
170
     0
176
     1
171
     0
176
     1
290
     0
176
     1
 93
        1
176
     1
 44
0.0
176
     1
173
     0
176
     1
  0
VISUALSTYLE
  5
34
102
{ACAD_REACTORS
330
2A
102
}
330
2A
100
AcDbVisualStyle
  2
Conceptual
 70
     9
177
     2
291
     0
 71
     3
176
     1
 72
     2
176
     1
 73
     0
176
     1
 90
        0
176
     1
 40
-0.6
176
     1
 41
-30.0
176
     1
 62
     5
 63
     7
421
 16777215
176
     1
 74
     2
176
     1
 91
        2
176
     1
 64
     7
176
     1
 65
   257
176
     1
 75
     1
176
     1
175
     1
176
     1
 42
40.0
176
     1
 92
        8
176
     1
 66
     7
176
     1
 43
1.0
176
     1
 76
     1
176
     1
 77
     6
176
     1
 78
     2
176
     1
 67
     7
176
     1
 79
     3
176
     1
170
     0
176
     1
171
     0
176
     1
290
     0
176
     1
 93
        1
176
     1
 44
0.0
176
     1
173
     0
176
     1
  0
VISUALSTYLE
  5
35
102
{ACAD_REACTORS
330
2A
102
}
330
2A
100
AcDbVisualStyle
  2
Dim
 70
    11
177
     2
291
     1
 71
     2
176
     1
 72
     2
176
     1
 73
     0
176
     1
 90
        0
176
     1
 40
-0.6
176
     1
 41
-30.0
176
     1
 62
     5
 63
     7
421
 16777215
176
     1
 74
     1
176
     1
 91
        4
176
     1
 64
     7
176
     1
 65
   257
176
     1
 75
     1
176
     1
175
     1
176
     1
 42
1.0
176
     1
 92
        8
176
     1
 66
     7
176
     1
 43
1.0
176
     1
 76
     1
176
     1
 77
     6
176
     1
 78
     2
176
     1
 67
     7
176
     1
 79
     5
176
     1
170
     0
176
     1
171
     0
176
     1
290
     0
176
     1
 93
        1
176
     1
 44
-50.0
176
     1
173
     0
176
     1
  0
VISUALSTYLE
  5
39
102
{ACAD_REACTORS
330
2A
102
}
330
2A
100
AcDbVisualStyle
  2
Facepattern
 70
    15
177
     2
291
     1
 71
     2
176
     1
 72
     2
176
     1
 73
     0
176
     1
 90
        0
176
     1
 40
-0.6
176
     1
 41
-30.0
176
     1
 62
     5
 63
     7
421
 16777215
176
     1
 74
     1
176
     1
 91
        4
176
     1
 64
     7
176
     1
 65
   257
176
     1
 75
     1
176
     1
175
     1
176
     1
 42
1.0
176
     1
 92
        8
176
     1
 66
     7
176
     1
 43
1.0
176
     1
 76
     1
176
     1
 77
     6
176
     1
 78
     2
176
     1
 67
     7
176
     1
 79
     5
176
     1
170
     0
176
     1
171
     0
176
     1
290
     0
176
     1
 93
        1
176
     1
 44
0.0
176
     1
173
     0
176
     1
  0
VISUALSTYLE
  5
2B
102
{ACAD_REACTORS
330
2A
102
}
330
2A
100
AcDbVisualStyle
  2
Flat
 70
     0
177
     2
291
     1
 71
     2
176
     1
 72
     1
176
     1
 73
     1
176
     1
 90
        2
176
     1
 40
-0.6
176
     1
 41
30.0
176
     1
 62
     5
 63
     7
421
 16777215
176
     1
 74
     0
176
     1
 91
        4
176
     1
 64
     7
176
     1
 65
   257
176
     1
 75
     1
176
     1
175
     1
176
     1
 42
1.0
176
     1
 92
        8
176
     1
 66
     7
176
     1
 43
1.0
176
     1
 76
     1
176
     1
 77
     6
176
     1
 78
     2
176
     1
 67
     7
176
     1
 79
     5
176
     1
170
     0
176
     1
171
     0
176
     1
290
     0
176
     1
 93
       13
176
     1
 44
0.0
176
     1
173
     0
176
     1
  0
VISUALSTYLE
  5
2C
102
{ACAD_REACTORS
330
2A
102
}
330
2A
100
AcDbVisualStyle
  2
FlatWithEdges
 70
     1
177
     2
291
     1
 71
     2
176
     1
 72
     1
176
     1
 73
     1
176
     1
 90
        2
176
     1
 40
-0.6
176
     1
 41
30.0
176
     1
 62
     5
 63
     7
421
 16777215
176
     1
 74
     1
176
     1
 91
        4
176
     1
 64
     7
176
     1
 65
   257
176
     1
 75
     1
176
     1
175
     1
176
     1
 42
1.0
176
     1
 92
        0
176
     1
 66
   257
176
     1
 43
1.0
176
     1
 76
     1
176
     1
 77
     6
176
     1
 78
     2
176
     1
 67
     7
176
     1
 79
     5
176
     1
170
     0
176
     1
171
     0
176
     1
290
     0
176
     1
 93
       13
176
     1
 44
0.0
176
     1
173
     0
176
     1
  0
VISUALSTYLE
  5
2D
102
{ACAD_REACTORS
330
2A
102
}
330
2A
100
AcDbVisualStyle
  2
Gouraud
 70
     2
177
     2
291
     1
 71
     2
176
     1
 72
     2
176
     1
 73
     1
176
     1
 90
        2
176
     1
 40
-0.6
176
     1
 41
30.0
176
     1
 62
     5
 63
     7
421
 16777215
176
     1
 74
     0
176
     1
 91
        4
176
     1
 64
     7
176
     1
 65
   257
176
     1
 75
     1
176
     1
175
     1
176
     1
 42
1.0
176
     1
 92
        0
176
     1
 66
     7
176
     1
 43
1.0
176
     1
 76
     1
176
     1
 77
     6
176
     1
 78
     2
176
     1
 67
     7
176
     1
 79
     5
176
     1
170
     0
176
     1
171
     0
176
     1
290
     0
176
     1
 93
       13
176
     1
 44
0.0
176
     1
173
     0
176
     1
  0
VISUALSTYLE
  5
2E
102
{ACAD_REACTORS
330
2A
102
}
330
2A
100
AcDbVisualStyle
  2
GouraudWithEdges
 70
     3
177
     2
291
     1
 71
     2
176
     1
 72
     2
176
     1
 73
     1
176
     1
 90
        2
176
     1
 40
-0.6
176
     1
 41
30.0
176
     1
 62
     5
 63
     7
421
 16777215
176
     1
 74
     1
176
     1
 91
        4
176
     1
 64
     7
176
     1
 65
   257
176
     1
 75
     1
176
     1
175
     1
176
     1
 42
1.0
176
     1
 92
        0
176
     1
 66
   257
176
     1
 43
1.0
176
     1
 76
     1
176
     1
 77
     6
176
     1
 78
     2
176
     1
 67
     7
176
     1
 79
     5
176
     1
170
     0
176
     1
171
     0
176
     1
290
     0
176
     1
 93
       13
176
     1
 44
0.0
176
     1
173
     0
176
     1
  0
VISUALSTYLE
  5
38
102
{ACAD_REACTORS
330
2A
102
}
330
2A
100
AcDbVisualStyle
  2
Linepattern
 70
    14
177
     2
291
     1
 71
     2
176
     1
 72
     2
176
     1
 73
     0
176
     1
 90
        0
176
     1
 40
-0.6
176
     1
 41
-30.0
176
     1
 62
     5
 63
     7
421
 16777215
176
     1
 74
     1
176
     1
 91
        4
176
     1
 64
     7
176
     1
 65
   257
176
     1
 75
     7
176
     1
175
     7
176
     1
 42
1.0
176
     1
 92
        8
176
     1
 66
     7
176
     1
 43
1.0
176
     1
 76
     1
176
     1
 77
     6
176
     1
 78
     2
176
     1
 67
     7
176
     1
 79
     5
176
     1
170
     0
176
     1
171
     0
176
     1
290
     0
176
     1
 93
        1
176
     1
 44
0.0
176
     1
173
     0
176
     1
  0
VISUALSTYLE
  5
33
102
{ACAD_REACTORS
330
2A
102
}
330
2A
100
AcDbVisualStyle
  2
Realistic
 70
     8
177
     2
291
     0
 71
     2
176
     1
 72
     2
176
     1
 73
     0
176
     1
 90
        0
176
     1
 40
-0.6
176
     1
 41
-30.0
176
     1
 62
     5
 63
     7
421
 16777215
176
     1
 74
     1
176
     1
 91
        0
176
     1
 64
     7
176
     1
 65
   257
176
     1
 75
     1
176
     1
175
     1
176
     1
 42
1.0
176
     1
 92
        8
176
     1
 66
     8
424
  7895160
176
     1
 43
1.0
176
     1
 76
     1
176
     1
 77
     6
176
     1
 78
     2
176
     1
 67
     7
176
     1
 79
     5
176
     1
170
     0
176
     1
171
     0
176
     1
290
     0
176
     1
 93
       13
176
     1
 44
0.0
176
     1
173
     0
176
     1
  0
VISUALSTYLE
  5
37
102
{ACAD_REACTORS
330
2A
102
}
330
2A
100
AcDbVisualStyle
  2
Thicken
 70
    13
177
     2
291
     1
 71
     2
176
     1
 72
     2
176
     1
 73
     0
176
     1
 90
        0
176
     1
 40
-0.6
176
     1
 41
-30.0
176
     1
 62
     5
 63
     7
421
 16777215
176
     1
 74
     1
176
     1
 91
        4
176
     1
 64
     7
176
     1
 65
   257
176
     1
 75
     1
176
     1
175
     1
176
     1
 42
1.0
176
     1
 92
       12
176
     1
 66
     7
176
     1
 43
1.0
176
     1
 76
     1
176
     1
 77
     6
176
     1
 78
     2
176
     1
 67
     7
176
     1
 79
     5
176
     1
170
     0
176
     1
171
     0
176
     1
290
     0
176
     1
 93
        1
176
     1
 44
0.0
176
     1
173
     0
176
     1
  0
ENDSEC
  0
EOF
