  0
SECTION
  2
HEADER
  9
$ACADVER
  1
AC1024
  9
$ACADMAINTVER
 70
     6
  9
$DWGCODEPAGE
  3
UNDEFINED
  9
$INSBASE
 10
0.0
 20
0.0
 30
0.0
  9
$EXTMIN
 10
1.000000000000000E+20
 20
1.000000000000000E+20
 30
1.000000000000000E+20
  9
$EXTMAX
 10
-1.000000000000000E+20
 20
-1.000000000000000E+20
 30
-1.000000000000000E+20
  9
$LIMMIN
 10
0.0
 20
0.0
  9
$LIMMAX
 10
12.0
 20
9.0
  9
$ORTHOMODE
 70
     0
  9
$REGENMODE
 70
     1
  9
$FILLMODE
 70
     1
  9
$QTEXTMODE
 70
     0
  9
$MIRRTEXT
 70
     1
  9
$LTSCALE
 40
1.0
  9
$ATTMODE
 70
     1
  9
$TEXTSIZE
 40
0.2
  9
$TRACEWID
 40
0.05
  9
$TEXTSTYLE
  7
Standard
  9
$CLAYER
  8
0
  9
$CELTYPE
  6
ByLayer
  9
$CECOLOR
 62
   256
  9
$CELTSCALE
 40
1.0
  9
$DISPSILH
 70
     0
  9
$DIMSCALE
 40
1.0
  9
$DIMASZ
 40
0.18
  9
$DIMEXO
 40
0.0625
  9
$DIMDLI
 40
0.38
  9
$DIMRND
 40
0.0
  9
$DIMDLE
 40
0.0
  9
$DIMEXE
 40
0.18
  9
$DIMTP
 40
0.0
  9
$DIMTM
 40
0.0
  9
$DIMTXT
 40
0.18
  9
$DIMCEN
 40
0.09
  9
$DIMTSZ
 40
0.0
  9
$DIMTOL
 70
     0
  9
$DIMLIM
 70
     0
  9
$DIMTIH
 70
     1
  9
$DIMTOH
 70
     1
  9
$DIMSE1
 70
     0
  9
$DIMSE2
 70
     0
  9
$DIMTAD
 70
     0
  9
$DIMZIN
 70
     0
  9
$DIMBLK
  1

  9
$DIMASO
 70
     1
  9
$DIMSHO
 70
     1
  9
$DIMPOST
  1

  9
$DIMAPOST
  1

  9
$DIMALT
 70
     0
  9
$DIMALTD
 70
     2
  9
$DIMALTF
 40
25.4
  9
$DIMLFAC
 40
1.0
  9
$DIMTOFL
 70
     0
  9
$DIMTVP
 40
0.0
  9
$DIMTIX
 70
     0
  9
$DIMSOXD
 70
     0
  9
$DIMSAH
 70
     0
  9
$DIMBLK1
  1

  9
$DIMBLK2
  1

  9
$DIMSTYLE
  2
Standard
  9
$DIMCLRD
 70
     0
  9
$DIMCLRE
 70
     0
  9
$DIMCLRT
 70
     0
  9
$DIMTFAC
 40
1.0
  9
$DIMGAP
 40
0.09
  9
$DIMJUST
 70
     0
  9
$DIMSD1
 70
     0
  9
$DIMSD2
 70
     0
  9
$DIMTOLJ
 70
     1
  9
$DIMTZIN
 70
     0
  9
$DIMALTZ
 70
     0
  9
$DIMALTTZ
 70
     0
  9
$DIMUPT
 70
     0
  9
$DIMDEC
 70
     4
  9
$DIMTDEC
 70
     4
  9
$DIMALTU
 70
     2
  9
$DIMALTTD
 70
     2
  9
$DIMTXSTY
  7
Standard
  9
$DIMAUNIT
 70
     0
  9
$DIMADEC
 70
     0
  9
$DIMALTRND
 40
0.0
  9
$DIMAZIN
 70
     0
  9
$DIMDSEP
 70
    46
  9
$DIMATFIT
 70
     3
  9
$DIMFRAC
 70
     0
  9
$DIMLDRBLK
  1

  9
$DIMLUNIT
 70
     2
  9
$DIMLWD
 70
    -2
  9
$DIMLWE
 70
    -2
  9
$DIMTMOVE
 70
     0
  9
$DIMFXL
 40
1.0
  9
$DIMFXLON
 70
     0
  9
$DIMJOGANG
 40
0.7853981633974483
  9
$DIMTFILL
 70
     0
  9
$DIMTFILLCLR
 70
     0
  9
$DIMARCSYM
 70
     0
  9
$DIMLTYPE
  6

  9
$DIMLTEX1
  6

  9
$DIMLTEX2
  6

  9
$DIMTXTDIRECTION
 70
     0
  9
$LUNITS
 70
     2
  9
$LUPREC
 70
     4
  9
$SKETCHINC
 40
0.1
  9
$FILLETRAD
 40
0.5
  9
$AUNITS
 70
     0
  9
$AUPREC
 70
     0
  9
$MENU
  1
.
  9
$ELEVATION
 40
0.0
  9
$PELEVATION
 40
0.0
  9
$THICKNESS
 40
0.0
  9
$LIMCHECK
 70
     0
  9
$CHAMFERA
 40
0.5
  9
$CHAMFERB
 40
0.5
  9
$CHAMFERC
 40
1.0
  9
$CHAMFERD
 40
0.0
  9
$SKPOLY
 70
     0
  9
$TDCREATE
 40
2457917.591736111
  9
$TDUCREATE
 40
2457917.216736111
  9
$TDUPDATE
 40
2457917.591736111
  9
$TDUUPDATE
 40
2457917.216736111
  9
$TDINDWG
 40
0.0000000116
  9
$TDUSRTIMER
 40
0.0000000116
  9
$USRTIMER
 70
     1
  9
$ANGBASE
 50
0.0
  9
$ANGDIR
 70
     0
  9
$PDMODE
 70
     0
  9
$PDSIZE
 40
0.0
  9
$PLINEWID
 40
0.0
  9
$SPLFRAME
 70
     0
  9
$SPLINETYPE
 70
     6
  9
$SPLINESEGS
 70
     8
  9
$HANDSEED
  5
145
  9
$SURFTAB1
 70
     6
  9
$SURFTAB2
 70
     6
  9
$SURFTYPE
 70
     6
  9
$SURFU
 70
     6
  9
$SURFV
 70
     6
  9
$UCSBASE
  2

  9
$UCSNAME
  2

  9
$UCSORG
 10
0.0
 20
0.0
 30
0.0
  9
$UCSXDIR
 10
1.0
 20
0.0
 30
0.0
  9
$UCSYDIR
 10
0.0
 20
1.0
 30
0.0
  9
$UCSORTHOREF
  2

  9
$UCSORTHOVIEW
 70
     0
  9
$UCSORGTOP
 10
0.0
 20
0.0
 30
0.0
  9
$UCSORGBOTTOM
 10
0.0
 20
0.0
 30
0.0
  9
$UCSORGLEFT
 10
0.0
 20
0.0
 30
0.0
  9
$UCSORGRIGHT
 10
0.0
 20
0.0
 30
0.0
  9
$UCSORGFRONT
 10
0.0
 20
0.0
 30
0.0
  9
$UCSORGBACK
 10
0.0
 20
0.0
 30
0.0
  9
$PUCSBASE
  2

  9
$PUCSNAME
  2

  9
$PUCSORG
 10
0.0
 20
0.0
 30
0.0
  9
$PUCSXDIR
 10
1.0
 20
0.0
 30
0.0
  9
$PUCSYDIR
 10
0.0
 20
1.0
 30
0.0
  9
$PUCSORTHOREF
  2

  9
$PUCSORTHOVIEW
 70
     0
  9
$PUCSORGTOP
 10
0.0
 20
0.0
 30
0.0
  9
$PUCSORGBOTTOM
 10
0.0
 20
0.0
 30
0.0
  9
$PUCSORGLEFT
 10
0.0
 20
0.0
 30
0.0
  9
$PUCSORGRIGHT
 10
0.0
 20
0.0
 30
0.0
  9
$PUCSORGFRONT
 10
0.0
 20
0.0
 30
0.0
  9
$PUCSORGBACK
 10
0.0
 20
0.0
 30
0.0
  9
$USERI1
 70
     0
  9
$USERI2
 70
     0
  9
$USERI3
 70
     0
  9
$USERI4
 70
     0
  9
$USERI5
 70
     0
  9
$USERR1
 40
0.0
  9
$USERR2
 40
0.0
  9
$USERR3
 40
0.0
  9
$USERR4
 40
0.0
  9
$USERR5
 40
0.0
  9
$WORLDVIEW
 70
     1
  9
$SHADEDGE
 70
     3
  9
$SHADEDIF
 70
    70
  9
$TILEMODE
 70
     1
  9
$MAXACTVP
 70
    64
  9
$PINSBASE
 10
0.0
 20
0.0
 30
0.0
  9
$PLIMCHECK
 70
     0
  9
$PEXTMIN
 10
1.000000000000000E+20
 20
1.000000000000000E+20
 30
1.000000000000000E+20
  9
$PEXTMAX
 10
-1.000000000000000E+20
 20
-1.000000000000000E+20
 30
-1.000000000000000E+20
  9
$PLIMMIN
 10
0.0
 20
0.0
  9
$PLIMMAX
 10
12.0
 20
9.0
  9
$UNITMODE
 70
     0
  9
$VISRETAIN
 70
     1
  9
$PLINEGEN
 70
     0
  9
$PSLTSCALE
 70
     1
  9
$TREEDEPTH
 70
  3020
  9
$CMLSTYLE
  2
Standard
  9
$CMLJUST
 70
     0
  9
$CMLSCALE
 40
1.0
  9
$PROXYGRAPHICS
 70
     1
  9
$MEASUREMENT
 70
     0
  9
$CELWEIGHT
370
    -1
  9
$ENDCAPS
280
     0
  9
$JOINSTYLE
280
     0
  9
$LWDISPLAY
290
     1
  9
$INSUNITS
 70
     1
  9
$HYPERLINKBASE
  1

  9
$STYLESHEET
  1

  9
$XEDIT
290
     1
  9
$CEPSNTYPE
380
     0
  9
$PSTYLEMODE
290
     1
  9
$FINGERPRINTGUID
  2
{3D42F126-BA2C-F09F-D6A4-AFBDB6707DAB}
  9
$VERSIONGUID
  2
{FAEB1C32-E019-11D5-929B-00C0DF256EC4}
  9
$EXTNAMES
290
     1
  9
$PSVPSCALE
 40
0.0
  9
$OLESTARTUP
290
     0
  9
$SORTENTS
280
   127
  9
$INDEXCTL
280
     0
  9
$HIDETEXT
280
     1
  9
$XCLIPFRAME
280
     2
  9
$HALOGAP
280
     0
  9
$OBSCOLOR
 70
   257
  9
$OBSLTYPE
280
     0
  9
$INTERSECTIONDISPLAY
280
     0
  9
$INTERSECTIONCOLOR
 70
   257
  9
$DIMASSOC
280
     2
  9
$PROJECTNAME
  1

  9
$CAMERADISPLAY
290
     0
  9
$LENSLENGTH
 40
50.0
  9
$CAMERAHEIGHT
 40
0.0
  9
$STEPSPERSEC
 40
2.0
  9
$STEPSIZE
 40
6.0
  9
$3DDWFPREC
 40
2.0
  9
$PSOLWIDTH
 40
0.25
  9
$PSOLHEIGHT
 40
4.0
  9
$LOFTANG1
 40
1.570796326794897
  9
$LOFTANG2
 40
1.570796326794897
  9
$LOFTMAG1
 40
0.0
  9
$LOFTMAG2
 40
0.0
  9
$LOFTPARAM
 70
     7
  9
$LOFTNORMALS
280
     1
  9
$LATITUDE
 40
37.795
  9
$LONGITUDE
 40
-122.394
  9
$NORTHDIRECTION
 40
0.0
  9
$TIMEZONE
 70
 -8000
  9
$LIGHTGLYPHDISPLAY
280
     1
  9
$TILEMODELIGHTSYNCH
280
     1
  9
$CMATERIAL
347
3C
  9
$SOLIDHIST
280
     1
  9
$SHOWHIST
280
     1
  9
$DWFFRAME
280
     2
  9
$DGNFRAME
280
     2
  9
$REALWORLDSCALE
290
     1
  9
$INTERFERECOLOR
 62
   256
  9
$CSHADOW
280
     0
  9
$SHADOWPLANELOCATION
 40
0.0
  0
ENDSEC
  0
SECTION
  2
CLASSES
  0
CLASS
  1
ACDBDICTIONARYWDFLT
  2
AcDbDictionaryWithDefault
  3
ObjectDBX Classes
 90
        0
 91
        4
280
     0
281
     0
  0
CLASS
  1
VISUALSTYLE
  2
AcDbVisualStyle
  3
ObjectDBX Classes
 90
     4095
 91
        4
280
     0
281
     0
  0
CLASS
  1
MATERIAL
  2
AcDbMaterial
  3
ObjectDBX Classes
 90
     1153
 91
        4
280
     0
281
     0
  0
CLASS
  1
SUN
  2
AcDbSun
  3
SCENEOE
 90
     1024
 91
        4
280
     0
281
     0
  0
ENDSEC
  0
SECTION
  2
TABLES
  0
TABLE
  2
VPORT
  5
8
330
0
100
AcDbSymbolTable
 70
     1
  0
VPORT
  5
29
330
8
100
AcDbSymbolTableRecord
100
AcDbViewportTableRecord
  2
*Active
 70
     0
 10
0.0
 20
0.0
 11
1.0
 21
1.0
 12
0.0
 22
0.0
 13
0.0
 23
0.0
 14
0.5
 24
0.5
 15
0.5
 25
0.5
 16
0.0
 26
0.0
 36
1.0
 17
91.00082462281999
 27
-128.4993055234307
 37
0.0
 40
256.9986110468615
 41
0.7081814508812795
 42
50.0
 43
0.0
 44
0.0
 50
0.0
 51
0.0
 71
     0
 72
   100
 73
     1
 74
     3
 75
     0
 76
     0
 77
     0
 78
     0
281
     0
 65
     1
110
0.0
120
0.0
130
0.0
111
1.0
121
0.0
131
0.0
112
0.0
122
1.0
132
0.0
 79
     0
146
0.0
 60
     3
 61
     5
292
     1
282
     1
141
0.0
142
0.0
 63
   250
361
3F
  0
ENDTAB
  0
TABLE
  2
LTYPE
  5
5
330
0
100
AcDbSymbolTable
 70
     1
  0
LTYPE
  5
14
330
5
100
AcDbSymbolTableRecord
100
AcDbLinetypeTableRecord
  2
ByBlock
 70
     0
  3

 72
    65
 73
     0
 40
0.0
  0
LTYPE
  5
15
330
5
100
AcDbSymbolTableRecord
100
AcDbLinetypeTableRecord
  2
ByLayer
 70
     0
  3

 72
    65
 73
     0
 40
0.0
  0
LTYPE
  5
16
330
5
100
AcDbSymbolTableRecord
100
AcDbLinetypeTableRecord
  2
Continuous
 70
     0
  3
Solid line
 72
    65
 73
     0
 40
0.0
  0
ENDTAB
  0
TABLE
  2
LAYER
  5
2
330
0
100
AcDbSymbolTable
 70
     2
  0
LAYER
  5
10
330
2
100
AcDbSymbolTableRecord
100
AcDbLayerTableRecord
  2
0
 70
     0
 62
     7
  6
Continuous
370
    -3
390
F
347
3E
  0
LAYER
  5
40
330
2
100
AcDbSymbolTableRecord
100
AcDbLayerTableRecord
  2
_U+30EC_U+30A4_U+30E4_U+30FC 1
 70
     0
 62
     7
  6
Continuous
370
    -3
390
F
347
3E
  0
ENDTAB
  0
TABLE
  2
STYLE
  5
3
330
0
100
AcDbSymbolTable
 70
     1
  0
STYLE
  5
11
330
3
100
AcDbSymbolTableRecord
100
AcDbTextStyleTableRecord
  2
Standard
 70
     0
 40
0.0
 41
1.0
 50
0.0
 71
     0
 42
0.2
  3
txt
  4

  0
ENDTAB
  0
TABLE
  2
VIEW
  5
6
330
0
100
AcDbSymbolTable
 70
     0
  0
ENDTAB
  0
TABLE
  2
UCS
  5
7
330
0
100
AcDbSymbolTable
 70
     0
  0
ENDTAB
  0
TABLE
  2
APPID
  5
9
330
0
100
AcDbSymbolTable
 70
     1
  0
APPID
  5
12
330
9
100
AcDbSymbolTableRecord
100
AcDbRegAppTableRecord
  2
ACAD
 70
     0
  0
ENDTAB
  0
TABLE
  2
DIMSTYLE
  5
A
330
0
100
AcDbSymbolTable
 70
     1
100
AcDbDimStyleTable
  0
DIMSTYLE
105
27
330
A
100
AcDbSymbolTableRecord
100
AcDbDimStyleTableRecord
  2
Standard
 70
     0
178
     0
340
11
  0
ENDTAB
  0
TABLE
  2
BLOCK_RECORD
  5
1
330
0
100
AcDbSymbolTable
 70
     9
  0
BLOCK_RECORD
  5
1F
330
1
100
AcDbSymbolTableRecord
100
AcDbBlockTableRecord
  2
*Model_Space
340
22
 70
     0
280
     1
281
     0
  0
BLOCK_RECORD
  5
1B
330
1
100
AcDbSymbolTableRecord
100
AcDbBlockTableRecord
  2
*Paper_Space
340
1E
 70
     0
280
     1
281
     0
  0
BLOCK_RECORD
  5
23
330
1
100
AcDbSymbolTableRecord
100
AcDbBlockTableRecord
  2
*Paper_Space0
340
26
 70
     0
280
     1
281
     0
  0
BLOCK_RECORD
  5
A1
330
1
100
AcDbSymbolTableRecord
100
AcDbBlockTableRecord
  2
block 2
340
0
102
{BLKREFS
331
A2
102
}
 70
     0
280
     1
281
     0
  0
BLOCK_RECORD
  5
AF
330
1
100
AcDbSymbolTableRecord
100
AcDbBlockTableRecord
  2
block 3
340
0
102
{BLKREFS
331
B0
102
}
 70
     0
280
     1
281
     0
  0
BLOCK_RECORD
  5
C1
330
1
100
AcDbSymbolTableRecord
100
AcDbBlockTableRecord
  2
block 4
340
0
102
{BLKREFS
331
C2
102
}
 70
     0
280
     1
281
     0
  0
BLOCK_RECORD
  5
D5
330
1
100
AcDbSymbolTableRecord
100
AcDbBlockTableRecord
  2
block 5
340
0
102
{BLKREFS
331
D6
102
}
 70
     0
280
     1
281
     0
  0
BLOCK_RECORD
  5
F6
330
1
100
AcDbSymbolTableRecord
100
AcDbBlockTableRecord
  2
block 6
340
0
102
{BLKREFS
331
F7
102
}
 70
     0
280
     1
281
     0
  0
BLOCK_RECORD
  5
106
330
1
100
AcDbSymbolTableRecord
100
AcDbBlockTableRecord
  2
block 7
340
0
102
{BLKREFS
331
107
102
}
 70
     0
280
     1
281
     0
  0
BLOCK_RECORD
  5
12D
330
1
100
AcDbSymbolTableRecord
100
AcDbBlockTableRecord
  2
block 8
340
0
102
{BLKREFS
331
12E
102
}
 70
     0
280
     1
281
     0
  0
BLOCK_RECORD
  5
13D
330
1
100
AcDbSymbolTableRecord
100
AcDbBlockTableRecord
  2
block 9
340
0
102
{BLKREFS
331
13E
102
}
 70
     0
280
     1
281
     0
  0
ENDTAB
  0
ENDSEC
  0
SECTION
  2
BLOCKS
  0
BLOCK
  5
20
330
1F
100
AcDbEntity
  8
0
100
AcDbBlockBegin
  2
*Model_Space
 70
     0
 10
0.0
 20
0.0
 30
0.0
  3
*Model_Space
  1

  0
ENDBLK
  5
21
330
1F
100
AcDbEntity
  8
0
100
AcDbBlockEnd
  0
BLOCK
  5
1C
330
1B
100
AcDbEntity
 67
     1
  8
0
100
AcDbBlockBegin
  2
*Paper_Space
 70
     0
 10
0.0
 20
0.0
 30
0.0
  3
*Paper_Space
  1

  0
ENDBLK
  5
1D
330
1B
100
AcDbEntity
 67
     1
  8
0
100
AcDbBlockEnd
  0
BLOCK
  5
24
330
23
100
AcDbEntity
  8
0
100
AcDbBlockBegin
  2
*Paper_Space0
 70
     0
 10
0.0
 20
0.0
 30
0.0
  3
*Paper_Space0
  1

  0
ENDBLK
  5
25
330
23
100
AcDbEntity
  8
0
100
AcDbBlockEnd
  0
BLOCK
  5
A3
330
A1
100
AcDbEntity
  8
0
100
AcDbBlockBegin
  2
block 2
 70
     0
 10
0.0
 20
0.0
 30
0.0
  3
block 2
  1

  0
SPLINE
  5
A5
330
A1
100
AcDbEntity
  8
_U+30EC_U+30A4_U+30E4_U+30FC 1
370
     0
100
AcDbSpline
210
0.0
220
0.0
230
1.0
 70
    11
 71
     3
 72
    62
 73
    58
 74
     0
 42
0.0000000001
 43
0.0000000001
 12
1.0
 22
0.0
 32
0.0
 13
1.0
 23
0.0
 33
0.0
 40
0.0
 40
0.0
 40
0.0
 40
0.0
 40
1.0
 40
1.0
 40
1.0
 40
2.0
 40
2.0
 40
2.0
 40
3.0
 40
3.0
 40
3.0
 40
4.0
 40
4.0
 40
4.0
 40
5.0
 40
5.0
 40
5.0
 40
6.0
 40
6.0
 40
6.0
 40
7.0
 40
7.0
 40
7.0
 40
8.0
 40
8.0
 40
8.0
 40
9.0
 40
9.0
 40
9.0
 40
10.0
 40
10.0
 40
10.0
 40
11.0
 40
11.0
 40
11.0
 40
12.0
 40
12.0
 40
12.0
 40
13.0
 40
13.0
 40
13.0
 40
14.0
 40
14.0
 40
14.0
 40
15.0
 40
15.0
 40
15.0
 40
16.0
 40
16.0
 40
16.0
 40
17.0
 40
17.0
 40
17.0
 40
18.0
 40
18.0
 40
18.0
 40
19.0
 40
19.0
 40
19.0
 40
19.0
 10
85.78339434704374
 20
-129.5862331490271
 30
0.0
 10
85.68176403022886
 20
-129.5862331490271
 30
0.0
 10
85.44887557542597
 20
-129.565218066567
 30
0.0
 10
85.31537812537255
 20
-129.3791829103635
 30
0.0
 10
85.23631318398607
 20
-129.2668727975444
 30
0.0
 10
85.23183455985524
 20
-129.1676540475692
 30
0.0
 10
85.22718368095015
 20
-129.0829046986321
 30
0.0
 10
85.22718368095015
 20
-129.0829046986321
 30
0.0
 10
85.46248370259272
 20
-129.0829046986321
 30
0.0
 10
85.46248370259272
 20
-129.0829046986321
 30
0.0
 10
85.46472301465813
 20
-129.1569742515649
 30
0.0
 10
85.47591957498518
 20
-129.3915852541105
 30
0.0
 10
85.77891572291291
 20
-129.3915852541105
 30
0.0
 10
85.92584904535882
 20
-129.3915852541105
 30
0.0
 10
86.08862980703688
 20
-129.3219943253084
 30
0.0
 10
86.08862980703688
 20
-129.0935844946363
 30
0.0
 10
86.08862980703688
 20
-128.9771402672349
 30
0.0
 10
86.04797768031092
 20
-128.9285644208929
 30
0.0
 10
86.01404348978122
 20
-128.8968695424286
 30
0.0
 10
85.93497854839474
 20
-128.8227999894957
 30
0.0
 10
85.8106106013772
 20
-128.8100531362003
 30
0.0
 10
85.7518717233537
 20
-128.8100531362003
 30
0.0
 10
85.73137340521646
 20
-128.8100531362003
 30
0.0
 10
85.69296059055593
 20
-128.8121201934914
 30
0.0
 10
85.6636772789313
 20
-128.8162543080737
 30
0.0
 10
85.6636772789313
 20
-128.8162543080737
 30
0.0
 10
85.6636772789313
 20
-128.6216064131571
 30
0.0
 10
85.6636772789313
 20
-128.6216064131571
 30
0.0
 10
85.70432940565726
 20
-128.6279798398048
 30
0.0
 10
85.74946015651403
 20
-128.6302191518702
 30
0.0
 10
85.75635034748453
 20
-128.6302191518702
 30
0.0
 10
85.82645804060937
 20
-128.6302191518702
 30
0.0
 10
86.03884817727501
 20
-128.609031814636
 30
0.0
 10
86.03884817727501
 20
-128.3720092452508
 30
0.0
 10
86.03884817727501
 20
-128.1944145729861
 30
0.0
 10
85.8988050457996
 20
-128.1392930452221
 30
0.0
 10
85.78115503497833
 20
-128.1392930452221
 30
0.0
 10
85.49865720518784
 20
-128.1392930452221
 30
0.0
 10
85.48952770215193
 20
-128.3720092452508
 30
0.0
 10
85.4850490780211
 20
-128.4440117408925
 30
0.0
 10
85.4850490780211
 20
-128.4440117408925
 30
0.0
 10
85.26800806245036
 20
-128.4440117408925
 30
0.0
 10
85.26800806245036
 20
-128.4440117408925
 30
0.0
 10
85.27696531071201
 20
-128.3191270295522
 30
0.0
 10
85.3064208771109
 20
-127.9425780930144
 30
0.0
 10
85.79476316214506
 20
-127.9425780930144
 30
0.0
 10
86.03436955314419
 20
-127.9425780930144
 30
0.0
 10
86.29206269544088
 20
-128.0695298616458
 30
0.0
 10
86.29206269544088
 20
-128.365635818603
 30
0.0
 10
86.29206269544088
 20
-128.5518432295808
 30
0.0
 10
86.19043237862601
 20
-128.6343532664525
 30
0.0
 10
86.08415118290606
 20
-128.69567596609
 30
0.0
 10
86.14978025190005
 20
-128.723236729972
 30
0.0
 10
86.34408363726816
 20
-128.8035074547783
 30
0.0
 10
86.34408363726816
 20
-129.0808376413409
 30
0.0
 10
86.34408363726816
 20
-129.4191460179924
 30
0.0
 10
86.07967255877523
 20
-129.5862331490271
 30
0.0
 10
85.78339434704374
 20
-129.5862331490271
 30
0.0
  0
HATCH
  5
A6
330
A1
100
AcDbEntity
  8
_U+30EC_U+30A4_U+30E4_U+30FC 1
 62
   179
420
  2234388
100
AcDbHatch
 10
0.0
 20
0.0
 30
0.0
210
0.0
220
0.0
230
1.0
  2
SOLID
 70
     1
 71
     0
 91
        1
 92
        1
 93
        1
 72
     4
 94
        3
 73
     0
 74
     1
 95
       62
 96
       58
 40
0.0
 40
0.0
 40
0.0
 40
0.0
 40
1.0
 40
1.0
 40
1.0
 40
2.0
 40
2.0
 40
2.0
 40
3.0
 40
3.0
 40
3.0
 40
4.0
 40
4.0
 40
4.0
 40
5.0
 40
5.0
 40
5.0
 40
6.0
 40
6.0
 40
6.0
 40
7.0
 40
7.0
 40
7.0
 40
8.0
 40
8.0
 40
8.0
 40
9.0
 40
9.0
 40
9.0
 40
10.0
 40
10.0
 40
10.0
 40
11.0
 40
11.0
 40
11.0
 40
12.0
 40
12.0
 40
12.0
 40
13.0
 40
13.0
 40
13.0
 40
14.0
 40
14.0
 40
14.0
 40
15.0
 40
15.0
 40
15.0
 40
16.0
 40
16.0
 40
16.0
 40
17.0
 40
17.0
 40
17.0
 40
18.0
 40
18.0
 40
18.0
 40
19.0
 40
19.0
 40
19.0
 40
19.0
 10
85.78339434704374
 20
-129.5862331490271
 10
85.68176403022886
 20
-129.5862331490271
 10
85.44887557542597
 20
-129.565218066567
 10
85.31537812537255
 20
-129.3791829103635
 10
85.23631318398607
 20
-129.2668727975444
 10
85.23183455985524
 20
-129.1676540475692
 10
85.22718368095015
 20
-129.0829046986321
 10
85.22718368095015
 20
-129.0829046986321
 10
85.46248370259272
 20
-129.0829046986321
 10
85.46248370259272
 20
-129.0829046986321
 10
85.46472301465813
 20
-129.1569742515649
 10
85.47591957498518
 20
-129.3915852541105
 10
85.77891572291291
 20
-129.3915852541105
 10
85.92584904535882
 20
-129.3915852541105
 10
86.08862980703688
 20
-129.3219943253084
 10
86.08862980703688
 20
-129.0935844946363
 10
86.08862980703688
 20
-128.9771402672349
 10
86.04797768031092
 20
-128.9285644208929
 10
86.01404348978122
 20
-128.8968695424286
 10
85.93497854839474
 20
-128.8227999894957
 10
85.8106106013772
 20
-128.8100531362003
 10
85.7518717233537
 20
-128.8100531362003
 10
85.73137340521646
 20
-128.8100531362003
 10
85.69296059055593
 20
-128.8121201934914
 10
85.6636772789313
 20
-128.8162543080737
 10
85.6636772789313
 20
-128.8162543080737
 10
85.6636772789313
 20
-128.6216064131571
 10
85.6636772789313
 20
-128.6216064131571
 10
85.70432940565726
 20
-128.6279798398048
 10
85.74946015651403
 20
-128.6302191518702
 10
85.75635034748453
 20
-128.6302191518702
 10
85.82645804060937
 20
-128.6302191518702
 10
86.03884817727501
 20
-128.609031814636
 10
86.03884817727501
 20
-128.3720092452508
 10
86.03884817727501
 20
-128.1944145729861
 10
85.8988050457996
 20
-128.1392930452221
 10
85.78115503497833
 20
-128.1392930452221
 10
85.49865720518784
 20
-128.1392930452221
 10
85.48952770215193
 20
-128.3720092452508
 10
85.4850490780211
 20
-128.4440117408925
 10
85.4850490780211
 20
-128.4440117408925
 10
85.26800806245036
 20
-128.4440117408925
 10
85.26800806245036
 20
-128.4440117408925
 10
85.27696531071201
 20
-128.3191270295522
 10
85.3064208771109
 20
-127.9425780930144
 10
85.79476316214506
 20
-127.9425780930144
 10
86.03436955314419
 20
-127.9425780930144
 10
86.29206269544088
 20
-128.0695298616458
 10
86.29206269544088
 20
-128.365635818603
 10
86.29206269544088
 20
-128.5518432295808
 10
86.19043237862601
 20
-128.6343532664525
 10
86.08415118290606
 20
-128.69567596609
 10
86.14978025190005
 20
-128.723236729972
 10
86.34408363726816
 20
-128.8035074547783
 10
86.34408363726816
 20
-129.0808376413409
 10
86.34408363726816
 20
-129.4191460179924
 10
86.07967255877523
 20
-129.5862331490271
 10
85.78339434704374
 20
-129.5862331490271
 97
        0
 97
        0
 75
     2
 76
     1
 98
        0
  0
ENDBLK
  5
A4
330
A1
100
AcDbEntity
  8
0
100
AcDbBlockEnd
  0
BLOCK
  5
B1
330
AF
100
AcDbEntity
  8
0
100
AcDbBlockBegin
  2
block 3
 70
     0
 10
0.0
 20
0.0
 30
0.0
  3
block 3
  1

  0
SPLINE
  5
B3
330
AF
100
AcDbEntity
  8
_U+30EC_U+30A4_U+30E4_U+30FC 1
370
     0
100
AcDbSpline
210
0.0
220
0.0
230
1.0
 70
    11
 71
     3
 72
    26
 73
    22
 74
     0
 42
0.0000000001
 43
0.0000000001
 12
1.0
 22
0.0
 32
0.0
 13
1.0
 23
0.0
 33
0.0
 40
0.0
 40
0.0
 40
0.0
 40
0.0
 40
1.0
 40
1.0
 40
1.0
 40
2.0
 40
2.0
 40
2.0
 40
3.0
 40
3.0
 40
3.0
 40
4.0
 40
4.0
 40
4.0
 40
5.0
 40
5.0
 40
5.0
 40
6.0
 40
6.0
 40
6.0
 40
7.0
 40
7.0
 40
7.0
 40
7.0
 10
90.69696178288132
 20
-129.5355902453939
 30
0.0
 10
90.69696178288132
 20
-129.5355902453939
 30
0.0
 10
90.44374726471546
 20
-129.5355902453939
 30
0.0
 10
90.44374726471546
 20
-129.5355902453939
 30
0.0
 10
90.47096351904894
 20
-129.226565180367
 30
0.0
 10
90.67663571951834
 20
-128.7084228193854
 30
0.0
 10
91.11071775065983
 20
-128.202855056925
 30
0.0
 10
91.11071775065983
 20
-128.202855056925
 30
0.0
 10
90.21550968881766
 20
-128.202855056925
 30
0.0
 10
90.21550968881766
 20
-128.202855056925
 30
0.0
 10
90.21550968881766
 20
-128.202855056925
 30
0.0
 10
90.21550968881766
 20
-127.9913261941307
 30
0.0
 10
90.21550968881766
 20
-127.9913261941307
 30
0.0
 10
90.21550968881766
 20
-127.9913261941307
 30
0.0
 10
91.36393226882569
 20
-127.9913261941307
 30
0.0
 10
91.36393226882569
 20
-127.9913261941307
 30
0.0
 10
91.36393226882569
 20
-127.9913261941307
 30
0.0
 10
91.36393226882569
 20
-128.202855056925
 30
0.0
 10
91.36393226882569
 20
-128.202855056925
 30
0.0
 10
91.0180446821066
 20
-128.4925875872345
 30
0.0
 10
90.73313528547644
 20
-129.0849717559232
 30
0.0
 10
90.69696178288132
 20
-129.5355902453939
 30
0.0
  0
HATCH
  5
B4
330
AF
100
AcDbEntity
  8
_U+30EC_U+30A4_U+30E4_U+30FC 1
 62
   179
420
  2234388
100
AcDbHatch
 10
0.0
 20
0.0
 30
0.0
210
0.0
220
0.0
230
1.0
  2
SOLID
 70
     1
 71
     0
 91
        1
 92
        1
 93
        1
 72
     4
 94
        3
 73
     0
 74
     1
 95
       26
 96
       22
 40
0.0
 40
0.0
 40
0.0
 40
0.0
 40
1.0
 40
1.0
 40
1.0
 40
2.0
 40
2.0
 40
2.0
 40
3.0
 40
3.0
 40
3.0
 40
4.0
 40
4.0
 40
4.0
 40
5.0
 40
5.0
 40
5.0
 40
6.0
 40
6.0
 40
6.0
 40
7.0
 40
7.0
 40
7.0
 40
7.0
 10
90.69696178288132
 20
-129.5355902453939
 10
90.69696178288132
 20
-129.5355902453939
 10
90.44374726471546
 20
-129.5355902453939
 10
90.44374726471546
 20
-129.5355902453939
 10
90.47096351904894
 20
-129.226565180367
 10
90.67663571951834
 20
-128.7084228193854
 10
91.11071775065983
 20
-128.202855056925
 10
91.11071775065983
 20
-128.202855056925
 10
90.21550968881766
 20
-128.202855056925
 10
90.21550968881766
 20
-128.202855056925
 10
90.21550968881766
 20
-128.202855056925
 10
90.21550968881766
 20
-127.9913261941307
 10
90.21550968881766
 20
-127.9913261941307
 10
90.21550968881766
 20
-127.9913261941307
 10
91.36393226882569
 20
-127.9913261941307
 10
91.36393226882569
 20
-127.9913261941307
 10
91.36393226882569
 20
-127.9913261941307
 10
91.36393226882569
 20
-128.202855056925
 10
91.36393226882569
 20
-128.202855056925
 10
91.0180446821066
 20
-128.4925875872345
 10
90.73313528547644
 20
-129.0849717559232
 10
90.69696178288132
 20
-129.5355902453939
 97
        0
 97
        0
 75
     2
 76
     1
 98
        0
  0
ENDBLK
  5
B2
330
AF
100
AcDbEntity
  8
0
100
AcDbBlockEnd
  0
BLOCK
  5
C3
330
C1
100
AcDbEntity
  8
0
100
AcDbBlockBegin
  2
block 4
 70
     0
 10
0.0
 20
0.0
 30
0.0
  3
block 4
  1

  0
SPLINE
  5
C5
330
C1
100
AcDbEntity
  8
_U+30EC_U+30A4_U+30E4_U+30FC 1
370
     0
100
AcDbSpline
210
0.0
220
0.0
230
1.0
 70
    11
 71
     3
 72
    44
 73
    40
 74
     0
 42
0.0000000001
 43
0.0000000001
 12
1.0
 22
0.0
 32
0.0
 13
1.0
 23
0.0
 33
0.0
 40
0.0
 40
0.0
 40
0.0
 40
0.0
 40
1.0
 40
1.0
 40
1.0
 40
2.0
 40
2.0
 40
2.0
 40
3.0
 40
3.0
 40
3.0
 40
4.0
 40
4.0
 40
4.0
 40
5.0
 40
5.0
 40
5.0
 40
6.0
 40
6.0
 40
6.0
 40
7.0
 40
7.0
 40
7.0
 40
8.0
 40
8.0
 40
8.0
 40
9.0
 40
9.0
 40
9.0
 40
10.0
 40
10.0
 40
10.0
 40
11.0
 40
11.0
 40
11.0
 40
12.0
 40
12.0
 40
12.0
 40
13.0
 40
13.0
 40
13.0
 40
13.0
 10
79.07114255835722
 20
-146.1567979235303
 30
0.0
 10
79.22978920545297
 20
-146.3896863783332
 30
0.0
 10
79.30385875838584
 20
-146.4892496378569
 30
0.0
 10
79.44769149489503
 20
-146.5409260701356
 30
0.0
 10
79.44769149489503
 20
-146.5409260701356
 30
0.0
 10
79.44769149489503
 20
-145.7092800199963
 30
0.0
 10
79.44769149489503
 20
-145.7092800199963
 30
0.0
 10
79.44769149489503
 20
-145.7092800199963
 30
0.0
 10
79.65284693104165
 20
-145.7092800199963
 30
0.0
 10
79.65284693104165
 20
-145.7092800199963
 30
0.0
 10
79.65284693104165
 20
-145.7092800199963
 30
0.0
 10
79.65284693104165
 20
-146.8079209702425
 30
0.0
 10
79.65284693104165
 20
-146.8079209702425
 30
0.0
 10
79.29524601967272
 20
-146.7738145249385
 30
0.0
 10
79.21704235215755
 20
-146.7038790865879
 30
0.0
 10
78.91869708313492
 20
-146.2925346856491
 30
0.0
 10
78.719915073636
 20
-146.0189941041203
 30
0.0
 10
78.65221894735083
 20
-145.9487141562212
 30
0.0
 10
78.51475963748936
 20
-145.9487141562212
 30
0.0
 10
78.39624835279677
 20
-145.9487141562212
 30
0.0
 10
78.26499021480876
 20
-146.0255397855422
 30
0.0
 10
78.26499021480876
 20
-146.236035119691
 30
0.0
 10
78.26499021480876
 20
-146.5140543253507
 30
0.0
 10
78.49563935754624
 20
-146.5230115736123
 30
0.0
 10
78.61208358494768
 20
-146.5274901977431
 30
0.0
 10
78.61208358494768
 20
-146.5274901977431
 30
0.0
 10
78.61208358494768
 20
-146.7672688435165
 30
0.0
 10
78.61208358494768
 20
-146.7672688435165
 30
0.0
 10
78.48513181631623
 20
-146.7579670857064
 30
0.0
 10
78.37299395827134
 20
-146.7469427801535
 30
0.0
 10
78.25448267357875
 20
-146.6608153930223
 30
0.0
 10
78.09376896919184
 20
-146.5433376369753
 30
0.0
 10
78.05983477866212
 20
-146.3445556274764
 30
0.0
 10
78.05983477866212
 20
-146.2201876804588
 30
0.0
 10
78.05983477866212
 20
-145.9239094687274
 30
0.0
 10
78.24397513234874
 20
-145.7023898290258
 30
0.0
 10
78.51682669478052
 20
-145.7023898290258
 30
0.0
 10
78.74523652545258
 20
-145.7023898290258
 30
0.0
 10
78.8447997849763
 20
-145.8267577760433
 30
0.0
 10
79.07114255835722
 20
-146.1567979235303
 30
0.0
  0
HATCH
  5
C6
330
C1
100
AcDbEntity
  8
_U+30EC_U+30A4_U+30E4_U+30FC 1
 62
   179
420
  2234388
100
AcDbHatch
 10
0.0
 20
0.0
 30
0.0
210
0.0
220
0.0
230
1.0
  2
SOLID
 70
     1
 71
     0
 91
        1
 92
        1
 93
        1
 72
     4
 94
        3
 73
     0
 74
     1
 95
       44
 96
       40
 40
0.0
 40
0.0
 40
0.0
 40
0.0
 40
1.0
 40
1.0
 40
1.0
 40
2.0
 40
2.0
 40
2.0
 40
3.0
 40
3.0
 40
3.0
 40
4.0
 40
4.0
 40
4.0
 40
5.0
 40
5.0
 40
5.0
 40
6.0
 40
6.0
 40
6.0
 40
7.0
 40
7.0
 40
7.0
 40
8.0
 40
8.0
 40
8.0
 40
9.0
 40
9.0
 40
9.0
 40
10.0
 40
10.0
 40
10.0
 40
11.0
 40
11.0
 40
11.0
 40
12.0
 40
12.0
 40
12.0
 40
13.0
 40
13.0
 40
13.0
 40
13.0
 10
79.07114255835722
 20
-146.1567979235303
 10
79.22978920545297
 20
-146.3896863783332
 10
79.30385875838584
 20
-146.4892496378569
 10
79.44769149489503
 20
-146.5409260701356
 10
79.44769149489503
 20
-146.5409260701356
 10
79.44769149489503
 20
-145.7092800199963
 10
79.44769149489503
 20
-145.7092800199963
 10
79.44769149489503
 20
-145.7092800199963
 10
79.65284693104165
 20
-145.7092800199963
 10
79.65284693104165
 20
-145.7092800199963
 10
79.65284693104165
 20
-145.7092800199963
 10
79.65284693104165
 20
-146.8079209702425
 10
79.65284693104165
 20
-146.8079209702425
 10
79.29524601967272
 20
-146.7738145249385
 10
79.21704235215755
 20
-146.7038790865879
 10
78.91869708313492
 20
-146.2925346856491
 10
78.719915073636
 20
-146.0189941041203
 10
78.65221894735083
 20
-145.9487141562212
 10
78.51475963748936
 20
-145.9487141562212
 10
78.39624835279677
 20
-145.9487141562212
 10
78.26499021480876
 20
-146.0255397855422
 10
78.26499021480876
 20
-146.236035119691
 10
78.26499021480876
 20
-146.5140543253507
 10
78.49563935754624
 20
-146.5230115736123
 10
78.61208358494768
 20
-146.5274901977431
 10
78.61208358494768
 20
-146.5274901977431
 10
78.61208358494768
 20
-146.7672688435165
 10
78.61208358494768
 20
-146.7672688435165
 10
78.48513181631623
 20
-146.7579670857064
 10
78.37299395827134
 20
-146.7469427801535
 10
78.25448267357875
 20
-146.6608153930223
 10
78.09376896919184
 20
-146.5433376369753
 10
78.05983477866212
 20
-146.3445556274764
 10
78.05983477866212
 20
-146.2201876804588
 10
78.05983477866212
 20
-145.9239094687274
 10
78.24397513234874
 20
-145.7023898290258
 10
78.51682669478052
 20
-145.7023898290258
 10
78.74523652545258
 20
-145.7023898290258
 10
78.8447997849763
 20
-145.8267577760433
 10
79.07114255835722
 20
-146.1567979235303
 97
        0
 97
        0
 75
     2
 76
     1
 98
        0
  0
SPLINE
  5
C7
330
C1
100
AcDbEntity
  8
_U+30EC_U+30A4_U+30E4_U+30FC 1
370
     0
100
AcDbSpline
210
0.0
220
0.0
230
1.0
 70
    11
 71
     3
 72
    62
 73
    58
 74
     0
 42
0.0000000001
 43
0.0000000001
 12
1.0
 22
0.0
 32
0.0
 13
1.0
 23
0.0
 33
0.0
 40
0.0
 40
0.0
 40
0.0
 40
0.0
 40
1.0
 40
1.0
 40
1.0
 40
2.0
 40
2.0
 40
2.0
 40
3.0
 40
3.0
 40
3.0
 40
4.0
 40
4.0
 40
4.0
 40
5.0
 40
5.0
 40
5.0
 40
6.0
 40
6.0
 40
6.0
 40
7.0
 40
7.0
 40
7.0
 40
8.0
 40
8.0
 40
8.0
 40
9.0
 40
9.0
 40
9.0
 40
10.0
 40
10.0
 40
10.0
 40
11.0
 40
11.0
 40
11.0
 40
12.0
 40
12.0
 40
12.0
 40
13.0
 40
13.0
 40
13.0
 40
14.0
 40
14.0
 40
14.0
 40
15.0
 40
15.0
 40
15.0
 40
16.0
 40
16.0
 40
16.0
 40
17.0
 40
17.0
 40
17.0
 40
18.0
 40
18.0
 40
18.0
 40
19.0
 40
19.0
 40
19.0
 40
19.0
 10
79.70366208944908
 20
-145.0075140696509
 30
0.0
 10
79.70366208944908
 20
-145.1091443864658
 30
0.0
 10
79.6824747522148
 20
-145.3420328412687
 30
0.0
 10
79.49626734123704
 20
-145.4753580365478
 30
0.0
 10
79.38412948319217
 20
-145.5545952327086
 30
0.0
 10
79.2847384784427
 20
-145.5590738568394
 30
0.0
 10
79.20016138427982
 20
-145.5635524809702
 30
0.0
 10
79.20016138427982
 20
-145.5635524809702
 30
0.0
 10
79.20016138427982
 20
-145.3285969688762
 30
0.0
 10
79.20016138427982
 20
-145.3285969688762
 30
0.0
 10
79.27423093721269
 20
-145.3261854020365
 30
0.0
 10
79.50901419453247
 20
-145.3148165869352
 30
0.0
 10
79.50901419453247
 20
-145.0119926937817
 30
0.0
 10
79.50901419453247
 20
-144.8648871165616
 30
0.0
 10
79.43925101095617
 20
-144.7022786096578
 30
0.0
 10
79.21066892550984
 20
-144.7022786096578
 30
0.0
 10
79.09439695288266
 20
-144.7022786096578
 30
0.0
 10
79.04564885176637
 20
-144.7429307363837
 30
0.0
 10
79.01395397330207
 20
-144.7770371816877
 30
0.0
 10
78.9398844203692
 20
-144.8559298682999
 30
0.0
 10
78.92730982184804
 20
-144.9802978153174
 30
0.0
 10
78.92730982184804
 20
-145.0392089481152
 30
0.0
 10
78.92730982184804
 20
-145.0595350114782
 30
0.0
 10
78.92937687913918
 20
-145.0977755713645
 30
0.0
 10
78.93351099372148
 20
-145.1274033925376
 30
0.0
 10
78.93351099372148
 20
-145.1274033925376
 30
0.0
 10
78.73903535357914
 20
-145.1274033925376
 30
0.0
 10
78.73903535357914
 20
-145.1274033925376
 30
0.0
 10
78.74523652545258
 20
-145.0867512658116
 30
0.0
 10
78.747475837518
 20
-145.0412760054064
 30
0.0
 10
78.747475837518
 20
-145.0347303239844
 30
0.0
 10
78.747475837518
 20
-144.9644503760853
 30
0.0
 10
78.72628850028372
 20
-144.7518879846454
 30
0.0
 10
78.48926593089853
 20
-144.7518879846454
 30
0.0
 10
78.3116712586339
 20
-144.7518879846454
 30
0.0
 10
78.25654973086989
 20
-144.892103370895
 30
0.0
 10
78.25654973086989
 20
-145.0095811269421
 30
0.0
 10
78.25654973086989
 20
-145.2924234662811
 30
0.0
 10
78.48926593089853
 20
-145.3013807145427
 30
0.0
 10
78.56126842654024
 20
-145.3058593386735
 30
0.0
 10
78.56126842654024
 20
-145.3058593386735
 30
0.0
 10
78.56126842654024
 20
-145.5229003542443
 30
0.0
 10
78.56126842654024
 20
-145.5229003542443
 30
0.0
 10
78.43638371519994
 20
-145.5139431059826
 30
0.0
 10
78.05983477866212
 20
-145.484659794358
 30
0.0
 10
78.05983477866212
 20
-144.9961452545496
 30
0.0
 10
78.05983477866212
 20
-144.7563666087762
 30
0.0
 10
78.18678654729358
 20
-144.4986734664795
 30
0.0
 10
78.48289250425081
 20
-144.4986734664795
 30
0.0
 10
78.66909991522856
 20
-144.4986734664795
 30
0.0
 10
78.7516099521003
 20
-144.6006482928429
 30
0.0
 10
78.81293265173774
 20
-144.7067572337886
 30
0.0
 10
78.84049341561975
 20
-144.6413004195688
 30
0.0
 10
78.92093639520033
 20
-144.4466525246522
 30
0.0
 10
79.19809432698868
 20
-144.4466525246522
 30
0.0
 10
79.53657495841448
 20
-144.4466525246522
 30
0.0
 10
79.70366208944908
 20
-144.7112358579194
 30
0.0
 10
79.70366208944908
 20
-145.0075140696509
 30
0.0
  0
HATCH
  5
C8
330
C1
100
AcDbEntity
  8
_U+30EC_U+30A4_U+30E4_U+30FC 1
 62
   179
420
  2234388
100
AcDbHatch
 10
0.0
 20
0.0
 30
0.0
210
0.0
220
0.0
230
1.0
  2
SOLID
 70
     1
 71
     0
 91
        1
 92
        1
 93
        1
 72
     4
 94
        3
 73
     0
 74
     1
 95
       62
 96
       58
 40
0.0
 40
0.0
 40
0.0
 40
0.0
 40
1.0
 40
1.0
 40
1.0
 40
2.0
 40
2.0
 40
2.0
 40
3.0
 40
3.0
 40
3.0
 40
4.0
 40
4.0
 40
4.0
 40
5.0
 40
5.0
 40
5.0
 40
6.0
 40
6.0
 40
6.0
 40
7.0
 40
7.0
 40
7.0
 40
8.0
 40
8.0
 40
8.0
 40
9.0
 40
9.0
 40
9.0
 40
10.0
 40
10.0
 40
10.0
 40
11.0
 40
11.0
 40
11.0
 40
12.0
 40
12.0
 40
12.0
 40
13.0
 40
13.0
 40
13.0
 40
14.0
 40
14.0
 40
14.0
 40
15.0
 40
15.0
 40
15.0
 40
16.0
 40
16.0
 40
16.0
 40
17.0
 40
17.0
 40
17.0
 40
18.0
 40
18.0
 40
18.0
 40
19.0
 40
19.0
 40
19.0
 40
19.0
 10
79.70366208944908
 20
-145.0075140696509
 10
79.70366208944908
 20
-145.1091443864658
 10
79.6824747522148
 20
-145.3420328412687
 10
79.49626734123704
 20
-145.4753580365478
 10
79.38412948319217
 20
-145.5545952327086
 10
79.2847384784427
 20
-145.5590738568394
 10
79.20016138427982
 20
-145.5635524809702
 10
79.20016138427982
 20
-145.5635524809702
 10
79.20016138427982
 20
-145.3285969688762
 10
79.20016138427982
 20
-145.3285969688762
 10
79.27423093721269
 20
-145.3261854020365
 10
79.50901419453247
 20
-145.3148165869352
 10
79.50901419453247
 20
-145.0119926937817
 10
79.50901419453247
 20
-144.8648871165616
 10
79.43925101095617
 20
-144.7022786096578
 10
79.21066892550984
 20
-144.7022786096578
 10
79.09439695288266
 20
-144.7022786096578
 10
79.04564885176637
 20
-144.7429307363837
 10
79.01395397330207
 20
-144.7770371816877
 10
78.9398844203692
 20
-144.8559298682999
 10
78.92730982184804
 20
-144.9802978153174
 10
78.92730982184804
 20
-145.0392089481152
 10
78.92730982184804
 20
-145.0595350114782
 10
78.92937687913918
 20
-145.0977755713645
 10
78.93351099372148
 20
-145.1274033925376
 10
78.93351099372148
 20
-145.1274033925376
 10
78.73903535357914
 20
-145.1274033925376
 10
78.73903535357914
 20
-145.1274033925376
 10
78.74523652545258
 20
-145.0867512658116
 10
78.747475837518
 20
-145.0412760054064
 10
78.747475837518
 20
-145.0347303239844
 10
78.747475837518
 20
-144.9644503760853
 10
78.72628850028372
 20
-144.7518879846454
 10
78.48926593089853
 20
-144.7518879846454
 10
78.3116712586339
 20
-144.7518879846454
 10
78.25654973086989
 20
-144.892103370895
 10
78.25654973086989
 20
-145.0095811269421
 10
78.25654973086989
 20
-145.2924234662811
 10
78.48926593089853
 20
-145.3013807145427
 10
78.56126842654024
 20
-145.3058593386735
 10
78.56126842654024
 20
-145.3058593386735
 10
78.56126842654024
 20
-145.5229003542443
 10
78.56126842654024
 20
-145.5229003542443
 10
78.43638371519994
 20
-145.5139431059826
 10
78.05983477866212
 20
-145.484659794358
 10
78.05983477866212
 20
-144.9961452545496
 10
78.05983477866212
 20
-144.7563666087762
 10
78.18678654729358
 20
-144.4986734664795
 10
78.48289250425081
 20
-144.4986734664795
 10
78.66909991522856
 20
-144.4986734664795
 10
78.7516099521003
 20
-144.6006482928429
 10
78.81293265173774
 20
-144.7067572337886
 10
78.84049341561975
 20
-144.6413004195688
 10
78.92093639520033
 20
-144.4466525246522
 10
79.19809432698868
 20
-144.4466525246522
 10
79.53657495841448
 20
-144.4466525246522
 10
79.70366208944908
 20
-144.7112358579194
 10
79.70366208944908
 20
-145.0075140696509
 97
        0
 97
        0
 75
     2
 76
     1
 98
        0
  0
ENDBLK
  5
C4
330
C1
100
AcDbEntity
  8
0
100
AcDbBlockEnd
  0
BLOCK
  5
D7
330
D5
100
AcDbEntity
  8
0
100
AcDbBlockBegin
  2
block 5
 70
     0
 10
0.0
 20
0.0
 30
0.0
  3
block 5
  1

  0
POLYLINE
  5
D9
330
D5
100
AcDbEntity
  8
_U+30EC_U+30A4_U+30E4_U+30FC 1
370
     0
100
AcDb2dPolyline
 66
     1
 10
0.0
 20
0.0
 30
0.0
  0
VERTEX
  5
DA
330
D9
100
AcDbEntity
  8
_U+30EC_U+30A4_U+30E4_U+30FC 1
370
     0
100
AcDbVertex
100
AcDb2dVertex
 10
102.3065890586248
 20
-154.7340521531568
 30
0.0
  0
VERTEX
  5
DB
330
D9
100
AcDbEntity
  8
_U+30EC_U+30A4_U+30E4_U+30FC 1
370
     0
100
AcDbVertex
100
AcDb2dVertex
 10
102.6535101739894
 20
-154.7340521531568
 30
0.0
  0
VERTEX
  5
DC
330
D9
100
AcDbEntity
  8
_U+30EC_U+30A4_U+30E4_U+30FC 1
370
     0
100
AcDbVertex
100
AcDb2dVertex
 10
102.6535101739894
 20
-154.9669406079597
 30
0.0
  0
VERTEX
  5
DD
330
D9
100
AcDbEntity
  8
_U+30EC_U+30A4_U+30E4_U+30FC 1
370
     0
100
AcDbVertex
100
AcDb2dVertex
 10
102.3065890586248
 20
-154.9669406079597
 30
0.0
  0
VERTEX
  5
DE
330
D9
100
AcDbEntity
  8
_U+30EC_U+30A4_U+30E4_U+30FC 1
370
     0
100
AcDbVertex
100
AcDb2dVertex
 10
102.3065890586248
 20
-155.668017539208
 30
0.0
  0
VERTEX
  5
DF
330
D9
100
AcDbEntity
  8
_U+30EC_U+30A4_U+30E4_U+30FC 1
370
     0
100
AcDbVertex
100
AcDb2dVertex
 10
102.082313342535
 20
-155.668017539208
 30
0.0
  0
VERTEX
  5
E0
330
D9
100
AcDbEntity
  8
_U+30EC_U+30A4_U+30E4_U+30FC 1
370
     0
100
AcDbVertex
100
AcDb2dVertex
 10
101.1090738679519
 20
-154.9421359204659
 30
0.0
  0
VERTEX
  5
E1
330
D9
100
AcDbEntity
  8
_U+30EC_U+30A4_U+30E4_U+30FC 1
370
     0
100
AcDbVertex
100
AcDb2dVertex
 10
101.1090738679519
 20
-154.7340521531568
 30
0.0
  0
VERTEX
  5
E2
330
D9
100
AcDbEntity
  8
_U+30EC_U+30A4_U+30E4_U+30FC 1
370
     0
100
AcDbVertex
100
AcDb2dVertex
 10
102.1078070491258
 20
-154.7340521531568
 30
0.0
  0
VERTEX
  5
E3
330
D9
100
AcDbEntity
  8
_U+30EC_U+30A4_U+30E4_U+30FC 1
370
     0
100
AcDbVertex
100
AcDb2dVertex
 10
102.1078070491258
 20
-154.5125325134552
 30
0.0
  0
VERTEX
  5
E4
330
D9
100
AcDbEntity
  8
_U+30EC_U+30A4_U+30E4_U+30FC 1
370
     0
100
AcDbVertex
100
AcDb2dVertex
 10
102.3065890586248
 20
-154.5125325134552
 30
0.0
  0
VERTEX
  5
E5
330
D9
100
AcDbEntity
  8
_U+30EC_U+30A4_U+30E4_U+30FC 1
370
     0
100
AcDbVertex
100
AcDb2dVertex
 10
102.3065890586248
 20
-154.7340521531568
 30
0.0
  0
SEQEND
  5
E6
330
D9
100
AcDbEntity
  8
_U+30EC_U+30A4_U+30E4_U+30FC 1
370
     0
  0
POLYLINE
  5
E7
330
D5
100
AcDbEntity
  8
_U+30EC_U+30A4_U+30E4_U+30FC 1
370
     0
100
AcDb2dPolyline
 66
     1
 10
0.0
 20
0.0
 30
0.0
  0
VERTEX
  5
E8
330
E7
100
AcDbEntity
  8
_U+30EC_U+30A4_U+30E4_U+30FC 1
370
     0
100
AcDbVertex
100
AcDb2dVertex
 10
101.4518608687343
 20
-154.9669406079597
 30
0.0
  0
VERTEX
  5
E9
330
E7
100
AcDbEntity
  8
_U+30EC_U+30A4_U+30E4_U+30FC 1
370
     0
100
AcDbVertex
100
AcDb2dVertex
 10
102.1078070491258
 20
-155.4554551477681
 30
0.0
  0
VERTEX
  5
EA
330
E7
100
AcDbEntity
  8
_U+30EC_U+30A4_U+30E4_U+30FC 1
370
     0
100
AcDbVertex
100
AcDb2dVertex
 10
102.1078070491258
 20
-154.9669406079597
 30
0.0
  0
VERTEX
  5
EB
330
E7
100
AcDbEntity
  8
_U+30EC_U+30A4_U+30E4_U+30FC 1
370
     0
100
AcDbVertex
100
AcDb2dVertex
 10
101.4518608687343
 20
-154.9669406079597
 30
0.0
  0
SEQEND
  5
EC
330
E7
100
AcDbEntity
  8
_U+30EC_U+30A4_U+30E4_U+30FC 1
370
     0
  0
HATCH
  5
ED
330
D5
100
AcDbEntity
  8
_U+30EC_U+30A4_U+30E4_U+30FC 1
 62
   179
420
  2234388
100
AcDbHatch
 10
0.0
 20
0.0
 30
0.0
210
0.0
220
0.0
230
1.0
  2
SOLID
 70
     1
 71
     0
 91
        2
 92
        1
 93
       11
 72
     1
 10
102.3065890586248
 20
-154.7340521531568
 11
102.6535101739894
 21
-154.7340521531568
 72
     1
 10
102.6535101739894
 20
-154.7340521531568
 11
102.6535101739894
 21
-154.9669406079597
 72
     1
 10
102.6535101739894
 20
-154.9669406079597
 11
102.3065890586248
 21
-154.9669406079597
 72
     1
 10
102.3065890586248
 20
-154.9669406079597
 11
102.3065890586248
 21
-155.668017539208
 72
     1
 10
102.3065890586248
 20
-155.668017539208
 11
102.082313342535
 21
-155.668017539208
 72
     1
 10
102.082313342535
 20
-155.668017539208
 11
101.1090738679519
 21
-154.9421359204659
 72
     1
 10
101.1090738679519
 20
-154.9421359204659
 11
101.1090738679519
 21
-154.7340521531568
 72
     1
 10
101.1090738679519
 20
-154.7340521531568
 11
102.1078070491258
 21
-154.7340521531568
 72
     1
 10
102.1078070491258
 20
-154.7340521531568
 11
102.1078070491258
 21
-154.5125325134552
 72
     1
 10
102.1078070491258
 20
-154.5125325134552
 11
102.3065890586248
 21
-154.5125325134552
 72
     1
 10
102.3065890586248
 20
-154.5125325134552
 11
102.3065890586248
 21
-154.7340521531568
 97
        0
 92
        1
 93
        3
 72
     1
 10
101.4518608687343
 20
-154.9669406079597
 11
102.1078070491258
 21
-155.4554551477681
 72
     1
 10
102.1078070491258
 20
-155.4554551477681
 11
102.1078070491258
 21
-154.9669406079597
 72
     1
 10
102.1078070491258
 20
-154.9669406079597
 11
101.4518608687343
 21
-154.9669406079597
 97
        0
 75
     2
 76
     1
 98
        0
  0
ENDBLK
  5
D8
330
D5
100
AcDbEntity
  8
0
100
AcDbBlockEnd
  0
BLOCK
  5
F8
330
F6
100
AcDbEntity
  8
0
100
AcDbBlockBegin
  2
block 6
 70
     0
 10
0.0
 20
0.0
 30
0.0
  3
block 6
  1

  0
SPLINE
  5
FA
330
F6
100
AcDbEntity
  8
_U+30EC_U+30A4_U+30E4_U+30FC 1
370
     0
100
AcDbSpline
210
0.0
220
0.0
230
1.0
 70
    11
 71
     3
 72
    26
 73
    22
 74
     0
 42
0.0000000001
 43
0.0000000001
 12
1.0
 22
0.0
 32
0.0
 13
1.0
 23
0.0
 33
0.0
 40
0.0
 40
0.0
 40
0.0
 40
0.0
 40
1.0
 40
1.0
 40
1.0
 40
2.0
 40
2.0
 40
2.0
 40
3.0
 40
3.0
 40
3.0
 40
4.0
 40
4.0
 40
4.0
 40
5.0
 40
5.0
 40
5.0
 40
6.0
 40
6.0
 40
6.0
 40
7.0
 40
7.0
 40
7.0
 40
7.0
 10
102.6531656644409
 20
-147.3081488347007
 30
0.0
 10
102.6531656644409
 20
-147.3081488347007
 30
0.0
 10
101.5490125614183
 20
-147.3081488347007
 30
0.0
 10
101.5490125614183
 20
-147.3081488347007
 30
0.0
 10
101.5490125614183
 20
-147.3081488347007
 30
0.0
 10
101.5490125614183
 20
-147.6605821028418
 30
0.0
 10
101.5490125614183
 20
-147.6605821028418
 30
0.0
 10
101.5490125614183
 20
-147.6605821028418
 30
0.0
 10
101.4008734555526
 20
-147.6605821028418
 30
0.0
 10
101.4008734555526
 20
-147.6605821028418
 30
0.0
 10
101.386059544966
 20
-147.3057372678611
 30
0.0
 10
101.2231065285137
 20
-147.2561278928735
 30
0.0
 10
101.1087293584034
 20
-147.2244330144092
 30
0.0
 10
101.1087293584034
 20
-147.2244330144092
 30
0.0
 10
101.1087293584034
 20
-147.0683701889274
 30
0.0
 10
101.1087293584034
 20
-147.0683701889274
 30
0.0
 10
101.1087293584034
 20
-147.0683701889274
 30
0.0
 10
102.6531656644409
 20
-147.0683701889274
 30
0.0
 10
102.6531656644409
 20
-147.0683701889274
 30
0.0
 10
102.6531656644409
 20
-147.0683701889274
 30
0.0
 10
102.6531656644409
 20
-147.3081488347007
 30
0.0
 10
102.6531656644409
 20
-147.3081488347007
 30
0.0
  0
HATCH
  5
FB
330
F6
100
AcDbEntity
  8
_U+30EC_U+30A4_U+30E4_U+30FC 1
 62
   179
420
  2234388
100
AcDbHatch
 10
0.0
 20
0.0
 30
0.0
210
0.0
220
0.0
230
1.0
  2
SOLID
 70
     1
 71
     0
 91
        1
 92
        1
 93
        1
 72
     4
 94
        3
 73
     0
 74
     1
 95
       26
 96
       22
 40
0.0
 40
0.0
 40
0.0
 40
0.0
 40
1.0
 40
1.0
 40
1.0
 40
2.0
 40
2.0
 40
2.0
 40
3.0
 40
3.0
 40
3.0
 40
4.0
 40
4.0
 40
4.0
 40
5.0
 40
5.0
 40
5.0
 40
6.0
 40
6.0
 40
6.0
 40
7.0
 40
7.0
 40
7.0
 40
7.0
 10
102.6531656644409
 20
-147.3081488347007
 10
102.6531656644409
 20
-147.3081488347007
 10
101.5490125614183
 20
-147.3081488347007
 10
101.5490125614183
 20
-147.3081488347007
 10
101.5490125614183
 20
-147.3081488347007
 10
101.5490125614183
 20
-147.6605821028418
 10
101.5490125614183
 20
-147.6605821028418
 10
101.5490125614183
 20
-147.6605821028418
 10
101.4008734555526
 20
-147.6605821028418
 10
101.4008734555526
 20
-147.6605821028418
 10
101.386059544966
 20
-147.3057372678611
 10
101.2231065285137
 20
-147.2561278928735
 10
101.1087293584034
 20
-147.2244330144092
 10
101.1087293584034
 20
-147.2244330144092
 10
101.1087293584034
 20
-147.0683701889274
 10
101.1087293584034
 20
-147.0683701889274
 10
101.1087293584034
 20
-147.0683701889274
 10
102.6531656644409
 20
-147.0683701889274
 10
102.6531656644409
 20
-147.0683701889274
 10
102.6531656644409
 20
-147.0683701889274
 10
102.6531656644409
 20
-147.3081488347007
 10
102.6531656644409
 20
-147.3081488347007
 97
        0
 97
        0
 75
     2
 76
     1
 98
        0
  0
SPLINE
  5
FC
330
F6
100
AcDbEntity
  8
_U+30EC_U+30A4_U+30E4_U+30FC 1
370
     0
100
AcDbSpline
210
0.0
220
0.0
230
1.0
 70
    11
 71
     3
 72
    62
 73
    58
 74
     0
 42
0.0000000001
 43
0.0000000001
 12
1.0
 22
0.0
 32
0.0
 13
1.0
 23
0.0
 33
0.0
 40
0.0
 40
0.0
 40
0.0
 40
0.0
 40
1.0
 40
1.0
 40
1.0
 40
2.0
 40
2.0
 40
2.0
 40
3.0
 40
3.0
 40
3.0
 40
4.0
 40
4.0
 40
4.0
 40
5.0
 40
5.0
 40
5.0
 40
6.0
 40
6.0
 40
6.0
 40
7.0
 40
7.0
 40
7.0
 40
8.0
 40
8.0
 40
8.0
 40
9.0
 40
9.0
 40
9.0
 40
10.0
 40
10.0
 40
10.0
 40
11.0
 40
11.0
 40
11.0
 40
12.0
 40
12.0
 40
12.0
 40
13.0
 40
13.0
 40
13.0
 40
14.0
 40
14.0
 40
14.0
 40
15.0
 40
15.0
 40
15.0
 40
16.0
 40
16.0
 40
16.0
 40
17.0
 40
17.0
 40
17.0
 40
18.0
 40
18.0
 40
18.0
 40
19.0
 40
19.0
 40
19.0
 40
19.0
 10
102.7038085680741
 20
-146.0072807794704
 30
0.0
 10
102.7038085680741
 20
-146.1089110962853
 30
0.0
 10
102.682793485614
 20
-146.3417995510882
 30
0.0
 10
102.4967583294105
 20
-146.4751247463673
 30
0.0
 10
102.3844482165914
 20
-146.5543619425281
 30
0.0
 10
102.2852294666162
 20
-146.5588405666589
 30
0.0
 10
102.200480117679
 20
-146.5633191907897
 30
0.0
 10
102.200480117679
 20
-146.5633191907897
 30
0.0
 10
102.200480117679
 20
-146.3283636786957
 30
0.0
 10
102.200480117679
 20
-146.3283636786957
 30
0.0
 10
102.2745496706119
 20
-146.325952111856
 30
0.0
 10
102.5091606731574
 20
-146.3145832967547
 30
0.0
 10
102.5091606731574
 20
-146.0117594036012
 30
0.0
 10
102.5091606731574
 20
-145.8646538263811
 30
0.0
 10
102.4395697443554
 20
-145.7020453194773
 30
0.0
 10
102.2111599136833
 20
-145.7020453194773
 30
0.0
 10
102.0947156862819
 20
-145.7020453194773
 30
0.0
 10
102.0461398399399
 20
-145.7426974462032
 30
0.0
 10
102.0144449614756
 20
-145.7768038915072
 30
0.0
 10
101.9403754085427
 20
-145.8556965781194
 30
0.0
 10
101.9276285552473
 20
-145.9800645251369
 30
0.0
 10
101.9276285552473
 20
-146.0389756579347
 30
0.0
 10
101.9276285552473
 20
-146.0593017212977
 30
0.0
 10
101.9296956125384
 20
-146.097542281184
 30
0.0
 10
101.9338297271207
 20
-146.1271701023571
 30
0.0
 10
101.9338297271207
 20
-146.1271701023571
 30
0.0
 10
101.7391818322041
 20
-146.1271701023571
 30
0.0
 10
101.7391818322041
 20
-146.1271701023571
 30
0.0
 10
101.7457275136261
 20
-146.0865179756312
 30
0.0
 10
101.7477945709172
 20
-146.0410427152259
 30
0.0
 10
101.7477945709172
 20
-146.0344970338039
 30
0.0
 10
101.7477945709172
 20
-145.9642170859048
 30
0.0
 10
101.7264349789087
 20
-145.7516546944649
 30
0.0
 10
101.489756919072
 20
-145.7516546944649
 30
0.0
 10
101.3119899920331
 20
-145.7516546944649
 30
0.0
 10
101.2568684642691
 20
-145.8918700807145
 30
0.0
 10
101.2568684642691
 20
-146.0093478367615
 30
0.0
 10
101.2568684642691
 20
-146.2921901761006
 30
0.0
 10
101.489756919072
 20
-146.3011474243622
 30
0.0
 10
101.5614149051652
 20
-146.3056260484931
 30
0.0
 10
101.5614149051652
 20
-146.3056260484931
 30
0.0
 10
101.5614149051652
 20
-146.5226670640638
 30
0.0
 10
101.5614149051652
 20
-146.5226670640638
 30
0.0
 10
101.4367024485992
 20
-146.5137098158021
 30
0.0
 10
101.0601535120614
 20
-146.4844265041775
 30
0.0
 10
101.0601535120614
 20
-145.9959119643691
 30
0.0
 10
101.0601535120614
 20
-145.7561333185957
 30
0.0
 10
101.1872775354671
 20
-145.498440176299
 30
0.0
 10
101.48321123765
 20
-145.498440176299
 30
0.0
 10
101.6695909034021
 20
-145.498440176299
 30
0.0
 10
101.7519286854995
 20
-145.6004150026624
 30
0.0
 10
101.813251385137
 20
-145.7065239436081
 30
0.0
 10
101.840812149019
 20
-145.6410671293883
 30
0.0
 10
101.9210828738253
 20
-145.4464192344717
 30
0.0
 10
102.1984130603879
 20
-145.4464192344717
 30
0.0
 10
102.5367214370394
 20
-145.4464192344717
 30
0.0
 10
102.7038085680741
 20
-145.7110025677389
 30
0.0
 10
102.7038085680741
 20
-146.0072807794704
 30
0.0
  0
HATCH
  5
FD
330
F6
100
AcDbEntity
  8
_U+30EC_U+30A4_U+30E4_U+30FC 1
 62
   179
420
  2234388
100
AcDbHatch
 10
0.0
 20
0.0
 30
0.0
210
0.0
220
0.0
230
1.0
  2
SOLID
 70
     1
 71
     0
 91
        1
 92
        1
 93
        1
 72
     4
 94
        3
 73
     0
 74
     1
 95
       62
 96
       58
 40
0.0
 40
0.0
 40
0.0
 40
0.0
 40
1.0
 40
1.0
 40
1.0
 40
2.0
 40
2.0
 40
2.0
 40
3.0
 40
3.0
 40
3.0
 40
4.0
 40
4.0
 40
4.0
 40
5.0
 40
5.0
 40
5.0
 40
6.0
 40
6.0
 40
6.0
 40
7.0
 40
7.0
 40
7.0
 40
8.0
 40
8.0
 40
8.0
 40
9.0
 40
9.0
 40
9.0
 40
10.0
 40
10.0
 40
10.0
 40
11.0
 40
11.0
 40
11.0
 40
12.0
 40
12.0
 40
12.0
 40
13.0
 40
13.0
 40
13.0
 40
14.0
 40
14.0
 40
14.0
 40
15.0
 40
15.0
 40
15.0
 40
16.0
 40
16.0
 40
16.0
 40
17.0
 40
17.0
 40
17.0
 40
18.0
 40
18.0
 40
18.0
 40
19.0
 40
19.0
 40
19.0
 40
19.0
 10
102.7038085680741
 20
-146.0072807794704
 10
102.7038085680741
 20
-146.1089110962853
 10
102.682793485614
 20
-146.3417995510882
 10
102.4967583294105
 20
-146.4751247463673
 10
102.3844482165914
 20
-146.5543619425281
 10
102.2852294666162
 20
-146.5588405666589
 10
102.200480117679
 20
-146.5633191907897
 10
102.200480117679
 20
-146.5633191907897
 10
102.200480117679
 20
-146.3283636786957
 10
102.200480117679
 20
-146.3283636786957
 10
102.2745496706119
 20
-146.325952111856
 10
102.5091606731574
 20
-146.3145832967547
 10
102.5091606731574
 20
-146.0117594036012
 10
102.5091606731574
 20
-145.8646538263811
 10
102.4395697443554
 20
-145.7020453194773
 10
102.2111599136833
 20
-145.7020453194773
 10
102.0947156862819
 20
-145.7020453194773
 10
102.0461398399399
 20
-145.7426974462032
 10
102.0144449614756
 20
-145.7768038915072
 10
101.9403754085427
 20
-145.8556965781194
 10
101.9276285552473
 20
-145.9800645251369
 10
101.9276285552473
 20
-146.0389756579347
 10
101.9276285552473
 20
-146.0593017212977
 10
101.9296956125384
 20
-146.097542281184
 10
101.9338297271207
 20
-146.1271701023571
 10
101.9338297271207
 20
-146.1271701023571
 10
101.7391818322041
 20
-146.1271701023571
 10
101.7391818322041
 20
-146.1271701023571
 10
101.7457275136261
 20
-146.0865179756312
 10
101.7477945709172
 20
-146.0410427152259
 10
101.7477945709172
 20
-146.0344970338039
 10
101.7477945709172
 20
-145.9642170859048
 10
101.7264349789087
 20
-145.7516546944649
 10
101.489756919072
 20
-145.7516546944649
 10
101.3119899920331
 20
-145.7516546944649
 10
101.2568684642691
 20
-145.8918700807145
 10
101.2568684642691
 20
-146.0093478367615
 10
101.2568684642691
 20
-146.2921901761006
 10
101.489756919072
 20
-146.3011474243622
 10
101.5614149051652
 20
-146.3056260484931
 10
101.5614149051652
 20
-146.3056260484931
 10
101.5614149051652
 20
-146.5226670640638
 10
101.5614149051652
 20
-146.5226670640638
 10
101.4367024485992
 20
-146.5137098158021
 10
101.0601535120614
 20
-146.4844265041775
 10
101.0601535120614
 20
-145.9959119643691
 10
101.0601535120614
 20
-145.7561333185957
 10
101.1872775354671
 20
-145.498440176299
 10
101.48321123765
 20
-145.498440176299
 10
101.6695909034021
 20
-145.498440176299
 10
101.7519286854995
 20
-145.6004150026624
 10
101.813251385137
 20
-145.7065239436081
 10
101.840812149019
 20
-145.6410671293883
 10
101.9210828738253
 20
-145.4464192344717
 10
102.1984130603879
 20
-145.4464192344717
 10
102.5367214370394
 20
-145.4464192344717
 10
102.7038085680741
 20
-145.7110025677389
 10
102.7038085680741
 20
-146.0072807794704
 97
        0
 97
        0
 75
     2
 76
     1
 98
        0
  0
ENDBLK
  5
F9
330
F6
100
AcDbEntity
  8
0
100
AcDbBlockEnd
  0
BLOCK
  5
108
330
106
100
AcDbEntity
  8
0
100
AcDbBlockBegin
  2
block 7
 70
     0
 10
0.0
 20
0.0
 30
0.0
  3
block 7
  1

  0
POLYLINE
  5
10A
330
106
100
AcDbEntity
  8
_U+30EC_U+30A4_U+30E4_U+30FC 1
370
     0
100
AcDb2dPolyline
 66
     1
 10
0.0
 20
0.0
 30
0.0
  0
VERTEX
  5
10B
330
10A
100
AcDbEntity
  8
_U+30EC_U+30A4_U+30E4_U+30FC 1
370
     0
100
AcDbVertex
100
AcDb2dVertex
 10
102.3062445490762
 20
-117.9011582821567
 30
0.0
  0
VERTEX
  5
10C
330
10A
100
AcDbEntity
  8
_U+30EC_U+30A4_U+30E4_U+30FC 1
370
     0
100
AcDbVertex
100
AcDb2dVertex
 10
102.6531656644409
 20
-117.9011582821567
 30
0.0
  0
VERTEX
  5
10D
330
10A
100
AcDbEntity
  8
_U+30EC_U+30A4_U+30E4_U+30FC 1
370
     0
100
AcDbVertex
100
AcDb2dVertex
 10
102.6531656644409
 20
-118.1340467369595
 30
0.0
  0
VERTEX
  5
10E
330
10A
100
AcDbEntity
  8
_U+30EC_U+30A4_U+30E4_U+30FC 1
370
     0
100
AcDbVertex
100
AcDb2dVertex
 10
102.3062445490762
 20
-118.1340467369595
 30
0.0
  0
VERTEX
  5
10F
330
10A
100
AcDbEntity
  8
_U+30EC_U+30A4_U+30E4_U+30FC 1
370
     0
100
AcDbVertex
100
AcDb2dVertex
 10
102.3062445490762
 20
-118.8347791586594
 30
0.0
  0
VERTEX
  5
110
330
10A
100
AcDbEntity
  8
_U+30EC_U+30A4_U+30E4_U+30FC 1
370
     0
100
AcDbVertex
100
AcDb2dVertex
 10
102.0819688329865
 20
-118.8347791586594
 30
0.0
  0
VERTEX
  5
111
330
10A
100
AcDbEntity
  8
_U+30EC_U+30A4_U+30E4_U+30FC 1
370
     0
100
AcDbVertex
100
AcDb2dVertex
 10
101.1087293584034
 20
-118.1090697946915
 30
0.0
  0
VERTEX
  5
112
330
10A
100
AcDbEntity
  8
_U+30EC_U+30A4_U+30E4_U+30FC 1
370
     0
100
AcDbVertex
100
AcDb2dVertex
 10
101.1087293584034
 20
-117.9011582821567
 30
0.0
  0
VERTEX
  5
113
330
10A
100
AcDbEntity
  8
_U+30EC_U+30A4_U+30E4_U+30FC 1
370
     0
100
AcDbVertex
100
AcDb2dVertex
 10
102.1074625395773
 20
-117.9011582821567
 30
0.0
  0
VERTEX
  5
114
330
10A
100
AcDbEntity
  8
_U+30EC_U+30A4_U+30E4_U+30FC 1
370
     0
100
AcDbVertex
100
AcDb2dVertex
 10
102.1074625395773
 20
-117.6794663876808
 30
0.0
  0
VERTEX
  5
115
330
10A
100
AcDbEntity
  8
_U+30EC_U+30A4_U+30E4_U+30FC 1
370
     0
100
AcDbVertex
100
AcDb2dVertex
 10
102.3062445490762
 20
-117.6794663876808
 30
0.0
  0
VERTEX
  5
116
330
10A
100
AcDbEntity
  8
_U+30EC_U+30A4_U+30E4_U+30FC 1
370
     0
100
AcDbVertex
100
AcDb2dVertex
 10
102.3062445490762
 20
-117.9011582821567
 30
0.0
  0
SEQEND
  5
117
330
10A
100
AcDbEntity
  8
_U+30EC_U+30A4_U+30E4_U+30FC 1
370
     0
  0
POLYLINE
  5
118
330
106
100
AcDbEntity
  8
_U+30EC_U+30A4_U+30E4_U+30FC 1
370
     0
100
AcDb2dPolyline
 66
     1
 10
0.0
 20
0.0
 30
0.0
  0
VERTEX
  5
119
330
118
100
AcDbEntity
  8
_U+30EC_U+30A4_U+30E4_U+30FC 1
370
     0
100
AcDbVertex
100
AcDb2dVertex
 10
101.4515163591857
 20
-118.1340467369595
 30
0.0
  0
VERTEX
  5
11A
330
118
100
AcDbEntity
  8
_U+30EC_U+30A4_U+30E4_U+30FC 1
370
     0
100
AcDbVertex
100
AcDb2dVertex
 10
102.1074625395773
 20
-118.6222167672195
 30
0.0
  0
VERTEX
  5
11B
330
118
100
AcDbEntity
  8
_U+30EC_U+30A4_U+30E4_U+30FC 1
370
     0
100
AcDbVertex
100
AcDb2dVertex
 10
102.1074625395773
 20
-118.1340467369595
 30
0.0
  0
VERTEX
  5
11C
330
118
100
AcDbEntity
  8
_U+30EC_U+30A4_U+30E4_U+30FC 1
370
     0
100
AcDbVertex
100
AcDb2dVertex
 10
101.4515163591857
 20
-118.1340467369595
 30
0.0
  0
SEQEND
  5
11D
330
118
100
AcDbEntity
  8
_U+30EC_U+30A4_U+30E4_U+30FC 1
370
     0
  0
HATCH
  5
11E
330
106
100
AcDbEntity
  8
_U+30EC_U+30A4_U+30E4_U+30FC 1
 62
   179
420
  2234388
100
AcDbHatch
 10
0.0
 20
0.0
 30
0.0
210
0.0
220
0.0
230
1.0
  2
SOLID
 70
     1
 71
     0
 91
        2
 92
        1
 93
       11
 72
     1
 10
102.3062445490762
 20
-117.9011582821567
 11
102.6531656644409
 21
-117.9011582821567
 72
     1
 10
102.6531656644409
 20
-117.9011582821567
 11
102.6531656644409
 21
-118.1340467369595
 72
     1
 10
102.6531656644409
 20
-118.1340467369595
 11
102.3062445490762
 21
-118.1340467369595
 72
     1
 10
102.3062445490762
 20
-118.1340467369595
 11
102.3062445490762
 21
-118.8347791586594
 72
     1
 10
102.3062445490762
 20
-118.8347791586594
 11
102.0819688329865
 21
-118.8347791586594
 72
     1
 10
102.0819688329865
 20
-118.8347791586594
 11
101.1087293584034
 21
-118.1090697946915
 72
     1
 10
101.1087293584034
 20
-118.1090697946915
 11
101.1087293584034
 21
-117.9011582821567
 72
     1
 10
101.1087293584034
 20
-117.9011582821567
 11
102.1074625395773
 21
-117.9011582821567
 72
     1
 10
102.1074625395773
 20
-117.9011582821567
 11
102.1074625395773
 21
-117.6794663876808
 72
     1
 10
102.1074625395773
 20
-117.6794663876808
 11
102.3062445490762
 21
-117.6794663876808
 72
     1
 10
102.3062445490762
 20
-117.6794663876808
 11
102.3062445490762
 21
-117.9011582821567
 97
        0
 92
        1
 93
        3
 72
     1
 10
101.4515163591857
 20
-118.1340467369595
 11
102.1074625395773
 21
-118.6222167672195
 72
     1
 10
102.1074625395773
 20
-118.6222167672195
 11
102.1074625395773
 21
-118.1340467369595
 72
     1
 10
102.1074625395773
 20
-118.1340467369595
 11
101.4515163591857
 21
-118.1340467369595
 97
        0
 75
     2
 76
     1
 98
        0
  0
SPLINE
  5
11F
330
106
100
AcDbEntity
  8
_U+30EC_U+30A4_U+30E4_U+30FC 1
370
     0
100
AcDbSpline
210
0.0
220
0.0
230
1.0
 70
    11
 71
     3
 72
    53
 73
    49
 74
     0
 42
0.0000000001
 43
0.0000000001
 12
1.0
 22
0.0
 32
0.0
 13
1.0
 23
0.0
 33
0.0
 40
0.0
 40
0.0
 40
0.0
 40
0.0
 40
1.0
 40
1.0
 40
1.0
 40
2.0
 40
2.0
 40
2.0
 40
3.0
 40
3.0
 40
3.0
 40
4.0
 40
4.0
 40
4.0
 40
5.0
 40
5.0
 40
5.0
 40
6.0
 40
6.0
 40
6.0
 40
7.0
 40
7.0
 40
7.0
 40
8.0
 40
8.0
 40
8.0
 40
9.0
 40
9.0
 40
9.0
 40
10.0
 40
10.0
 40
10.0
 40
11.0
 40
11.0
 40
11.0
 40
12.0
 40
12.0
 40
12.0
 40
13.0
 40
13.0
 40
13.0
 40
14.0
 40
14.0
 40
14.0
 40
15.0
 40
15.0
 40
15.0
 40
16.0
 40
16.0
 40
16.0
 40
16.0
 10
102.7038085680741
 20
-117.0185248188357
 30
0.0
 10
102.7038085680741
 20
-117.1022406391272
 30
0.0
 10
102.6869276001963
 20
-117.2107611469126
 30
0.0
 10
102.6235378432677
 20
-117.319281654698
 30
0.0
 10
102.5136392972883
 20
-117.5046277918044
 30
0.0
 10
102.3823811593002
 20
-117.5273654220071
 30
0.0
 10
102.2745496706119
 20
-117.54769148537
 30
0.0
 10
102.2745496706119
 20
-117.54769148537
 30
0.0
 10
102.2745496706119
 20
-117.3103244064363
 30
0.0
 10
102.2745496706119
 20
-117.3103244064363
 30
0.0
 10
102.4733316801108
 20
-117.2514132736385
 30
0.0
 10
102.502959501284
 20
-117.115848766294
 30
0.0
 10
102.502959501284
 20
-117.0162855067702
 30
0.0
 10
102.502959501284
 20
-116.8671128722589
 30
0.0
 10
102.4033962417603
 20
-116.7043321105809
 30
0.0
 10
102.1708522965059
 20
-116.7043321105809
 30
0.0
 10
101.9148817019518
 20
-116.7043321105809
 30
0.0
 10
101.8449462636013
 20
-116.8965684386578
 30
0.0
 10
101.8449462636013
 20
-117.0254150098062
 30
0.0
 10
101.8449462636013
 20
-117.0593492003359
 30
0.0
 10
101.8449462636013
 20
-117.2107611469126
 30
0.0
 10
101.9741373442981
 20
-117.3056735275312
 30
0.0
 10
101.9741373442981
 20
-117.3056735275312
 30
0.0
 10
101.9551893191293
 20
-117.4934312314773
 30
0.0
 10
101.9551893191293
 20
-117.4934312314773
 30
0.0
 10
101.9551893191293
 20
-117.4934312314773
 30
0.0
 10
101.1087293584034
 20
-117.3644124055547
 30
0.0
 10
101.1087293584034
 20
-117.3644124055547
 30
0.0
 10
101.1087293584034
 20
-117.3644124055547
 30
0.0
 10
101.1087293584034
 20
-116.5324218458669
 30
0.0
 10
101.1087293584034
 20
-116.5324218458669
 30
0.0
 10
101.1087293584034
 20
-116.5324218458669
 30
0.0
 10
101.30337725332
 20
-116.5324218458669
 30
0.0
 10
101.30337725332
 20
-116.5324218458669
 30
0.0
 10
101.30337725332
 20
-116.5324218458669
 30
0.0
 10
101.30337725332
 20
-117.1904350835496
 30
0.0
 10
101.30337725332
 20
-117.1904350835496
 30
0.0
 10
101.30337725332
 20
-117.1904350835496
 30
0.0
 10
101.7264349789087
 20
-117.2605427766745
 30
0.0
 10
101.7264349789087
 20
-117.2605427766745
 30
0.0
 10
101.6926730431532
 20
-117.1949137076804
 30
0.0
 10
101.6523654259758
 20
-117.106719263258
 30
0.0
 10
101.6523654259758
 20
-116.9801120041751
 30
0.0
 10
101.6523654259758
 20
-116.7088107347117
 30
0.0
 10
101.8387450917278
 20
-116.4555962165458
 30
0.0
 10
102.151904271337
 20
-116.4555962165458
 30
0.0
 10
102.4691975655285
 20
-116.4555962165458
 30
0.0
 10
102.7038085680741
 20
-116.6953748623192
 30
0.0
 10
102.7038085680741
 20
-117.0185248188357
 30
0.0
  0
HATCH
  5
120
330
106
100
AcDbEntity
  8
_U+30EC_U+30A4_U+30E4_U+30FC 1
 62
   179
420
  2234388
100
AcDbHatch
 10
0.0
 20
0.0
 30
0.0
210
0.0
220
0.0
230
1.0
  2
SOLID
 70
     1
 71
     0
 91
        1
 92
        1
 93
        1
 72
     4
 94
        3
 73
     0
 74
     1
 95
       53
 96
       49
 40
0.0
 40
0.0
 40
0.0
 40
0.0
 40
1.0
 40
1.0
 40
1.0
 40
2.0
 40
2.0
 40
2.0
 40
3.0
 40
3.0
 40
3.0
 40
4.0
 40
4.0
 40
4.0
 40
5.0
 40
5.0
 40
5.0
 40
6.0
 40
6.0
 40
6.0
 40
7.0
 40
7.0
 40
7.0
 40
8.0
 40
8.0
 40
8.0
 40
9.0
 40
9.0
 40
9.0
 40
10.0
 40
10.0
 40
10.0
 40
11.0
 40
11.0
 40
11.0
 40
12.0
 40
12.0
 40
12.0
 40
13.0
 40
13.0
 40
13.0
 40
14.0
 40
14.0
 40
14.0
 40
15.0
 40
15.0
 40
15.0
 40
16.0
 40
16.0
 40
16.0
 40
16.0
 10
102.7038085680741
 20
-117.0185248188357
 10
102.7038085680741
 20
-117.1022406391272
 10
102.6869276001963
 20
-117.2107611469126
 10
102.6235378432677
 20
-117.319281654698
 10
102.5136392972883
 20
-117.5046277918044
 10
102.3823811593002
 20
-117.5273654220071
 10
102.2745496706119
 20
-117.54769148537
 10
102.2745496706119
 20
-117.54769148537
 10
102.2745496706119
 20
-117.3103244064363
 10
102.2745496706119
 20
-117.3103244064363
 10
102.4733316801108
 20
-117.2514132736385
 10
102.502959501284
 20
-117.115848766294
 10
102.502959501284
 20
-117.0162855067702
 10
102.502959501284
 20
-116.8671128722589
 10
102.4033962417603
 20
-116.7043321105809
 10
102.1708522965059
 20
-116.7043321105809
 10
101.9148817019518
 20
-116.7043321105809
 10
101.8449462636013
 20
-116.8965684386578
 10
101.8449462636013
 20
-117.0254150098062
 10
101.8449462636013
 20
-117.0593492003359
 10
101.8449462636013
 20
-117.2107611469126
 10
101.9741373442981
 20
-117.3056735275312
 10
101.9741373442981
 20
-117.3056735275312
 10
101.9551893191293
 20
-117.4934312314773
 10
101.9551893191293
 20
-117.4934312314773
 10
101.9551893191293
 20
-117.4934312314773
 10
101.1087293584034
 20
-117.3644124055547
 10
101.1087293584034
 20
-117.3644124055547
 10
101.1087293584034
 20
-117.3644124055547
 10
101.1087293584034
 20
-116.5324218458669
 10
101.1087293584034
 20
-116.5324218458669
 10
101.1087293584034
 20
-116.5324218458669
 10
101.30337725332
 20
-116.5324218458669
 10
101.30337725332
 20
-116.5324218458669
 10
101.30337725332
 20
-116.5324218458669
 10
101.30337725332
 20
-117.1904350835496
 10
101.30337725332
 20
-117.1904350835496
 10
101.30337725332
 20
-117.1904350835496
 10
101.7264349789087
 20
-117.2605427766745
 10
101.7264349789087
 20
-117.2605427766745
 10
101.6926730431532
 20
-117.1949137076804
 10
101.6523654259758
 20
-117.106719263258
 10
101.6523654259758
 20
-116.9801120041751
 10
101.6523654259758
 20
-116.7088107347117
 10
101.8387450917278
 20
-116.4555962165458
 10
102.151904271337
 20
-116.4555962165458
 10
102.4691975655285
 20
-116.4555962165458
 10
102.7038085680741
 20
-116.6953748623192
 10
102.7038085680741
 20
-117.0185248188357
 97
        0
 97
        0
 75
     2
 76
     1
 98
        0
  0
ENDBLK
  5
109
330
106
100
AcDbEntity
  8
0
100
AcDbBlockEnd
  0
BLOCK
  5
12F
330
12D
100
AcDbEntity
  8
0
100
AcDbBlockBegin
  2
block 8
 70
     0
 10
0.0
 20
0.0
 30
0.0
  3
block 8
  1

  0
SPLINE
  5
131
330
12D
100
AcDbEntity
  8
_U+30EC_U+30A4_U+30E4_U+30FC 1
370
     0
100
AcDbSpline
210
0.0
220
0.0
230
1.0
 70
    11
 71
     3
 72
    26
 73
    22
 74
     0
 42
0.0000000001
 43
0.0000000001
 12
1.0
 22
0.0
 32
0.0
 13
1.0
 23
0.0
 33
0.0
 40
0.0
 40
0.0
 40
0.0
 40
0.0
 40
1.0
 40
1.0
 40
1.0
 40
2.0
 40
2.0
 40
2.0
 40
3.0
 40
3.0
 40
3.0
 40
4.0
 40
4.0
 40
4.0
 40
5.0
 40
5.0
 40
5.0
 40
6.0
 40
6.0
 40
6.0
 40
7.0
 40
7.0
 40
7.0
 40
7.0
 10
91.0731662098706
 20
-160.5355929503175
 30
0.0
 10
91.0731662098706
 20
-160.5355929503175
 30
0.0
 10
91.0731662098706
 20
-159.4314398472949
 30
0.0
 10
91.0731662098706
 20
-159.4314398472949
 30
0.0
 10
91.0731662098706
 20
-159.4314398472949
 30
0.0
 10
90.72073294172954
 20
-159.4314398472949
 30
0.0
 10
90.72073294172954
 20
-159.4314398472949
 30
0.0
 10
90.72073294172954
 20
-159.4314398472949
 30
0.0
 10
90.72073294172954
 20
-159.2833007414292
 30
0.0
 10
90.72073294172954
 20
-159.2833007414292
 30
0.0
 10
91.07557777671028
 20
-159.2684868308426
 30
0.0
 10
91.12518715169787
 20
-159.1055338143903
 30
0.0
 10
91.15688203016217
 20
-158.99115664428
 30
0.0
 10
91.15688203016217
 20
-158.99115664428
 30
0.0
 10
91.31294485564399
 20
-158.99115664428
 30
0.0
 10
91.31294485564399
 20
-158.99115664428
 30
0.0
 10
91.31294485564399
 20
-158.99115664428
 30
0.0
 10
91.31294485564399
 20
-160.5355929503175
 30
0.0
 10
91.31294485564399
 20
-160.5355929503175
 30
0.0
 10
91.31294485564399
 20
-160.5355929503175
 30
0.0
 10
91.0731662098706
 20
-160.5355929503175
 30
0.0
 10
91.0731662098706
 20
-160.5355929503175
 30
0.0
  0
HATCH
  5
132
330
12D
100
AcDbEntity
  8
_U+30EC_U+30A4_U+30E4_U+30FC 1
 62
   179
420
  2234388
100
AcDbHatch
 10
0.0
 20
0.0
 30
0.0
210
0.0
220
0.0
230
1.0
  2
SOLID
 70
     1
 71
     0
 91
        1
 92
        1
 93
        1
 72
     4
 94
        3
 73
     0
 74
     1
 95
       26
 96
       22
 40
0.0
 40
0.0
 40
0.0
 40
0.0
 40
1.0
 40
1.0
 40
1.0
 40
2.0
 40
2.0
 40
2.0
 40
3.0
 40
3.0
 40
3.0
 40
4.0
 40
4.0
 40
4.0
 40
5.0
 40
5.0
 40
5.0
 40
6.0
 40
6.0
 40
6.0
 40
7.0
 40
7.0
 40
7.0
 40
7.0
 10
91.0731662098706
 20
-160.5355929503175
 10
91.0731662098706
 20
-160.5355929503175
 10
91.0731662098706
 20
-159.4314398472949
 10
91.0731662098706
 20
-159.4314398472949
 10
91.0731662098706
 20
-159.4314398472949
 10
90.72073294172954
 20
-159.4314398472949
 10
90.72073294172954
 20
-159.4314398472949
 10
90.72073294172954
 20
-159.4314398472949
 10
90.72073294172954
 20
-159.2833007414292
 10
90.72073294172954
 20
-159.2833007414292
 10
91.07557777671028
 20
-159.2684868308426
 10
91.12518715169787
 20
-159.1055338143903
 10
91.15688203016217
 20
-158.99115664428
 10
91.15688203016217
 20
-158.99115664428
 10
91.31294485564399
 20
-158.99115664428
 10
91.31294485564399
 20
-158.99115664428
 10
91.31294485564399
 20
-158.99115664428
 10
91.31294485564399
 20
-160.5355929503175
 10
91.31294485564399
 20
-160.5355929503175
 10
91.31294485564399
 20
-160.5355929503175
 10
91.0731662098706
 20
-160.5355929503175
 10
91.0731662098706
 20
-160.5355929503175
 97
        0
 97
        0
 75
     2
 76
     1
 98
        0
  0
SPLINE
  5
133
330
12D
100
AcDbEntity
  8
_U+30EC_U+30A4_U+30E4_U+30FC 1
370
     0
100
AcDbSpline
210
0.0
220
0.0
230
1.0
 70
    11
 71
     3
 72
    53
 73
    49
 74
     0
 42
0.0000000001
 43
0.0000000001
 12
1.0
 22
0.0
 32
0.0
 13
1.0
 23
0.0
 33
0.0
 40
0.0
 40
0.0
 40
0.0
 40
0.0
 40
1.0
 40
1.0
 40
1.0
 40
2.0
 40
2.0
 40
2.0
 40
3.0
 40
3.0
 40
3.0
 40
4.0
 40
4.0
 40
4.0
 40
5.0
 40
5.0
 40
5.0
 40
6.0
 40
6.0
 40
6.0
 40
7.0
 40
7.0
 40
7.0
 40
8.0
 40
8.0
 40
8.0
 40
9.0
 40
9.0
 40
9.0
 40
10.0
 40
10.0
 40
10.0
 40
11.0
 40
11.0
 40
11.0
 40
12.0
 40
12.0
 40
12.0
 40
13.0
 40
13.0
 40
13.0
 40
14.0
 40
14.0
 40
14.0
 40
15.0
 40
15.0
 40
15.0
 40
16.0
 40
16.0
 40
16.0
 40
16.0
 10
92.36266544999961
 20
-160.5862358539507
 30
0.0
 10
92.27894962970804
 20
-160.5862358539507
 30
0.0
 10
92.1707736314712
 20
-160.5693548860729
 30
0.0
 10
92.06190861413731
 20
-160.5059651291444
 30
0.0
 10
91.87656247703086
 20
-160.3960665831649
 30
0.0
 10
91.85416935637674
 20
-160.2648084451769
 30
0.0
 10
91.83384329301377
 20
-160.1569769564885
 30
0.0
 10
91.83384329301377
 20
-160.1569769564885
 30
0.0
 10
92.07121037194747
 20
-160.1569769564885
 30
0.0
 10
92.07121037194747
 20
-160.1569769564885
 30
0.0
 10
92.12977699519672
 20
-160.3557589659875
 30
0.0
 10
92.26551375731557
 20
-160.3853867871606
 30
0.0
 10
92.3650770168393
 20
-160.3853867871606
 30
0.0
 10
92.51424965135061
 20
-160.3853867871606
 30
0.0
 10
92.67720266780293
 20
-160.2858235276369
 30
0.0
 10
92.67720266780293
 20
-160.0532795823825
 30
0.0
 10
92.67720266780293
 20
-159.7973089878284
 30
0.0
 10
92.48496633972599
 20
-159.7273735494779
 30
0.0
 10
92.35611976857764
 20
-159.7273735494779
 30
0.0
 10
92.32201332327367
 20
-159.7273735494779
 30
0.0
 10
92.1707736314712
 20
-159.7273735494779
 30
0.0
 10
92.0756889960783
 20
-159.8565646301747
 30
0.0
 10
92.0756889960783
 20
-159.8565646301747
 30
0.0
 10
91.8879312921322
 20
-159.8376166050059
 30
0.0
 10
91.8879312921322
 20
-159.8376166050059
 30
0.0
 10
91.8879312921322
 20
-159.8376166050059
 30
0.0
 10
92.01677786328054
 20
-158.99115664428
 30
0.0
 10
92.01677786328054
 20
-158.99115664428
 30
0.0
 10
92.01677786328054
 20
-158.99115664428
 30
0.0
 10
92.84876842296836
 20
-158.99115664428
 30
0.0
 10
92.84876842296836
 20
-158.99115664428
 30
0.0
 10
92.84876842296836
 20
-158.99115664428
 30
0.0
 10
92.84876842296836
 20
-159.1858045391966
 30
0.0
 10
92.84876842296836
 20
-159.1858045391966
 30
0.0
 10
92.84876842296836
 20
-159.1858045391966
 30
0.0
 10
92.19109969483418
 20
-159.1858045391966
 30
0.0
 10
92.19109969483418
 20
-159.1858045391966
 30
0.0
 10
92.19109969483418
 20
-159.1858045391966
 30
0.0
 10
92.12081974693508
 20
-159.6088622647853
 30
0.0
 10
92.12081974693508
 20
-159.6088622647853
 30
0.0
 10
92.18627656115483
 20
-159.5751003290299
 30
0.0
 10
92.27447100557723
 20
-159.5347927118524
 30
0.0
 10
92.40125051943441
 20
-159.5347927118524
 30
0.0
 10
92.67237953412358
 20
-159.5347927118524
 30
0.0
 10
92.92559405228944
 20
-159.7211723776044
 30
0.0
 10
92.92559405228944
 20
-160.0343315572136
 30
0.0
 10
92.92559405228944
 20
-160.3516248514051
 30
0.0
 10
92.68615991606458
 20
-160.5862358539507
 30
0.0
 10
92.36266544999961
 20
-160.5862358539507
 30
0.0
  0
HATCH
  5
134
330
12D
100
AcDbEntity
  8
_U+30EC_U+30A4_U+30E4_U+30FC 1
 62
   179
420
  2234388
100
AcDbHatch
 10
0.0
 20
0.0
 30
0.0
210
0.0
220
0.0
230
1.0
  2
SOLID
 70
     1
 71
     0
 91
        1
 92
        1
 93
        1
 72
     4
 94
        3
 73
     0
 74
     1
 95
       53
 96
       49
 40
0.0
 40
0.0
 40
0.0
 40
0.0
 40
1.0
 40
1.0
 40
1.0
 40
2.0
 40
2.0
 40
2.0
 40
3.0
 40
3.0
 40
3.0
 40
4.0
 40
4.0
 40
4.0
 40
5.0
 40
5.0
 40
5.0
 40
6.0
 40
6.0
 40
6.0
 40
7.0
 40
7.0
 40
7.0
 40
8.0
 40
8.0
 40
8.0
 40
9.0
 40
9.0
 40
9.0
 40
10.0
 40
10.0
 40
10.0
 40
11.0
 40
11.0
 40
11.0
 40
12.0
 40
12.0
 40
12.0
 40
13.0
 40
13.0
 40
13.0
 40
14.0
 40
14.0
 40
14.0
 40
15.0
 40
15.0
 40
15.0
 40
16.0
 40
16.0
 40
16.0
 40
16.0
 10
92.36266544999961
 20
-160.5862358539507
 10
92.27894962970804
 20
-160.5862358539507
 10
92.1707736314712
 20
-160.5693548860729
 10
92.06190861413731
 20
-160.5059651291444
 10
91.87656247703086
 20
-160.3960665831649
 10
91.85416935637674
 20
-160.2648084451769
 10
91.83384329301377
 20
-160.1569769564885
 10
91.83384329301377
 20
-160.1569769564885
 10
92.07121037194747
 20
-160.1569769564885
 10
92.07121037194747
 20
-160.1569769564885
 10
92.12977699519672
 20
-160.3557589659875
 10
92.26551375731557
 20
-160.3853867871606
 10
92.3650770168393
 20
-160.3853867871606
 10
92.51424965135061
 20
-160.3853867871606
 10
92.67720266780293
 20
-160.2858235276369
 10
92.67720266780293
 20
-160.0532795823825
 10
92.67720266780293
 20
-159.7973089878284
 10
92.48496633972599
 20
-159.7273735494779
 10
92.35611976857764
 20
-159.7273735494779
 10
92.32201332327367
 20
-159.7273735494779
 10
92.1707736314712
 20
-159.7273735494779
 10
92.0756889960783
 20
-159.8565646301747
 10
92.0756889960783
 20
-159.8565646301747
 10
91.8879312921322
 20
-159.8376166050059
 10
91.8879312921322
 20
-159.8376166050059
 10
91.8879312921322
 20
-159.8376166050059
 10
92.01677786328054
 20
-158.99115664428
 10
92.01677786328054
 20
-158.99115664428
 10
92.01677786328054
 20
-158.99115664428
 10
92.84876842296836
 20
-158.99115664428
 10
92.84876842296836
 20
-158.99115664428
 10
92.84876842296836
 20
-158.99115664428
 10
92.84876842296836
 20
-159.1858045391966
 10
92.84876842296836
 20
-159.1858045391966
 10
92.84876842296836
 20
-159.1858045391966
 10
92.19109969483418
 20
-159.1858045391966
 10
92.19109969483418
 20
-159.1858045391966
 10
92.19109969483418
 20
-159.1858045391966
 10
92.12081974693508
 20
-159.6088622647853
 10
92.12081974693508
 20
-159.6088622647853
 10
92.18627656115483
 20
-159.5751003290299
 10
92.27447100557723
 20
-159.5347927118524
 10
92.40125051943441
 20
-159.5347927118524
 10
92.67237953412358
 20
-159.5347927118524
 10
92.92559405228944
 20
-159.7211723776044
 10
92.92559405228944
 20
-160.0343315572136
 10
92.92559405228944
 20
-160.3516248514051
 10
92.68615991606458
 20
-160.5862358539507
 10
92.36266544999961
 20
-160.5862358539507
 97
        0
 97
        0
 75
     2
 76
     1
 98
        0
  0
ENDBLK
  5
130
330
12D
100
AcDbEntity
  8
0
100
AcDbBlockEnd
  0
BLOCK
  5
13F
330
13D
100
AcDbEntity
  8
0
100
AcDbBlockBegin
  2
block 9
 70
     0
 10
0.0
 20
0.0
 30
0.0
  3
block 9
  1

  0
SPLINE
  5
141
330
13D
100
AcDbEntity
  8
_U+30EC_U+30A4_U+30E4_U+30FC 1
370
     0
100
AcDbSpline
210
0.0
220
0.0
230
1.0
 70
    11
 71
     3
 72
    26
 73
    22
 74
     0
 42
0.0000000001
 43
0.0000000001
 12
1.0
 22
0.0
 32
0.0
 13
1.0
 23
0.0
 33
0.0
 40
0.0
 40
0.0
 40
0.0
 40
0.0
 40
1.0
 40
1.0
 40
1.0
 40
2.0
 40
2.0
 40
2.0
 40
3.0
 40
3.0
 40
3.0
 40
4.0
 40
4.0
 40
4.0
 40
5.0
 40
5.0
 40
5.0
 40
6.0
 40
6.0
 40
6.0
 40
7.0
 40
7.0
 40
7.0
 40
7.0
 10
92.12081974693508
 20
-104.48216685756
 30
0.0
 10
92.12081974693508
 20
-104.48216685756
 30
0.0
 10
92.12081974693508
 20
-103.3778414997632
 30
0.0
 10
92.12081974693508
 20
-103.3778414997632
 30
0.0
 10
92.12081974693508
 20
-103.3778414997632
 30
0.0
 10
91.76838647879401
 20
-103.3778414997632
 30
0.0
 10
91.76838647879401
 20
-103.3778414997632
 30
0.0
 10
91.76838647879401
 20
-103.3778414997632
 30
0.0
 10
91.76838647879401
 20
-103.2298746486717
 30
0.0
 10
91.76838647879401
 20
-103.2298746486717
 30
0.0
 10
92.12323131377475
 20
-103.2150607380851
 30
0.0
 10
92.17284068876235
 20
-103.0521077216328
 30
0.0
 10
92.20453556722664
 20
-102.9379028062968
 30
0.0
 10
92.20453556722664
 20
-102.9379028062968
 30
0.0
 10
92.36059839270847
 20
-102.9379028062968
 30
0.0
 10
92.36059839270847
 20
-102.9379028062968
 30
0.0
 10
92.36059839270847
 20
-102.9379028062968
 30
0.0
 10
92.36059839270847
 20
-104.48216685756
 30
0.0
 10
92.36059839270847
 20
-104.48216685756
 30
0.0
 10
92.36059839270847
 20
-104.48216685756
 30
0.0
 10
92.12081974693508
 20
-104.48216685756
 30
0.0
 10
92.12081974693508
 20
-104.48216685756
 30
0.0
  0
HATCH
  5
142
330
13D
100
AcDbEntity
  8
_U+30EC_U+30A4_U+30E4_U+30FC 1
 62
   179
420
  2234388
100
AcDbHatch
 10
0.0
 20
0.0
 30
0.0
210
0.0
220
0.0
230
1.0
  2
SOLID
 70
     1
 71
     0
 91
        1
 92
        1
 93
        1
 72
     4
 94
        3
 73
     0
 74
     1
 95
       26
 96
       22
 40
0.0
 40
0.0
 40
0.0
 40
0.0
 40
1.0
 40
1.0
 40
1.0
 40
2.0
 40
2.0
 40
2.0
 40
3.0
 40
3.0
 40
3.0
 40
4.0
 40
4.0
 40
4.0
 40
5.0
 40
5.0
 40
5.0
 40
6.0
 40
6.0
 40
6.0
 40
7.0
 40
7.0
 40
7.0
 40
7.0
 10
92.12081974693508
 20
-104.48216685756
 10
92.12081974693508
 20
-104.48216685756
 10
92.12081974693508
 20
-103.3778414997632
 10
92.12081974693508
 20
-103.3778414997632
 10
92.12081974693508
 20
-103.3778414997632
 10
91.76838647879401
 20
-103.3778414997632
 10
91.76838647879401
 20
-103.3778414997632
 10
91.76838647879401
 20
-103.3778414997632
 10
91.76838647879401
 20
-103.2298746486717
 10
91.76838647879401
 20
-103.2298746486717
 10
92.12323131377475
 20
-103.2150607380851
 10
92.17284068876235
 20
-103.0521077216328
 10
92.20453556722664
 20
-102.9379028062968
 10
92.20453556722664
 20
-102.9379028062968
 10
92.36059839270847
 20
-102.9379028062968
 10
92.36059839270847
 20
-102.9379028062968
 10
92.36059839270847
 20
-102.9379028062968
 10
92.36059839270847
 20
-104.48216685756
 10
92.36059839270847
 20
-104.48216685756
 10
92.36059839270847
 20
-104.48216685756
 10
92.12081974693508
 20
-104.48216685756
 10
92.12081974693508
 20
-104.48216685756
 97
        0
 97
        0
 75
     2
 76
     1
 98
        0
  0
ENDBLK
  5
140
330
13D
100
AcDbEntity
  8
0
100
AcDbBlockEnd
  0
ENDSEC
  0
SECTION
  2
ENTITIES
  0
POLYLINE
  5
41
330
1F
100
AcDbEntity
  8
_U+30EC_U+30A4_U+30E4_U+30FC 1
 62
   179
420
  2234388
370
    25
100
AcDb2dPolyline
 66
     1
 10
0.0
 20
0.0
 30
0.0
  0
VERTEX
  5
42
330
41
100
AcDbEntity
  8
_U+30EC_U+30A4_U+30E4_U+30FC 1
 62
   179
420
  2234388
370
    25
100
AcDbVertex
100
AcDb2dVertex
 10
84.24964590616803
 20
-157.1314907940503
 30
0.0
  0
VERTEX
  5
43
330
41
100
AcDbEntity
  8
_U+30EC_U+30A4_U+30E4_U+30FC 1
 62
   179
420
  2234388
370
    25
100
AcDbVertex
100
AcDb2dVertex
 10
99.24975663459442
 20
-157.1314907940503
 30
0.0
  0
SEQEND
  5
44
330
41
100
AcDbEntity
  8
_U+30EC_U+30A4_U+30E4_U+30FC 1
 62
   179
420
  2234388
370
    25
  0
POLYLINE
  5
45
330
1F
100
AcDbEntity
  8
_U+30EC_U+30A4_U+30E4_U+30FC 1
 62
   179
420
  2234388
370
    25
100
AcDb2dPolyline
 66
     1
 10
0.0
 20
0.0
 30
0.0
  0
VERTEX
  5
46
330
45
100
AcDbEntity
  8
_U+30EC_U+30A4_U+30E4_U+30FC 1
 62
   179
420
  2234388
370
    25
100
AcDbVertex
100
AcDb2dVertex
 10
94.25022775421496
 20
-95.13181942066149
 30
0.0
  0
VERTEX
  5
47
330
45
100
AcDbEntity
  8
_U+30EC_U+30A4_U+30E4_U+30FC 1
 62
   179
420
  2234388
370
    25
100
AcDbVertex
100
AcDb2dVertex
 10
95.24999997618751
 20
-95.13181942066149
 30
0.0
  0
SEQEND
  5
48
330
45
100
AcDbEntity
  8
_U+30EC_U+30A4_U+30E4_U+30FC 1
 62
   179
420
  2234388
370
    25
  0
POLYLINE
  5
49
330
1F
100
AcDbEntity
  8
_U+30EC_U+30A4_U+30E4_U+30FC 1
 62
   179
420
  2234388
370
    25
100
AcDb2dPolyline
 66
     1
 10
0.0
 20
0.0
 30
0.0
  0
VERTEX
  5
4A
330
49
100
AcDbEntity
  8
_U+30EC_U+30A4_U+30E4_U+30FC 1
 62
   179
420
  2234388
370
    25
100
AcDbVertex
100
AcDb2dVertex
 10
84.24964590616803
 20
-134.1320377442448
 30
0.0
  0
VERTEX
  5
4B
330
49
100
AcDbEntity
  8
_U+30EC_U+30A4_U+30E4_U+30FC 1
 62
   179
420
  2234388
370
    25
100
AcDbVertex
100
AcDb2dVertex
 10
84.24964590616803
 20
-157.1314907940503
 30
0.0
  0
SEQEND
  5
4C
330
49
100
AcDbEntity
  8
_U+30EC_U+30A4_U+30E4_U+30FC 1
 62
   179
420
  2234388
370
    25
  0
POLYLINE
  5
4D
330
1F
100
AcDbEntity
  8
_U+30EC_U+30A4_U+30E4_U+30FC 1
 62
   179
420
  2234388
370
    25
100
AcDb2dPolyline
 66
     1
 10
0.0
 20
0.0
 30
0.0
  0
VERTEX
  5
4E
330
4D
100
AcDbEntity
  8
_U+30EC_U+30A4_U+30E4_U+30FC 1
 62
   179
420
  2234388
370
    25
100
AcDbVertex
100
AcDb2dVertex
 10
99.24975663459442
 20
-153.1317316283834
 30
0.0
  0
VERTEX
  5
4F
330
4D
100
AcDbEntity
  8
_U+30EC_U+30A4_U+30E4_U+30FC 1
 62
   179
420
  2234388
370
    25
100
AcDbVertex
100
AcDb2dVertex
 10
99.24975663459442
 20
-157.1314907940503
 30
0.0
  0
SEQEND
  5
50
330
4D
100
AcDbEntity
  8
_U+30EC_U+30A4_U+30E4_U+30FC 1
 62
   179
420
  2234388
370
    25
  0
POLYLINE
  5
51
330
1F
100
AcDbEntity
  8
_U+30EC_U+30A4_U+30E4_U+30FC 1
 62
   179
420
  2234388
370
    25
100
AcDb2dPolyline
 66
     1
 10
0.0
 20
0.0
 30
0.0
  0
VERTEX
  5
52
330
51
100
AcDbEntity
  8
_U+30EC_U+30A4_U+30E4_U+30FC 1
 62
   179
420
  2234388
370
    25
100
AcDbVertex
100
AcDb2dVertex
 10
95.24999997618751
 20
-153.1317316283834
 30
0.0
  0
VERTEX
  5
53
330
51
100
AcDbEntity
  8
_U+30EC_U+30A4_U+30E4_U+30FC 1
 62
   179
420
  2234388
370
    25
100
AcDbVertex
100
AcDb2dVertex
 10
99.24975663459442
 20
-153.1317316283834
 30
0.0
  0
SEQEND
  5
54
330
51
100
AcDbEntity
  8
_U+30EC_U+30A4_U+30E4_U+30FC 1
 62
   179
420
  2234388
370
    25
  0
POLYLINE
  5
55
330
1F
100
AcDbEntity
  8
_U+30EC_U+30A4_U+30E4_U+30FC 1
 62
   179
420
  2234388
370
    25
100
AcDb2dPolyline
 66
     1
 10
0.0
 20
0.0
 30
0.0
  0
VERTEX
  5
56
330
55
100
AcDbEntity
  8
_U+30EC_U+30A4_U+30E4_U+30FC 1
 62
   179
420
  2234388
370
    25
100
AcDbVertex
100
AcDb2dVertex
 10
98.24998443787852
 20
-154.131503850356
 30
0.0
  0
VERTEX
  5
57
330
55
100
AcDbEntity
  8
_U+30EC_U+30A4_U+30E4_U+30FC 1
 62
   179
420
  2234388
370
    25
100
AcDbVertex
100
AcDb2dVertex
 10
98.24998443787852
 20
-156.1317185720784
 30
0.0
  0
SEQEND
  5
58
330
55
100
AcDbEntity
  8
_U+30EC_U+30A4_U+30E4_U+30FC 1
 62
   179
420
  2234388
370
    25
  0
POLYLINE
  5
59
330
1F
100
AcDbEntity
  8
_U+30EC_U+30A4_U+30E4_U+30FC 1
 62
   179
420
  2234388
370
    25
100
AcDb2dPolyline
 66
     1
 10
0.0
 20
0.0
 30
0.0
  0
VERTEX
  5
5A
330
59
100
AcDbEntity
  8
_U+30EC_U+30A4_U+30E4_U+30FC 1
 62
   179
420
  2234388
370
    25
100
AcDbVertex
100
AcDb2dVertex
 10
95.24999997618751
 20
-153.1317316283834
 30
0.0
  0
VERTEX
  5
5B
330
59
100
AcDbEntity
  8
_U+30EC_U+30A4_U+30E4_U+30FC 1
 62
   179
420
  2234388
370
    25
100
AcDbVertex
100
AcDb2dVertex
 10
95.24999997618751
 20
-154.131503850356
 30
0.0
  0
SEQEND
  5
5C
330
59
100
AcDbEntity
  8
_U+30EC_U+30A4_U+30E4_U+30FC 1
 62
   179
420
  2234388
370
    25
  0
POLYLINE
  5
5D
330
1F
100
AcDbEntity
  8
_U+30EC_U+30A4_U+30E4_U+30FC 1
 62
   179
420
  2234388
370
    25
100
AcDb2dPolyline
 66
     1
 10
0.0
 20
0.0
 30
0.0
  0
VERTEX
  5
5E
330
5D
100
AcDbEntity
  8
_U+30EC_U+30A4_U+30E4_U+30FC 1
 62
   179
420
  2234388
370
    25
100
AcDbVertex
100
AcDb2dVertex
 10
95.24999997618751
 20
-154.131503850356
 30
0.0
  0
VERTEX
  5
5F
330
5D
100
AcDbEntity
  8
_U+30EC_U+30A4_U+30E4_U+30FC 1
 62
   179
420
  2234388
370
    25
100
AcDbVertex
100
AcDb2dVertex
 10
98.24998443787852
 20
-154.131503850356
 30
0.0
  0
SEQEND
  5
60
330
5D
100
AcDbEntity
  8
_U+30EC_U+30A4_U+30E4_U+30FC 1
 62
   179
420
  2234388
370
    25
  0
POLYLINE
  5
61
330
1F
100
AcDbEntity
  8
_U+30EC_U+30A4_U+30E4_U+30FC 1
 62
   179
420
  2234388
370
    25
100
AcDb2dPolyline
 66
     1
 10
0.0
 20
0.0
 30
0.0
  0
VERTEX
  5
62
330
61
100
AcDbEntity
  8
_U+30EC_U+30A4_U+30E4_U+30FC 1
 62
   179
420
  2234388
370
    25
100
AcDbVertex
100
AcDb2dVertex
 10
85.24941810288394
 20
-156.1317185720784
 30
0.0
  0
VERTEX
  5
63
330
61
100
AcDbEntity
  8
_U+30EC_U+30A4_U+30E4_U+30FC 1
 62
   179
420
  2234388
370
    25
100
AcDbVertex
100
AcDb2dVertex
 10
98.24998443787852
 20
-156.1317185720784
 30
0.0
  0
SEQEND
  5
64
330
61
100
AcDbEntity
  8
_U+30EC_U+30A4_U+30E4_U+30FC 1
 62
   179
420
  2234388
370
    25
  0
POLYLINE
  5
65
330
1F
100
AcDbEntity
  8
_U+30EC_U+30A4_U+30E4_U+30FC 1
 62
   179
420
  2234388
370
    25
100
AcDb2dPolyline
 66
     1
 10
0.0
 20
0.0
 30
0.0
  0
VERTEX
  5
66
330
65
100
AcDbEntity
  8
_U+30EC_U+30A4_U+30E4_U+30FC 1
 62
   179
420
  2234388
370
    25
100
AcDbVertex
100
AcDb2dVertex
 10
85.24941810288394
 20
-140.1320116316335
 30
0.0
  0
VERTEX
  5
67
330
65
100
AcDbEntity
  8
_U+30EC_U+30A4_U+30E4_U+30FC 1
 62
   179
420
  2234388
370
    25
100
AcDbVertex
100
AcDb2dVertex
 10
85.24941810288394
 20
-156.1317185720784
 30
0.0
  0
SEQEND
  5
68
330
65
100
AcDbEntity
  8
_U+30EC_U+30A4_U+30E4_U+30FC 1
 62
   179
420
  2234388
370
    25
  0
POLYLINE
  5
69
330
1F
100
AcDbEntity
  8
_U+30EC_U+30A4_U+30E4_U+30FC 1
 62
   179
420
  2234388
370
    25
100
AcDb2dPolyline
 66
     1
 10
0.0
 20
0.0
 30
0.0
  0
VERTEX
  5
6A
330
69
100
AcDbEntity
  8
_U+30EC_U+30A4_U+30E4_U+30FC 1
 62
   179
420
  2234388
370
    25
100
AcDbVertex
100
AcDb2dVertex
 10
85.24941810288394
 20
-140.1320116316335
 30
0.0
  0
VERTEX
  5
6B
330
69
100
AcDbEntity
  8
_U+30EC_U+30A4_U+30E4_U+30FC 1
 62
   179
420
  2234388
370
    25
100
AcDbVertex
100
AcDb2dVertex
 10
95.24999997618751
 20
-140.1320116316335
 30
0.0
  0
SEQEND
  5
6C
330
69
100
AcDbEntity
  8
_U+30EC_U+30A4_U+30E4_U+30FC 1
 62
   179
420
  2234388
370
    25
  0
POLYLINE
  5
6D
330
1F
100
AcDbEntity
  8
_U+30EC_U+30A4_U+30E4_U+30FC 1
 62
   179
420
  2234388
370
    25
100
AcDb2dPolyline
 66
     1
 10
0.0
 20
0.0
 30
0.0
  0
VERTEX
  5
6E
330
6D
100
AcDbEntity
  8
_U+30EC_U+30A4_U+30E4_U+30FC 1
 62
   179
420
  2234388
370
    25
100
AcDbVertex
100
AcDb2dVertex
 10
87.24963277407643
 20
-134.1320377442448
 30
0.0
  0
VERTEX
  5
6F
330
6D
100
AcDbEntity
  8
_U+30EC_U+30A4_U+30E4_U+30FC 1
 62
   179
420
  2234388
370
    25
100
AcDbVertex
100
AcDb2dVertex
 10
87.24963277407643
 20
-135.1318099662174
 30
0.0
  0
SEQEND
  5
70
330
6D
100
AcDbEntity
  8
_U+30EC_U+30A4_U+30E4_U+30FC 1
 62
   179
420
  2234388
370
    25
  0
POLYLINE
  5
71
330
1F
100
AcDbEntity
  8
_U+30EC_U+30A4_U+30E4_U+30FC 1
 62
   179
420
  2234388
370
    25
100
AcDb2dPolyline
 66
     1
 10
0.0
 20
0.0
 30
0.0
  0
VERTEX
  5
72
330
71
100
AcDbEntity
  8
_U+30EC_U+30A4_U+30E4_U+30FC 1
 62
   179
420
  2234388
370
    25
100
AcDbVertex
100
AcDb2dVertex
 10
84.24964590616803
 20
-134.1320377442448
 30
0.0
  0
VERTEX
  5
73
330
71
100
AcDbEntity
  8
_U+30EC_U+30A4_U+30E4_U+30FC 1
 62
   179
420
  2234388
370
    25
100
AcDbVertex
100
AcDb2dVertex
 10
87.24963277407643
 20
-134.1320377442448
 30
0.0
  0
SEQEND
  5
74
330
71
100
AcDbEntity
  8
_U+30EC_U+30A4_U+30E4_U+30FC 1
 62
   179
420
  2234388
370
    25
  0
POLYLINE
  5
75
330
1F
100
AcDbEntity
  8
_U+30EC_U+30A4_U+30E4_U+30FC 1
 62
   179
420
  2234388
370
    25
100
AcDb2dPolyline
 66
     1
 10
0.0
 20
0.0
 30
0.0
  0
VERTEX
  5
76
330
75
100
AcDbEntity
  8
_U+30EC_U+30A4_U+30E4_U+30FC 1
 62
   179
420
  2234388
370
    25
100
AcDbVertex
100
AcDb2dVertex
 10
85.24941810288394
 20
-135.1318099662174
 30
0.0
  0
VERTEX
  5
77
330
75
100
AcDbEntity
  8
_U+30EC_U+30A4_U+30E4_U+30FC 1
 62
   179
420
  2234388
370
    25
100
AcDbVertex
100
AcDb2dVertex
 10
87.24963277407643
 20
-135.1318099662174
 30
0.0
  0
SEQEND
  5
78
330
75
100
AcDbEntity
  8
_U+30EC_U+30A4_U+30E4_U+30FC 1
 62
   179
420
  2234388
370
    25
  0
POLYLINE
  5
79
330
1F
100
AcDbEntity
  8
_U+30EC_U+30A4_U+30E4_U+30FC 1
 62
   179
420
  2234388
370
    25
100
AcDb2dPolyline
 66
     1
 10
0.0
 20
0.0
 30
0.0
  0
VERTEX
  5
7A
330
79
100
AcDbEntity
  8
_U+30EC_U+30A4_U+30E4_U+30FC 1
 62
   179
420
  2234388
370
    25
100
AcDbVertex
100
AcDb2dVertex
 10
85.24941810288394
 20
-139.1315691318836
 30
0.0
  0
VERTEX
  5
7B
330
79
100
AcDbEntity
  8
_U+30EC_U+30A4_U+30E4_U+30FC 1
 62
   179
420
  2234388
370
    25
100
AcDbVertex
100
AcDb2dVertex
 10
92.25001070206172
 20
-139.1315691318836
 30
0.0
  0
SEQEND
  5
7C
330
79
100
AcDbEntity
  8
_U+30EC_U+30A4_U+30E4_U+30FC 1
 62
   179
420
  2234388
370
    25
  0
POLYLINE
  5
7D
330
1F
100
AcDbEntity
  8
_U+30EC_U+30A4_U+30E4_U+30FC 1
 62
   179
420
  2234388
370
    25
100
AcDb2dPolyline
 66
     1
 10
0.0
 20
0.0
 30
0.0
  0
VERTEX
  5
7E
330
7D
100
AcDbEntity
  8
_U+30EC_U+30A4_U+30E4_U+30FC 1
 62
   179
420
  2234388
370
    25
100
AcDbVertex
100
AcDb2dVertex
 10
94.25022775421496
 20
-95.13181942066149
 30
0.0
  0
VERTEX
  5
7F
330
7D
100
AcDbEntity
  8
_U+30EC_U+30A4_U+30E4_U+30FC 1
 62
   179
420
  2234388
370
    25
100
AcDbVertex
100
AcDb2dVertex
 10
94.25022775421496
 20
-137.1320246879392
 30
0.0
  0
SEQEND
  5
80
330
7D
100
AcDbEntity
  8
_U+30EC_U+30A4_U+30E4_U+30FC 1
 62
   179
420
  2234388
370
    25
  0
POLYLINE
  5
81
330
1F
100
AcDbEntity
  8
_U+30EC_U+30A4_U+30E4_U+30FC 1
 62
   179
420
  2234388
370
    25
100
AcDb2dPolyline
 66
     1
 10
0.0
 20
0.0
 30
0.0
  0
VERTEX
  5
82
330
81
100
AcDbEntity
  8
_U+30EC_U+30A4_U+30E4_U+30FC 1
 62
   179
420
  2234388
370
    25
100
AcDbVertex
100
AcDb2dVertex
 10
95.24999997618751
 20
-95.13181942066149
 30
0.0
  0
VERTEX
  5
83
330
81
100
AcDbEntity
  8
_U+30EC_U+30A4_U+30E4_U+30FC 1
 62
   179
420
  2234388
370
    25
100
AcDbVertex
100
AcDb2dVertex
 10
95.24999997618751
 20
-140.1320116316335
 30
0.0
  0
SEQEND
  5
84
330
81
100
AcDbEntity
  8
_U+30EC_U+30A4_U+30E4_U+30FC 1
 62
   179
420
  2234388
370
    25
  0
POLYLINE
  5
85
330
1F
100
AcDbEntity
  8
_U+30EC_U+30A4_U+30E4_U+30FC 1
 62
   179
420
  2234388
370
    25
100
AcDb2dPolyline
 66
     1
 10
0.0
 20
0.0
 30
0.0
  0
VERTEX
  5
86
330
85
100
AcDbEntity
  8
_U+30EC_U+30A4_U+30E4_U+30FC 1
 62
   179
420
  2234388
370
    25
100
AcDbVertex
100
AcDb2dVertex
 10
85.24941810288394
 20
-135.1318099662174
 30
0.0
  0
VERTEX
  5
87
330
85
100
AcDbEntity
  8
_U+30EC_U+30A4_U+30E4_U+30FC 1
 62
   179
420
  2234388
370
    25
100
AcDbVertex
100
AcDb2dVertex
 10
85.24941810288394
 20
-139.1315691318836
 30
0.0
  0
SEQEND
  5
88
330
85
100
AcDbEntity
  8
_U+30EC_U+30A4_U+30E4_U+30FC 1
 62
   179
420
  2234388
370
    25
  0
SPLINE
  5
89
330
1F
100
AcDbEntity
  8
_U+30EC_U+30A4_U+30E4_U+30FC 1
 62
   179
420
  2234388
370
    25
100
AcDbSpline
210
0.0
220
0.0
230
1.0
 70
     8
 71
     3
 72
     8
 73
     4
 74
     0
 42
0.0000000001
 43
0.0000000001
 12
1.0
 22
0.0
 32
0.0
 13
1.0
 23
0.0
 33
0.0
 40
0.0
 40
0.0
 40
0.0
 40
0.0
 40
1.0
 40
1.0
 40
1.0
 40
1.0
 10
92.25001070206172
 20
-139.1315691318836
 30
0.0
 10
93.35452497666152
 20
-139.1315691318836
 30
0.0
 10
94.25022775421496
 20
-138.2365366321075
 30
0.0
 10
94.25022775421496
 20
-137.1320246879392
 30
0.0
  0
SPLINE
  5
8A
330
1F
100
AcDbEntity
  8
_U+30EC_U+30A4_U+30E4_U+30FC 1
 62
   179
420
  2234388
370
     9
100
AcDbSpline
210
0.0
220
0.0
230
1.0
 70
    11
 71
     3
 72
    17
 73
    13
 74
     0
 42
0.0000000001
 43
0.0000000001
 12
1.0
 22
0.0
 32
0.0
 13
1.0
 23
0.0
 33
0.0
 40
0.0
 40
0.0
 40
0.0
 40
0.0
 40
1.0
 40
1.0
 40
1.0
 40
2.0
 40
2.0
 40
2.0
 40
3.0
 40
3.0
 40
3.0
 40
4.0
 40
4.0
 40
4.0
 40
4.0
 10
103.3500926410972
 20
-95.13181942066149
 30
0.0
 10
103.3500926410972
 20
-95.07671553178625
 30
0.0
 10
103.3053277519517
 20
-95.03191275401984
 30
0.0
 10
103.2501859769794
 20
-95.03191275401984
 30
0.0
 10
103.1950820894963
 20
-95.03191275401984
 30
0.0
 10
103.1502793128616
 20
-95.07671553178625
 30
0.0
 10
103.1502793128616
 20
-95.13181942066149
 30
0.0
 10
103.1502793128616
 20
-95.18695858731424
 30
0.0
 10
103.1950820894963
 20
-95.23172608730312
 30
0.0
 10
103.2501859769794
 20
-95.23172608730312
 30
0.0
 10
103.3053277519517
 20
-95.23172608730312
 30
0.0
 10
103.3500926410972
 20
-95.18695858731424
 30
0.0
 10
103.3500926410972
 20
-95.13181942066149
 30
0.0
  0
SPLINE
  5
8B
330
1F
100
AcDbEntity
  8
_U+30EC_U+30A4_U+30E4_U+30FC 1
 62
   179
420
  2234388
370
     9
100
AcDbSpline
210
0.0
220
0.0
230
1.0
 70
    11
 71
     3
 72
    17
 73
    13
 74
     0
 42
0.0000000001
 43
0.0000000001
 12
1.0
 22
0.0
 32
0.0
 13
1.0
 23
0.0
 33
0.0
 40
0.0
 40
0.0
 40
0.0
 40
0.0
 40
1.0
 40
1.0
 40
1.0
 40
2.0
 40
2.0
 40
2.0
 40
3.0
 40
3.0
 40
3.0
 40
4.0
 40
4.0
 40
4.0
 40
4.0
 10
103.3500926410972
 20
-140.1320116316335
 30
0.0
 10
103.3500926410972
 20
-140.0769077427586
 30
0.0
 10
103.3053277519517
 20
-140.0321049649919
 30
0.0
 10
103.2501859769794
 20
-140.0321049649919
 30
0.0
 10
103.1950820894963
 20
-140.0321049649919
 30
0.0
 10
103.1502793128616
 20
-140.0769077427586
 30
0.0
 10
103.1502793128616
 20
-140.1320116316335
 30
0.0
 10
103.1502793128616
 20
-140.1871507982866
 30
0.0
 10
103.1950820894963
 20
-140.2319182982752
 30
0.0
 10
103.2501859769794
 20
-140.2319182982752
 30
0.0
 10
103.3053277519517
 20
-140.2319182982752
 30
0.0
 10
103.3500926410972
 20
-140.1871507982866
 30
0.0
 10
103.3500926410972
 20
-140.1320116316335
 30
0.0
  0
SPLINE
  5
8C
330
1F
100
AcDbEntity
  8
_U+30EC_U+30A4_U+30E4_U+30FC 1
 62
   179
420
  2234388
370
     9
100
AcDbSpline
210
0.0
220
0.0
230
1.0
 70
    11
 71
     3
 72
    17
 73
    13
 74
     0
 42
0.0000000001
 43
0.0000000001
 12
1.0
 22
0.0
 32
0.0
 13
1.0
 23
0.0
 33
0.0
 40
0.0
 40
0.0
 40
0.0
 40
0.0
 40
1.0
 40
1.0
 40
1.0
 40
2.0
 40
2.0
 40
2.0
 40
3.0
 40
3.0
 40
3.0
 40
4.0
 40
4.0
 40
4.0
 40
4.0
 10
94.35013203737203
 20
-130.1316083008006
 30
0.0
 10
94.35013203737203
 20
-130.0764691341475
 30
0.0
 10
94.30536453851416
 20
-130.0317016341589
 30
0.0
 10
94.25022775421496
 20
-130.0317016341589
 30
0.0
 10
94.19441593023357
 20
-130.0317016341589
 30
0.0
 10
94.15031870913637
 20
-130.0764691341475
 30
0.0
 10
94.15031870913637
 20
-130.1316083008006
 30
0.0
 10
94.15031870913637
 20
-130.1867121896755
 30
0.0
 10
94.19441593023357
 20
-130.2315149674422
 30
0.0
 10
94.25022775421496
 20
-130.2315149674422
 30
0.0
 10
94.30536453851416
 20
-130.2315149674422
 30
0.0
 10
94.35013203737203
 20
-130.1867121896755
 30
0.0
 10
94.35013203737203
 20
-130.1316083008006
 30
0.0
  0
SPLINE
  5
8D
330
1F
100
AcDbEntity
  8
_U+30EC_U+30A4_U+30E4_U+30FC 1
 62
   179
420
  2234388
370
     9
100
AcDbSpline
210
0.0
220
0.0
230
1.0
 70
    11
 71
     3
 72
    17
 73
    13
 74
     0
 42
0.0000000001
 43
0.0000000001
 12
1.0
 22
0.0
 32
0.0
 13
1.0
 23
0.0
 33
0.0
 40
0.0
 40
0.0
 40
0.0
 40
0.0
 40
1.0
 40
1.0
 40
1.0
 40
2.0
 40
2.0
 40
2.0
 40
3.0
 40
3.0
 40
3.0
 40
4.0
 40
4.0
 40
4.0
 40
4.0
 10
87.34954164482913
 20
-130.1316083008006
 30
0.0
 10
87.34954164482913
 20
-130.0764691341475
 30
0.0
 10
87.30473886706272
 20
-130.0317016341589
 30
0.0
 10
87.24963277407643
 20
-130.0317016341589
 30
0.0
 10
87.19449360881647
 20
-130.0317016341589
 30
0.0
 10
87.14972610995859
 20
-130.0764691341475
 30
0.0
 10
87.14972610995859
 20
-130.1316083008006
 30
0.0
 10
87.14972610995859
 20
-130.1867121896755
 30
0.0
 10
87.19449360881647
 20
-130.2315149674422
 30
0.0
 10
87.24963277407643
 20
-130.2315149674422
 30
0.0
 10
87.30473886706272
 20
-130.2315149674422
 30
0.0
 10
87.34954164482913
 20
-130.1867121896755
 30
0.0
 10
87.34954164482913
 20
-130.1316083008006
 30
0.0
  0
SPLINE
  5
8E
330
1F
100
AcDbEntity
  8
_U+30EC_U+30A4_U+30E4_U+30FC 1
 62
   179
420
  2234388
370
     9
100
AcDbSpline
210
0.0
220
0.0
230
1.0
 70
    11
 71
     3
 72
    17
 73
    13
 74
     0
 42
0.0000000001
 43
0.0000000001
 12
1.0
 22
0.0
 32
0.0
 13
1.0
 23
0.0
 33
0.0
 40
0.0
 40
0.0
 40
0.0
 40
0.0
 40
1.0
 40
1.0
 40
1.0
 40
2.0
 40
2.0
 40
2.0
 40
3.0
 40
3.0
 40
3.0
 40
4.0
 40
4.0
 40
4.0
 40
4.0
 10
84.34955257028585
 20
-130.1316083008006
 30
0.0
 10
84.34955257028585
 20
-130.0764691341475
 30
0.0
 10
84.3047497936511
 20
-130.0317016341589
 30
0.0
 10
84.24964590616803
 20
-130.0317016341589
 30
0.0
 10
84.19450674090807
 20
-130.0317016341589
 30
0.0
 10
84.14973924205019
 20
-130.0764691341475
 30
0.0
 10
84.14973924205019
 20
-130.1316083008006
 30
0.0
 10
84.14973924205019
 20
-130.1867121896755
 30
0.0
 10
84.19450674090807
 20
-130.2315149674422
 30
0.0
 10
84.24964590616803
 20
-130.2315149674422
 30
0.0
 10
84.3047497936511
 20
-130.2315149674422
 30
0.0
 10
84.34955257028585
 20
-130.1867121896755
 30
0.0
 10
84.34955257028585
 20
-130.1316083008006
 30
0.0
  0
SPLINE
  5
8F
330
1F
100
AcDbEntity
  8
_U+30EC_U+30A4_U+30E4_U+30FC 1
 62
   179
420
  2234388
370
     9
100
AcDbSpline
210
0.0
220
0.0
230
1.0
 70
    11
 71
     3
 72
    17
 73
    13
 74
     0
 42
0.0000000001
 43
0.0000000001
 12
1.0
 22
0.0
 32
0.0
 13
1.0
 23
0.0
 33
0.0
 40
0.0
 40
0.0
 40
0.0
 40
0.0
 40
1.0
 40
1.0
 40
1.0
 40
2.0
 40
2.0
 40
2.0
 40
3.0
 40
3.0
 40
3.0
 40
4.0
 40
4.0
 40
4.0
 40
4.0
 10
80.34979350566155
 20
-134.1320377442448
 30
0.0
 10
80.34979350566155
 20
-134.0768985775917
 30
0.0
 10
80.30499072902678
 20
-134.0321310776032
 30
0.0
 10
80.24988886882626
 20
-134.0321310776032
 30
0.0
 10
80.19474767628375
 20
-134.0321310776032
 30
0.0
 10
80.14998017742587
 20
-134.0768985775917
 30
0.0
 10
80.14998017742587
 20
-134.1320377442448
 30
0.0
 10
80.14998017742587
 20
-134.1871416331198
 30
0.0
 10
80.19474767628375
 20
-134.2319444108865
 30
0.0
 10
80.24988886882626
 20
-134.2319444108865
 30
0.0
 10
80.30499072902678
 20
-134.2319444108865
 30
0.0
 10
80.34979350566155
 20
-134.1871416331198
 30
0.0
 10
80.34979350566155
 20
-134.1320377442448
 30
0.0
  0
SPLINE
  5
90
330
1F
100
AcDbEntity
  8
_U+30EC_U+30A4_U+30E4_U+30FC 1
 62
   179
420
  2234388
370
     9
100
AcDbSpline
210
0.0
220
0.0
230
1.0
 70
    11
 71
     3
 72
    17
 73
    13
 74
     0
 42
0.0000000001
 43
0.0000000001
 12
1.0
 22
0.0
 32
0.0
 13
1.0
 23
0.0
 33
0.0
 40
0.0
 40
0.0
 40
0.0
 40
0.0
 40
1.0
 40
1.0
 40
1.0
 40
2.0
 40
2.0
 40
2.0
 40
3.0
 40
3.0
 40
3.0
 40
4.0
 40
4.0
 40
4.0
 40
4.0
 10
80.34979350566155
 20
-157.1314907940503
 30
0.0
 10
80.34979350566155
 20
-157.0763869051754
 30
0.0
 10
80.30499072902678
 20
-157.0315841274087
 30
0.0
 10
80.24988886882626
 20
-157.0315841274087
 30
0.0
 10
80.19474767628375
 20
-157.0315841274087
 30
0.0
 10
80.14998017742587
 20
-157.0763869051754
 30
0.0
 10
80.14998017742587
 20
-157.1314907940503
 30
0.0
 10
80.14998017742587
 20
-157.1873002384808
 30
0.0
 10
80.19474767628375
 20
-157.2321030162475
 30
0.0
 10
80.24988886882626
 20
-157.2321030162475
 30
0.0
 10
80.30499072902678
 20
-157.2321030162475
 30
0.0
 10
80.34979350566155
 20
-157.1873002384808
 30
0.0
 10
80.34979350566155
 20
-157.1314907940503
 30
0.0
  0
SPLINE
  5
91
330
1F
100
AcDbEntity
  8
_U+30EC_U+30A4_U+30E4_U+30FC 1
 62
   179
420
  2234388
370
     9
100
AcDbSpline
210
0.0
220
0.0
230
1.0
 70
    11
 71
     3
 72
    17
 73
    13
 74
     0
 42
0.0000000001
 43
0.0000000001
 12
1.0
 22
0.0
 32
0.0
 13
1.0
 23
0.0
 33
0.0
 40
0.0
 40
0.0
 40
0.0
 40
0.0
 40
1.0
 40
1.0
 40
1.0
 40
2.0
 40
2.0
 40
2.0
 40
3.0
 40
3.0
 40
3.0
 40
4.0
 40
4.0
 40
4.0
 40
4.0
 10
84.34955257028585
 20
-161.1319555152727
 30
0.0
 10
84.34955257028585
 20
-161.0768163486196
 30
0.0
 10
84.3047497936511
 20
-161.0320488486311
 30
0.0
 10
84.24964590616803
 20
-161.0320488486311
 30
0.0
 10
84.19450674090807
 20
-161.0320488486311
 30
0.0
 10
84.14973924205019
 20
-161.0768163486196
 30
0.0
 10
84.14973924205019
 20
-161.1319555152727
 30
0.0
 10
84.14973924205019
 20
-161.1870594041476
 30
0.0
 10
84.19450674090807
 20
-161.2318621819144
 30
0.0
 10
84.24964590616803
 20
-161.2318621819144
 30
0.0
 10
84.3047497936511
 20
-161.2318621819144
 30
0.0
 10
84.34955257028585
 20
-161.1870594041476
 30
0.0
 10
84.34955257028585
 20
-161.1319555152727
 30
0.0
  0
SPLINE
  5
92
330
1F
100
AcDbEntity
  8
_U+30EC_U+30A4_U+30E4_U+30FC 1
 62
   179
420
  2234388
370
     9
100
AcDbSpline
210
0.0
220
0.0
230
1.0
 70
    11
 71
     3
 72
    17
 73
    13
 74
     0
 42
0.0000000001
 43
0.0000000001
 12
1.0
 22
0.0
 32
0.0
 13
1.0
 23
0.0
 33
0.0
 40
0.0
 40
0.0
 40
0.0
 40
0.0
 40
1.0
 40
1.0
 40
1.0
 40
2.0
 40
2.0
 40
2.0
 40
3.0
 40
3.0
 40
3.0
 40
4.0
 40
4.0
 40
4.0
 40
4.0
 10
99.34966329871226
 20
-161.1319555152727
 30
0.0
 10
99.34966329871226
 20
-161.0768163486196
 30
0.0
 10
99.3048605220775
 20
-161.0320488486311
 30
0.0
 10
99.24975663459442
 20
-161.0320488486311
 30
0.0
 10
99.19461746933447
 20
-161.0320488486311
 30
0.0
 10
99.1498499704766
 20
-161.0768163486196
 30
0.0
 10
99.1498499704766
 20
-161.1319555152727
 30
0.0
 10
99.1498499704766
 20
-161.1870594041476
 30
0.0
 10
99.19461746933447
 20
-161.2318621819144
 30
0.0
 10
99.24975663459442
 20
-161.2318621819144
 30
0.0
 10
99.3048605220775
 20
-161.2318621819144
 30
0.0
 10
99.34966329871226
 20
-161.1870594041476
 30
0.0
 10
99.34966329871226
 20
-161.1319555152727
 30
0.0
  0
SPLINE
  5
93
330
1F
100
AcDbEntity
  8
_U+30EC_U+30A4_U+30E4_U+30FC 1
 62
   179
420
  2234388
370
     9
100
AcDbSpline
210
0.0
220
0.0
230
1.0
 70
    11
 71
     3
 72
    17
 73
    13
 74
     0
 42
0.0000000001
 43
0.0000000001
 12
1.0
 22
0.0
 32
0.0
 13
1.0
 23
0.0
 33
0.0
 40
0.0
 40
0.0
 40
0.0
 40
0.0
 40
1.0
 40
1.0
 40
1.0
 40
2.0
 40
2.0
 40
2.0
 40
3.0
 40
3.0
 40
3.0
 40
4.0
 40
4.0
 40
4.0
 40
4.0
 10
103.3500926410972
 20
-157.1314907940503
 30
0.0
 10
103.3500926410972
 20
-157.0763869051754
 30
0.0
 10
103.3053277519517
 20
-157.0315841274087
 30
0.0
 10
103.2501859769794
 20
-157.0315841274087
 30
0.0
 10
103.1950820894963
 20
-157.0315841274087
 30
0.0
 10
103.1502793128616
 20
-157.0763869051754
 30
0.0
 10
103.1502793128616
 20
-157.1314907940503
 30
0.0
 10
103.1502793128616
 20
-157.1873002384808
 30
0.0
 10
103.1950820894963
 20
-157.2321030162475
 30
0.0
 10
103.2501859769794
 20
-157.2321030162475
 30
0.0
 10
103.3053277519517
 20
-157.2321030162475
 30
0.0
 10
103.3500926410972
 20
-157.1873002384808
 30
0.0
 10
103.3500926410972
 20
-157.1314907940503
 30
0.0
  0
SPLINE
  5
94
330
1F
100
AcDbEntity
  8
_U+30EC_U+30A4_U+30E4_U+30FC 1
 62
   179
420
  2234388
370
     9
100
AcDbSpline
210
0.0
220
0.0
230
1.0
 70
    11
 71
     3
 72
    17
 73
    13
 74
     0
 42
0.0000000001
 43
0.0000000001
 12
1.0
 22
0.0
 32
0.0
 13
1.0
 23
0.0
 33
0.0
 40
0.0
 40
0.0
 40
0.0
 40
0.0
 40
1.0
 40
1.0
 40
1.0
 40
2.0
 40
2.0
 40
2.0
 40
3.0
 40
3.0
 40
3.0
 40
4.0
 40
4.0
 40
4.0
 40
4.0
 10
103.3500926410972
 20
-153.1317316283834
 30
0.0
 10
103.3500926410972
 20
-153.0766277395085
 30
0.0
 10
103.3053277519517
 20
-153.0318249617418
 30
0.0
 10
103.2501859769794
 20
-153.0318249617418
 30
0.0
 10
103.1950820894963
 20
-153.0318249617418
 30
0.0
 10
103.1502793128616
 20
-153.0766277395085
 30
0.0
 10
103.1502793128616
 20
-153.1317316283834
 30
0.0
 10
103.1502793128616
 20
-153.1868707950365
 30
0.0
 10
103.1950820894963
 20
-153.2316382950257
 30
0.0
 10
103.2501859769794
 20
-153.2316382950257
 30
0.0
 10
103.3053277519517
 20
-153.2316382950257
 30
0.0
 10
103.3500926410972
 20
-153.1868707950365
 30
0.0
 10
103.3500926410972
 20
-153.1317316283834
 30
0.0
  0
POLYLINE
  5
95
330
1F
100
AcDbEntity
  8
_U+30EC_U+30A4_U+30E4_U+30FC 1
 62
   179
420
  2234388
370
     9
100
AcDb2dPolyline
 66
     1
 10
0.0
 20
0.0
 30
0.0
  0
VERTEX
  5
96
330
95
100
AcDbEntity
  8
_U+30EC_U+30A4_U+30E4_U+30FC 1
 62
   179
420
  2234388
370
     9
100
AcDbVertex
100
AcDb2dVertex
 10
84.24964590616803
 20
-130.1316083008006
 30
0.0
  0
VERTEX
  5
97
330
95
100
AcDbEntity
  8
_U+30EC_U+30A4_U+30E4_U+30FC 1
 62
   179
420
  2234388
370
     9
100
AcDbVertex
100
AcDb2dVertex
 10
87.24963277407643
 20
-130.1316083008006
 30
0.0
  0
SEQEND
  5
98
330
95
100
AcDbEntity
  8
_U+30EC_U+30A4_U+30E4_U+30FC 1
 62
   179
420
  2234388
370
     9
  0
POLYLINE
  5
99
330
1F
100
AcDbEntity
  8
_U+30EC_U+30A4_U+30E4_U+30FC 1
 62
   179
420
  2234388
370
     9
100
AcDb2dPolyline
 66
     1
 10
0.0
 20
0.0
 30
0.0
  0
VERTEX
  5
9A
330
99
100
AcDbEntity
  8
_U+30EC_U+30A4_U+30E4_U+30FC 1
 62
   179
420
  2234388
370
     9
100
AcDbVertex
100
AcDb2dVertex
 10
84.24964590616803
 20
-131.5916144115468
 30
0.0
  0
VERTEX
  5
9B
330
99
100
AcDbEntity
  8
_U+30EC_U+30A4_U+30E4_U+30FC 1
 62
   179
420
  2234388
370
     9
100
AcDbVertex
100
AcDb2dVertex
 10
84.24964590616803
 20
-129.131836078828
 30
0.0
  0
SEQEND
  5
9C
330
99
100
AcDbEntity
  8
_U+30EC_U+30A4_U+30E4_U+30FC 1
 62
   179
420
  2234388
370
     9
  0
POLYLINE
  5
9D
330
1F
100
AcDbEntity
  8
_U+30EC_U+30A4_U+30E4_U+30FC 1
 62
   179
420
  2234388
370
     9
100
AcDb2dPolyline
 66
     1
 10
0.0
 20
0.0
 30
0.0
  0
VERTEX
  5
9E
330
9D
100
AcDbEntity
  8
_U+30EC_U+30A4_U+30E4_U+30FC 1
 62
   179
420
  2234388
370
     9
100
AcDbVertex
100
AcDb2dVertex
 10
87.24963277407643
 20
-131.5916144115468
 30
0.0
  0
VERTEX
  5
9F
330
9D
100
AcDbEntity
  8
_U+30EC_U+30A4_U+30E4_U+30FC 1
 62
   179
420
  2234388
370
     9
100
AcDbVertex
100
AcDb2dVertex
 10
87.24963277407643
 20
-129.131836078828
 30
0.0
  0
SEQEND
  5
A0
330
9D
100
AcDbEntity
  8
_U+30EC_U+30A4_U+30E4_U+30FC 1
 62
   179
420
  2234388
370
     9
  0
INSERT
  5
A2
330
1F
100
AcDbEntity
  8
_U+30EC_U+30A4_U+30E4_U+30FC 1
100
AcDbBlockReference
  2
block 2
 10
0.0
 20
0.0
 30
0.0
  0
POLYLINE
  5
A7
330
1F
100
AcDbEntity
  8
_U+30EC_U+30A4_U+30E4_U+30FC 1
 62
   179
420
  2234388
370
     9
100
AcDb2dPolyline
 66
     1
 10
0.0
 20
0.0
 30
0.0
  0
VERTEX
  5
A8
330
A7
100
AcDbEntity
  8
_U+30EC_U+30A4_U+30E4_U+30FC 1
 62
   179
420
  2234388
370
     9
100
AcDbVertex
100
AcDb2dVertex
 10
87.24963277407643
 20
-130.1316083008006
 30
0.0
  0
VERTEX
  5
A9
330
A7
100
AcDbEntity
  8
_U+30EC_U+30A4_U+30E4_U+30FC 1
 62
   179
420
  2234388
370
     9
100
AcDbVertex
100
AcDb2dVertex
 10
94.25022775421496
 20
-130.1316083008006
 30
0.0
  0
SEQEND
  5
AA
330
A7
100
AcDbEntity
  8
_U+30EC_U+30A4_U+30E4_U+30FC 1
 62
   179
420
  2234388
370
     9
  0
POLYLINE
  5
AB
330
1F
100
AcDbEntity
  8
_U+30EC_U+30A4_U+30E4_U+30FC 1
 62
   179
420
  2234388
370
     9
100
AcDb2dPolyline
 66
     1
 10
0.0
 20
0.0
 30
0.0
  0
VERTEX
  5
AC
330
AB
100
AcDbEntity
  8
_U+30EC_U+30A4_U+30E4_U+30FC 1
 62
   179
420
  2234388
370
     9
100
AcDbVertex
100
AcDb2dVertex
 10
87.24963277407643
 20
-131.5916144115468
 30
0.0
  0
VERTEX
  5
AD
330
AB
100
AcDbEntity
  8
_U+30EC_U+30A4_U+30E4_U+30FC 1
 62
   179
420
  2234388
370
     9
100
AcDbVertex
100
AcDb2dVertex
 10
87.24963277407643
 20
-129.131836078828
 30
0.0
  0
SEQEND
  5
AE
330
AB
100
AcDbEntity
  8
_U+30EC_U+30A4_U+30E4_U+30FC 1
 62
   179
420
  2234388
370
     9
  0
INSERT
  5
B0
330
1F
100
AcDbEntity
  8
_U+30EC_U+30A4_U+30E4_U+30FC 1
100
AcDbBlockReference
  2
block 3
 10
0.0
 20
0.0
 30
0.0
  0
POLYLINE
  5
B5
330
1F
100
AcDbEntity
  8
_U+30EC_U+30A4_U+30E4_U+30FC 1
 62
   179
420
  2234388
370
     9
100
AcDb2dPolyline
 66
     1
 10
0.0
 20
0.0
 30
0.0
  0
VERTEX
  5
B6
330
B5
100
AcDbEntity
  8
_U+30EC_U+30A4_U+30E4_U+30FC 1
 62
   179
420
  2234388
370
     9
100
AcDbVertex
100
AcDb2dVertex
 10
80.24988886882626
 20
-134.1320377442448
 30
0.0
  0
VERTEX
  5
B7
330
B5
100
AcDbEntity
  8
_U+30EC_U+30A4_U+30E4_U+30FC 1
 62
   179
420
  2234388
370
     9
100
AcDbVertex
100
AcDb2dVertex
 10
80.24988886882626
 20
-157.1314907940503
 30
0.0
  0
SEQEND
  5
B8
330
B5
100
AcDbEntity
  8
_U+30EC_U+30A4_U+30E4_U+30FC 1
 62
   179
420
  2234388
370
     9
  0
POLYLINE
  5
B9
330
1F
100
AcDbEntity
  8
_U+30EC_U+30A4_U+30E4_U+30FC 1
 62
   179
420
  2234388
370
     9
100
AcDb2dPolyline
 66
     1
 10
0.0
 20
0.0
 30
0.0
  0
VERTEX
  5
BA
330
B9
100
AcDbEntity
  8
_U+30EC_U+30A4_U+30E4_U+30FC 1
 62
   179
420
  2234388
370
     9
100
AcDbVertex
100
AcDb2dVertex
 10
81.70992819318384
 20
-134.1320377442448
 30
0.0
  0
VERTEX
  5
BB
330
B9
100
AcDbEntity
  8
_U+30EC_U+30A4_U+30E4_U+30FC 1
 62
   179
420
  2234388
370
     9
100
AcDbVertex
100
AcDb2dVertex
 10
79.24941109129884
 20
-134.1320377442448
 30
0.0
  0
SEQEND
  5
BC
330
B9
100
AcDbEntity
  8
_U+30EC_U+30A4_U+30E4_U+30FC 1
 62
   179
420
  2234388
370
     9
  0
POLYLINE
  5
BD
330
1F
100
AcDbEntity
  8
_U+30EC_U+30A4_U+30E4_U+30FC 1
 62
   179
420
  2234388
370
     9
100
AcDb2dPolyline
 66
     1
 10
0.0
 20
0.0
 30
0.0
  0
VERTEX
  5
BE
330
BD
100
AcDbEntity
  8
_U+30EC_U+30A4_U+30E4_U+30FC 1
 62
   179
420
  2234388
370
     9
100
AcDbVertex
100
AcDb2dVertex
 10
81.70992819318384
 20
-157.1314907940503
 30
0.0
  0
VERTEX
  5
BF
330
BD
100
AcDbEntity
  8
_U+30EC_U+30A4_U+30E4_U+30FC 1
 62
   179
420
  2234388
370
     9
100
AcDbVertex
100
AcDb2dVertex
 10
79.24941109129884
 20
-157.1314907940503
 30
0.0
  0
SEQEND
  5
C0
330
BD
100
AcDbEntity
  8
_U+30EC_U+30A4_U+30E4_U+30FC 1
 62
   179
420
  2234388
370
     9
  0
INSERT
  5
C2
330
1F
100
AcDbEntity
  8
_U+30EC_U+30A4_U+30E4_U+30FC 1
100
AcDbBlockReference
  2
block 4
 10
0.0
 20
0.0
 30
0.0
  0
POLYLINE
  5
C9
330
1F
100
AcDbEntity
  8
_U+30EC_U+30A4_U+30E4_U+30FC 1
 62
   179
420
  2234388
370
     9
100
AcDb2dPolyline
 66
     1
 10
0.0
 20
0.0
 30
0.0
  0
VERTEX
  5
CA
330
C9
100
AcDbEntity
  8
_U+30EC_U+30A4_U+30E4_U+30FC 1
 62
   179
420
  2234388
370
     9
100
AcDbVertex
100
AcDb2dVertex
 10
103.2501859769794
 20
-153.1317316283834
 30
0.0
  0
VERTEX
  5
CB
330
C9
100
AcDbEntity
  8
_U+30EC_U+30A4_U+30E4_U+30FC 1
 62
   179
420
  2234388
370
     9
100
AcDbVertex
100
AcDb2dVertex
 10
103.2501859769794
 20
-157.1314907940503
 30
0.0
  0
SEQEND
  5
CC
330
C9
100
AcDbEntity
  8
_U+30EC_U+30A4_U+30E4_U+30FC 1
 62
   179
420
  2234388
370
     9
  0
POLYLINE
  5
CD
330
1F
100
AcDbEntity
  8
_U+30EC_U+30A4_U+30E4_U+30FC 1
 62
   179
420
  2234388
370
     9
100
AcDb2dPolyline
 66
     1
 10
0.0
 20
0.0
 30
0.0
  0
VERTEX
  5
CE
330
CD
100
AcDbEntity
  8
_U+30EC_U+30A4_U+30E4_U+30FC 1
 62
   179
420
  2234388
370
     9
100
AcDbVertex
100
AcDb2dVertex
 10
101.7901799031162
 20
-153.1317316283834
 30
0.0
  0
VERTEX
  5
CF
330
CD
100
AcDbEntity
  8
_U+30EC_U+30A4_U+30E4_U+30FC 1
 62
   179
420
  2234388
370
     9
100
AcDbVertex
100
AcDb2dVertex
 10
104.2499581736953
 20
-153.1317316283834
 30
0.0
  0
SEQEND
  5
D0
330
CD
100
AcDbEntity
  8
_U+30EC_U+30A4_U+30E4_U+30FC 1
 62
   179
420
  2234388
370
     9
  0
POLYLINE
  5
D1
330
1F
100
AcDbEntity
  8
_U+30EC_U+30A4_U+30E4_U+30FC 1
 62
   179
420
  2234388
370
     9
100
AcDb2dPolyline
 66
     1
 10
0.0
 20
0.0
 30
0.0
  0
VERTEX
  5
D2
330
D1
100
AcDbEntity
  8
_U+30EC_U+30A4_U+30E4_U+30FC 1
 62
   179
420
  2234388
370
     9
100
AcDbVertex
100
AcDb2dVertex
 10
101.7901799031162
 20
-157.1314907940503
 30
0.0
  0
VERTEX
  5
D3
330
D1
100
AcDbEntity
  8
_U+30EC_U+30A4_U+30E4_U+30FC 1
 62
   179
420
  2234388
370
     9
100
AcDbVertex
100
AcDb2dVertex
 10
104.2499581736953
 20
-157.1314907940503
 30
0.0
  0
SEQEND
  5
D4
330
D1
100
AcDbEntity
  8
_U+30EC_U+30A4_U+30E4_U+30FC 1
 62
   179
420
  2234388
370
     9
  0
INSERT
  5
D6
330
1F
100
AcDbEntity
  8
_U+30EC_U+30A4_U+30E4_U+30FC 1
100
AcDbBlockReference
  2
block 5
 10
0.0
 20
0.0
 30
0.0
  0
POLYLINE
  5
EE
330
1F
100
AcDbEntity
  8
_U+30EC_U+30A4_U+30E4_U+30FC 1
 62
   179
420
  2234388
370
     9
100
AcDb2dPolyline
 66
     1
 10
0.0
 20
0.0
 30
0.0
  0
VERTEX
  5
EF
330
EE
100
AcDbEntity
  8
_U+30EC_U+30A4_U+30E4_U+30FC 1
 62
   179
420
  2234388
370
     9
100
AcDbVertex
100
AcDb2dVertex
 10
103.2501859769794
 20
-153.1317316283834
 30
0.0
  0
VERTEX
  5
F0
330
EE
100
AcDbEntity
  8
_U+30EC_U+30A4_U+30E4_U+30FC 1
 62
   179
420
  2234388
370
     9
100
AcDbVertex
100
AcDb2dVertex
 10
103.2501859769794
 20
-140.1320116316335
 30
0.0
  0
SEQEND
  5
F1
330
EE
100
AcDbEntity
  8
_U+30EC_U+30A4_U+30E4_U+30FC 1
 62
   179
420
  2234388
370
     9
  0
POLYLINE
  5
F2
330
1F
100
AcDbEntity
  8
_U+30EC_U+30A4_U+30E4_U+30FC 1
 62
   179
420
  2234388
370
     9
100
AcDb2dPolyline
 66
     1
 10
0.0
 20
0.0
 30
0.0
  0
VERTEX
  5
F3
330
F2
100
AcDbEntity
  8
_U+30EC_U+30A4_U+30E4_U+30FC 1
 62
   179
420
  2234388
370
     9
100
AcDbVertex
100
AcDb2dVertex
 10
97.78971528295429
 20
-140.1320116316335
 30
0.0
  0
VERTEX
  5
F4
330
F2
100
AcDbEntity
  8
_U+30EC_U+30A4_U+30E4_U+30FC 1
 62
   179
420
  2234388
370
     9
100
AcDbVertex
100
AcDb2dVertex
 10
104.2499581736953
 20
-140.1320116316335
 30
0.0
  0
SEQEND
  5
F5
330
F2
100
AcDbEntity
  8
_U+30EC_U+30A4_U+30E4_U+30FC 1
 62
   179
420
  2234388
370
     9
  0
INSERT
  5
F7
330
1F
100
AcDbEntity
  8
_U+30EC_U+30A4_U+30E4_U+30FC 1
100
AcDbBlockReference
  2
block 6
 10
0.0
 20
0.0
 30
0.0
  0
POLYLINE
  5
FE
330
1F
100
AcDbEntity
  8
_U+30EC_U+30A4_U+30E4_U+30FC 1
 62
   179
420
  2234388
370
     9
100
AcDb2dPolyline
 66
     1
 10
0.0
 20
0.0
 30
0.0
  0
VERTEX
  5
FF
330
FE
100
AcDbEntity
  8
_U+30EC_U+30A4_U+30E4_U+30FC 1
 62
   179
420
  2234388
370
     9
100
AcDbVertex
100
AcDb2dVertex
 10
103.2501859769794
 20
-140.1320116316335
 30
0.0
  0
VERTEX
  5
100
330
FE
100
AcDbEntity
  8
_U+30EC_U+30A4_U+30E4_U+30FC 1
 62
   179
420
  2234388
370
     9
100
AcDbVertex
100
AcDb2dVertex
 10
103.2501859769794
 20
-95.13181942066149
 30
0.0
  0
SEQEND
  5
101
330
FE
100
AcDbEntity
  8
_U+30EC_U+30A4_U+30E4_U+30FC 1
 62
   179
420
  2234388
370
     9
  0
POLYLINE
  5
102
330
1F
100
AcDbEntity
  8
_U+30EC_U+30A4_U+30E4_U+30FC 1
 62
   179
420
  2234388
370
     9
100
AcDb2dPolyline
 66
     1
 10
0.0
 20
0.0
 30
0.0
  0
VERTEX
  5
103
330
102
100
AcDbEntity
  8
_U+30EC_U+30A4_U+30E4_U+30FC 1
 62
   179
420
  2234388
370
     9
100
AcDbVertex
100
AcDb2dVertex
 10
97.78971528295429
 20
-95.13181942066149
 30
0.0
  0
VERTEX
  5
104
330
102
100
AcDbEntity
  8
_U+30EC_U+30A4_U+30E4_U+30FC 1
 62
   179
420
  2234388
370
     9
100
AcDbVertex
100
AcDb2dVertex
 10
104.2499581736953
 20
-95.13181942066149
 30
0.0
  0
SEQEND
  5
105
330
102
100
AcDbEntity
  8
_U+30EC_U+30A4_U+30E4_U+30FC 1
 62
   179
420
  2234388
370
     9
  0
INSERT
  5
107
330
1F
100
AcDbEntity
  8
_U+30EC_U+30A4_U+30E4_U+30FC 1
100
AcDbBlockReference
  2
block 7
 10
0.0
 20
0.0
 30
0.0
  0
POLYLINE
  5
121
330
1F
100
AcDbEntity
  8
_U+30EC_U+30A4_U+30E4_U+30FC 1
 62
   179
420
  2234388
370
     9
100
AcDb2dPolyline
 66
     1
 10
0.0
 20
0.0
 30
0.0
  0
VERTEX
  5
122
330
121
100
AcDbEntity
  8
_U+30EC_U+30A4_U+30E4_U+30FC 1
 62
   179
420
  2234388
370
     9
100
AcDbVertex
100
AcDb2dVertex
 10
84.24964590616803
 20
-161.1319555152727
 30
0.0
  0
VERTEX
  5
123
330
121
100
AcDbEntity
  8
_U+30EC_U+30A4_U+30E4_U+30FC 1
 62
   179
420
  2234388
370
     9
100
AcDbVertex
100
AcDb2dVertex
 10
99.24975663459442
 20
-161.1319555152727
 30
0.0
  0
SEQEND
  5
124
330
121
100
AcDbEntity
  8
_U+30EC_U+30A4_U+30E4_U+30FC 1
 62
   179
420
  2234388
370
     9
  0
POLYLINE
  5
125
330
1F
100
AcDbEntity
  8
_U+30EC_U+30A4_U+30E4_U+30FC 1
 62
   179
420
  2234388
370
     9
100
AcDb2dPolyline
 66
     1
 10
0.0
 20
0.0
 30
0.0
  0
VERTEX
  5
126
330
125
100
AcDbEntity
  8
_U+30EC_U+30A4_U+30E4_U+30FC 1
 62
   179
420
  2234388
370
     9
100
AcDbVertex
100
AcDb2dVertex
 10
84.24964590616803
 20
-159.671914126749
 30
0.0
  0
VERTEX
  5
127
330
125
100
AcDbEntity
  8
_U+30EC_U+30A4_U+30E4_U+30FC 1
 62
   179
420
  2234388
370
     9
100
AcDbVertex
100
AcDb2dVertex
 10
84.24964590616803
 20
-162.1316924594671
 30
0.0
  0
SEQEND
  5
128
330
125
100
AcDbEntity
  8
_U+30EC_U+30A4_U+30E4_U+30FC 1
 62
   179
420
  2234388
370
     9
  0
POLYLINE
  5
129
330
1F
100
AcDbEntity
  8
_U+30EC_U+30A4_U+30E4_U+30FC 1
 62
   179
420
  2234388
370
     9
100
AcDb2dPolyline
 66
     1
 10
0.0
 20
0.0
 30
0.0
  0
VERTEX
  5
12A
330
129
100
AcDbEntity
  8
_U+30EC_U+30A4_U+30E4_U+30FC 1
 62
   179
420
  2234388
370
     9
100
AcDbVertex
100
AcDb2dVertex
 10
99.24975663459442
 20
-159.671914126749
 30
0.0
  0
VERTEX
  5
12B
330
129
100
AcDbEntity
  8
_U+30EC_U+30A4_U+30E4_U+30FC 1
 62
   179
420
  2234388
370
     9
100
AcDbVertex
100
AcDb2dVertex
 10
99.24975663459442
 20
-162.1316924594671
 30
0.0
  0
SEQEND
  5
12C
330
129
100
AcDbEntity
  8
_U+30EC_U+30A4_U+30E4_U+30FC 1
 62
   179
420
  2234388
370
     9
  0
INSERT
  5
12E
330
1F
100
AcDbEntity
  8
_U+30EC_U+30A4_U+30E4_U+30FC 1
100
AcDbBlockReference
  2
block 8
 10
0.0
 20
0.0
 30
0.0
  0
POLYLINE
  5
135
330
1F
100
AcDbEntity
  8
_U+30EC_U+30A4_U+30E4_U+30FC 1
 62
   179
420
  2234388
370
     9
100
AcDb2dPolyline
 66
     1
 10
0.0
 20
0.0
 30
0.0
  0
VERTEX
  5
136
330
135
100
AcDbEntity
  8
_U+30EC_U+30A4_U+30E4_U+30FC 1
 62
   179
420
  2234388
370
     9
100
AcDbVertex
100
AcDb2dVertex
 10
95.45393839810049
 20
-105.0788474737305
 30
0.0
  0
VERTEX
  5
137
330
135
100
AcDbEntity
  8
_U+30EC_U+30A4_U+30E4_U+30FC 1
 62
   179
420
  2234388
370
     9
100
AcDbVertex
100
AcDb2dVertex
 10
92.18315931487834
 20
-105.0788474737305
 30
0.0
  0
SEQEND
  5
138
330
135
100
AcDbEntity
  8
_U+30EC_U+30A4_U+30E4_U+30FC 1
 62
   179
420
  2234388
370
     9
  0
POLYLINE
  5
139
330
1F
100
AcDbEntity
  8
_U+30EC_U+30A4_U+30E4_U+30FC 1
 62
   179
420
  2234388
370
     9
100
AcDb2dPolyline
 66
     1
 10
0.0
 20
0.0
 30
0.0
  0
VERTEX
  5
13A
330
139
100
AcDbEntity
  8
_U+30EC_U+30A4_U+30E4_U+30FC 1
 62
   179
420
  2234388
370
     9
100
AcDbVertex
100
AcDb2dVertex
 10
97.4534827915323
 20
-105.0788474737305
 30
0.0
  0
VERTEX
  5
13B
330
139
100
AcDbEntity
  8
_U+30EC_U+30A4_U+30E4_U+30FC 1
 62
   179
420
  2234388
370
     9
100
AcDbVertex
100
AcDb2dVertex
 10
95.45393839810049
 20
-105.0788474737305
 30
0.0
  0
SEQEND
  5
13C
330
139
100
AcDbEntity
  8
_U+30EC_U+30A4_U+30E4_U+30FC 1
 62
   179
420
  2234388
370
     9
  0
INSERT
  5
13E
330
1F
100
AcDbEntity
  8
_U+30EC_U+30A4_U+30E4_U+30FC 1
100
AcDbBlockReference
  2
block 9
 10
0.0
 20
0.0
 30
0.0
  0
ENDSEC
  0
SECTION
  2
OBJECTS
  0
DICTIONARY
  5
C
330
0
100
AcDbDictionary
281
     1
  3
ACAD_GROUP
350
D
  3
ACAD_LAYOUT
350
1A
  3
ACAD_MATERIAL
350
3B
  3
ACAD_MLEADERSTYLE
350
144
  3
ACAD_MLINESTYLE
350
17
  3
ACAD_PLOTSETTINGS
350
19
  3
ACAD_PLOTSTYLENAME
350
E
  3
ACAD_TABLESTYLE
350
143
  3
ACAD_VISUALSTYLE
350
2A
  0
SUN
  5
3F
330
29
100
AcDbSun
 90
        1
290
     0
 63
     7
421
 16777215
 40
1.0
291
     1
 91
  2455826
 92
 54000000
292
     0
 70
     2
 71
   256
280
     1
  0
DICTIONARY
  5
D
102
{ACAD_REACTORS
330
C
102
}
330
C
100
AcDbDictionary
281
     1
  0
DICTIONARY
  5
1A
102
{ACAD_REACTORS
330
C
102
}
330
C
100
AcDbDictionary
281
     1
  3
Layout1
350
1E
  3
Layout2
350
26
  3
Model
350
22
  0
DICTIONARY
  5
3B
102
{ACAD_REACTORS
330
C
102
}
330
C
100
AcDbDictionary
281
     1
  3
ByBlock
350
3D
  3
ByLayer
350
3C
  3
Global
350
3E
  0
DICTIONARY
  5
144
102
{ACAD_REACTORS
330
C
102
}
330
C
100
AcDbDictionary
281
     1
  0
DICTIONARY
  5
17
102
{ACAD_REACTORS
330
C
102
}
330
C
100
AcDbDictionary
281
     1
  3
Standard
350
18
  0
DICTIONARY
  5
19
102
{ACAD_REACTORS
330
C
102
}
330
C
100
AcDbDictionary
281
     1
  0
ACDBDICTIONARYWDFLT
  5
E
102
{ACAD_REACTORS
330
C
102
}
330
C
100
AcDbDictionary
281
     1
  3
Normal
350
F
100
AcDbDictionaryWithDefault
340
F
  0
DICTIONARY
  5
143
102
{ACAD_REACTORS
330
C
102
}
330
C
100
AcDbDictionary
281
     1
  0
DICTIONARY
  5
2A
102
{ACAD_REACTORS
330
C
102
}
330
C
100
AcDbDictionary
281
     1
  3
2dWireframe
350
2F
  3
3D Hidden
350
31
  3
3dWireframe
350
30
  3
Basic
350
32
  3
Brighten
350
36
  3
ColorChange
350
3A
  3
Conceptual
350
34
  3
Dim
350
35
  3
Facepattern
350
39
  3
Flat
350
2B
  3
FlatWithEdges
350
2C
  3
Gouraud
350
2D
  3
GouraudWithEdges
350
2E
  3
Linepattern
350
38
  3
Realistic
350
33
  3
Thicken
350
37
  0
LAYOUT
  5
1E
102
{ACAD_REACTORS
330
1A
102
}
330
1A
100
AcDbPlotSettings
  1

  2
none_device
  4

  6

 40
0.0
 41
0.0
 42
0.0
 43
0.0
 44
0.0
 45
0.0
 46
0.0
 47
0.0
 48
0.0
 49
0.0
140
0.0
141
0.0
142
1.0
143
1.0
 70
   688
 72
     0
 73
     0
 74
     5
  7

 75
    16
 76
     0
 77
     2
 78
   300
147
1.0
148
0.0
149
0.0
100
AcDbLayout
  1
Layout1
 70
     1
 71
     1
 10
0.0
 20
0.0
 11
12.0
 21
9.0
 12
0.0
 22
0.0
 32
0.0
 14
1.000000000000000E+20
 24
1.000000000000000E+20
 34
1.000000000000000E+20
 15
-1.000000000000000E+20
 25
-1.000000000000000E+20
 35
-1.000000000000000E+20
146
0.0
 13
0.0
 23
0.0
 33
0.0
 16
1.0
 26
0.0
 36
0.0
 17
0.0
 27
1.0
 37
0.0
 76
     0
330
1B
  0
LAYOUT
  5
26
102
{ACAD_REACTORS
330
1A
102
}
330
1A
100
AcDbPlotSettings
  1

  2
none_device
  4

  6

 40
0.0
 41
0.0
 42
0.0
 43
0.0
 44
0.0
 45
0.0
 46
0.0
 47
0.0
 48
0.0
 49
0.0
140
0.0
141
0.0
142
1.0
143
1.0
 70
   688
 72
     0
 73
     0
 74
     5
  7

 75
    16
 76
     0
 77
     2
 78
   300
147
1.0
148
0.0
149
0.0
100
AcDbLayout
  1
Layout2
 70
     1
 71
     2
 10
0.0
 20
0.0
 11
0.0
 21
0.0
 12
0.0
 22
0.0
 32
0.0
 14
0.0
 24
0.0
 34
0.0
 15
0.0
 25
0.0
 35
0.0
146
0.0
 13
0.0
 23
0.0
 33
0.0
 16
1.0
 26
0.0
 36
0.0
 17
0.0
 27
1.0
 37
0.0
 76
     0
330
23
  0
LAYOUT
  5
22
102
{ACAD_REACTORS
330
1A
102
}
330
1A
100
AcDbPlotSettings
  1

  2
none_device
  4

  6

 40
0.0
 41
0.0
 42
0.0
 43
0.0
 44
0.0
 45
0.0
 46
0.0
 47
0.0
 48
0.0
 49
0.0
140
0.0
141
0.0
142
1.0
143
1.0
 70
  1712
 72
     0
 73
     0
 74
     0
  7

 75
     0
 76
     0
 77
     2
 78
   300
147
1.0
148
0.0
149
0.0
100
AcDbLayout
  1
Model
 70
     1
 71
     0
 10
0.0
 20
0.0
 11
12.0
 21
9.0
 12
0.0
 22
0.0
 32
0.0
 14
1.000000000000000E+20
 24
1.000000000000000E+20
 34
1.000000000000000E+20
 15
-1.000000000000000E+20
 25
-1.000000000000000E+20
 35
-1.000000000000000E+20
146
0.0
 13
0.0
 23
0.0
 33
0.0
 16
1.0
 26
0.0
 36
0.0
 17
0.0
 27
1.0
 37
0.0
 76
     0
330
1F
331
29
  0
MATERIAL
  5
3D
102
{ACAD_REACTORS
330
3B
102
}
330
3B
100
AcDbMaterial
  1
ByBlock
 72
     1
 94
      127
  0
MATERIAL
  5
3C
102
{ACAD_REACTORS
330
3B
102
}
330
3B
100
AcDbMaterial
  1
ByLayer
 72
     1
 94
      127
  0
MATERIAL
  5
3E
102
{ACAD_REACTORS
330
3B
102
}
330
3B
100
AcDbMaterial
  1
Global
 72
     1
 94
      127
  0
MLINESTYLE
  5
18
102
{ACAD_REACTORS
330
17
102
}
330
17
100
AcDbMlineStyle
  2
Standard
 70
     0
  3

 62
   256
 51
90.0
 52
90.0
 71
     2
 49
0.5
 62
   256
  6
BYLAYER
 49
-0.5
 62
   256
  6
BYLAYER
  0
ACDBPLACEHOLDER
  5
F
102
{ACAD_REACTORS
330
E
102
}
330
E
  0
VISUALSTYLE
  5
2F
102
{ACAD_REACTORS
330
2A
102
}
330
2A
100
AcDbVisualStyle
  2
2dWireframe
 70
     4
177
     2
291
     0
 71
     0
176
     1
 72
     2
176
     1
 73
     0
176
     1
 90
        0
176
     1
 40
-0.6
176
     1
 41
-30.0
176
     1
 62
     5
 63
     7
421
 16777215
176
     1
 74
     1
176
     1
 91
        4
176
     1
 64
     7
176
     1
 65
   257
176
     1
 75
     1
176
     1
175
     1
176
     1
 42
1.0
176
     1
 92
        0
176
     1
 66
   257
176
     1
 43
1.0
176
     1
 76
     1
176
     1
 77
     6
176
     1
 78
     2
176
     1
 67
     7
176
     1
 79
     5
176
     1
170
     0
176
     1
171
     0
176
     1
290
     0
176
     1
 93
        1
176
     1
 44
0.0
176
     1
173
     0
176
     1
  0
VISUALSTYLE
  5
31
102
{ACAD_REACTORS
330
2A
102
}
330
2A
100
AcDbVisualStyle
  2
3D Hidden
 70
     6
177
     2
291
     0
 71
     1
176
     1
 72
     2
176
     1
 73
     2
176
     1
 90
        0
176
     1
 40
-0.6
176
     1
 41
-30.0
176
     1
 62
     5
 63
     7
421
 16777215
176
     1
 74
     2
176
     1
 91
        2
176
     1
 64
     7
176
     1
 65
   257
176
     1
 75
     2
176
     1
175
     1
176
     1
 42
40.0
176
     1
 92
        0
176
     1
 66
   257
176
     1
 43
1.0
176
     1
 76
     1
176
     1
 77
     6
176
     1
 78
     2
176
     1
 67
     7
176
     1
 79
     3
176
     1
170
     0
176
     1
171
     0
176
     1
290
     0
176
     1
 93
        1
176
     1
 44
0.0
176
     1
173
     0
176
     1
  0
VISUALSTYLE
  5
30
102
{ACAD_REACTORS
330
2A
102
}
330
2A
100
AcDbVisualStyle
  2
3dWireframe
 70
     5
177
     2
291
     0
 71
     0
176
     1
 72
     2
176
     1
 73
     0
176
     1
 90
        0
176
     1
 40
-0.6
176
     1
 41
-30.0
176
     1
 62
     5
 63
     7
421
 16777215
176
     1
 74
     1
176
     1
 91
        4
176
     1
 64
     7
176
     1
 65
   257
176
     1
 75
     1
176
     1
175
     1
176
     1
 42
1.0
176
     1
 92
        0
176
     1
 66
   257
176
     1
 43
1.0
176
     1
 76
     1
176
     1
 77
     6
176
     1
 78
     2
176
     1
 67
     7
176
     1
 79
     5
176
     1
170
     0
176
     1
171
     0
176
     1
290
     0
176
     1
 93
        1
176
     1
 44
0.0
176
     1
173
     0
176
     1
  0
VISUALSTYLE
  5
32
102
{ACAD_REACTORS
330
2A
102
}
330
2A
100
AcDbVisualStyle
  2
Basic
 70
     7
177
     2
291
     1
 71
     1
176
     1
 72
     0
176
     1
 73
     1
176
     1
 90
        0
176
     1
 40
-0.6
176
     1
 41
-30.0
176
     1
 62
     5
 63
     7
421
 16777215
176
     1
 74
     0
176
     1
 91
        4
176
     1
 64
     7
176
     1
 65
   257
176
     1
 75
     1
176
     1
175
     1
176
     1
 42
1.0
176
     1
 92
        8
176
     1
 66
     7
176
     1
 43
1.0
176
     1
 76
     1
176
     1
 77
     6
176
     1
 78
     2
176
     1
 67
     7
176
     1
 79
     5
176
     1
170
     0
176
     1
171
     0
176
     1
290
     0
176
     1
 93
        1
176
     1
 44
0.0
176
     1
173
     0
176
     1
  0
VISUALSTYLE
  5
36
102
{ACAD_REACTORS
330
2A
102
}
330
2A
100
AcDbVisualStyle
  2
Brighten
 70
    12
177
     2
291
     1
 71
     2
176
     1
 72
     2
176
     1
 73
     0
176
     1
 90
        0
176
     1
 40
-0.6
176
     1
 41
-30.0
176
     1
 62
     5
 63
     7
421
 16777215
176
     1
 74
     1
176
     1
 91
        4
176
     1
 64
     7
176
     1
 65
   257
176
     1
 75
     1
176
     1
175
     1
176
     1
 42
1.0
176
     1
 92
        8
176
     1
 66
     7
176
     1
 43
1.0
176
     1
 76
     1
176
     1
 77
     6
176
     1
 78
     2
176
     1
 67
     7
176
     1
 79
     5
176
     1
170
     0
176
     1
171
     0
176
     1
290
     0
176
     1
 93
        1
176
     1
 44
50.0
176
     1
173
     0
176
     1
  0
VISUALSTYLE
  5
3A
102
{ACAD_REACTORS
330
2A
102
}
330
2A
100
AcDbVisualStyle
  2
ColorChange
 70
    16
177
     2
291
     1
 71
     2
176
     1
 72
     2
176
     1
 73
     3
176
     1
 90
        0
176
     1
 40
-0.6
176
     1
 41
-30.0
176
     1
 62
     5
 63
     8
421
  8421504
176
     1
 74
     1
176
     1
 91
        4
176
     1
 64
     7
176
     1
 65
   257
176
     1
 75
     1
176
     1
175
     1
176
     1
 42
1.0
176
     1
 92
        8
176
     1
 66
     8
424
  8421504
176
     1
 43
1.0
176
     1
 76
     1
176
     1
 77
     6
176
     1
 78
     2
176
     1
 67
     7
176
     1
 79
     5
176
     1
170
     0
176
     1
171
     0
176
     1
290
     0
176
     1
 93
        1
176
     1
 44
0.0
176
     1
173
     0
176
     1
  0
VISUALSTYLE
  5
34
102
{ACAD_REACTORS
330
2A
102
}
330
2A
100
AcDbVisualStyle
  2
Conceptual
 70
     9
177
     2
291
     0
 71
     3
176
     1
 72
     2
176
     1
 73
     0
176
     1
 90
        0
176
     1
 40
-0.6
176
     1
 41
-30.0
176
     1
 62
     5
 63
     7
421
 16777215
176
     1
 74
     2
176
     1
 91
        2
176
     1
 64
     7
176
     1
 65
   257
176
     1
 75
     1
176
     1
175
     1
176
     1
 42
40.0
176
     1
 92
        8
176
     1
 66
     7
176
     1
 43
1.0
176
     1
 76
     1
176
     1
 77
     6
176
     1
 78
     2
176
     1
 67
     7
176
     1
 79
     3
176
     1
170
     0
176
     1
171
     0
176
     1
290
     0
176
     1
 93
        1
176
     1
 44
0.0
176
     1
173
     0
176
     1
  0
VISUALSTYLE
  5
35
102
{ACAD_REACTORS
330
2A
102
}
330
2A
100
AcDbVisualStyle
  2
Dim
 70
    11
177
     2
291
     1
 71
     2
176
     1
 72
     2
176
     1
 73
     0
176
     1
 90
        0
176
     1
 40
-0.6
176
     1
 41
-30.0
176
     1
 62
     5
 63
     7
421
 16777215
176
     1
 74
     1
176
     1
 91
        4
176
     1
 64
     7
176
     1
 65
   257
176
     1
 75
     1
176
     1
175
     1
176
     1
 42
1.0
176
     1
 92
        8
176
     1
 66
     7
176
     1
 43
1.0
176
     1
 76
     1
176
     1
 77
     6
176
     1
 78
     2
176
     1
 67
     7
176
     1
 79
     5
176
     1
170
     0
176
     1
171
     0
176
     1
290
     0
176
     1
 93
        1
176
     1
 44
-50.0
176
     1
173
     0
176
     1
  0
VISUALSTYLE
  5
39
102
{ACAD_REACTORS
330
2A
102
}
330
2A
100
AcDbVisualStyle
  2
Facepattern
 70
    15
177
     2
291
     1
 71
     2
176
     1
 72
     2
176
     1
 73
     0
176
     1
 90
        0
176
     1
 40
-0.6
176
     1
 41
-30.0
176
     1
 62
     5
 63
     7
421
 16777215
176
     1
 74
     1
176
     1
 91
        4
176
     1
 64
     7
176
     1
 65
   257
176
     1
 75
     1
176
     1
175
     1
176
     1
 42
1.0
176
     1
 92
        8
176
     1
 66
     7
176
     1
 43
1.0
176
     1
 76
     1
176
     1
 77
     6
176
     1
 78
     2
176
     1
 67
     7
176
     1
 79
     5
176
     1
170
     0
176
     1
171
     0
176
     1
290
     0
176
     1
 93
        1
176
     1
 44
0.0
176
     1
173
     0
176
     1
  0
VISUALSTYLE
  5
2B
102
{ACAD_REACTORS
330
2A
102
}
330
2A
100
AcDbVisualStyle
  2
Flat
 70
     0
177
     2
291
     1
 71
     2
176
     1
 72
     1
176
     1
 73
     1
176
     1
 90
        2
176
     1
 40
-0.6
176
     1
 41
30.0
176
     1
 62
     5
 63
     7
421
 16777215
176
     1
 74
     0
176
     1
 91
        4
176
     1
 64
     7
176
     1
 65
   257
176
     1
 75
     1
176
     1
175
     1
176
     1
 42
1.0
176
     1
 92
        8
176
     1
 66
     7
176
     1
 43
1.0
176
     1
 76
     1
176
     1
 77
     6
176
     1
 78
     2
176
     1
 67
     7
176
     1
 79
     5
176
     1
170
     0
176
     1
171
     0
176
     1
290
     0
176
     1
 93
       13
176
     1
 44
0.0
176
     1
173
     0
176
     1
  0
VISUALSTYLE
  5
2C
102
{ACAD_REACTORS
330
2A
102
}
330
2A
100
AcDbVisualStyle
  2
FlatWithEdges
 70
     1
177
     2
291
     1
 71
     2
176
     1
 72
     1
176
     1
 73
     1
176
     1
 90
        2
176
     1
 40
-0.6
176
     1
 41
30.0
176
     1
 62
     5
 63
     7
421
 16777215
176
     1
 74
     1
176
     1
 91
        4
176
     1
 64
     7
176
     1
 65
   257
176
     1
 75
     1
176
     1
175
     1
176
     1
 42
1.0
176
     1
 92
        0
176
     1
 66
   257
176
     1
 43
1.0
176
     1
 76
     1
176
     1
 77
     6
176
     1
 78
     2
176
     1
 67
     7
176
     1
 79
     5
176
     1
170
     0
176
     1
171
     0
176
     1
290
     0
176
     1
 93
       13
176
     1
 44
0.0
176
     1
173
     0
176
     1
  0
VISUALSTYLE
  5
2D
102
{ACAD_REACTORS
330
2A
102
}
330
2A
100
AcDbVisualStyle
  2
Gouraud
 70
     2
177
     2
291
     1
 71
     2
176
     1
 72
     2
176
     1
 73
     1
176
     1
 90
        2
176
     1
 40
-0.6
176
     1
 41
30.0
176
     1
 62
     5
 63
     7
421
 16777215
176
     1
 74
     0
176
     1
 91
        4
176
     1
 64
     7
176
     1
 65
   257
176
     1
 75
     1
176
     1
175
     1
176
     1
 42
1.0
176
     1
 92
        0
176
     1
 66
     7
176
     1
 43
1.0
176
     1
 76
     1
176
     1
 77
     6
176
     1
 78
     2
176
     1
 67
     7
176
     1
 79
     5
176
     1
170
     0
176
     1
171
     0
176
     1
290
     0
176
     1
 93
       13
176
     1
 44
0.0
176
     1
173
     0
176
     1
  0
VISUALSTYLE
  5
2E
102
{ACAD_REACTORS
330
2A
102
}
330
2A
100
AcDbVisualStyle
  2
GouraudWithEdges
 70
     3
177
     2
291
     1
 71
     2
176
     1
 72
     2
176
     1
 73
     1
176
     1
 90
        2
176
     1
 40
-0.6
176
     1
 41
30.0
176
     1
 62
     5
 63
     7
421
 16777215
176
     1
 74
     1
176
     1
 91
        4
176
     1
 64
     7
176
     1
 65
   257
176
     1
 75
     1
176
     1
175
     1
176
     1
 42
1.0
176
     1
 92
        0
176
     1
 66
   257
176
     1
 43
1.0
176
     1
 76
     1
176
     1
 77
     6
176
     1
 78
     2
176
     1
 67
     7
176
     1
 79
     5
176
     1
170
     0
176
     1
171
     0
176
     1
290
     0
176
     1
 93
       13
176
     1
 44
0.0
176
     1
173
     0
176
     1
  0
VISUALSTYLE
  5
38
102
{ACAD_REACTORS
330
2A
102
}
330
2A
100
AcDbVisualStyle
  2
Linepattern
 70
    14
177
     2
291
     1
 71
     2
176
     1
 72
     2
176
     1
 73
     0
176
     1
 90
        0
176
     1
 40
-0.6
176
     1
 41
-30.0
176
     1
 62
     5
 63
     7
421
 16777215
176
     1
 74
     1
176
     1
 91
        4
176
     1
 64
     7
176
     1
 65
   257
176
     1
 75
     7
176
     1
175
     7
176
     1
 42
1.0
176
     1
 92
        8
176
     1
 66
     7
176
     1
 43
1.0
176
     1
 76
     1
176
     1
 77
     6
176
     1
 78
     2
176
     1
 67
     7
176
     1
 79
     5
176
     1
170
     0
176
     1
171
     0
176
     1
290
     0
176
     1
 93
        1
176
     1
 44
0.0
176
     1
173
     0
176
     1
  0
VISUALSTYLE
  5
33
102
{ACAD_REACTORS
330
2A
102
}
330
2A
100
AcDbVisualStyle
  2
Realistic
 70
     8
177
     2
291
     0
 71
     2
176
     1
 72
     2
176
     1
 73
     0
176
     1
 90
        0
176
     1
 40
-0.6
176
     1
 41
-30.0
176
     1
 62
     5
 63
     7
421
 16777215
176
     1
 74
     1
176
     1
 91
        0
176
     1
 64
     7
176
     1
 65
   257
176
     1
 75
     1
176
     1
175
     1
176
     1
 42
1.0
176
     1
 92
        8
176
     1
 66
     8
424
  7895160
176
     1
 43
1.0
176
     1
 76
     1
176
     1
 77
     6
176
     1
 78
     2
176
     1
 67
     7
176
     1
 79
     5
176
     1
170
     0
176
     1
171
     0
176
     1
290
     0
176
     1
 93
       13
176
     1
 44
0.0
176
     1
173
     0
176
     1
  0
VISUALSTYLE
  5
37
102
{ACAD_REACTORS
330
2A
102
}
330
2A
100
AcDbVisualStyle
  2
Thicken
 70
    13
177
     2
291
     1
 71
     2
176
     1
 72
     2
176
     1
 73
     0
176
     1
 90
        0
176
     1
 40
-0.6
176
     1
 41
-30.0
176
     1
 62
     5
 63
     7
421
 16777215
176
     1
 74
     1
176
     1
 91
        4
176
     1
 64
     7
176
     1
 65
   257
176
     1
 75
     1
176
     1
175
     1
176
     1
 42
1.0
176
     1
 92
       12
176
     1
 66
     7
176
     1
 43
1.0
176
     1
 76
     1
176
     1
 77
     6
176
     1
 78
     2
176
     1
 67
     7
176
     1
 79
     5
176
     1
170
     0
176
     1
171
     0
176
     1
290
     0
176
     1
 93
        1
176
     1
 44
0.0
176
     1
173
     0
176
     1
  0
ENDSEC
  0
EOF
