  0
SECTION
  2
HEADER
  9
$ACADVER
  1
AC1024
  9
$ACADMAINTVER
 70
     6
  9
$DWGCODEPAGE
  3
UNDEFINED
  9
$INSBASE
 10
0.0
 20
0.0
 30
0.0
  9
$EXTMIN
 10
1.000000000000000E+20
 20
1.000000000000000E+20
 30
1.000000000000000E+20
  9
$EXTMAX
 10
-1.000000000000000E+20
 20
-1.000000000000000E+20
 30
-1.000000000000000E+20
  9
$LIMMIN
 10
0.0
 20
0.0
  9
$LIMMAX
 10
12.0
 20
9.0
  9
$ORTHOMODE
 70
     0
  9
$REGENMODE
 70
     1
  9
$FILLMODE
 70
     1
  9
$QTEXTMODE
 70
     0
  9
$MIRRTEXT
 70
     1
  9
$LTSCALE
 40
1.0
  9
$ATTMODE
 70
     1
  9
$TEXTSIZE
 40
0.2
  9
$TRACEWID
 40
0.05
  9
$TEXTSTYLE
  7
Standard
  9
$CLAYER
  8
0
  9
$CELTYPE
  6
ByLayer
  9
$CECOLOR
 62
   256
  9
$CELTSCALE
 40
1.0
  9
$DISPSILH
 70
     0
  9
$DIMSCALE
 40
1.0
  9
$DIMASZ
 40
0.18
  9
$DIMEXO
 40
0.0625
  9
$DIMDLI
 40
0.38
  9
$DIMRND
 40
0.0
  9
$DIMDLE
 40
0.0
  9
$DIMEXE
 40
0.18
  9
$DIMTP
 40
0.0
  9
$DIMTM
 40
0.0
  9
$DIMTXT
 40
0.18
  9
$DIMCEN
 40
0.09
  9
$DIMTSZ
 40
0.0
  9
$DIMTOL
 70
     0
  9
$DIMLIM
 70
     0
  9
$DIMTIH
 70
     1
  9
$DIMTOH
 70
     1
  9
$DIMSE1
 70
     0
  9
$DIMSE2
 70
     0
  9
$DIMTAD
 70
     0
  9
$DIMZIN
 70
     0
  9
$DIMBLK
  1

  9
$DIMASO
 70
     1
  9
$DIMSHO
 70
     1
  9
$DIMPOST
  1

  9
$DIMAPOST
  1

  9
$DIMALT
 70
     0
  9
$DIMALTD
 70
     2
  9
$DIMALTF
 40
25.4
  9
$DIMLFAC
 40
1.0
  9
$DIMTOFL
 70
     0
  9
$DIMTVP
 40
0.0
  9
$DIMTIX
 70
     0
  9
$DIMSOXD
 70
     0
  9
$DIMSAH
 70
     0
  9
$DIMBLK1
  1

  9
$DIMBLK2
  1

  9
$DIMSTYLE
  2
Standard
  9
$DIMCLRD
 70
     0
  9
$DIMCLRE
 70
     0
  9
$DIMCLRT
 70
     0
  9
$DIMTFAC
 40
1.0
  9
$DIMGAP
 40
0.09
  9
$DIMJUST
 70
     0
  9
$DIMSD1
 70
     0
  9
$DIMSD2
 70
     0
  9
$DIMTOLJ
 70
     1
  9
$DIMTZIN
 70
     0
  9
$DIMALTZ
 70
     0
  9
$DIMALTTZ
 70
     0
  9
$DIMUPT
 70
     0
  9
$DIMDEC
 70
     4
  9
$DIMTDEC
 70
     4
  9
$DIMALTU
 70
     2
  9
$DIMALTTD
 70
     2
  9
$DIMTXSTY
  7
Standard
  9
$DIMAUNIT
 70
     0
  9
$DIMADEC
 70
     0
  9
$DIMALTRND
 40
0.0
  9
$DIMAZIN
 70
     0
  9
$DIMDSEP
 70
    46
  9
$DIMATFIT
 70
     3
  9
$DIMFRAC
 70
     0
  9
$DIMLDRBLK
  1

  9
$DIMLUNIT
 70
     2
  9
$DIMLWD
 70
    -2
  9
$DIMLWE
 70
    -2
  9
$DIMTMOVE
 70
     0
  9
$DIMFXL
 40
1.0
  9
$DIMFXLON
 70
     0
  9
$DIMJOGANG
 40
0.7853981633974483
  9
$DIMTFILL
 70
     0
  9
$DIMTFILLCLR
 70
     0
  9
$DIMARCSYM
 70
     0
  9
$DIMLTYPE
  6

  9
$DIMLTEX1
  6

  9
$DIMLTEX2
  6

  9
$DIMTXTDIRECTION
 70
     0
  9
$LUNITS
 70
     2
  9
$LUPREC
 70
     4
  9
$SKETCHINC
 40
0.1
  9
$FILLETRAD
 40
0.5
  9
$AUNITS
 70
     0
  9
$AUPREC
 70
     0
  9
$MENU
  1
.
  9
$ELEVATION
 40
0.0
  9
$PELEVATION
 40
0.0
  9
$THICKNESS
 40
0.0
  9
$LIMCHECK
 70
     0
  9
$CHAMFERA
 40
0.5
  9
$CHAMFERB
 40
0.5
  9
$CHAMFERC
 40
1.0
  9
$CHAMFERD
 40
0.0
  9
$SKPOLY
 70
     0
  9
$TDCREATE
 40
2457917.591689803
  9
$TDUCREATE
 40
2457917.216689815
  9
$TDUPDATE
 40
2457917.591689803
  9
$TDUUPDATE
 40
2457917.216689815
  9
$TDINDWG
 40
0.0000000116
  9
$TDUSRTIMER
 40
0.0000000116
  9
$USRTIMER
 70
     1
  9
$ANGBASE
 50
0.0
  9
$ANGDIR
 70
     0
  9
$PDMODE
 70
     0
  9
$PDSIZE
 40
0.0
  9
$PLINEWID
 40
0.0
  9
$SPLFRAME
 70
     0
  9
$SPLINETYPE
 70
     6
  9
$SPLINESEGS
 70
     8
  9
$HANDSEED
  5
13A
  9
$SURFTAB1
 70
     6
  9
$SURFTAB2
 70
     6
  9
$SURFTYPE
 70
     6
  9
$SURFU
 70
     6
  9
$SURFV
 70
     6
  9
$UCSBASE
  2

  9
$UCSNAME
  2

  9
$UCSORG
 10
0.0
 20
0.0
 30
0.0
  9
$UCSXDIR
 10
1.0
 20
0.0
 30
0.0
  9
$UCSYDIR
 10
0.0
 20
1.0
 30
0.0
  9
$UCSORTHOREF
  2

  9
$UCSORTHOVIEW
 70
     0
  9
$UCSORGTOP
 10
0.0
 20
0.0
 30
0.0
  9
$UCSORGBOTTOM
 10
0.0
 20
0.0
 30
0.0
  9
$UCSORGLEFT
 10
0.0
 20
0.0
 30
0.0
  9
$UCSORGRIGHT
 10
0.0
 20
0.0
 30
0.0
  9
$UCSORGFRONT
 10
0.0
 20
0.0
 30
0.0
  9
$UCSORGBACK
 10
0.0
 20
0.0
 30
0.0
  9
$PUCSBASE
  2

  9
$PUCSNAME
  2

  9
$PUCSORG
 10
0.0
 20
0.0
 30
0.0
  9
$PUCSXDIR
 10
1.0
 20
0.0
 30
0.0
  9
$PUCSYDIR
 10
0.0
 20
1.0
 30
0.0
  9
$PUCSORTHOREF
  2

  9
$PUCSORTHOVIEW
 70
     0
  9
$PUCSORGTOP
 10
0.0
 20
0.0
 30
0.0
  9
$PUCSORGBOTTOM
 10
0.0
 20
0.0
 30
0.0
  9
$PUCSORGLEFT
 10
0.0
 20
0.0
 30
0.0
  9
$PUCSORGRIGHT
 10
0.0
 20
0.0
 30
0.0
  9
$PUCSORGFRONT
 10
0.0
 20
0.0
 30
0.0
  9
$PUCSORGBACK
 10
0.0
 20
0.0
 30
0.0
  9
$USERI1
 70
     0
  9
$USERI2
 70
     0
  9
$USERI3
 70
     0
  9
$USERI4
 70
     0
  9
$USERI5
 70
     0
  9
$USERR1
 40
0.0
  9
$USERR2
 40
0.0
  9
$USERR3
 40
0.0
  9
$USERR4
 40
0.0
  9
$USERR5
 40
0.0
  9
$WORLDVIEW
 70
     1
  9
$SHADEDGE
 70
     3
  9
$SHADEDIF
 70
    70
  9
$TILEMODE
 70
     1
  9
$MAXACTVP
 70
    64
  9
$PINSBASE
 10
0.0
 20
0.0
 30
0.0
  9
$PLIMCHECK
 70
     0
  9
$PEXTMIN
 10
1.000000000000000E+20
 20
1.000000000000000E+20
 30
1.000000000000000E+20
  9
$PEXTMAX
 10
-1.000000000000000E+20
 20
-1.000000000000000E+20
 30
-1.000000000000000E+20
  9
$PLIMMIN
 10
0.0
 20
0.0
  9
$PLIMMAX
 10
12.0
 20
9.0
  9
$UNITMODE
 70
     0
  9
$VISRETAIN
 70
     1
  9
$PLINEGEN
 70
     0
  9
$PSLTSCALE
 70
     1
  9
$TREEDEPTH
 70
  3020
  9
$CMLSTYLE
  2
Standard
  9
$CMLJUST
 70
     0
  9
$CMLSCALE
 40
1.0
  9
$PROXYGRAPHICS
 70
     1
  9
$MEASUREMENT
 70
     0
  9
$CELWEIGHT
370
    -1
  9
$ENDCAPS
280
     0
  9
$JOINSTYLE
280
     0
  9
$LWDISPLAY
290
     1
  9
$INSUNITS
 70
     1
  9
$HYPERLINKBASE
  1

  9
$STYLESHEET
  1

  9
$XEDIT
290
     1
  9
$CEPSNTYPE
380
     0
  9
$PSTYLEMODE
290
     1
  9
$FINGERPRINTGUID
  2
{6754A829-BF2A-86B4-969E-387C9AE42064}
  9
$VERSIONGUID
  2
{FAEB1C32-E019-11D5-929B-00C0DF256EC4}
  9
$EXTNAMES
290
     1
  9
$PSVPSCALE
 40
0.0
  9
$OLESTARTUP
290
     0
  9
$SORTENTS
280
   127
  9
$INDEXCTL
280
     0
  9
$HIDETEXT
280
     1
  9
$XCLIPFRAME
280
     2
  9
$HALOGAP
280
     0
  9
$OBSCOLOR
 70
   257
  9
$OBSLTYPE
280
     0
  9
$INTERSECTIONDISPLAY
280
     0
  9
$INTERSECTIONCOLOR
 70
   257
  9
$DIMASSOC
280
     2
  9
$PROJECTNAME
  1

  9
$CAMERADISPLAY
290
     0
  9
$LENSLENGTH
 40
50.0
  9
$CAMERAHEIGHT
 40
0.0
  9
$STEPSPERSEC
 40
2.0
  9
$STEPSIZE
 40
6.0
  9
$3DDWFPREC
 40
2.0
  9
$PSOLWIDTH
 40
0.25
  9
$PSOLHEIGHT
 40
4.0
  9
$LOFTANG1
 40
1.570796326794897
  9
$LOFTANG2
 40
1.570796326794897
  9
$LOFTMAG1
 40
0.0
  9
$LOFTMAG2
 40
0.0
  9
$LOFTPARAM
 70
     7
  9
$LOFTNORMALS
280
     1
  9
$LATITUDE
 40
37.795
  9
$LONGITUDE
 40
-122.394
  9
$NORTHDIRECTION
 40
0.0
  9
$TIMEZONE
 70
 -8000
  9
$LIGHTGLYPHDISPLAY
280
     1
  9
$TILEMODELIGHTSYNCH
280
     1
  9
$CMATERIAL
347
3C
  9
$SOLIDHIST
280
     1
  9
$SHOWHIST
280
     1
  9
$DWFFRAME
280
     2
  9
$DGNFRAME
280
     2
  9
$REALWORLDSCALE
290
     1
  9
$INTERFERECOLOR
 62
   256
  9
$CSHADOW
280
     0
  9
$SHADOWPLANELOCATION
 40
0.0
  0
ENDSEC
  0
SECTION
  2
CLASSES
  0
CLASS
  1
ACDBDICTIONARYWDFLT
  2
AcDbDictionaryWithDefault
  3
ObjectDBX Classes
 90
        0
 91
        4
280
     0
281
     0
  0
CLASS
  1
VISUALSTYLE
  2
AcDbVisualStyle
  3
ObjectDBX Classes
 90
     4095
 91
        4
280
     0
281
     0
  0
CLASS
  1
MATERIAL
  2
AcDbMaterial
  3
ObjectDBX Classes
 90
     1153
 91
        4
280
     0
281
     0
  0
CLASS
  1
SUN
  2
AcDbSun
  3
SCENEOE
 90
     1024
 91
        4
280
     0
281
     0
  0
ENDSEC
  0
SECTION
  2
TABLES
  0
TABLE
  2
VPORT
  5
8
330
0
100
AcDbSymbolTable
 70
     1
  0
VPORT
  5
29
330
8
100
AcDbSymbolTableRecord
100
AcDbViewportTableRecord
  2
*Active
 70
     0
 10
0.0
 20
0.0
 11
1.0
 21
1.0
 12
0.0
 22
0.0
 13
0.0
 23
0.0
 14
0.5
 24
0.5
 15
0.5
 25
0.5
 16
0.0
 26
0.0
 36
1.0
 17
91.00082462281999
 27
-128.4993055234307
 37
0.0
 40
256.9986110468615
 41
0.7081814508812795
 42
50.0
 43
0.0
 44
0.0
 50
0.0
 51
0.0
 71
     0
 72
   100
 73
     1
 74
     3
 75
     0
 76
     0
 77
     0
 78
     0
281
     0
 65
     1
110
0.0
120
0.0
130
0.0
111
1.0
121
0.0
131
0.0
112
0.0
122
1.0
132
0.0
 79
     0
146
0.0
 60
     3
 61
     5
292
     1
282
     1
141
0.0
142
0.0
 63
   250
361
3F
  0
ENDTAB
  0
TABLE
  2
LTYPE
  5
5
330
0
100
AcDbSymbolTable
 70
     1
  0
LTYPE
  5
14
330
5
100
AcDbSymbolTableRecord
100
AcDbLinetypeTableRecord
  2
ByBlock
 70
     0
  3

 72
    65
 73
     0
 40
0.0
  0
LTYPE
  5
15
330
5
100
AcDbSymbolTableRecord
100
AcDbLinetypeTableRecord
  2
ByLayer
 70
     0
  3

 72
    65
 73
     0
 40
0.0
  0
LTYPE
  5
16
330
5
100
AcDbSymbolTableRecord
100
AcDbLinetypeTableRecord
  2
Continuous
 70
     0
  3
Solid line
 72
    65
 73
     0
 40
0.0
  0
ENDTAB
  0
TABLE
  2
LAYER
  5
2
330
0
100
AcDbSymbolTable
 70
     2
  0
LAYER
  5
10
330
2
100
AcDbSymbolTableRecord
100
AcDbLayerTableRecord
  2
0
 70
     0
 62
     7
  6
Continuous
370
    -3
390
F
347
3E
  0
LAYER
  5
40
330
2
100
AcDbSymbolTableRecord
100
AcDbLayerTableRecord
  2
_U+30EC_U+30A4_U+30E4_U+30FC 1
 70
     0
 62
     7
  6
Continuous
370
    -3
390
F
347
3E
  0
ENDTAB
  0
TABLE
  2
STYLE
  5
3
330
0
100
AcDbSymbolTable
 70
     1
  0
STYLE
  5
11
330
3
100
AcDbSymbolTableRecord
100
AcDbTextStyleTableRecord
  2
Standard
 70
     0
 40
0.0
 41
1.0
 50
0.0
 71
     0
 42
0.2
  3
txt
  4

  0
ENDTAB
  0
TABLE
  2
VIEW
  5
6
330
0
100
AcDbSymbolTable
 70
     0
  0
ENDTAB
  0
TABLE
  2
UCS
  5
7
330
0
100
AcDbSymbolTable
 70
     0
  0
ENDTAB
  0
TABLE
  2
APPID
  5
9
330
0
100
AcDbSymbolTable
 70
     1
  0
APPID
  5
12
330
9
100
AcDbSymbolTableRecord
100
AcDbRegAppTableRecord
  2
ACAD
 70
     0
  0
ENDTAB
  0
TABLE
  2
DIMSTYLE
  5
A
330
0
100
AcDbSymbolTable
 70
     1
100
AcDbDimStyleTable
  0
DIMSTYLE
105
27
330
A
100
AcDbSymbolTableRecord
100
AcDbDimStyleTableRecord
  2
Standard
 70
     0
178
     0
340
11
  0
ENDTAB
  0
TABLE
  2
BLOCK_RECORD
  5
1
330
0
100
AcDbSymbolTable
 70
     8
  0
BLOCK_RECORD
  5
1F
330
1
100
AcDbSymbolTableRecord
100
AcDbBlockTableRecord
  2
*Model_Space
340
22
 70
     0
280
     1
281
     0
  0
BLOCK_RECORD
  5
1B
330
1
100
AcDbSymbolTableRecord
100
AcDbBlockTableRecord
  2
*Paper_Space
340
1E
 70
     0
280
     1
281
     0
  0
BLOCK_RECORD
  5
23
330
1
100
AcDbSymbolTableRecord
100
AcDbBlockTableRecord
  2
*Paper_Space0
340
26
 70
     0
280
     1
281
     0
  0
BLOCK_RECORD
  5
DD
330
1
100
AcDbSymbolTableRecord
100
AcDbBlockTableRecord
  2
block 2
340
0
102
{BLKREFS
331
DE
102
}
 70
     0
280
     1
281
     0
  0
BLOCK_RECORD
  5
ED
330
1
100
AcDbSymbolTableRecord
100
AcDbBlockTableRecord
  2
block 3
340
0
102
{BLKREFS
331
EE
102
}
 70
     0
280
     1
281
     0
  0
BLOCK_RECORD
  5
F3
330
1
100
AcDbSymbolTableRecord
100
AcDbBlockTableRecord
  2
block 4
340
0
102
{BLKREFS
331
F4
102
}
 70
     0
280
     1
281
     0
  0
BLOCK_RECORD
  5
F9
330
1
100
AcDbSymbolTableRecord
100
AcDbBlockTableRecord
  2
block 5
340
0
102
{BLKREFS
331
FA
102
}
 70
     0
280
     1
281
     0
  0
BLOCK_RECORD
  5
101
330
1
100
AcDbSymbolTableRecord
100
AcDbBlockTableRecord
  2
block 6
340
0
102
{BLKREFS
331
102
102
}
 70
     0
280
     1
281
     0
  0
BLOCK_RECORD
  5
10A
330
1
100
AcDbSymbolTableRecord
100
AcDbBlockTableRecord
  2
block 7
340
0
102
{BLKREFS
331
10B
102
}
 70
     0
280
     1
281
     0
  0
BLOCK_RECORD
  5
126
330
1
100
AcDbSymbolTableRecord
100
AcDbBlockTableRecord
  2
block 8
340
0
102
{BLKREFS
331
127
102
}
 70
     0
280
     1
281
     0
  0
ENDTAB
  0
ENDSEC
  0
SECTION
  2
BLOCKS
  0
BLOCK
  5
20
330
1F
100
AcDbEntity
  8
0
100
AcDbBlockBegin
  2
*Model_Space
 70
     0
 10
0.0
 20
0.0
 30
0.0
  3
*Model_Space
  1

  0
ENDBLK
  5
21
330
1F
100
AcDbEntity
  8
0
100
AcDbBlockEnd
  0
BLOCK
  5
1C
330
1B
100
AcDbEntity
 67
     1
  8
0
100
AcDbBlockBegin
  2
*Paper_Space
 70
     0
 10
0.0
 20
0.0
 30
0.0
  3
*Paper_Space
  1

  0
ENDBLK
  5
1D
330
1B
100
AcDbEntity
 67
     1
  8
0
100
AcDbBlockEnd
  0
BLOCK
  5
24
330
23
100
AcDbEntity
  8
0
100
AcDbBlockBegin
  2
*Paper_Space0
 70
     0
 10
0.0
 20
0.0
 30
0.0
  3
*Paper_Space0
  1

  0
ENDBLK
  5
25
330
23
100
AcDbEntity
  8
0
100
AcDbBlockEnd
  0
BLOCK
  5
DF
330
DD
100
AcDbEntity
  8
0
100
AcDbBlockBegin
  2
block 2
 70
     0
 10
0.0
 20
0.0
 30
0.0
  3
block 2
  1

  0
SPLINE
  5
E1
330
DD
100
AcDbEntity
  8
_U+30EC_U+30A4_U+30E4_U+30FC 1
370
     0
100
AcDbSpline
210
0.0
220
0.0
230
1.0
 70
    11
 71
     3
 72
    44
 73
    40
 74
     0
 42
0.0000000001
 43
0.0000000001
 12
1.0
 22
0.0
 32
0.0
 13
1.0
 23
0.0
 33
0.0
 40
0.0
 40
0.0
 40
0.0
 40
0.0
 40
1.0
 40
1.0
 40
1.0
 40
2.0
 40
2.0
 40
2.0
 40
3.0
 40
3.0
 40
3.0
 40
4.0
 40
4.0
 40
4.0
 40
5.0
 40
5.0
 40
5.0
 40
6.0
 40
6.0
 40
6.0
 40
7.0
 40
7.0
 40
7.0
 40
8.0
 40
8.0
 40
8.0
 40
9.0
 40
9.0
 40
9.0
 40
10.0
 40
10.0
 40
10.0
 40
11.0
 40
11.0
 40
11.0
 40
12.0
 40
12.0
 40
12.0
 40
13.0
 40
13.0
 40
13.0
 40
13.0
 10
71.84746634488536
 20
-110.4802503521542
 30
0.0
 10
71.61457789008247
 20
-110.63889699925
 30
0.0
 10
71.51518688533301
 20
-110.7129665521829
 30
0.0
 10
71.46316594350574
 20
-110.8567992886921
 30
0.0
 10
71.46316594350574
 20
-110.8567992886921
 30
0.0
 10
72.29515650319358
 20
-110.8567992886921
 30
0.0
 10
72.29515650319358
 20
-110.8567992886921
 30
0.0
 10
72.29515650319358
 20
-110.8567992886921
 30
0.0
 10
72.29515650319358
 20
-111.0619547248387
 30
0.0
 10
72.29515650319358
 20
-111.0619547248387
 30
0.0
 10
72.29515650319358
 20
-111.0619547248387
 30
0.0
 10
71.19634329817313
 20
-111.0619547248387
 30
0.0
 10
71.19634329817313
 20
-111.0619547248387
 30
0.0
 10
71.23027748870285
 20
-110.7043538134698
 30
0.0
 10
71.30038518182768
 20
-110.6261501459546
 30
0.0
 10
71.71190183754078
 20
-110.3278048769319
 30
0.0
 10
71.98544241906961
 20
-110.129022867433
 30
0.0
 10
72.05555011219445
 20
-110.0613267411479
 30
0.0
 10
72.05555011219445
 20
-109.9238674312864
 30
0.0
 10
72.05555011219445
 20
-109.8053561465938
 30
0.0
 10
71.97872448287337
 20
-109.6742702633801
 30
0.0
 10
71.76840140349887
 20
-109.6742702633801
 30
0.0
 10
71.49020994306495
 20
-109.6742702633801
 30
0.0
 10
71.4812526948033
 20
-109.9047471513433
 30
0.0
 10
71.47677407067248
 20
-110.0211913787447
 30
0.0
 10
71.47677407067248
 20
-110.0211913787447
 30
0.0
 10
71.23699542489909
 20
-110.0211913787447
 30
0.0
 10
71.23699542489909
 20
-110.0211913787447
 30
0.0
 10
71.246124927935
 20
-109.8942396101132
 30
0.0
 10
71.25749374303632
 20
-109.7821017520684
 30
0.0
 10
71.34327662061905
 20
-109.6635904673758
 30
0.0
 10
71.46092663144033
 20
-109.5028767629889
 30
0.0
 10
71.6598808957135
 20
-109.4689425724592
 30
0.0
 10
71.78424884273103
 20
-109.4689425724592
 30
0.0
 10
72.08035479968825
 20
-109.4689425724592
 30
0.0
 10
72.3018744393898
 20
-109.6530829261458
 30
0.0
 10
72.3018744393898
 20
-109.9259344885776
 30
0.0
 10
72.3018744393898
 20
-110.1543443192496
 30
0.0
 10
72.17750649237229
 20
-110.2539075787733
 30
0.0
 10
71.84746634488536
 20
-110.4802503521542
 30
0.0
  0
HATCH
  5
E2
330
DD
100
AcDbEntity
  8
_U+30EC_U+30A4_U+30E4_U+30FC 1
 62
   179
420
  2234388
100
AcDbHatch
 10
0.0
 20
0.0
 30
0.0
210
0.0
220
0.0
230
1.0
  2
SOLID
 70
     1
 71
     0
 91
        1
 92
        1
 93
        1
 72
     4
 94
        3
 73
     0
 74
     1
 95
       44
 96
       40
 40
0.0
 40
0.0
 40
0.0
 40
0.0
 40
1.0
 40
1.0
 40
1.0
 40
2.0
 40
2.0
 40
2.0
 40
3.0
 40
3.0
 40
3.0
 40
4.0
 40
4.0
 40
4.0
 40
5.0
 40
5.0
 40
5.0
 40
6.0
 40
6.0
 40
6.0
 40
7.0
 40
7.0
 40
7.0
 40
8.0
 40
8.0
 40
8.0
 40
9.0
 40
9.0
 40
9.0
 40
10.0
 40
10.0
 40
10.0
 40
11.0
 40
11.0
 40
11.0
 40
12.0
 40
12.0
 40
12.0
 40
13.0
 40
13.0
 40
13.0
 40
13.0
 10
71.84746634488536
 20
-110.4802503521542
 10
71.61457789008247
 20
-110.63889699925
 10
71.51518688533301
 20
-110.7129665521829
 10
71.46316594350574
 20
-110.8567992886921
 10
71.46316594350574
 20
-110.8567992886921
 10
72.29515650319358
 20
-110.8567992886921
 10
72.29515650319358
 20
-110.8567992886921
 10
72.29515650319358
 20
-110.8567992886921
 10
72.29515650319358
 20
-111.0619547248387
 10
72.29515650319358
 20
-111.0619547248387
 10
72.29515650319358
 20
-111.0619547248387
 10
71.19634329817313
 20
-111.0619547248387
 10
71.19634329817313
 20
-111.0619547248387
 10
71.23027748870285
 20
-110.7043538134698
 10
71.30038518182768
 20
-110.6261501459546
 10
71.71190183754078
 20
-110.3278048769319
 10
71.98544241906961
 20
-110.129022867433
 10
72.05555011219445
 20
-110.0613267411479
 10
72.05555011219445
 20
-109.9238674312864
 10
72.05555011219445
 20
-109.8053561465938
 10
71.97872448287337
 20
-109.6742702633801
 10
71.76840140349887
 20
-109.6742702633801
 10
71.49020994306495
 20
-109.6742702633801
 10
71.4812526948033
 20
-109.9047471513433
 10
71.47677407067248
 20
-110.0211913787447
 10
71.47677407067248
 20
-110.0211913787447
 10
71.23699542489909
 20
-110.0211913787447
 10
71.23699542489909
 20
-110.0211913787447
 10
71.246124927935
 20
-109.8942396101132
 10
71.25749374303632
 20
-109.7821017520684
 10
71.34327662061905
 20
-109.6635904673758
 10
71.46092663144033
 20
-109.5028767629889
 10
71.6598808957135
 20
-109.4689425724592
 10
71.78424884273103
 20
-109.4689425724592
 10
72.08035479968825
 20
-109.4689425724592
 10
72.3018744393898
 20
-109.6530829261458
 10
72.3018744393898
 20
-109.9259344885776
 10
72.3018744393898
 20
-110.1543443192496
 10
72.17750649237229
 20
-110.2539075787733
 10
71.84746634488536
 20
-110.4802503521542
 97
        0
 97
        0
 75
     2
 76
     1
 98
        0
  0
POLYLINE
  5
E3
330
DD
100
AcDbEntity
  8
_U+30EC_U+30A4_U+30E4_U+30FC 1
370
     0
100
AcDb2dPolyline
 66
     1
 10
0.0
 20
0.0
 30
0.0
  0
VERTEX
  5
E4
330
E3
100
AcDbEntity
  8
_U+30EC_U+30A4_U+30E4_U+30FC 1
370
     0
100
AcDbVertex
100
AcDb2dVertex
 10
72.53562416806402
 20
-111.0619547248387
 30
0.0
  0
VERTEX
  5
E5
330
E3
100
AcDbEntity
  8
_U+30EC_U+30A4_U+30E4_U+30FC 1
370
     0
100
AcDbVertex
100
AcDb2dVertex
 10
72.53562416806402
 20
-110.8102904996412
 30
0.0
  0
VERTEX
  5
E6
330
E3
100
AcDbEntity
  8
_U+30EC_U+30A4_U+30E4_U+30FC 1
370
     0
100
AcDbVertex
100
AcDb2dVertex
 10
72.80468612546203
 20
-110.8102904996412
 30
0.0
  0
VERTEX
  5
E7
330
E3
100
AcDbEntity
  8
_U+30EC_U+30A4_U+30E4_U+30FC 1
370
     0
100
AcDbVertex
100
AcDb2dVertex
 10
72.80468612546203
 20
-111.0619547248387
 30
0.0
  0
VERTEX
  5
E8
330
E3
100
AcDbEntity
  8
_U+30EC_U+30A4_U+30E4_U+30FC 1
370
     0
100
AcDbVertex
100
AcDb2dVertex
 10
72.53562416806402
 20
-111.0619547248387
 30
0.0
  0
SEQEND
  5
E9
330
E3
100
AcDbEntity
  8
_U+30EC_U+30A4_U+30E4_U+30FC 1
370
     0
  0
HATCH
  5
EA
330
DD
100
AcDbEntity
  8
_U+30EC_U+30A4_U+30E4_U+30FC 1
 62
   179
420
  2234388
100
AcDbHatch
 10
0.0
 20
0.0
 30
0.0
210
0.0
220
0.0
230
1.0
  2
SOLID
 70
     1
 71
     0
 91
        1
 92
        1
 93
        4
 72
     1
 10
72.53562416806402
 20
-111.0619547248387
 11
72.53562416806402
 21
-110.8102904996412
 72
     1
 10
72.53562416806402
 20
-110.8102904996412
 11
72.80468612546203
 21
-110.8102904996412
 72
     1
 10
72.80468612546203
 20
-110.8102904996412
 11
72.80468612546203
 21
-111.0619547248387
 72
     1
 10
72.80468612546203
 20
-111.0619547248387
 11
72.53562416806402
 21
-111.0619547248387
 97
        0
 75
     2
 76
     1
 98
        0
  0
SPLINE
  5
EB
330
DD
100
AcDbEntity
  8
_U+30EC_U+30A4_U+30E4_U+30FC 1
370
     0
100
AcDbSpline
210
0.0
220
0.0
230
1.0
 70
    11
 71
     3
 72
    62
 73
    58
 74
     0
 42
0.0000000001
 43
0.0000000001
 12
1.0
 22
0.0
 32
0.0
 13
1.0
 23
0.0
 33
0.0
 40
0.0
 40
0.0
 40
0.0
 40
0.0
 40
1.0
 40
1.0
 40
1.0
 40
2.0
 40
2.0
 40
2.0
 40
3.0
 40
3.0
 40
3.0
 40
4.0
 40
4.0
 40
4.0
 40
5.0
 40
5.0
 40
5.0
 40
6.0
 40
6.0
 40
6.0
 40
7.0
 40
7.0
 40
7.0
 40
8.0
 40
8.0
 40
8.0
 40
9.0
 40
9.0
 40
9.0
 40
10.0
 40
10.0
 40
10.0
 40
11.0
 40
11.0
 40
11.0
 40
12.0
 40
12.0
 40
12.0
 40
13.0
 40
13.0
 40
13.0
 40
14.0
 40
14.0
 40
14.0
 40
15.0
 40
15.0
 40
15.0
 40
16.0
 40
16.0
 40
16.0
 40
17.0
 40
17.0
 40
17.0
 40
18.0
 40
18.0
 40
18.0
 40
19.0
 40
19.0
 40
19.0
 40
19.0
 10
73.5827609408057
 20
-111.1127698832461
 30
0.0
 10
73.48095836921657
 20
-111.1127698832461
 30
0.0
 10
73.24806991441368
 20
-111.0915825460118
 30
0.0
 10
73.1147447191345
 20
-110.9053751350341
 30
0.0
 10
73.03567977774803
 20
-110.7932372769892
 30
0.0
 10
73.03102889884293
 20
-110.6938462722397
 30
0.0
 10
73.02655027471212
 20
-110.6092691780769
 30
0.0
 10
73.02655027471212
 20
-110.6092691780769
 30
0.0
 10
73.26167804158041
 20
-110.6092691780769
 30
0.0
 10
73.26167804158041
 20
-110.6092691780769
 30
0.0
 10
73.26391735364582
 20
-110.6833387310097
 30
0.0
 10
73.27528616874716
 20
-110.9181219883295
 30
0.0
 10
73.57828231667487
 20
-110.9181219883295
 30
0.0
 10
73.72521563912078
 20
-110.9181219883295
 30
0.0
 10
73.88799640079884
 20
-110.8483588047532
 30
0.0
 10
73.88799640079884
 20
-110.6197767193069
 30
0.0
 10
73.88799640079884
 20
-110.5035047466797
 30
0.0
 10
73.84717201929863
 20
-110.4547566455634
 30
0.0
 10
73.81341008354318
 20
-110.4230617670991
 30
0.0
 10
73.73417288738243
 20
-110.3489922141662
 30
0.0
 10
73.60980494036491
 20
-110.3364176156451
 30
0.0
 10
73.5510660623414
 20
-110.3364176156451
 30
0.0
 10
73.53073999897843
 20
-110.3364176156451
 30
0.0
 10
73.49232718431789
 20
-110.3384846729362
 30
0.0
 10
73.462871617919
 20
-110.3426187875185
 30
0.0
 10
73.462871617919
 20
-110.3426187875185
 30
0.0
 10
73.462871617919
 20
-110.1479708926019
 30
0.0
 10
73.462871617919
 20
-110.1479708926019
 30
0.0
 10
73.50352374464495
 20
-110.1543443192496
 30
0.0
 10
73.54882675027599
 20
-110.156583631315
 30
0.0
 10
73.55554468647223
 20
-110.156583631315
 30
0.0
 10
73.62565237959706
 20
-110.156583631315
 30
0.0
 10
73.83821477103697
 20
-110.1353962940807
 30
0.0
 10
73.83821477103697
 20
-109.8983737246955
 30
0.0
 10
73.83821477103697
 20
-109.7207790524309
 30
0.0
 10
73.69799938478731
 20
-109.6656575246669
 30
0.0
 10
73.58052162874029
 20
-109.6656575246669
 30
0.0
 10
73.29785154417554
 20
-109.6656575246669
 30
0.0
 10
73.28889429591389
 20
-109.8983737246955
 30
0.0
 10
73.28424341700881
 20
-109.9703762203373
 30
0.0
 10
73.28424341700881
 20
-109.9703762203373
 30
0.0
 10
73.06720240143807
 20
-109.9703762203373
 30
0.0
 10
73.06720240143807
 20
-109.9703762203373
 30
0.0
 10
73.07633190447397
 20
-109.845491508997
 30
0.0
 10
73.1056152160986
 20
-109.4689425724592
 30
0.0
 10
73.59395750113276
 20
-109.4689425724592
 30
0.0
 10
73.83373614690615
 20
-109.4689425724592
 30
0.0
 10
74.09142928920284
 20
-109.5958943410906
 30
0.0
 10
74.09142928920284
 20
-109.8920002980478
 30
0.0
 10
74.09142928920284
 20
-110.0782077090256
 30
0.0
 10
73.9896267176137
 20
-110.1607177458973
 30
0.0
 10
73.88334552189374
 20
-110.2220404455348
 30
0.0
 10
73.94897459088776
 20
-110.2496012094168
 30
0.0
 10
74.14345023103012
 20
-110.3300441889973
 30
0.0
 10
74.14345023103012
 20
-110.6072021207857
 30
0.0
 10
74.14345023103012
 20
-110.9456827522115
 30
0.0
 10
73.87886689776292
 20
-111.1127698832461
 30
0.0
 10
73.5827609408057
 20
-111.1127698832461
 30
0.0
  0
HATCH
  5
EC
330
DD
100
AcDbEntity
  8
_U+30EC_U+30A4_U+30E4_U+30FC 1
 62
   179
420
  2234388
100
AcDbHatch
 10
0.0
 20
0.0
 30
0.0
210
0.0
220
0.0
230
1.0
  2
SOLID
 70
     1
 71
     0
 91
        1
 92
        1
 93
        1
 72
     4
 94
        3
 73
     0
 74
     1
 95
       62
 96
       58
 40
0.0
 40
0.0
 40
0.0
 40
0.0
 40
1.0
 40
1.0
 40
1.0
 40
2.0
 40
2.0
 40
2.0
 40
3.0
 40
3.0
 40
3.0
 40
4.0
 40
4.0
 40
4.0
 40
5.0
 40
5.0
 40
5.0
 40
6.0
 40
6.0
 40
6.0
 40
7.0
 40
7.0
 40
7.0
 40
8.0
 40
8.0
 40
8.0
 40
9.0
 40
9.0
 40
9.0
 40
10.0
 40
10.0
 40
10.0
 40
11.0
 40
11.0
 40
11.0
 40
12.0
 40
12.0
 40
12.0
 40
13.0
 40
13.0
 40
13.0
 40
14.0
 40
14.0
 40
14.0
 40
15.0
 40
15.0
 40
15.0
 40
16.0
 40
16.0
 40
16.0
 40
17.0
 40
17.0
 40
17.0
 40
18.0
 40
18.0
 40
18.0
 40
19.0
 40
19.0
 40
19.0
 40
19.0
 10
73.5827609408057
 20
-111.1127698832461
 10
73.48095836921657
 20
-111.1127698832461
 10
73.24806991441368
 20
-111.0915825460118
 10
73.1147447191345
 20
-110.9053751350341
 10
73.03567977774803
 20
-110.7932372769892
 10
73.03102889884293
 20
-110.6938462722397
 10
73.02655027471212
 20
-110.6092691780769
 10
73.02655027471212
 20
-110.6092691780769
 10
73.26167804158041
 20
-110.6092691780769
 10
73.26167804158041
 20
-110.6092691780769
 10
73.26391735364582
 20
-110.6833387310097
 10
73.27528616874716
 20
-110.9181219883295
 10
73.57828231667487
 20
-110.9181219883295
 10
73.72521563912078
 20
-110.9181219883295
 10
73.88799640079884
 20
-110.8483588047532
 10
73.88799640079884
 20
-110.6197767193069
 10
73.88799640079884
 20
-110.5035047466797
 10
73.84717201929863
 20
-110.4547566455634
 10
73.81341008354318
 20
-110.4230617670991
 10
73.73417288738243
 20
-110.3489922141662
 10
73.60980494036491
 20
-110.3364176156451
 10
73.5510660623414
 20
-110.3364176156451
 10
73.53073999897843
 20
-110.3364176156451
 10
73.49232718431789
 20
-110.3384846729362
 10
73.462871617919
 20
-110.3426187875185
 10
73.462871617919
 20
-110.3426187875185
 10
73.462871617919
 20
-110.1479708926019
 10
73.462871617919
 20
-110.1479708926019
 10
73.50352374464495
 20
-110.1543443192496
 10
73.54882675027599
 20
-110.156583631315
 10
73.55554468647223
 20
-110.156583631315
 10
73.62565237959706
 20
-110.156583631315
 10
73.83821477103697
 20
-110.1353962940807
 10
73.83821477103697
 20
-109.8983737246955
 10
73.83821477103697
 20
-109.7207790524309
 10
73.69799938478731
 20
-109.6656575246669
 10
73.58052162874029
 20
-109.6656575246669
 10
73.29785154417554
 20
-109.6656575246669
 10
73.28889429591389
 20
-109.8983737246955
 10
73.28424341700881
 20
-109.9703762203373
 10
73.28424341700881
 20
-109.9703762203373
 10
73.06720240143807
 20
-109.9703762203373
 10
73.06720240143807
 20
-109.9703762203373
 10
73.07633190447397
 20
-109.845491508997
 10
73.1056152160986
 20
-109.4689425724592
 10
73.59395750113276
 20
-109.4689425724592
 10
73.83373614690615
 20
-109.4689425724592
 10
74.09142928920284
 20
-109.5958943410906
 10
74.09142928920284
 20
-109.8920002980478
 10
74.09142928920284
 20
-110.0782077090256
 10
73.9896267176137
 20
-110.1607177458973
 10
73.88334552189374
 20
-110.2220404455348
 10
73.94897459088776
 20
-110.2496012094168
 10
74.14345023103012
 20
-110.3300441889973
 10
74.14345023103012
 20
-110.6072021207857
 10
74.14345023103012
 20
-110.9456827522115
 10
73.87886689776292
 20
-111.1127698832461
 10
73.5827609408057
 20
-111.1127698832461
 97
        0
 97
        0
 75
     2
 76
     1
 98
        0
  0
ENDBLK
  5
E0
330
DD
100
AcDbEntity
  8
0
100
AcDbBlockEnd
  0
BLOCK
  5
EF
330
ED
100
AcDbEntity
  8
0
100
AcDbBlockBegin
  2
block 3
 70
     0
 10
0.0
 20
0.0
 30
0.0
  3
block 3
  1

  0
SPLINE
  5
F1
330
ED
100
AcDbEntity
  8
_U+30EC_U+30A4_U+30E4_U+30FC 1
370
     0
100
AcDbSpline
210
0.0
220
0.0
230
1.0
 70
    11
 71
     3
 72
    26
 73
    22
 74
     0
 42
0.0000000001
 43
0.0000000001
 12
1.0
 22
0.0
 32
0.0
 13
1.0
 23
0.0
 33
0.0
 40
0.0
 40
0.0
 40
0.0
 40
0.0
 40
1.0
 40
1.0
 40
1.0
 40
2.0
 40
2.0
 40
2.0
 40
3.0
 40
3.0
 40
3.0
 40
4.0
 40
4.0
 40
4.0
 40
5.0
 40
5.0
 40
5.0
 40
6.0
 40
6.0
 40
6.0
 40
7.0
 40
7.0
 40
7.0
 40
7.0
 10
117.7530191762909
 20
-127.237539301958
 30
0.0
 10
117.7530191762909
 20
-127.237539301958
 30
0.0
 10
116.6488660732684
 20
-127.237539301958
 30
0.0
 10
116.6488660732684
 20
-127.237539301958
 30
0.0
 10
116.6488660732684
 20
-127.237539301958
 30
0.0
 10
116.6488660732684
 20
-127.5903170796476
 30
0.0
 10
116.6488660732684
 20
-127.5903170796476
 30
0.0
 10
116.6488660732684
 20
-127.5903170796476
 30
0.0
 10
116.5007269674026
 20
-127.5903170796476
 30
0.0
 10
116.5007269674026
 20
-127.5903170796476
 30
0.0
 10
116.485913056816
 20
-127.2352999898926
 30
0.0
 10
116.3229600403637
 20
-127.1855183601307
 30
0.0
 10
116.2085828702534
 20
-127.1539957364407
 30
0.0
 10
116.2085828702534
 20
-127.1539957364407
 30
0.0
 10
116.2085828702534
 20
-126.9979329109589
 30
0.0
 10
116.2085828702534
 20
-126.9979329109589
 30
0.0
 10
116.2085828702534
 20
-126.9979329109589
 30
0.0
 10
117.7530191762909
 20
-126.9979329109589
 30
0.0
 10
117.7530191762909
 20
-126.9979329109589
 30
0.0
 10
117.7530191762909
 20
-126.9979329109589
 30
0.0
 10
117.7530191762909
 20
-127.237539301958
 30
0.0
 10
117.7530191762909
 20
-127.237539301958
 30
0.0
  0
HATCH
  5
F2
330
ED
100
AcDbEntity
  8
_U+30EC_U+30A4_U+30E4_U+30FC 1
 62
   179
420
  2234388
100
AcDbHatch
 10
0.0
 20
0.0
 30
0.0
210
0.0
220
0.0
230
1.0
  2
SOLID
 70
     1
 71
     0
 91
        1
 92
        1
 93
        1
 72
     4
 94
        3
 73
     0
 74
     1
 95
       26
 96
       22
 40
0.0
 40
0.0
 40
0.0
 40
0.0
 40
1.0
 40
1.0
 40
1.0
 40
2.0
 40
2.0
 40
2.0
 40
3.0
 40
3.0
 40
3.0
 40
4.0
 40
4.0
 40
4.0
 40
5.0
 40
5.0
 40
5.0
 40
6.0
 40
6.0
 40
6.0
 40
7.0
 40
7.0
 40
7.0
 40
7.0
 10
117.7530191762909
 20
-127.237539301958
 10
117.7530191762909
 20
-127.237539301958
 10
116.6488660732684
 20
-127.237539301958
 10
116.6488660732684
 20
-127.237539301958
 10
116.6488660732684
 20
-127.237539301958
 10
116.6488660732684
 20
-127.5903170796476
 10
116.6488660732684
 20
-127.5903170796476
 10
116.6488660732684
 20
-127.5903170796476
 10
116.5007269674026
 20
-127.5903170796476
 10
116.5007269674026
 20
-127.5903170796476
 10
116.485913056816
 20
-127.2352999898926
 10
116.3229600403637
 20
-127.1855183601307
 10
116.2085828702534
 20
-127.1539957364407
 10
116.2085828702534
 20
-127.1539957364407
 10
116.2085828702534
 20
-126.9979329109589
 10
116.2085828702534
 20
-126.9979329109589
 10
116.2085828702534
 20
-126.9979329109589
 10
117.7530191762909
 20
-126.9979329109589
 10
117.7530191762909
 20
-126.9979329109589
 10
117.7530191762909
 20
-126.9979329109589
 10
117.7530191762909
 20
-127.237539301958
 10
117.7530191762909
 20
-127.237539301958
 97
        0
 97
        0
 75
     2
 76
     1
 98
        0
  0
ENDBLK
  5
F0
330
ED
100
AcDbEntity
  8
0
100
AcDbBlockEnd
  0
BLOCK
  5
F5
330
F3
100
AcDbEntity
  8
0
100
AcDbBlockBegin
  2
block 4
 70
     0
 10
0.0
 20
0.0
 30
0.0
  3
block 4
  1

  0
SPLINE
  5
F7
330
F3
100
AcDbEntity
  8
_U+30EC_U+30A4_U+30E4_U+30FC 1
370
     0
100
AcDbSpline
210
0.0
220
0.0
230
1.0
 70
    11
 71
     3
 72
    62
 73
    58
 74
     0
 42
0.0000000001
 43
0.0000000001
 12
1.0
 22
0.0
 32
0.0
 13
1.0
 23
0.0
 33
0.0
 40
0.0
 40
0.0
 40
0.0
 40
0.0
 40
1.0
 40
1.0
 40
1.0
 40
2.0
 40
2.0
 40
2.0
 40
3.0
 40
3.0
 40
3.0
 40
4.0
 40
4.0
 40
4.0
 40
5.0
 40
5.0
 40
5.0
 40
6.0
 40
6.0
 40
6.0
 40
7.0
 40
7.0
 40
7.0
 40
8.0
 40
8.0
 40
8.0
 40
9.0
 40
9.0
 40
9.0
 40
10.0
 40
10.0
 40
10.0
 40
11.0
 40
11.0
 40
11.0
 40
12.0
 40
12.0
 40
12.0
 40
13.0
 40
13.0
 40
13.0
 40
14.0
 40
14.0
 40
14.0
 40
15.0
 40
15.0
 40
15.0
 40
16.0
 40
16.0
 40
16.0
 40
17.0
 40
17.0
 40
17.0
 40
18.0
 40
18.0
 40
18.0
 40
19.0
 40
19.0
 40
19.0
 40
19.0
 10
117.802973060827
 20
-139.0788492490845
 30
0.0
 10
117.802973060827
 20
-139.1804795658993
 30
0.0
 10
117.781957978367
 20
-139.4133680207022
 30
0.0
 10
117.5959228221635
 20
-139.5466932159814
 30
0.0
 10
117.4836127093444
 20
-139.6259304121421
 30
0.0
 10
117.3843939593692
 20
-139.630409036273
 30
0.0
 10
117.299644610432
 20
-139.6348876604038
 30
0.0
 10
117.299644610432
 20
-139.6348876604038
 30
0.0
 10
117.299644610432
 20
-139.3999321483097
 30
0.0
 10
117.299644610432
 20
-139.3999321483097
 30
0.0
 10
117.3737141633649
 20
-139.3975205814701
 30
0.0
 10
117.6083251659104
 20
-139.3861517663688
 30
0.0
 10
117.6083251659104
 20
-139.0833278732153
 30
0.0
 10
117.6083251659104
 20
-138.9362222959951
 30
0.0
 10
117.5387342371084
 20
-138.7736137890913
 30
0.0
 10
117.3103244064363
 20
-138.7736137890913
 30
0.0
 10
117.1938801790349
 20
-138.7736137890913
 30
0.0
 10
117.1453043326928
 20
-138.8142659158173
 30
0.0
 10
117.1136094542286
 20
-138.8483723611212
 30
0.0
 10
117.0395399012957
 20
-138.9272650477335
 30
0.0
 10
117.0267930480003
 20
-139.051632994751
 30
0.0
 10
117.0267930480003
 20
-139.1105441275488
 30
0.0
 10
117.0267930480003
 20
-139.1308701909117
 30
0.0
 10
117.0288601052914
 20
-139.169110750798
 30
0.0
 10
117.0329942198737
 20
-139.1987385719711
 30
0.0
 10
117.0329942198737
 20
-139.1987385719711
 30
0.0
 10
116.8383463249571
 20
-139.1987385719711
 30
0.0
 10
116.8383463249571
 20
-139.1987385719711
 30
0.0
 10
116.8448920063791
 20
-139.1580864452452
 30
0.0
 10
116.8469590636702
 20
-139.1126111848399
 30
0.0
 10
116.8469590636702
 20
-139.1060655034179
 30
0.0
 10
116.8469590636702
 20
-139.0357855555188
 30
0.0
 10
116.8255994716617
 20
-138.8232231640789
 30
0.0
 10
116.588921411825
 20
-138.8232231640789
 30
0.0
 10
116.4111544847861
 20
-138.8232231640789
 30
0.0
 10
116.3560329570221
 20
-138.9634385503286
 30
0.0
 10
116.3560329570221
 20
-139.0809163063756
 30
0.0
 10
116.3560329570221
 20
-139.3637586457146
 30
0.0
 10
116.588921411825
 20
-139.3727158939763
 30
0.0
 10
116.6605793979182
 20
-139.3771945181071
 30
0.0
 10
116.6605793979182
 20
-139.3771945181071
 30
0.0
 10
116.6605793979182
 20
-139.5942355336778
 30
0.0
 10
116.6605793979182
 20
-139.5942355336778
 30
0.0
 10
116.5358669413522
 20
-139.5852782854162
 30
0.0
 10
116.1593180048143
 20
-139.5559949737916
 30
0.0
 10
116.1593180048143
 20
-139.0674804339831
 30
0.0
 10
116.1593180048143
 20
-138.8277017882097
 30
0.0
 10
116.2864420282201
 20
-138.570008645913
 30
0.0
 10
116.582375730403
 20
-138.570008645913
 30
0.0
 10
116.768755396155
 20
-138.570008645913
 30
0.0
 10
116.8510931782525
 20
-138.6719834722765
 30
0.0
 10
116.91241587789
 20
-138.7780924132221
 30
0.0
 10
116.9399766417719
 20
-138.7126355990024
 30
0.0
 10
117.0202473665783
 20
-138.5179877040858
 30
0.0
 10
117.2975775531409
 20
-138.5179877040858
 30
0.0
 10
117.6358859297924
 20
-138.5179877040858
 30
0.0
 10
117.802973060827
 20
-138.782571037353
 30
0.0
 10
117.802973060827
 20
-139.0788492490845
 30
0.0
  0
HATCH
  5
F8
330
F3
100
AcDbEntity
  8
_U+30EC_U+30A4_U+30E4_U+30FC 1
 62
   179
420
  2234388
100
AcDbHatch
 10
0.0
 20
0.0
 30
0.0
210
0.0
220
0.0
230
1.0
  2
SOLID
 70
     1
 71
     0
 91
        1
 92
        1
 93
        1
 72
     4
 94
        3
 73
     0
 74
     1
 95
       62
 96
       58
 40
0.0
 40
0.0
 40
0.0
 40
0.0
 40
1.0
 40
1.0
 40
1.0
 40
2.0
 40
2.0
 40
2.0
 40
3.0
 40
3.0
 40
3.0
 40
4.0
 40
4.0
 40
4.0
 40
5.0
 40
5.0
 40
5.0
 40
6.0
 40
6.0
 40
6.0
 40
7.0
 40
7.0
 40
7.0
 40
8.0
 40
8.0
 40
8.0
 40
9.0
 40
9.0
 40
9.0
 40
10.0
 40
10.0
 40
10.0
 40
11.0
 40
11.0
 40
11.0
 40
12.0
 40
12.0
 40
12.0
 40
13.0
 40
13.0
 40
13.0
 40
14.0
 40
14.0
 40
14.0
 40
15.0
 40
15.0
 40
15.0
 40
16.0
 40
16.0
 40
16.0
 40
17.0
 40
17.0
 40
17.0
 40
18.0
 40
18.0
 40
18.0
 40
19.0
 40
19.0
 40
19.0
 40
19.0
 10
117.802973060827
 20
-139.0788492490845
 10
117.802973060827
 20
-139.1804795658993
 10
117.781957978367
 20
-139.4133680207022
 10
117.5959228221635
 20
-139.5466932159814
 10
117.4836127093444
 20
-139.6259304121421
 10
117.3843939593692
 20
-139.630409036273
 10
117.299644610432
 20
-139.6348876604038
 10
117.299644610432
 20
-139.6348876604038
 10
117.299644610432
 20
-139.3999321483097
 10
117.299644610432
 20
-139.3999321483097
 10
117.3737141633649
 20
-139.3975205814701
 10
117.6083251659104
 20
-139.3861517663688
 10
117.6083251659104
 20
-139.0833278732153
 10
117.6083251659104
 20
-138.9362222959951
 10
117.5387342371084
 20
-138.7736137890913
 10
117.3103244064363
 20
-138.7736137890913
 10
117.1938801790349
 20
-138.7736137890913
 10
117.1453043326928
 20
-138.8142659158173
 10
117.1136094542286
 20
-138.8483723611212
 10
117.0395399012957
 20
-138.9272650477335
 10
117.0267930480003
 20
-139.051632994751
 10
117.0267930480003
 20
-139.1105441275488
 10
117.0267930480003
 20
-139.1308701909117
 10
117.0288601052914
 20
-139.169110750798
 10
117.0329942198737
 20
-139.1987385719711
 10
117.0329942198737
 20
-139.1987385719711
 10
116.8383463249571
 20
-139.1987385719711
 10
116.8383463249571
 20
-139.1987385719711
 10
116.8448920063791
 20
-139.1580864452452
 10
116.8469590636702
 20
-139.1126111848399
 10
116.8469590636702
 20
-139.1060655034179
 10
116.8469590636702
 20
-139.0357855555188
 10
116.8255994716617
 20
-138.8232231640789
 10
116.588921411825
 20
-138.8232231640789
 10
116.4111544847861
 20
-138.8232231640789
 10
116.3560329570221
 20
-138.9634385503286
 10
116.3560329570221
 20
-139.0809163063756
 10
116.3560329570221
 20
-139.3637586457146
 10
116.588921411825
 20
-139.3727158939763
 10
116.6605793979182
 20
-139.3771945181071
 10
116.6605793979182
 20
-139.3771945181071
 10
116.6605793979182
 20
-139.5942355336778
 10
116.6605793979182
 20
-139.5942355336778
 10
116.5358669413522
 20
-139.5852782854162
 10
116.1593180048143
 20
-139.5559949737916
 10
116.1593180048143
 20
-139.0674804339831
 10
116.1593180048143
 20
-138.8277017882097
 10
116.2864420282201
 20
-138.570008645913
 10
116.582375730403
 20
-138.570008645913
 10
116.768755396155
 20
-138.570008645913
 10
116.8510931782525
 20
-138.6719834722765
 10
116.91241587789
 20
-138.7780924132221
 10
116.9399766417719
 20
-138.7126355990024
 10
117.0202473665783
 20
-138.5179877040858
 10
117.2975775531409
 20
-138.5179877040858
 10
117.6358859297924
 20
-138.5179877040858
 10
117.802973060827
 20
-138.782571037353
 10
117.802973060827
 20
-139.0788492490845
 97
        0
 97
        0
 75
     2
 76
     1
 98
        0
  0
ENDBLK
  5
F6
330
F3
100
AcDbEntity
  8
0
100
AcDbBlockEnd
  0
BLOCK
  5
FB
330
F9
100
AcDbEntity
  8
0
100
AcDbBlockBegin
  2
block 5
 70
     0
 10
0.0
 20
0.0
 30
0.0
  3
block 5
  1

  0
SPLINE
  5
FD
330
F9
100
AcDbEntity
  8
_U+30EC_U+30A4_U+30E4_U+30FC 1
370
     0
100
AcDbSpline
210
0.0
220
0.0
230
1.0
 70
    11
 71
     3
 72
    44
 73
    40
 74
     0
 42
0.0000000001
 43
0.0000000001
 12
1.0
 22
0.0
 32
0.0
 13
1.0
 23
0.0
 33
0.0
 40
0.0
 40
0.0
 40
0.0
 40
0.0
 40
1.0
 40
1.0
 40
1.0
 40
2.0
 40
2.0
 40
2.0
 40
3.0
 40
3.0
 40
3.0
 40
4.0
 40
4.0
 40
4.0
 40
5.0
 40
5.0
 40
5.0
 40
6.0
 40
6.0
 40
6.0
 40
7.0
 40
7.0
 40
7.0
 40
8.0
 40
8.0
 40
8.0
 40
9.0
 40
9.0
 40
9.0
 40
10.0
 40
10.0
 40
10.0
 40
11.0
 40
11.0
 40
11.0
 40
12.0
 40
12.0
 40
12.0
 40
13.0
 40
13.0
 40
13.0
 40
13.0
 10
65.52502711035486
 20
-130.6359537433827
 30
0.0
 10
65.68384601222488
 20
-130.8688421981856
 30
0.0
 10
65.75791556515775
 20
-130.9684054577093
 30
0.0
 10
65.90157604689267
 20
-131.0204263995366
 30
0.0
 10
65.90157604689267
 20
-131.0204263995366
 30
0.0
 10
65.90157604689267
 20
-130.1880913303002
 30
0.0
 10
65.90157604689267
 20
-130.1880913303002
 30
0.0
 10
65.90157604689267
 20
-130.1880913303002
 30
0.0
 10
66.10690373781355
 20
-130.1880913303002
 30
0.0
 10
66.10690373781355
 20
-130.1880913303002
 30
0.0
 10
66.10690373781355
 20
-130.1880913303002
 30
0.0
 10
66.10690373781355
 20
-131.2870767900949
 30
0.0
 10
66.10690373781355
 20
-131.2870767900949
 30
0.0
 10
65.74930282644462
 20
-131.2529703447909
 30
0.0
 10
65.67109915892945
 20
-131.1830349064404
 30
0.0
 10
65.37275388990682
 20
-130.7716905055015
 30
0.0
 10
65.1739718804079
 20
-130.4981499239727
 30
0.0
 10
65.10610349934848
 20
-130.4278699760736
 30
0.0
 10
64.96864418948701
 20
-130.4278699760736
 30
0.0
 10
64.85013290479442
 20
-130.4278699760736
 30
0.0
 10
64.71921927635492
 20
-130.5046956053947
 30
0.0
 10
64.71921927635492
 20
-130.7151909395434
 30
0.0
 10
64.71921927635492
 20
-130.9932101452031
 30
0.0
 10
64.94969616431814
 20
-131.0021673934647
 30
0.0
 10
65.06614039171959
 20
-131.0066460175956
 30
0.0
 10
65.06614039171959
 20
-131.0066460175956
 30
0.0
 10
65.06614039171959
 20
-131.2464246633689
 30
0.0
 10
65.06614039171959
 20
-131.2464246633689
 30
0.0
 10
64.93901636831386
 20
-131.2374674151073
 30
0.0
 10
64.82705076504324
 20
-131.226098600006
 30
0.0
 10
64.70853948035065
 20
-131.1399712128747
 30
0.0
 10
64.54765352118947
 20
-131.0224934568277
 30
0.0
 10
64.51389158543402
 20
-130.8237114473288
 30
0.0
 10
64.51389158543402
 20
-130.6993435003113
 30
0.0
 10
64.51389158543402
 20
-130.4030652885798
 30
0.0
 10
64.69785968434637
 20
-130.1815456488782
 30
0.0
 10
64.97071124677817
 20
-130.1815456488782
 30
0.0
 10
65.19946558699874
 20
-130.1815456488782
 30
0.0
 10
65.29868433697395
 20
-130.3059135958958
 30
0.0
 10
65.52502711035486
 20
-130.6359537433827
 30
0.0
  0
HATCH
  5
FE
330
F9
100
AcDbEntity
  8
_U+30EC_U+30A4_U+30E4_U+30FC 1
 62
   179
420
  2234388
100
AcDbHatch
 10
0.0
 20
0.0
 30
0.0
210
0.0
220
0.0
230
1.0
  2
SOLID
 70
     1
 71
     0
 91
        1
 92
        1
 93
        1
 72
     4
 94
        3
 73
     0
 74
     1
 95
       44
 96
       40
 40
0.0
 40
0.0
 40
0.0
 40
0.0
 40
1.0
 40
1.0
 40
1.0
 40
2.0
 40
2.0
 40
2.0
 40
3.0
 40
3.0
 40
3.0
 40
4.0
 40
4.0
 40
4.0
 40
5.0
 40
5.0
 40
5.0
 40
6.0
 40
6.0
 40
6.0
 40
7.0
 40
7.0
 40
7.0
 40
8.0
 40
8.0
 40
8.0
 40
9.0
 40
9.0
 40
9.0
 40
10.0
 40
10.0
 40
10.0
 40
11.0
 40
11.0
 40
11.0
 40
12.0
 40
12.0
 40
12.0
 40
13.0
 40
13.0
 40
13.0
 40
13.0
 10
65.52502711035486
 20
-130.6359537433827
 10
65.68384601222488
 20
-130.8688421981856
 10
65.75791556515775
 20
-130.9684054577093
 10
65.90157604689267
 20
-131.0204263995366
 10
65.90157604689267
 20
-131.0204263995366
 10
65.90157604689267
 20
-130.1880913303002
 10
65.90157604689267
 20
-130.1880913303002
 10
65.90157604689267
 20
-130.1880913303002
 10
66.10690373781355
 20
-130.1880913303002
 10
66.10690373781355
 20
-130.1880913303002
 10
66.10690373781355
 20
-130.1880913303002
 10
66.10690373781355
 20
-131.2870767900949
 10
66.10690373781355
 20
-131.2870767900949
 10
65.74930282644462
 20
-131.2529703447909
 10
65.67109915892945
 20
-131.1830349064404
 10
65.37275388990682
 20
-130.7716905055015
 10
65.1739718804079
 20
-130.4981499239727
 10
65.10610349934848
 20
-130.4278699760736
 10
64.96864418948701
 20
-130.4278699760736
 10
64.85013290479442
 20
-130.4278699760736
 10
64.71921927635492
 20
-130.5046956053947
 10
64.71921927635492
 20
-130.7151909395434
 10
64.71921927635492
 20
-130.9932101452031
 10
64.94969616431814
 20
-131.0021673934647
 10
65.06614039171959
 20
-131.0066460175956
 10
65.06614039171959
 20
-131.0066460175956
 10
65.06614039171959
 20
-131.2464246633689
 10
65.06614039171959
 20
-131.2464246633689
 10
64.93901636831386
 20
-131.2374674151073
 10
64.82705076504324
 20
-131.226098600006
 10
64.70853948035065
 20
-131.1399712128747
 10
64.54765352118947
 20
-131.0224934568277
 10
64.51389158543402
 20
-130.8237114473288
 10
64.51389158543402
 20
-130.6993435003113
 10
64.51389158543402
 20
-130.4030652885798
 10
64.69785968434637
 20
-130.1815456488782
 10
64.97071124677817
 20
-130.1815456488782
 10
65.19946558699874
 20
-130.1815456488782
 10
65.29868433697395
 20
-130.3059135958958
 10
65.52502711035486
 20
-130.6359537433827
 97
        0
 97
        0
 75
     2
 76
     1
 98
        0
  0
SPLINE
  5
FF
330
F9
100
AcDbEntity
  8
_U+30EC_U+30A4_U+30E4_U+30FC 1
370
     0
100
AcDbSpline
210
0.0
220
0.0
230
1.0
 70
    11
 71
     3
 72
    26
 73
    22
 74
     0
 42
0.0000000001
 43
0.0000000001
 12
1.0
 22
0.0
 32
0.0
 13
1.0
 23
0.0
 33
0.0
 40
0.0
 40
0.0
 40
0.0
 40
0.0
 40
1.0
 40
1.0
 40
1.0
 40
2.0
 40
2.0
 40
2.0
 40
3.0
 40
3.0
 40
3.0
 40
4.0
 40
4.0
 40
4.0
 40
5.0
 40
5.0
 40
5.0
 40
6.0
 40
6.0
 40
6.0
 40
7.0
 40
7.0
 40
7.0
 40
7.0
 10
66.10690373781355
 20
-129.529733583069
 30
0.0
 10
66.10690373781355
 20
-129.529733583069
 30
0.0
 10
65.00275063479098
 20
-129.529733583069
 30
0.0
 10
65.00275063479098
 20
-129.529733583069
 30
0.0
 10
65.00275063479098
 20
-129.529733583069
 30
0.0
 10
65.00275063479098
 20
-129.88216685121
 30
0.0
 10
65.00275063479098
 20
-129.88216685121
 30
0.0
 10
65.00275063479098
 20
-129.88216685121
 30
0.0
 10
64.85461152892523
 20
-129.88216685121
 30
0.0
 10
64.85461152892523
 20
-129.88216685121
 30
0.0
 10
64.83979761833866
 20
-129.5273220162293
 30
0.0
 10
64.67684460188634
 20
-129.4777126412417
 30
0.0
 10
64.56246743177606
 20
-129.4460177627774
 30
0.0
 10
64.56246743177606
 20
-129.4460177627774
 30
0.0
 10
64.56246743177606
 20
-129.2899549372956
 30
0.0
 10
64.56246743177606
 20
-129.2899549372956
 30
0.0
 10
64.56246743177606
 20
-129.2899549372956
 30
0.0
 10
66.10690373781355
 20
-129.2899549372956
 30
0.0
 10
66.10690373781355
 20
-129.2899549372956
 30
0.0
 10
66.10690373781355
 20
-129.2899549372956
 30
0.0
 10
66.10690373781355
 20
-129.529733583069
 30
0.0
 10
66.10690373781355
 20
-129.529733583069
 30
0.0
  0
HATCH
  5
100
330
F9
100
AcDbEntity
  8
_U+30EC_U+30A4_U+30E4_U+30FC 1
 62
   179
420
  2234388
100
AcDbHatch
 10
0.0
 20
0.0
 30
0.0
210
0.0
220
0.0
230
1.0
  2
SOLID
 70
     1
 71
     0
 91
        1
 92
        1
 93
        1
 72
     4
 94
        3
 73
     0
 74
     1
 95
       26
 96
       22
 40
0.0
 40
0.0
 40
0.0
 40
0.0
 40
1.0
 40
1.0
 40
1.0
 40
2.0
 40
2.0
 40
2.0
 40
3.0
 40
3.0
 40
3.0
 40
4.0
 40
4.0
 40
4.0
 40
5.0
 40
5.0
 40
5.0
 40
6.0
 40
6.0
 40
6.0
 40
7.0
 40
7.0
 40
7.0
 40
7.0
 10
66.10690373781355
 20
-129.529733583069
 10
66.10690373781355
 20
-129.529733583069
 10
65.00275063479098
 20
-129.529733583069
 10
65.00275063479098
 20
-129.529733583069
 10
65.00275063479098
 20
-129.529733583069
 10
65.00275063479098
 20
-129.88216685121
 10
65.00275063479098
 20
-129.88216685121
 10
65.00275063479098
 20
-129.88216685121
 10
64.85461152892523
 20
-129.88216685121
 10
64.85461152892523
 20
-129.88216685121
 10
64.83979761833866
 20
-129.5273220162293
 10
64.67684460188634
 20
-129.4777126412417
 10
64.56246743177606
 20
-129.4460177627774
 10
64.56246743177606
 20
-129.4460177627774
 10
64.56246743177606
 20
-129.2899549372956
 10
64.56246743177606
 20
-129.2899549372956
 10
64.56246743177606
 20
-129.2899549372956
 10
66.10690373781355
 20
-129.2899549372956
 10
66.10690373781355
 20
-129.2899549372956
 10
66.10690373781355
 20
-129.2899549372956
 10
66.10690373781355
 20
-129.529733583069
 10
66.10690373781355
 20
-129.529733583069
 97
        0
 97
        0
 75
     2
 76
     1
 98
        0
  0
ENDBLK
  5
FC
330
F9
100
AcDbEntity
  8
0
100
AcDbBlockEnd
  0
BLOCK
  5
103
330
101
100
AcDbEntity
  8
0
100
AcDbBlockBegin
  2
block 6
 70
     0
 10
0.0
 20
0.0
 30
0.0
  3
block 6
  1

  0
SPLINE
  5
105
330
101
100
AcDbEntity
  8
_U+30EC_U+30A4_U+30E4_U+30FC 1
370
     0
100
AcDbSpline
210
0.0
220
0.0
230
1.0
 70
    11
 71
     3
 72
    26
 73
    22
 74
     0
 42
0.0000000001
 43
0.0000000001
 12
1.0
 22
0.0
 32
0.0
 13
1.0
 23
0.0
 33
0.0
 40
0.0
 40
0.0
 40
0.0
 40
0.0
 40
1.0
 40
1.0
 40
1.0
 40
2.0
 40
2.0
 40
2.0
 40
3.0
 40
3.0
 40
3.0
 40
4.0
 40
4.0
 40
4.0
 40
5.0
 40
5.0
 40
5.0
 40
6.0
 40
6.0
 40
6.0
 40
7.0
 40
7.0
 40
7.0
 40
7.0
 10
75.48927678234296
 20
-147.2482041732574
 30
0.0
 10
75.48927678234296
 20
-147.2482041732574
 30
0.0
 10
75.48927678234296
 20
-146.1437065606863
 30
0.0
 10
75.48927678234296
 20
-146.1437065606863
 30
0.0
 10
75.48927678234296
 20
-146.1437065606863
 30
0.0
 10
75.1368435142019
 20
-146.1437065606863
 30
0.0
 10
75.1368435142019
 20
-146.1437065606863
 30
0.0
 10
75.1368435142019
 20
-146.1437065606863
 30
0.0
 10
75.1368435142019
 20
-145.9959119643691
 30
0.0
 10
75.1368435142019
 20
-145.9959119643691
 30
0.0
 10
75.49168834918264
 20
-145.9810980537825
 30
0.0
 10
75.54129772417024
 20
-145.8181450373302
 30
0.0
 10
75.57299260263453
 20
-145.7041123767684
 30
0.0
 10
75.57299260263453
 20
-145.7041123767684
 30
0.0
 10
75.72905542811635
 20
-145.7041123767684
 30
0.0
 10
75.72905542811635
 20
-145.7041123767684
 30
0.0
 10
75.72905542811635
 20
-145.7041123767684
 30
0.0
 10
75.72905542811635
 20
-147.2482041732574
 30
0.0
 10
75.72905542811635
 20
-147.2482041732574
 30
0.0
 10
75.72905542811635
 20
-147.2482041732574
 30
0.0
 10
75.48927678234296
 20
-147.2482041732574
 30
0.0
 10
75.48927678234296
 20
-147.2482041732574
 30
0.0
  0
HATCH
  5
106
330
101
100
AcDbEntity
  8
_U+30EC_U+30A4_U+30E4_U+30FC 1
 62
   179
420
  2234388
100
AcDbHatch
 10
0.0
 20
0.0
 30
0.0
210
0.0
220
0.0
230
1.0
  2
SOLID
 70
     1
 71
     0
 91
        1
 92
        1
 93
        1
 72
     4
 94
        3
 73
     0
 74
     1
 95
       26
 96
       22
 40
0.0
 40
0.0
 40
0.0
 40
0.0
 40
1.0
 40
1.0
 40
1.0
 40
2.0
 40
2.0
 40
2.0
 40
3.0
 40
3.0
 40
3.0
 40
4.0
 40
4.0
 40
4.0
 40
5.0
 40
5.0
 40
5.0
 40
6.0
 40
6.0
 40
6.0
 40
7.0
 40
7.0
 40
7.0
 40
7.0
 10
75.48927678234296
 20
-147.2482041732574
 10
75.48927678234296
 20
-147.2482041732574
 10
75.48927678234296
 20
-146.1437065606863
 10
75.48927678234296
 20
-146.1437065606863
 10
75.48927678234296
 20
-146.1437065606863
 10
75.1368435142019
 20
-146.1437065606863
 10
75.1368435142019
 20
-146.1437065606863
 10
75.1368435142019
 20
-146.1437065606863
 10
75.1368435142019
 20
-145.9959119643691
 10
75.1368435142019
 20
-145.9959119643691
 10
75.49168834918264
 20
-145.9810980537825
 10
75.54129772417024
 20
-145.8181450373302
 10
75.57299260263453
 20
-145.7041123767684
 10
75.57299260263453
 20
-145.7041123767684
 10
75.72905542811635
 20
-145.7041123767684
 10
75.72905542811635
 20
-145.7041123767684
 10
75.72905542811635
 20
-145.7041123767684
 10
75.72905542811635
 20
-147.2482041732574
 10
75.72905542811635
 20
-147.2482041732574
 10
75.72905542811635
 20
-147.2482041732574
 10
75.48927678234296
 20
-147.2482041732574
 10
75.48927678234296
 20
-147.2482041732574
 97
        0
 97
        0
 75
     2
 76
     1
 98
        0
  0
SPLINE
  5
107
330
101
100
AcDbEntity
  8
_U+30EC_U+30A4_U+30E4_U+30FC 1
370
     0
100
AcDbSpline
210
0.0
220
0.0
230
1.0
 70
    11
 71
     3
 72
    29
 73
    25
 74
     0
 42
0.0000000001
 43
0.0000000001
 12
1.0
 22
0.0
 32
0.0
 13
1.0
 23
0.0
 33
0.0
 40
0.0
 40
0.0
 40
0.0
 40
0.0
 40
1.0
 40
1.0
 40
1.0
 40
2.0
 40
2.0
 40
2.0
 40
3.0
 40
3.0
 40
3.0
 40
4.0
 40
4.0
 40
4.0
 40
5.0
 40
5.0
 40
5.0
 40
6.0
 40
6.0
 40
6.0
 40
7.0
 40
7.0
 40
7.0
 40
8.0
 40
8.0
 40
8.0
 40
8.0
 10
77.22422686871478
 20
-147.0704372462185
 30
0.0
 10
77.10881616995891
 20
-147.2798990517217
 30
0.0
 10
76.92347003285246
 20
-147.2991915864391
 30
0.0
 10
76.79910208583495
 20
-147.2991915864391
 30
0.0
 10
76.62753633066951
 20
-147.2991915864391
 30
0.0
 10
76.47595212931851
 20
-147.2523382878397
 30
0.0
 10
76.37432181250365
 20
-147.0704372462185
 30
0.0
 10
76.2633897378786
 20
-146.8757893513019
 30
0.0
 10
76.24306367451562
 20
-146.6391112914652
 30
0.0
 10
76.24306367451562
 20
-146.4758137654644
 30
0.0
 10
76.24306367451562
 20
-146.3321532837295
 30
0.0
 10
76.26132268058745
 20
-146.0803168037577
 30
0.0
 10
76.37432181250365
 20
-145.8815347942588
 30
0.0
 10
76.48938800171099
 20
-145.6786186701776
 30
0.0
 10
76.66129826642495
 20
-145.6551920208779
 30
0.0
 10
76.79910208583495
 20
-145.6551920208779
 30
0.0
 10
76.96894529325776
 20
-145.6551920208779
 30
0.0
 10
77.1225965518999
 20
-145.6996337526376
 30
0.0
 10
77.22422686871478
 20
-145.8815347942588
 30
0.0
 10
77.330680319209
 20
-146.0741156318843
 30
0.0
 10
77.35548500670279
 20
-146.3025254625563
 30
0.0
 10
77.35548500670279
 20
-146.4758137654644
 30
0.0
 10
77.35548500670279
 20
-146.6473795206298
 30
0.0
 10
77.33274737650015
 20
-146.8782009181416
 30
0.0
 10
77.22422686871478
 20
-147.0704372462185
 30
0.0
  0
SPLINE
  5
108
330
101
100
AcDbEntity
  8
_U+30EC_U+30A4_U+30E4_U+30FC 1
370
     0
100
AcDbSpline
210
0.0
220
0.0
230
1.0
 70
    11
 71
     3
 72
    17
 73
    13
 74
     0
 42
0.0000000001
 43
0.0000000001
 12
1.0
 22
0.0
 32
0.0
 13
1.0
 23
0.0
 33
0.0
 40
0.0
 40
0.0
 40
0.0
 40
0.0
 40
1.0
 40
1.0
 40
1.0
 40
2.0
 40
2.0
 40
2.0
 40
3.0
 40
3.0
 40
3.0
 40
4.0
 40
4.0
 40
4.0
 40
4.0
 10
76.79910208583495
 20
-145.8477728585033
 30
0.0
 10
76.5324516952766
 20
-145.8477728585033
 30
0.0
 10
76.48284232028901
 20
-146.1313042169394
 30
0.0
 10
76.48284232028901
 20
-146.4758137654644
 30
0.0
 10
76.48284232028901
 20
-146.7955186264956
 30
0.0
 10
76.52108288017529
 20
-147.104199181974
 30
0.0
 10
76.79910208583495
 20
-147.104199181974
 30
0.0
 10
77.06368541910214
 20
-147.104199181974
 30
0.0
 10
77.11570636092941
 20
-146.8230793903776
 30
0.0
 10
77.11570636092941
 20
-146.4758137654644
 30
0.0
 10
77.11570636092941
 20
-146.1567979235303
 30
0.0
 10
77.07505423420346
 20
-145.8477728585033
 30
0.0
 10
76.79910208583495
 20
-145.8477728585033
 30
0.0
  0
HATCH
  5
109
330
101
100
AcDbEntity
  8
_U+30EC_U+30A4_U+30E4_U+30FC 1
 62
   179
420
  2234388
100
AcDbHatch
 10
0.0
 20
0.0
 30
0.0
210
0.0
220
0.0
230
1.0
  2
SOLID
 70
     1
 71
     0
 91
        2
 92
        1
 93
        1
 72
     4
 94
        3
 73
     0
 74
     1
 95
       29
 96
       25
 40
0.0
 40
0.0
 40
0.0
 40
0.0
 40
1.0
 40
1.0
 40
1.0
 40
2.0
 40
2.0
 40
2.0
 40
3.0
 40
3.0
 40
3.0
 40
4.0
 40
4.0
 40
4.0
 40
5.0
 40
5.0
 40
5.0
 40
6.0
 40
6.0
 40
6.0
 40
7.0
 40
7.0
 40
7.0
 40
8.0
 40
8.0
 40
8.0
 40
8.0
 10
77.22422686871478
 20
-147.0704372462185
 10
77.10881616995891
 20
-147.2798990517217
 10
76.92347003285246
 20
-147.2991915864391
 10
76.79910208583495
 20
-147.2991915864391
 10
76.62753633066951
 20
-147.2991915864391
 10
76.47595212931851
 20
-147.2523382878397
 10
76.37432181250365
 20
-147.0704372462185
 10
76.2633897378786
 20
-146.8757893513019
 10
76.24306367451562
 20
-146.6391112914652
 10
76.24306367451562
 20
-146.4758137654644
 10
76.24306367451562
 20
-146.3321532837295
 10
76.26132268058745
 20
-146.0803168037577
 10
76.37432181250365
 20
-145.8815347942588
 10
76.48938800171099
 20
-145.6786186701776
 10
76.66129826642495
 20
-145.6551920208779
 10
76.79910208583495
 20
-145.6551920208779
 10
76.96894529325776
 20
-145.6551920208779
 10
77.1225965518999
 20
-145.6996337526376
 10
77.22422686871478
 20
-145.8815347942588
 10
77.330680319209
 20
-146.0741156318843
 10
77.35548500670279
 20
-146.3025254625563
 10
77.35548500670279
 20
-146.4758137654644
 10
77.35548500670279
 20
-146.6473795206298
 10
77.33274737650015
 20
-146.8782009181416
 10
77.22422686871478
 20
-147.0704372462185
 97
        0
 97
        0
 92
        1
 93
        1
 72
     4
 94
        3
 73
     0
 74
     1
 95
       17
 96
       13
 40
0.0
 40
0.0
 40
0.0
 40
0.0
 40
1.0
 40
1.0
 40
1.0
 40
2.0
 40
2.0
 40
2.0
 40
3.0
 40
3.0
 40
3.0
 40
4.0
 40
4.0
 40
4.0
 40
4.0
 10
76.79910208583495
 20
-145.8477728585033
 10
76.5324516952766
 20
-145.8477728585033
 10
76.48284232028901
 20
-146.1313042169394
 10
76.48284232028901
 20
-146.4758137654644
 10
76.48284232028901
 20
-146.7955186264956
 10
76.52108288017529
 20
-147.104199181974
 10
76.79910208583495
 20
-147.104199181974
 10
77.06368541910214
 20
-147.104199181974
 10
77.11570636092941
 20
-146.8230793903776
 10
77.11570636092941
 20
-146.4758137654644
 10
77.11570636092941
 20
-146.1567979235303
 10
77.07505423420346
 20
-145.8477728585033
 10
76.79910208583495
 20
-145.8477728585033
 97
        0
 97
        0
 75
     2
 76
     1
 98
        0
  0
ENDBLK
  5
104
330
101
100
AcDbEntity
  8
0
100
AcDbBlockEnd
  0
BLOCK
  5
10C
330
10A
100
AcDbEntity
  8
0
100
AcDbBlockBegin
  2
block 7
 70
     0
 10
0.0
 20
0.0
 30
0.0
  3
block 7
  1

  0
POLYLINE
  5
10E
330
10A
100
AcDbEntity
  8
_U+30EC_U+30A4_U+30E4_U+30FC 1
370
     0
100
AcDb2dPolyline
 66
     1
 10
0.0
 20
0.0
 30
0.0
  0
VERTEX
  5
10F
330
10E
100
AcDbEntity
  8
_U+30EC_U+30A4_U+30E4_U+30FC 1
370
     0
100
AcDbVertex
100
AcDb2dVertex
 10
90.8953992828317
 20
-114.0481634914532
 30
0.0
  0
VERTEX
  5
110
330
10E
100
AcDbEntity
  8
_U+30EC_U+30A4_U+30E4_U+30FC 1
370
     0
100
AcDbVertex
100
AcDb2dVertex
 10
90.8953992828317
 20
-114.3950846068179
 30
0.0
  0
VERTEX
  5
111
330
10E
100
AcDbEntity
  8
_U+30EC_U+30A4_U+30E4_U+30FC 1
370
     0
100
AcDbVertex
100
AcDb2dVertex
 10
90.66251082802881
 20
-114.3950846068179
 30
0.0
  0
VERTEX
  5
112
330
10E
100
AcDbEntity
  8
_U+30EC_U+30A4_U+30E4_U+30FC 1
370
     0
100
AcDbVertex
100
AcDb2dVertex
 10
90.66251082802881
 20
-114.0481634914532
 30
0.0
  0
VERTEX
  5
113
330
10E
100
AcDbEntity
  8
_U+30EC_U+30A4_U+30E4_U+30FC 1
370
     0
100
AcDbVertex
100
AcDb2dVertex
 10
89.96143389678048
 20
-114.0481634914532
 30
0.0
  0
VERTEX
  5
114
330
10E
100
AcDbEntity
  8
_U+30EC_U+30A4_U+30E4_U+30FC 1
370
     0
100
AcDbVertex
100
AcDb2dVertex
 10
89.96143389678048
 20
-113.8238877753635
 30
0.0
  0
VERTEX
  5
115
330
10E
100
AcDbEntity
  8
_U+30EC_U+30A4_U+30E4_U+30FC 1
370
     0
100
AcDbVertex
100
AcDb2dVertex
 10
90.68731551552261
 20
-112.8506483007804
 30
0.0
  0
VERTEX
  5
116
330
10E
100
AcDbEntity
  8
_U+30EC_U+30A4_U+30E4_U+30FC 1
370
     0
100
AcDbVertex
100
AcDb2dVertex
 10
90.8953992828317
 20
-112.8506483007804
 30
0.0
  0
VERTEX
  5
117
330
10E
100
AcDbEntity
  8
_U+30EC_U+30A4_U+30E4_U+30FC 1
370
     0
100
AcDbVertex
100
AcDb2dVertex
 10
90.8953992828317
 20
-113.8493814819543
 30
0.0
  0
VERTEX
  5
118
330
10E
100
AcDbEntity
  8
_U+30EC_U+30A4_U+30E4_U+30FC 1
370
     0
100
AcDbVertex
100
AcDb2dVertex
 10
91.11691892253327
 20
-113.8493814819543
 30
0.0
  0
VERTEX
  5
119
330
10E
100
AcDbEntity
  8
_U+30EC_U+30A4_U+30E4_U+30FC 1
370
     0
100
AcDbVertex
100
AcDb2dVertex
 10
91.11691892253327
 20
-114.0481634914532
 30
0.0
  0
VERTEX
  5
11A
330
10E
100
AcDbEntity
  8
_U+30EC_U+30A4_U+30E4_U+30FC 1
370
     0
100
AcDbVertex
100
AcDb2dVertex
 10
90.8953992828317
 20
-114.0481634914532
 30
0.0
  0
SEQEND
  5
11B
330
10E
100
AcDbEntity
  8
_U+30EC_U+30A4_U+30E4_U+30FC 1
370
     0
  0
POLYLINE
  5
11C
330
10A
100
AcDbEntity
  8
_U+30EC_U+30A4_U+30E4_U+30FC 1
370
     0
100
AcDb2dPolyline
 66
     1
 10
0.0
 20
0.0
 30
0.0
  0
VERTEX
  5
11D
330
11C
100
AcDbEntity
  8
_U+30EC_U+30A4_U+30E4_U+30FC 1
370
     0
100
AcDbVertex
100
AcDb2dVertex
 10
90.66251082802881
 20
-113.1934353015628
 30
0.0
  0
VERTEX
  5
11E
330
11C
100
AcDbEntity
  8
_U+30EC_U+30A4_U+30E4_U+30FC 1
370
     0
100
AcDbVertex
100
AcDb2dVertex
 10
90.1739962882204
 20
-113.8493814819543
 30
0.0
  0
VERTEX
  5
11F
330
11C
100
AcDbEntity
  8
_U+30EC_U+30A4_U+30E4_U+30FC 1
370
     0
100
AcDbVertex
100
AcDb2dVertex
 10
90.66251082802881
 20
-113.8493814819543
 30
0.0
  0
VERTEX
  5
120
330
11C
100
AcDbEntity
  8
_U+30EC_U+30A4_U+30E4_U+30FC 1
370
     0
100
AcDbVertex
100
AcDb2dVertex
 10
90.66251082802881
 20
-113.1934353015628
 30
0.0
  0
SEQEND
  5
121
330
11C
100
AcDbEntity
  8
_U+30EC_U+30A4_U+30E4_U+30FC 1
370
     0
  0
HATCH
  5
122
330
10A
100
AcDbEntity
  8
_U+30EC_U+30A4_U+30E4_U+30FC 1
 62
   179
420
  2234388
100
AcDbHatch
 10
0.0
 20
0.0
 30
0.0
210
0.0
220
0.0
230
1.0
  2
SOLID
 70
     1
 71
     0
 91
        2
 92
        1
 93
       11
 72
     1
 10
90.8953992828317
 20
-114.0481634914532
 11
90.8953992828317
 21
-114.3950846068179
 72
     1
 10
90.8953992828317
 20
-114.3950846068179
 11
90.66251082802881
 21
-114.3950846068179
 72
     1
 10
90.66251082802881
 20
-114.3950846068179
 11
90.66251082802881
 21
-114.0481634914532
 72
     1
 10
90.66251082802881
 20
-114.0481634914532
 11
89.96143389678048
 21
-114.0481634914532
 72
     1
 10
89.96143389678048
 20
-114.0481634914532
 11
89.96143389678048
 21
-113.8238877753635
 72
     1
 10
89.96143389678048
 20
-113.8238877753635
 11
90.68731551552261
 21
-112.8506483007804
 72
     1
 10
90.68731551552261
 20
-112.8506483007804
 11
90.8953992828317
 21
-112.8506483007804
 72
     1
 10
90.8953992828317
 20
-112.8506483007804
 11
90.8953992828317
 21
-113.8493814819543
 72
     1
 10
90.8953992828317
 20
-113.8493814819543
 11
91.11691892253327
 21
-113.8493814819543
 72
     1
 10
91.11691892253327
 20
-113.8493814819543
 11
91.11691892253327
 21
-114.0481634914532
 72
     1
 10
91.11691892253327
 20
-114.0481634914532
 11
90.8953992828317
 21
-114.0481634914532
 97
        0
 92
        1
 93
        3
 72
     1
 10
90.66251082802881
 20
-113.1934353015628
 11
90.1739962882204
 21
-113.8493814819543
 72
     1
 10
90.1739962882204
 20
-113.8493814819543
 11
90.66251082802881
 21
-113.8493814819543
 72
     1
 10
90.66251082802881
 20
-113.8493814819543
 11
90.66251082802881
 21
-113.1934353015628
 97
        0
 75
     2
 76
     1
 98
        0
  0
SPLINE
  5
123
330
10A
100
AcDbEntity
  8
_U+30EC_U+30A4_U+30E4_U+30FC 1
370
     0
100
AcDbSpline
210
0.0
220
0.0
230
1.0
 70
    11
 71
     3
 72
    29
 73
    25
 74
     0
 42
0.0000000001
 43
0.0000000001
 12
1.0
 22
0.0
 32
0.0
 13
1.0
 23
0.0
 33
0.0
 40
0.0
 40
0.0
 40
0.0
 40
0.0
 40
1.0
 40
1.0
 40
1.0
 40
2.0
 40
2.0
 40
2.0
 40
3.0
 40
3.0
 40
3.0
 40
4.0
 40
4.0
 40
4.0
 40
5.0
 40
5.0
 40
5.0
 40
6.0
 40
6.0
 40
6.0
 40
7.0
 40
7.0
 40
7.0
 40
8.0
 40
8.0
 40
8.0
 40
8.0
 10
92.223139082847
 20
-114.217317679779
 30
0.0
 10
92.10772838409113
 20
-114.4267794852822
 30
0.0
 10
91.92238224698468
 20
-114.4457275104511
 30
0.0
 10
91.79801429996716
 20
-114.4457275104511
 30
0.0
 10
91.62644854480172
 20
-114.4457275104511
 30
0.0
 10
91.47486434345073
 20
-114.3992187214002
 30
0.0
 10
91.37323402663586
 20
-114.217317679779
 30
0.0
 10
91.26230195201082
 20
-114.0226697848624
 30
0.0
 10
91.24197588864784
 20
-113.7856472154772
 30
0.0
 10
91.24197588864784
 20
-113.6230387085734
 30
0.0
 10
91.24197588864784
 20
-113.47903371729
 30
0.0
 10
91.25989038517115
 20
-113.2271972373182
 30
0.0
 10
91.37323402663586
 20
-113.0284152278193
 30
0.0
 10
91.48830021584321
 20
-112.8254991037381
 30
0.0
 10
91.66021048055717
 20
-112.8020724544384
 30
0.0
 10
91.79801429996716
 20
-112.8020724544384
 30
0.0
 10
91.96785750738998
 20
-112.8020724544384
 30
0.0
 10
92.12150876603212
 20
-112.8465141861981
 30
0.0
 10
92.223139082847
 20
-113.0284152278193
 30
0.0
 10
92.32959253334121
 20
-113.2209960654448
 30
0.0
 10
92.35439722083501
 20
-113.4494058961168
 30
0.0
 10
92.35439722083501
 20
-113.6230387085734
 30
0.0
 10
92.35439722083501
 20
-113.7942599541903
 30
0.0
 10
92.33165959063237
 20
-114.0247368421535
 30
0.0
 10
92.223139082847
 20
-114.217317679779
 30
0.0
  0
SPLINE
  5
124
330
10A
100
AcDbEntity
  8
_U+30EC_U+30A4_U+30E4_U+30FC 1
370
     0
100
AcDbSpline
210
0.0
220
0.0
230
1.0
 70
    11
 71
     3
 72
    17
 73
    13
 74
     0
 42
0.0000000001
 43
0.0000000001
 12
1.0
 22
0.0
 32
0.0
 13
1.0
 23
0.0
 33
0.0
 40
0.0
 40
0.0
 40
0.0
 40
0.0
 40
1.0
 40
1.0
 40
1.0
 40
2.0
 40
2.0
 40
2.0
 40
3.0
 40
3.0
 40
3.0
 40
4.0
 40
4.0
 40
4.0
 40
4.0
 10
91.79801429996716
 20
-112.9946532920638
 30
0.0
 10
91.53136390940882
 20
-112.9946532920638
 30
0.0
 10
91.48175453442123
 20
-113.2781846504999
 30
0.0
 10
91.48175453442123
 20
-113.6230387085734
 30
0.0
 10
91.48175453442123
 20
-113.9423990600561
 30
0.0
 10
91.5199950943075
 20
-114.2510796155345
 30
0.0
 10
91.79801429996716
 20
-114.2510796155345
 30
0.0
 10
92.06259763323436
 20
-114.2510796155345
 30
0.0
 10
92.11461857506163
 20
-113.9699598239381
 30
0.0
 10
92.11461857506163
 20
-113.6230387085734
 30
0.0
 10
92.11461857506163
 20
-113.3033338475422
 30
0.0
 10
92.07396644833568
 20
-112.9946532920638
 30
0.0
 10
91.79801429996716
 20
-112.9946532920638
 30
0.0
  0
HATCH
  5
125
330
10A
100
AcDbEntity
  8
_U+30EC_U+30A4_U+30E4_U+30FC 1
 62
   179
420
  2234388
100
AcDbHatch
 10
0.0
 20
0.0
 30
0.0
210
0.0
220
0.0
230
1.0
  2
SOLID
 70
     1
 71
     0
 91
        2
 92
        1
 93
        1
 72
     4
 94
        3
 73
     0
 74
     1
 95
       29
 96
       25
 40
0.0
 40
0.0
 40
0.0
 40
0.0
 40
1.0
 40
1.0
 40
1.0
 40
2.0
 40
2.0
 40
2.0
 40
3.0
 40
3.0
 40
3.0
 40
4.0
 40
4.0
 40
4.0
 40
5.0
 40
5.0
 40
5.0
 40
6.0
 40
6.0
 40
6.0
 40
7.0
 40
7.0
 40
7.0
 40
8.0
 40
8.0
 40
8.0
 40
8.0
 10
92.223139082847
 20
-114.217317679779
 10
92.10772838409113
 20
-114.4267794852822
 10
91.92238224698468
 20
-114.4457275104511
 10
91.79801429996716
 20
-114.4457275104511
 10
91.62644854480172
 20
-114.4457275104511
 10
91.47486434345073
 20
-114.3992187214002
 10
91.37323402663586
 20
-114.217317679779
 10
91.26230195201082
 20
-114.0226697848624
 10
91.24197588864784
 20
-113.7856472154772
 10
91.24197588864784
 20
-113.6230387085734
 10
91.24197588864784
 20
-113.47903371729
 10
91.25989038517115
 20
-113.2271972373182
 10
91.37323402663586
 20
-113.0284152278193
 10
91.48830021584321
 20
-112.8254991037381
 10
91.66021048055717
 20
-112.8020724544384
 10
91.79801429996716
 20
-112.8020724544384
 10
91.96785750738998
 20
-112.8020724544384
 10
92.12150876603212
 20
-112.8465141861981
 10
92.223139082847
 20
-113.0284152278193
 10
92.32959253334121
 20
-113.2209960654448
 10
92.35439722083501
 20
-113.4494058961168
 10
92.35439722083501
 20
-113.6230387085734
 10
92.35439722083501
 20
-113.7942599541903
 10
92.33165959063237
 20
-114.0247368421535
 10
92.223139082847
 20
-114.217317679779
 97
        0
 97
        0
 92
        1
 93
        1
 72
     4
 94
        3
 73
     0
 74
     1
 95
       17
 96
       13
 40
0.0
 40
0.0
 40
0.0
 40
0.0
 40
1.0
 40
1.0
 40
1.0
 40
2.0
 40
2.0
 40
2.0
 40
3.0
 40
3.0
 40
3.0
 40
4.0
 40
4.0
 40
4.0
 40
4.0
 10
91.79801429996716
 20
-112.9946532920638
 10
91.53136390940882
 20
-112.9946532920638
 10
91.48175453442123
 20
-113.2781846504999
 10
91.48175453442123
 20
-113.6230387085734
 10
91.48175453442123
 20
-113.9423990600561
 10
91.5199950943075
 20
-114.2510796155345
 10
91.79801429996716
 20
-114.2510796155345
 10
92.06259763323436
 20
-114.2510796155345
 10
92.11461857506163
 20
-113.9699598239381
 10
92.11461857506163
 20
-113.6230387085734
 10
92.11461857506163
 20
-113.3033338475422
 10
92.07396644833568
 20
-112.9946532920638
 10
91.79801429996716
 20
-112.9946532920638
 97
        0
 97
        0
 75
     2
 76
     1
 98
        0
  0
ENDBLK
  5
10D
330
10A
100
AcDbEntity
  8
0
100
AcDbBlockEnd
  0
BLOCK
  5
128
330
126
100
AcDbEntity
  8
0
100
AcDbBlockBegin
  2
block 8
 70
     0
 10
0.0
 20
0.0
 30
0.0
  3
block 8
  1

  0
SPLINE
  5
12A
330
126
100
AcDbEntity
  8
_U+30EC_U+30A4_U+30E4_U+30FC 1
370
     0
100
AcDbSpline
210
0.0
220
0.0
230
1.0
 70
    11
 71
     3
 72
    29
 73
    25
 74
     0
 42
0.0000000001
 43
0.0000000001
 12
1.0
 22
0.0
 32
0.0
 13
1.0
 23
0.0
 33
0.0
 40
0.0
 40
0.0
 40
0.0
 40
0.0
 40
1.0
 40
1.0
 40
1.0
 40
2.0
 40
2.0
 40
2.0
 40
3.0
 40
3.0
 40
3.0
 40
4.0
 40
4.0
 40
4.0
 40
5.0
 40
5.0
 40
5.0
 40
6.0
 40
6.0
 40
6.0
 40
7.0
 40
7.0
 40
7.0
 40
8.0
 40
8.0
 40
8.0
 40
8.0
 10
117.802973060827
 20
-134.1354817372995
 30
0.0
 10
117.802973060827
 20
-134.4207356434782
 30
0.0
 10
117.665169241417
 20
-134.6918646581673
 30
0.0
 10
117.3161810687612
 20
-134.6918646581673
 30
0.0
 10
117.0602104742072
 20
-134.6918646581673
 30
0.0
 10
116.9651258388143
 20
-134.5406249663648
 30
0.0
 10
116.9038031391768
 20
-134.4272813249001
 30
0.0
 10
116.8445474968305
 20
-134.5606065201793
 30
0.0
 10
116.7301703267202
 20
-134.6419107736312
 30
0.0
 10
116.5696288771076
 20
-134.6419107736312
 30
0.0
 10
116.2943657478361
 20
-134.6419107736312
 30
0.0
 10
116.1589734952658
 20
-134.4296928917398
 30
0.0
 10
116.1589734952658
 20
-134.1354817372995
 30
0.0
 10
116.1589734952658
 20
-133.832657844146
 30
0.0
 10
116.3029784865493
 20
-133.6290527009677
 30
0.0
 10
116.5696288771076
 20
-133.6290527009677
 30
0.0
 10
116.7301703267202
 20
-133.6290527009677
 30
0.0
 10
116.8445474968305
 20
-133.7131130308078
 30
0.0
 10
116.9038031391768
 20
-133.8460937165385
 30
0.0
 10
116.95444604281
 20
-133.7513535906941
 30
0.0
 10
117.0498751877514
 20
-133.5818548928198
 30
0.0
 10
117.3117024446304
 20
-133.5818548928198
 30
0.0
 10
117.6865288334256
 20
-133.5818548928198
 30
0.0
 10
117.802973060827
 20
-133.8802001618425
 30
0.0
 10
117.802973060827
 20
-134.1354817372995
 30
0.0
  0
SPLINE
  5
12B
330
126
100
AcDbEntity
  8
_U+30EC_U+30A4_U+30E4_U+30FC 1
370
     0
100
AcDbSpline
210
0.0
220
0.0
230
1.0
 70
    11
 71
     3
 72
    17
 73
    13
 74
     0
 42
0.0000000001
 43
0.0000000001
 12
1.0
 22
0.0
 32
0.0
 13
1.0
 23
0.0
 33
0.0
 40
0.0
 40
0.0
 40
0.0
 40
0.0
 40
1.0
 40
1.0
 40
1.0
 40
2.0
 40
2.0
 40
2.0
 40
3.0
 40
3.0
 40
3.0
 40
4.0
 40
4.0
 40
4.0
 40
4.0
 10
116.3515543328913
 20
-134.1354817372995
 30
0.0
 10
116.3515543328913
 20
-134.3118706261443
 30
0.0
 10
116.4466389682842
 20
-134.4024766374063
 30
0.0
 10
116.5820312208545
 20
-134.4024766374063
 30
0.0
 10
116.7046766201294
 20
-134.4024766374063
 30
0.0
 10
116.823187904822
 20
-134.3256510080853
 30
0.0
 10
116.823187904822
 20
-134.1354817372995
 30
0.0
 10
116.823187904822
 20
-133.9460014856107
 30
0.0
 10
116.7046766201294
 20
-133.8688313467411
 30
0.0
 10
116.5820312208545
 20
-133.8688313467411
 30
0.0
 10
116.4466389682842
 20
-133.8688313467411
 30
0.0
 10
116.3515543328913
 20
-133.9618489248429
 30
0.0
 10
116.3515543328913
 20
-134.1354817372995
 30
0.0
  0
SPLINE
  5
12C
330
126
100
AcDbEntity
  8
_U+30EC_U+30A4_U+30E4_U+30FC 1
370
     0
100
AcDbSpline
210
0.0
220
0.0
230
1.0
 70
    11
 71
     3
 72
    17
 73
    13
 74
     0
 42
0.0000000001
 43
0.0000000001
 12
1.0
 22
0.0
 32
0.0
 13
1.0
 23
0.0
 33
0.0
 40
0.0
 40
0.0
 40
0.0
 40
0.0
 40
1.0
 40
1.0
 40
1.0
 40
2.0
 40
2.0
 40
2.0
 40
3.0
 40
3.0
 40
3.0
 40
4.0
 40
4.0
 40
4.0
 40
4.0
 10
117.0116346278651
 20
-134.1354817372995
 30
0.0
 10
117.0116346278651
 20
-134.2894775054901
 30
0.0
 10
117.0981065245449
 20
-134.4524305219425
 30
0.0
 10
117.3013671581747
 20
-134.4524305219425
 30
0.0
 10
117.5066948490956
 20
-134.4524305219425
 30
0.0
 10
117.6079806563619
 20
-134.3166937598236
 30
0.0
 10
117.6079806563619
 20
-134.1354817372995
 30
0.0
 10
117.6079806563619
 20
-133.9366997278005
 30
0.0
 10
117.485335257087
 20
-133.8192219717535
 30
0.0
 10
117.3075683300481
 20
-133.8192219717535
 30
0.0
 10
117.085704180798
 20
-133.8192219717535
 30
0.0
 10
117.0116346278651
 20
-133.9931992937587
 30
0.0
 10
117.0116346278651
 20
-134.1354817372995
 30
0.0
  0
HATCH
  5
12D
330
126
100
AcDbEntity
  8
_U+30EC_U+30A4_U+30E4_U+30FC 1
 62
   179
420
  2234388
100
AcDbHatch
 10
0.0
 20
0.0
 30
0.0
210
0.0
220
0.0
230
1.0
  2
SOLID
 70
     1
 71
     0
 91
        3
 92
        1
 93
        1
 72
     4
 94
        3
 73
     0
 74
     1
 95
       29
 96
       25
 40
0.0
 40
0.0
 40
0.0
 40
0.0
 40
1.0
 40
1.0
 40
1.0
 40
2.0
 40
2.0
 40
2.0
 40
3.0
 40
3.0
 40
3.0
 40
4.0
 40
4.0
 40
4.0
 40
5.0
 40
5.0
 40
5.0
 40
6.0
 40
6.0
 40
6.0
 40
7.0
 40
7.0
 40
7.0
 40
8.0
 40
8.0
 40
8.0
 40
8.0
 10
117.802973060827
 20
-134.1354817372995
 10
117.802973060827
 20
-134.4207356434782
 10
117.665169241417
 20
-134.6918646581673
 10
117.3161810687612
 20
-134.6918646581673
 10
117.0602104742072
 20
-134.6918646581673
 10
116.9651258388143
 20
-134.5406249663648
 10
116.9038031391768
 20
-134.4272813249001
 10
116.8445474968305
 20
-134.5606065201793
 10
116.7301703267202
 20
-134.6419107736312
 10
116.5696288771076
 20
-134.6419107736312
 10
116.2943657478361
 20
-134.6419107736312
 10
116.1589734952658
 20
-134.4296928917398
 10
116.1589734952658
 20
-134.1354817372995
 10
116.1589734952658
 20
-133.832657844146
 10
116.3029784865493
 20
-133.6290527009677
 10
116.5696288771076
 20
-133.6290527009677
 10
116.7301703267202
 20
-133.6290527009677
 10
116.8445474968305
 20
-133.7131130308078
 10
116.9038031391768
 20
-133.8460937165385
 10
116.95444604281
 20
-133.7513535906941
 10
117.0498751877514
 20
-133.5818548928198
 10
117.3117024446304
 20
-133.5818548928198
 10
117.6865288334256
 20
-133.5818548928198
 10
117.802973060827
 20
-133.8802001618425
 10
117.802973060827
 20
-134.1354817372995
 97
        0
 97
        0
 92
        1
 93
        1
 72
     4
 94
        3
 73
     0
 74
     1
 95
       17
 96
       13
 40
0.0
 40
0.0
 40
0.0
 40
0.0
 40
1.0
 40
1.0
 40
1.0
 40
2.0
 40
2.0
 40
2.0
 40
3.0
 40
3.0
 40
3.0
 40
4.0
 40
4.0
 40
4.0
 40
4.0
 10
116.3515543328913
 20
-134.1354817372995
 10
116.3515543328913
 20
-134.3118706261443
 10
116.4466389682842
 20
-134.4024766374063
 10
116.5820312208545
 20
-134.4024766374063
 10
116.7046766201294
 20
-134.4024766374063
 10
116.823187904822
 20
-134.3256510080853
 10
116.823187904822
 20
-134.1354817372995
 10
116.823187904822
 20
-133.9460014856107
 10
116.7046766201294
 20
-133.8688313467411
 10
116.5820312208545
 20
-133.8688313467411
 10
116.4466389682842
 20
-133.8688313467411
 10
116.3515543328913
 20
-133.9618489248429
 10
116.3515543328913
 20
-134.1354817372995
 97
        0
 97
        0
 92
        1
 93
        1
 72
     4
 94
        3
 73
     0
 74
     1
 95
       17
 96
       13
 40
0.0
 40
0.0
 40
0.0
 40
0.0
 40
1.0
 40
1.0
 40
1.0
 40
2.0
 40
2.0
 40
2.0
 40
3.0
 40
3.0
 40
3.0
 40
4.0
 40
4.0
 40
4.0
 40
4.0
 10
117.0116346278651
 20
-134.1354817372995
 10
117.0116346278651
 20
-134.2894775054901
 10
117.0981065245449
 20
-134.4524305219425
 10
117.3013671581747
 20
-134.4524305219425
 10
117.5066948490956
 20
-134.4524305219425
 10
117.6079806563619
 20
-134.3166937598236
 10
117.6079806563619
 20
-134.1354817372995
 10
117.6079806563619
 20
-133.9366997278005
 10
117.485335257087
 20
-133.8192219717535
 10
117.3075683300481
 20
-133.8192219717535
 10
117.085704180798
 20
-133.8192219717535
 10
117.0116346278651
 20
-133.9931992937587
 10
117.0116346278651
 20
-134.1354817372995
 97
        0
 97
        0
 75
     2
 76
     1
 98
        0
  0
POLYLINE
  5
12E
330
126
100
AcDbEntity
  8
_U+30EC_U+30A4_U+30E4_U+30FC 1
370
     0
100
AcDb2dPolyline
 66
     1
 10
0.0
 20
0.0
 30
0.0
  0
VERTEX
  5
12F
330
12E
100
AcDbEntity
  8
_U+30EC_U+30A4_U+30E4_U+30FC 1
370
     0
100
AcDbVertex
100
AcDb2dVertex
 10
117.7519856476453
 20
-133.3479329093714
 30
0.0
  0
VERTEX
  5
130
330
12E
100
AcDbEntity
  8
_U+30EC_U+30A4_U+30E4_U+30FC 1
370
     0
100
AcDbVertex
100
AcDb2dVertex
 10
117.5004936772221
 20
-133.3479329093714
 30
0.0
  0
VERTEX
  5
131
330
12E
100
AcDbEntity
  8
_U+30EC_U+30A4_U+30E4_U+30FC 1
370
     0
100
AcDbVertex
100
AcDb2dVertex
 10
117.5004936772221
 20
-133.0792154615219
 30
0.0
  0
VERTEX
  5
132
330
12E
100
AcDbEntity
  8
_U+30EC_U+30A4_U+30E4_U+30FC 1
370
     0
100
AcDbVertex
100
AcDb2dVertex
 10
117.7519856476453
 20
-133.0792154615219
 30
0.0
  0
VERTEX
  5
133
330
12E
100
AcDbEntity
  8
_U+30EC_U+30A4_U+30E4_U+30FC 1
370
     0
100
AcDbVertex
100
AcDb2dVertex
 10
117.7519856476453
 20
-133.3479329093714
 30
0.0
  0
SEQEND
  5
134
330
12E
100
AcDbEntity
  8
_U+30EC_U+30A4_U+30E4_U+30FC 1
370
     0
  0
HATCH
  5
135
330
126
100
AcDbEntity
  8
_U+30EC_U+30A4_U+30E4_U+30FC 1
 62
   179
420
  2234388
100
AcDbHatch
 10
0.0
 20
0.0
 30
0.0
210
0.0
220
0.0
230
1.0
  2
SOLID
 70
     1
 71
     0
 91
        1
 92
        1
 93
        4
 72
     1
 10
117.7519856476453
 20
-133.3479329093714
 11
117.5004936772221
 21
-133.3479329093714
 72
     1
 10
117.5004936772221
 20
-133.3479329093714
 11
117.5004936772221
 21
-133.0792154615219
 72
     1
 10
117.5004936772221
 20
-133.0792154615219
 11
117.7519856476453
 21
-133.0792154615219
 72
     1
 10
117.7519856476453
 20
-133.0792154615219
 11
117.7519856476453
 21
-133.3479329093714
 97
        0
 75
     2
 76
     1
 98
        0
  0
SPLINE
  5
136
330
126
100
AcDbEntity
  8
_U+30EC_U+30A4_U+30E4_U+30FC 1
370
     0
100
AcDbSpline
210
0.0
220
0.0
230
1.0
 70
    11
 71
     3
 72
    53
 73
    49
 74
     0
 42
0.0000000001
 43
0.0000000001
 12
1.0
 22
0.0
 32
0.0
 13
1.0
 23
0.0
 33
0.0
 40
0.0
 40
0.0
 40
0.0
 40
0.0
 40
1.0
 40
1.0
 40
1.0
 40
2.0
 40
2.0
 40
2.0
 40
3.0
 40
3.0
 40
3.0
 40
4.0
 40
4.0
 40
4.0
 40
5.0
 40
5.0
 40
5.0
 40
6.0
 40
6.0
 40
6.0
 40
7.0
 40
7.0
 40
7.0
 40
8.0
 40
8.0
 40
8.0
 40
9.0
 40
9.0
 40
9.0
 40
10.0
 40
10.0
 40
10.0
 40
11.0
 40
11.0
 40
11.0
 40
12.0
 40
12.0
 40
12.0
 40
13.0
 40
13.0
 40
13.0
 40
14.0
 40
14.0
 40
14.0
 40
15.0
 40
15.0
 40
15.0
 40
16.0
 40
16.0
 40
16.0
 40
16.0
 10
117.802973060827
 20
-132.3123372065052
 30
0.0
 10
117.802973060827
 20
-132.3957085172483
 30
0.0
 10
117.7857475834008
 20
-132.5045735345822
 30
0.0
 10
117.7223578264722
 20
-132.612749532819
 30
0.0
 10
117.6121147709442
 20
-132.7980956699255
 30
0.0
 10
117.4812011425047
 20
-132.8208333001281
 30
0.0
 10
117.3733696538164
 20
-132.8415038730396
 30
0.0
 10
117.3733696538164
 20
-132.8415038730396
 30
0.0
 10
117.3733696538164
 20
-132.6037922845574
 30
0.0
 10
117.3733696538164
 20
-132.6037922845574
 30
0.0
 10
117.5721516633153
 20
-132.5452256613081
 30
0.0
 10
117.6017794844884
 20
-132.4094888991893
 30
0.0
 10
117.6017794844884
 20
-132.3099256396656
 30
0.0
 10
117.6017794844884
 20
-132.1607530051542
 30
0.0
 10
117.5025607345133
 20
-131.9981444982505
 30
0.0
 10
117.2696722797104
 20
-131.9981444982505
 30
0.0
 10
117.0137016851563
 20
-131.9981444982505
 30
0.0
 10
116.9437662468057
 20
-132.1903808263274
 30
0.0
 10
116.9437662468057
 20
-132.3192273974757
 30
0.0
 10
116.9437662468057
 20
-132.3529893332312
 30
0.0
 10
116.9437662468057
 20
-132.5045735345822
 30
0.0
 10
117.0729573275026
 20
-132.5993136604266
 30
0.0
 10
117.0729573275026
 20
-132.5993136604266
 30
0.0
 10
117.0540093023337
 20
-132.7870713643727
 30
0.0
 10
117.0540093023337
 20
-132.7870713643727
 30
0.0
 10
117.0540093023337
 20
-132.7870713643727
 30
0.0
 10
116.2078938511564
 20
-132.6582247932243
 30
0.0
 10
116.2078938511564
 20
-132.6582247932243
 30
0.0
 10
116.2078938511564
 20
-132.6582247932243
 30
0.0
 10
116.2078938511564
 20
-131.8262342335365
 30
0.0
 10
116.2078938511564
 20
-131.8262342335365
 30
0.0
 10
116.2078938511564
 20
-131.8262342335365
 30
0.0
 10
116.4021972365245
 20
-131.8262342335365
 30
0.0
 10
116.4021972365245
 20
-131.8262342335365
 30
0.0
 10
116.4021972365245
 20
-131.8262342335365
 30
0.0
 10
116.4021972365245
 20
-132.4839029616707
 30
0.0
 10
116.4021972365245
 20
-132.4839029616707
 30
0.0
 10
116.4021972365245
 20
-132.4839029616707
 30
0.0
 10
116.8252549621131
 20
-132.5541829095698
 30
0.0
 10
116.8252549621131
 20
-132.5541829095698
 30
0.0
 10
116.7914930263577
 20
-132.48872609535
 30
0.0
 10
116.7515299187288
 20
-132.4005316509277
 30
0.0
 10
116.7515299187288
 20
-132.2737521370705
 30
0.0
 10
116.7515299187288
 20
-132.0022786128328
 30
0.0
 10
116.9375650749323
 20
-131.7494086042154
 30
0.0
 10
117.250379744993
 20
-131.7494086042154
 30
0.0
 10
117.568017548733
 20
-131.7494086042154
 30
0.0
 10
117.802973060827
 20
-131.9888427404403
 30
0.0
 10
117.802973060827
 20
-132.3123372065052
 30
0.0
  0
HATCH
  5
137
330
126
100
AcDbEntity
  8
_U+30EC_U+30A4_U+30E4_U+30FC 1
 62
   179
420
  2234388
100
AcDbHatch
 10
0.0
 20
0.0
 30
0.0
210
0.0
220
0.0
230
1.0
  2
SOLID
 70
     1
 71
     0
 91
        1
 92
        1
 93
        1
 72
     4
 94
        3
 73
     0
 74
     1
 95
       53
 96
       49
 40
0.0
 40
0.0
 40
0.0
 40
0.0
 40
1.0
 40
1.0
 40
1.0
 40
2.0
 40
2.0
 40
2.0
 40
3.0
 40
3.0
 40
3.0
 40
4.0
 40
4.0
 40
4.0
 40
5.0
 40
5.0
 40
5.0
 40
6.0
 40
6.0
 40
6.0
 40
7.0
 40
7.0
 40
7.0
 40
8.0
 40
8.0
 40
8.0
 40
9.0
 40
9.0
 40
9.0
 40
10.0
 40
10.0
 40
10.0
 40
11.0
 40
11.0
 40
11.0
 40
12.0
 40
12.0
 40
12.0
 40
13.0
 40
13.0
 40
13.0
 40
14.0
 40
14.0
 40
14.0
 40
15.0
 40
15.0
 40
15.0
 40
16.0
 40
16.0
 40
16.0
 40
16.0
 10
117.802973060827
 20
-132.3123372065052
 10
117.802973060827
 20
-132.3957085172483
 10
117.7857475834008
 20
-132.5045735345822
 10
117.7223578264722
 20
-132.612749532819
 10
117.6121147709442
 20
-132.7980956699255
 10
117.4812011425047
 20
-132.8208333001281
 10
117.3733696538164
 20
-132.8415038730396
 10
117.3733696538164
 20
-132.8415038730396
 10
117.3733696538164
 20
-132.6037922845574
 10
117.3733696538164
 20
-132.6037922845574
 10
117.5721516633153
 20
-132.5452256613081
 10
117.6017794844884
 20
-132.4094888991893
 10
117.6017794844884
 20
-132.3099256396656
 10
117.6017794844884
 20
-132.1607530051542
 10
117.5025607345133
 20
-131.9981444982505
 10
117.2696722797104
 20
-131.9981444982505
 10
117.0137016851563
 20
-131.9981444982505
 10
116.9437662468057
 20
-132.1903808263274
 10
116.9437662468057
 20
-132.3192273974757
 10
116.9437662468057
 20
-132.3529893332312
 10
116.9437662468057
 20
-132.5045735345822
 10
117.0729573275026
 20
-132.5993136604266
 10
117.0729573275026
 20
-132.5993136604266
 10
117.0540093023337
 20
-132.7870713643727
 10
117.0540093023337
 20
-132.7870713643727
 10
117.0540093023337
 20
-132.7870713643727
 10
116.2078938511564
 20
-132.6582247932243
 10
116.2078938511564
 20
-132.6582247932243
 10
116.2078938511564
 20
-132.6582247932243
 10
116.2078938511564
 20
-131.8262342335365
 10
116.2078938511564
 20
-131.8262342335365
 10
116.2078938511564
 20
-131.8262342335365
 10
116.4021972365245
 20
-131.8262342335365
 10
116.4021972365245
 20
-131.8262342335365
 10
116.4021972365245
 20
-131.8262342335365
 10
116.4021972365245
 20
-132.4839029616707
 10
116.4021972365245
 20
-132.4839029616707
 10
116.4021972365245
 20
-132.4839029616707
 10
116.8252549621131
 20
-132.5541829095698
 10
116.8252549621131
 20
-132.5541829095698
 10
116.7914930263577
 20
-132.48872609535
 10
116.7515299187288
 20
-132.4005316509277
 10
116.7515299187288
 20
-132.2737521370705
 10
116.7515299187288
 20
-132.0022786128328
 10
116.9375650749323
 20
-131.7494086042154
 10
117.250379744993
 20
-131.7494086042154
 10
117.568017548733
 20
-131.7494086042154
 10
117.802973060827
 20
-131.9888427404403
 10
117.802973060827
 20
-132.3123372065052
 97
        0
 97
        0
 75
     2
 76
     1
 98
        0
  0
ENDBLK
  5
129
330
126
100
AcDbEntity
  8
0
100
AcDbBlockEnd
  0
ENDSEC
  0
SECTION
  2
ENTITIES
  0
SPLINE
  5
41
330
1F
100
AcDbEntity
  8
_U+30EC_U+30A4_U+30E4_U+30FC 1
 62
   179
420
  2234388
370
     9
100
AcDbSpline
210
0.0
220
0.0
230
1.0
 70
    11
 71
     3
 72
    17
 73
    13
 74
     0
 42
0.0000000001
 43
0.0000000001
 12
1.0
 22
0.0
 32
0.0
 13
1.0
 23
0.0
 33
0.0
 40
0.0
 40
0.0
 40
0.0
 40
0.0
 40
1.0
 40
1.0
 40
1.0
 40
2.0
 40
2.0
 40
2.0
 40
3.0
 40
3.0
 40
3.0
 40
4.0
 40
4.0
 40
4.0
 40
4.0
 10
71.157427906845
 20
-112.8768238606697
 30
0.0
 10
71.21323734986562
 20
-112.8768238606697
 30
0.0
 10
71.2580048487235
 20
-112.9216266384364
 30
0.0
 10
71.2580048487235
 20
-112.9767305273113
 30
0.0
 10
71.2580048487235
 20
-113.0318696939644
 30
0.0
 10
71.21323734986562
 20
-113.0766371939529
 30
0.0
 10
71.157427906845
 20
-113.0766371939529
 30
0.0
 10
71.10228874158504
 20
-113.0766371939529
 30
0.0
 10
71.05752124272716
 20
-113.0318696939644
 30
0.0
 10
71.05752124272716
 20
-112.9767305273113
 30
0.0
 10
71.05752124272716
 20
-112.9216266384364
 30
0.0
 10
71.10228874158504
 20
-112.8768238606697
 30
0.0
 10
71.157427906845
 20
-112.8768238606697
 30
0.0
  0
SPLINE
  5
42
330
1F
100
AcDbEntity
  8
_U+30EC_U+30A4_U+30E4_U+30FC 1
 62
   179
420
  2234388
370
     9
100
AcDbSpline
210
0.0
220
0.0
230
1.0
 70
    11
 71
     3
 72
    17
 73
    13
 74
     0
 42
0.0000000001
 43
0.0000000001
 12
1.0
 22
0.0
 32
0.0
 13
1.0
 23
0.0
 33
0.0
 40
0.0
 40
0.0
 40
0.0
 40
0.0
 40
1.0
 40
1.0
 40
1.0
 40
2.0
 40
2.0
 40
2.0
 40
3.0
 40
3.0
 40
3.0
 40
4.0
 40
4.0
 40
4.0
 40
4.0
 10
74.8615944790105
 20
-112.776917194028
 30
0.0
 10
74.91740392203113
 20
-112.776917194028
 30
0.0
 10
74.962171420889
 20
-112.8210144162392
 30
0.0
 10
74.962171420889
 20
-112.8768238606697
 30
0.0
 10
74.962171420889
 20
-112.9319630273224
 30
0.0
 10
74.91740392203113
 20
-112.9767305273113
 30
0.0
 10
74.8615944790105
 20
-112.9767305273113
 30
0.0
 10
74.80645531375055
 20
-112.9767305273113
 30
0.0
 10
74.76168781489267
 20
-112.9319630273224
 30
0.0
 10
74.76168781489267
 20
-112.8768238606697
 30
0.0
 10
74.76168781489267
 20
-112.8210144162392
 30
0.0
 10
74.80645531375055
 20
-112.776917194028
 30
0.0
 10
74.8615944790105
 20
-112.776917194028
 30
0.0
  0
POLYLINE
  5
43
330
1F
100
AcDbEntity
  8
_U+30EC_U+30A4_U+30E4_U+30FC 1
 62
   179
420
  2234388
370
    25
100
AcDb2dPolyline
 66
     1
 10
0.0
 20
0.0
 30
0.0
  0
VERTEX
  5
44
330
43
100
AcDbEntity
  8
_U+30EC_U+30A4_U+30E4_U+30FC 1
 62
   179
420
  2234388
370
    25
100
AcDbVertex
100
AcDb2dVertex
 10
81.17056626249966
 20
-140.6119305204023
 30
0.0
  0
VERTEX
  5
45
330
43
100
AcDbEntity
  8
_U+30EC_U+30A4_U+30E4_U+30FC 1
 62
   179
420
  2234388
370
    25
100
AcDbVertex
100
AcDb2dVertex
 10
71.17016318429786
 20
-140.6119305204023
 30
0.0
  0
SEQEND
  5
46
330
43
100
AcDbEntity
  8
_U+30EC_U+30A4_U+30E4_U+30FC 1
 62
   179
420
  2234388
370
    25
  0
POLYLINE
  5
47
330
1F
100
AcDbEntity
  8
_U+30EC_U+30A4_U+30E4_U+30FC 1
 62
   179
420
  2234388
370
    25
100
AcDb2dPolyline
 66
     1
 10
0.0
 20
0.0
 30
0.0
  0
VERTEX
  5
48
330
47
100
AcDbEntity
  8
_U+30EC_U+30A4_U+30E4_U+30FC 1
 62
   179
420
  2234388
370
    25
100
AcDbVertex
100
AcDb2dVertex
 10
74.17015005220627
 20
-119.6119866367637
 30
0.0
  0
VERTEX
  5
49
330
47
100
AcDbEntity
  8
_U+30EC_U+30A4_U+30E4_U+30FC 1
 62
   179
420
  2234388
370
    25
100
AcDbVertex
100
AcDb2dVertex
 10
71.17016318429786
 20
-119.6119866367637
 30
0.0
  0
SEQEND
  5
4A
330
47
100
AcDbEntity
  8
_U+30EC_U+30A4_U+30E4_U+30FC 1
 62
   179
420
  2234388
370
    25
  0
POLYLINE
  5
4B
330
1F
100
AcDbEntity
  8
_U+30EC_U+30A4_U+30E4_U+30FC 1
 62
   179
420
  2234388
370
    25
100
AcDb2dPolyline
 66
     1
 10
0.0
 20
0.0
 30
0.0
  0
VERTEX
  5
4C
330
4B
100
AcDbEntity
  8
_U+30EC_U+30A4_U+30E4_U+30FC 1
 62
   179
420
  2234388
370
    25
100
AcDbVertex
100
AcDb2dVertex
 10
111.1704702193606
 20
-129.1115160788331
 30
0.0
  0
VERTEX
  5
4D
330
4B
100
AcDbEntity
  8
_U+30EC_U+30A4_U+30E4_U+30FC 1
 62
   179
420
  2234388
370
    25
100
AcDbVertex
100
AcDb2dVertex
 10
111.1704702193606
 20
-128.1117438568609
 30
0.0
  0
SEQEND
  5
4E
330
4B
100
AcDbEntity
  8
_U+30EC_U+30A4_U+30E4_U+30FC 1
 62
   179
420
  2234388
370
    25
  0
POLYLINE
  5
4F
330
1F
100
AcDbEntity
  8
_U+30EC_U+30A4_U+30E4_U+30FC 1
 62
   179
420
  2234388
370
    25
100
AcDb2dPolyline
 66
     1
 10
0.0
 20
0.0
 30
0.0
  0
VERTEX
  5
50
330
4F
100
AcDbEntity
  8
_U+30EC_U+30A4_U+30E4_U+30FC 1
 62
   179
420
  2234388
370
    25
100
AcDbVertex
100
AcDb2dVertex
 10
71.17016318429786
 20
-140.6119305204023
 30
0.0
  0
VERTEX
  5
51
330
4F
100
AcDbEntity
  8
_U+30EC_U+30A4_U+30E4_U+30FC 1
 62
   179
420
  2234388
370
    25
100
AcDbVertex
100
AcDb2dVertex
 10
71.17016318429786
 20
-119.6119866367637
 30
0.0
  0
SEQEND
  5
52
330
4F
100
AcDbEntity
  8
_U+30EC_U+30A4_U+30E4_U+30FC 1
 62
   179
420
  2234388
370
    25
  0
POLYLINE
  5
53
330
1F
100
AcDbEntity
  8
_U+30EC_U+30A4_U+30E4_U+30FC 1
 62
   179
420
  2234388
370
    25
100
AcDb2dPolyline
 66
     1
 10
0.0
 20
0.0
 30
0.0
  0
VERTEX
  5
54
330
53
100
AcDbEntity
  8
_U+30EC_U+30A4_U+30E4_U+30FC 1
 62
   179
420
  2234388
370
    25
100
AcDbVertex
100
AcDb2dVertex
 10
81.17056626249966
 20
-137.6119435767079
 30
0.0
  0
VERTEX
  5
55
330
53
100
AcDbEntity
  8
_U+30EC_U+30A4_U+30E4_U+30FC 1
 62
   179
420
  2234388
370
    25
100
AcDbVertex
100
AcDb2dVertex
 10
78.17057939459126
 20
-137.6119435767079
 30
0.0
  0
SEQEND
  5
56
330
53
100
AcDbEntity
  8
_U+30EC_U+30A4_U+30E4_U+30FC 1
 62
   179
420
  2234388
370
    25
  0
POLYLINE
  5
57
330
1F
100
AcDbEntity
  8
_U+30EC_U+30A4_U+30E4_U+30FC 1
 62
   179
420
  2234388
370
    25
100
AcDb2dPolyline
 66
     1
 10
0.0
 20
0.0
 30
0.0
  0
VERTEX
  5
58
330
57
100
AcDbEntity
  8
_U+30EC_U+30A4_U+30E4_U+30FC 1
 62
   179
420
  2234388
370
    25
100
AcDbVertex
100
AcDb2dVertex
 10
111.1704702193606
 20
-129.1115160788331
 30
0.0
  0
VERTEX
  5
59
330
57
100
AcDbEntity
  8
_U+30EC_U+30A4_U+30E4_U+30FC 1
 62
   179
420
  2234388
370
    25
100
AcDbVertex
100
AcDb2dVertex
 10
72.17060565877446
 20
-129.1115160788331
 30
0.0
  0
SEQEND
  5
5A
330
57
100
AcDbEntity
  8
_U+30EC_U+30A4_U+30E4_U+30FC 1
 62
   179
420
  2234388
370
    25
  0
POLYLINE
  5
5B
330
1F
100
AcDbEntity
  8
_U+30EC_U+30A4_U+30E4_U+30FC 1
 62
   179
420
  2234388
370
    25
100
AcDb2dPolyline
 66
     1
 10
0.0
 20
0.0
 30
0.0
  0
VERTEX
  5
5C
330
5B
100
AcDbEntity
  8
_U+30EC_U+30A4_U+30E4_U+30FC 1
 62
   179
420
  2234388
370
    25
100
AcDbVertex
100
AcDb2dVertex
 10
111.1704702193606
 20
-128.1117438568609
 30
0.0
  0
VERTEX
  5
5D
330
5B
100
AcDbEntity
  8
_U+30EC_U+30A4_U+30E4_U+30FC 1
 62
   179
420
  2234388
370
    25
100
AcDbVertex
100
AcDb2dVertex
 10
72.17060565877446
 20
-128.1117438568609
 30
0.0
  0
SEQEND
  5
5E
330
5B
100
AcDbEntity
  8
_U+30EC_U+30A4_U+30E4_U+30FC 1
 62
   179
420
  2234388
370
    25
  0
POLYLINE
  5
5F
330
1F
100
AcDbEntity
  8
_U+30EC_U+30A4_U+30E4_U+30FC 1
 62
   179
420
  2234388
370
    25
100
AcDb2dPolyline
 66
     1
 10
0.0
 20
0.0
 30
0.0
  0
VERTEX
  5
60
330
5F
100
AcDbEntity
  8
_U+30EC_U+30A4_U+30E4_U+30FC 1
 62
   179
420
  2234388
370
    25
100
AcDbVertex
100
AcDb2dVertex
 10
72.17060565877446
 20
-139.6121582984304
 30
0.0
  0
VERTEX
  5
61
330
5F
100
AcDbEntity
  8
_U+30EC_U+30A4_U+30E4_U+30FC 1
 62
   179
420
  2234388
370
    25
100
AcDbVertex
100
AcDb2dVertex
 10
72.17060565877446
 20
-129.1115160788331
 30
0.0
  0
SEQEND
  5
62
330
5F
100
AcDbEntity
  8
_U+30EC_U+30A4_U+30E4_U+30FC 1
 62
   179
420
  2234388
370
    25
  0
POLYLINE
  5
63
330
1F
100
AcDbEntity
  8
_U+30EC_U+30A4_U+30E4_U+30FC 1
 62
   179
420
  2234388
370
    25
100
AcDb2dPolyline
 66
     1
 10
0.0
 20
0.0
 30
0.0
  0
VERTEX
  5
64
330
63
100
AcDbEntity
  8
_U+30EC_U+30A4_U+30E4_U+30FC 1
 62
   179
420
  2234388
370
    25
100
AcDbVertex
100
AcDb2dVertex
 10
74.17015005220627
 20
-120.6117588587359
 30
0.0
  0
VERTEX
  5
65
330
63
100
AcDbEntity
  8
_U+30EC_U+30A4_U+30E4_U+30FC 1
 62
   179
420
  2234388
370
    25
100
AcDbVertex
100
AcDb2dVertex
 10
72.17060565877446
 20
-120.6117588587359
 30
0.0
  0
SEQEND
  5
66
330
63
100
AcDbEntity
  8
_U+30EC_U+30A4_U+30E4_U+30FC 1
 62
   179
420
  2234388
370
    25
  0
POLYLINE
  5
67
330
1F
100
AcDbEntity
  8
_U+30EC_U+30A4_U+30E4_U+30FC 1
 62
   179
420
  2234388
370
    25
100
AcDb2dPolyline
 66
     1
 10
0.0
 20
0.0
 30
0.0
  0
VERTEX
  5
68
330
67
100
AcDbEntity
  8
_U+30EC_U+30A4_U+30E4_U+30FC 1
 62
   179
420
  2234388
370
    25
100
AcDbVertex
100
AcDb2dVertex
 10
80.17012378802308
 20
-139.6121582984304
 30
0.0
  0
VERTEX
  5
69
330
67
100
AcDbEntity
  8
_U+30EC_U+30A4_U+30E4_U+30FC 1
 62
   179
420
  2234388
370
    25
100
AcDbVertex
100
AcDb2dVertex
 10
72.17060565877446
 20
-139.6121582984304
 30
0.0
  0
SEQEND
  5
6A
330
67
100
AcDbEntity
  8
_U+30EC_U+30A4_U+30E4_U+30FC 1
 62
   179
420
  2234388
370
    25
  0
POLYLINE
  5
6B
330
1F
100
AcDbEntity
  8
_U+30EC_U+30A4_U+30E4_U+30FC 1
 62
   179
420
  2234388
370
    25
100
AcDb2dPolyline
 66
     1
 10
0.0
 20
0.0
 30
0.0
  0
VERTEX
  5
6C
330
6B
100
AcDbEntity
  8
_U+30EC_U+30A4_U+30E4_U+30FC 1
 62
   179
420
  2234388
370
    25
100
AcDbVertex
100
AcDb2dVertex
 10
81.17056626249966
 20
-140.6119305204023
 30
0.0
  0
VERTEX
  5
6D
330
6B
100
AcDbEntity
  8
_U+30EC_U+30A4_U+30E4_U+30FC 1
 62
   179
420
  2234388
370
    25
100
AcDbVertex
100
AcDb2dVertex
 10
81.17056626249966
 20
-137.6119435767079
 30
0.0
  0
SEQEND
  5
6E
330
6B
100
AcDbEntity
  8
_U+30EC_U+30A4_U+30E4_U+30FC 1
 62
   179
420
  2234388
370
    25
  0
POLYLINE
  5
6F
330
1F
100
AcDbEntity
  8
_U+30EC_U+30A4_U+30E4_U+30FC 1
 62
   179
420
  2234388
370
    25
100
AcDb2dPolyline
 66
     1
 10
0.0
 20
0.0
 30
0.0
  0
VERTEX
  5
70
330
6F
100
AcDbEntity
  8
_U+30EC_U+30A4_U+30E4_U+30FC 1
 62
   179
420
  2234388
370
    25
100
AcDbVertex
100
AcDb2dVertex
 10
80.17012378802308
 20
-139.6121582984304
 30
0.0
  0
VERTEX
  5
71
330
6F
100
AcDbEntity
  8
_U+30EC_U+30A4_U+30E4_U+30FC 1
 62
   179
420
  2234388
370
    25
100
AcDbVertex
100
AcDb2dVertex
 10
80.17012378802308
 20
-138.611680520903
 30
0.0
  0
SEQEND
  5
72
330
6F
100
AcDbEntity
  8
_U+30EC_U+30A4_U+30E4_U+30FC 1
 62
   179
420
  2234388
370
    25
  0
POLYLINE
  5
73
330
1F
100
AcDbEntity
  8
_U+30EC_U+30A4_U+30E4_U+30FC 1
 62
   179
420
  2234388
370
    25
100
AcDb2dPolyline
 66
     1
 10
0.0
 20
0.0
 30
0.0
  0
VERTEX
  5
74
330
73
100
AcDbEntity
  8
_U+30EC_U+30A4_U+30E4_U+30FC 1
 62
   179
420
  2234388
370
    25
100
AcDbVertex
100
AcDb2dVertex
 10
80.17012378802308
 20
-138.611680520903
 30
0.0
  0
VERTEX
  5
75
330
73
100
AcDbEntity
  8
_U+30EC_U+30A4_U+30E4_U+30FC 1
 62
   179
420
  2234388
370
    25
100
AcDbVertex
100
AcDb2dVertex
 10
78.17057939459126
 20
-138.611680520903
 30
0.0
  0
SEQEND
  5
76
330
73
100
AcDbEntity
  8
_U+30EC_U+30A4_U+30E4_U+30FC 1
 62
   179
420
  2234388
370
    25
  0
POLYLINE
  5
77
330
1F
100
AcDbEntity
  8
_U+30EC_U+30A4_U+30E4_U+30FC 1
 62
   179
420
  2234388
370
    25
100
AcDb2dPolyline
 66
     1
 10
0.0
 20
0.0
 30
0.0
  0
VERTEX
  5
78
330
77
100
AcDbEntity
  8
_U+30EC_U+30A4_U+30E4_U+30FC 1
 62
   179
420
  2234388
370
    25
100
AcDbVertex
100
AcDb2dVertex
 10
78.17057939459126
 20
-138.611680520903
 30
0.0
  0
VERTEX
  5
79
330
77
100
AcDbEntity
  8
_U+30EC_U+30A4_U+30E4_U+30FC 1
 62
   179
420
  2234388
370
    25
100
AcDbVertex
100
AcDb2dVertex
 10
78.17057939459126
 20
-137.6119435767079
 30
0.0
  0
SEQEND
  5
7A
330
77
100
AcDbEntity
  8
_U+30EC_U+30A4_U+30E4_U+30FC 1
 62
   179
420
  2234388
370
    25
  0
POLYLINE
  5
7B
330
1F
100
AcDbEntity
  8
_U+30EC_U+30A4_U+30E4_U+30FC 1
 62
   179
420
  2234388
370
    25
100
AcDb2dPolyline
 66
     1
 10
0.0
 20
0.0
 30
0.0
  0
VERTEX
  5
7C
330
7B
100
AcDbEntity
  8
_U+30EC_U+30A4_U+30E4_U+30FC 1
 62
   179
420
  2234388
370
    25
100
AcDbVertex
100
AcDb2dVertex
 10
74.17015005220627
 20
-120.6117588587359
 30
0.0
  0
VERTEX
  5
7D
330
7B
100
AcDbEntity
  8
_U+30EC_U+30A4_U+30E4_U+30FC 1
 62
   179
420
  2234388
370
    25
100
AcDbVertex
100
AcDb2dVertex
 10
74.17015005220627
 20
-119.6119866367637
 30
0.0
  0
SEQEND
  5
7E
330
7B
100
AcDbEntity
  8
_U+30EC_U+30A4_U+30E4_U+30FC 1
 62
   179
420
  2234388
370
    25
  0
POLYLINE
  5
7F
330
1F
100
AcDbEntity
  8
_U+30EC_U+30A4_U+30E4_U+30FC 1
 62
   179
420
  2234388
370
    25
100
AcDb2dPolyline
 66
     1
 10
0.0
 20
0.0
 30
0.0
  0
VERTEX
  5
80
330
7F
100
AcDbEntity
  8
_U+30EC_U+30A4_U+30E4_U+30FC 1
 62
   179
420
  2234388
370
    25
100
AcDbVertex
100
AcDb2dVertex
 10
72.17060565877446
 20
-128.1117438568609
 30
0.0
  0
VERTEX
  5
81
330
7F
100
AcDbEntity
  8
_U+30EC_U+30A4_U+30E4_U+30FC 1
 62
   179
420
  2234388
370
    25
100
AcDbVertex
100
AcDb2dVertex
 10
72.17060565877446
 20
-120.6117588587359
 30
0.0
  0
SEQEND
  5
82
330
7F
100
AcDbEntity
  8
_U+30EC_U+30A4_U+30E4_U+30FC 1
 62
   179
420
  2234388
370
    25
  0
SPLINE
  5
83
330
1F
100
AcDbEntity
  8
_U+30EC_U+30A4_U+30E4_U+30FC 1
 62
   179
420
  2234388
370
     9
100
AcDbSpline
210
0.0
220
0.0
230
1.0
 70
    11
 71
     3
 72
    17
 73
    13
 74
     0
 42
0.0000000001
 43
0.0000000001
 12
1.0
 22
0.0
 32
0.0
 13
1.0
 23
0.0
 33
0.0
 40
0.0
 40
0.0
 40
0.0
 40
0.0
 40
1.0
 40
1.0
 40
1.0
 40
2.0
 40
2.0
 40
2.0
 40
3.0
 40
3.0
 40
3.0
 40
4.0
 40
4.0
 40
4.0
 40
4.0
 10
115.1702292839849
 20
-137.5120369100663
 30
0.0
 10
115.2253360823046
 20
-137.5120369100663
 30
0.0
 10
115.2701388600714
 20
-137.5568044100555
 30
0.0
 10
115.2701388600714
 20
-137.6119435767079
 30
0.0
 10
115.2701388600714
 20
-137.6670474655835
 30
0.0
 10
115.2253360823046
 20
-137.7118502433496
 30
0.0
 10
115.1702292839849
 20
-137.7118502433496
 30
0.0
 10
115.1150901187249
 20
-137.7118502433496
 30
0.0
 10
115.0703226198671
 20
-137.6670474655835
 30
0.0
 10
115.0703226198671
 20
-137.6119435767079
 30
0.0
 10
115.0703226198671
 20
-137.5568044100555
 30
0.0
 10
115.1150901187249
 20
-137.5120369100663
 30
0.0
 10
115.1702292839849
 20
-137.5120369100663
 30
0.0
  0
SPLINE
  5
84
330
1F
100
AcDbEntity
  8
_U+30EC_U+30A4_U+30E4_U+30FC 1
 62
   179
420
  2234388
370
     9
100
AcDbSpline
210
0.0
220
0.0
230
1.0
 70
    11
 71
     3
 72
    17
 73
    13
 74
     0
 42
0.0000000001
 43
0.0000000001
 12
1.0
 22
0.0
 32
0.0
 13
1.0
 23
0.0
 33
0.0
 40
0.0
 40
0.0
 40
0.0
 40
0.0
 40
1.0
 40
1.0
 40
1.0
 40
2.0
 40
2.0
 40
2.0
 40
3.0
 40
3.0
 40
3.0
 40
4.0
 40
4.0
 40
4.0
 40
4.0
 10
115.1702292839849
 20
-140.5120238537606
 30
0.0
 10
115.2253360823046
 20
-140.5120238537606
 30
0.0
 10
115.2701388600714
 20
-140.5567913537498
 30
0.0
 10
115.2701388600714
 20
-140.6119305204023
 30
0.0
 10
115.2701388600714
 20
-140.6670344092778
 30
0.0
 10
115.2253360823046
 20
-140.7118371870446
 30
0.0
 10
115.1702292839849
 20
-140.7118371870446
 30
0.0
 10
115.1150901187249
 20
-140.7118371870446
 30
0.0
 10
115.0703226198671
 20
-140.6670344092778
 30
0.0
 10
115.0703226198671
 20
-140.6119305204023
 30
0.0
 10
115.0703226198671
 20
-140.5567913537498
 30
0.0
 10
115.1150901187249
 20
-140.5120238537606
 30
0.0
 10
115.1702292839849
 20
-140.5120238537606
 30
0.0
  0
SPLINE
  5
85
330
1F
100
AcDbEntity
  8
_U+30EC_U+30A4_U+30E4_U+30FC 1
 62
   179
420
  2234388
370
     9
100
AcDbSpline
210
0.0
220
0.0
230
1.0
 70
    11
 71
     3
 72
    17
 73
    13
 74
     0
 42
0.0000000001
 43
0.0000000001
 12
1.0
 22
0.0
 32
0.0
 13
1.0
 23
0.0
 33
0.0
 40
0.0
 40
0.0
 40
0.0
 40
0.0
 40
1.0
 40
1.0
 40
1.0
 40
2.0
 40
2.0
 40
2.0
 40
3.0
 40
3.0
 40
3.0
 40
4.0
 40
4.0
 40
4.0
 40
4.0
 10
115.1702292839849
 20
-129.0115741344139
 30
0.0
 10
115.2253360823046
 20
-129.0115741344139
 30
0.0
 10
115.2701388600714
 20
-129.0563769121806
 30
0.0
 10
115.2701388600714
 20
-129.1115160788331
 30
0.0
 10
115.2701388600714
 20
-129.1673255232635
 30
0.0
 10
115.2253360823046
 20
-129.2114227454747
 30
0.0
 10
115.1702292839849
 20
-129.2114227454747
 30
0.0
 10
115.1150901187249
 20
-129.2114227454747
 30
0.0
 10
115.0703226198671
 20
-129.1673255232635
 30
0.0
 10
115.0703226198671
 20
-129.1115160788331
 30
0.0
 10
115.0703226198671
 20
-129.0563769121806
 30
0.0
 10
115.1150901187249
 20
-129.0115741344139
 30
0.0
 10
115.1702292839849
 20
-129.0115741344139
 30
0.0
  0
SPLINE
  5
86
330
1F
100
AcDbEntity
  8
_U+30EC_U+30A4_U+30E4_U+30FC 1
 62
   179
420
  2234388
370
     9
100
AcDbSpline
210
0.0
220
0.0
230
1.0
 70
    11
 71
     3
 72
    17
 73
    13
 74
     0
 42
0.0000000001
 43
0.0000000001
 12
1.0
 22
0.0
 32
0.0
 13
1.0
 23
0.0
 33
0.0
 40
0.0
 40
0.0
 40
0.0
 40
0.0
 40
1.0
 40
1.0
 40
1.0
 40
2.0
 40
2.0
 40
2.0
 40
3.0
 40
3.0
 40
3.0
 40
4.0
 40
4.0
 40
4.0
 40
4.0
 10
115.1702292839849
 20
-128.0118371902192
 30
0.0
 10
115.2253360823046
 20
-128.0118371902192
 30
0.0
 10
115.2701388600714
 20
-128.0566046902081
 30
0.0
 10
115.2701388600714
 20
-128.1117438568609
 30
0.0
 10
115.2701388600714
 20
-128.1668477457361
 30
0.0
 10
115.2253360823046
 20
-128.2116505235025
 30
0.0
 10
115.1702292839849
 20
-128.2116505235025
 30
0.0
 10
115.1150901187249
 20
-128.2116505235025
 30
0.0
 10
115.0703226198671
 20
-128.1668477457361
 30
0.0
 10
115.0703226198671
 20
-128.1117438568609
 30
0.0
 10
115.0703226198671
 20
-128.0566046902081
 30
0.0
 10
115.1150901187249
 20
-128.0118371902192
 30
0.0
 10
115.1702292839849
 20
-128.0118371902192
 30
0.0
  0
SPLINE
  5
87
330
1F
100
AcDbEntity
  8
_U+30EC_U+30A4_U+30E4_U+30FC 1
 62
   179
420
  2234388
370
     9
100
AcDbSpline
210
0.0
220
0.0
230
1.0
 70
    11
 71
     3
 72
    17
 73
    13
 74
     0
 42
0.0000000001
 43
0.0000000001
 12
1.0
 22
0.0
 32
0.0
 13
1.0
 23
0.0
 33
0.0
 40
0.0
 40
0.0
 40
0.0
 40
0.0
 40
1.0
 40
1.0
 40
1.0
 40
2.0
 40
2.0
 40
2.0
 40
3.0
 40
3.0
 40
3.0
 40
4.0
 40
4.0
 40
4.0
 40
4.0
 10
111.1704702193606
 20
-115.5116505266775
 30
0.0
 10
111.2256093846205
 20
-115.5116505266775
 30
0.0
 10
111.2703768834784
 20
-115.5564180266664
 30
0.0
 10
111.2703768834784
 20
-115.6115571933195
 30
0.0
 10
111.2703768834784
 20
-115.6666610821944
 30
0.0
 10
111.2256093846205
 20
-115.7114638599611
 30
0.0
 10
111.1704702193606
 20
-115.7114638599611
 30
0.0
 10
111.1153663318775
 20
-115.7114638599611
 30
0.0
 10
111.0705635552427
 20
-115.6666610821944
 30
0.0
 10
111.0705635552427
 20
-115.6115571933195
 30
0.0
 10
111.0705635552427
 20
-115.5564180266664
 30
0.0
 10
111.1153663318775
 20
-115.5116505266775
 30
0.0
 10
111.1704702193606
 20
-115.5116505266775
 30
0.0
  0
SPLINE
  5
88
330
1F
100
AcDbEntity
  8
_U+30EC_U+30A4_U+30E4_U+30FC 1
 62
   179
420
  2234388
370
     9
100
AcDbSpline
210
0.0
220
0.0
230
1.0
 70
    11
 71
     3
 72
    17
 73
    13
 74
     0
 42
0.0000000001
 43
0.0000000001
 12
1.0
 22
0.0
 32
0.0
 13
1.0
 23
0.0
 33
0.0
 40
0.0
 40
0.0
 40
0.0
 40
0.0
 40
1.0
 40
1.0
 40
1.0
 40
2.0
 40
2.0
 40
2.0
 40
3.0
 40
3.0
 40
3.0
 40
4.0
 40
4.0
 40
4.0
 40
4.0
 10
71.17016318429786
 20
-115.5116505266775
 30
0.0
 10
71.22526707178095
 20
-115.5116505266775
 30
0.0
 10
71.2700698484157
 20
-115.5564180266664
 30
0.0
 10
71.2700698484157
 20
-115.6115571933195
 30
0.0
 10
71.2700698484157
 20
-115.6666610821944
 30
0.0
 10
71.22526707178095
 20
-115.7114638599611
 30
0.0
 10
71.17016318429786
 20
-115.7114638599611
 30
0.0
 10
71.11502401903792
 20
-115.7114638599611
 30
0.0
 10
71.07025831556571
 20
-115.6666610821944
 30
0.0
 10
71.07025831556571
 20
-115.6115571933195
 30
0.0
 10
71.07025831556571
 20
-115.5564180266664
 30
0.0
 10
71.11502401903792
 20
-115.5116505266775
 30
0.0
 10
71.17016318429786
 20
-115.5116505266775
 30
0.0
  0
SPLINE
  5
89
330
1F
100
AcDbEntity
  8
_U+30EC_U+30A4_U+30E4_U+30FC 1
 62
   179
420
  2234388
370
     9
100
AcDbSpline
210
0.0
220
0.0
230
1.0
 70
    11
 71
     3
 72
    17
 73
    13
 74
     0
 42
0.0000000001
 43
0.0000000001
 12
1.0
 22
0.0
 32
0.0
 13
1.0
 23
0.0
 33
0.0
 40
0.0
 40
0.0
 40
0.0
 40
0.0
 40
1.0
 40
1.0
 40
1.0
 40
2.0
 40
2.0
 40
2.0
 40
3.0
 40
3.0
 40
3.0
 40
4.0
 40
4.0
 40
4.0
 40
4.0
 10
67.17040411967356
 20
-119.5120799701221
 30
0.0
 10
67.22550800715663
 20
-119.5120799701221
 30
0.0
 10
67.27031078379139
 20
-119.5561771923333
 30
0.0
 10
67.27031078379139
 20
-119.6119866367637
 30
0.0
 10
67.27031078379139
 20
-119.6671258034165
 30
0.0
 10
67.22550800715663
 20
-119.7118933034053
 30
0.0
 10
67.17040411967356
 20
-119.7118933034053
 30
0.0
 10
67.11526664988772
 20
-119.7118933034053
 30
0.0
 10
67.07049745555572
 20
-119.6671258034165
 30
0.0
 10
67.07049745555572
 20
-119.6119866367637
 30
0.0
 10
67.07049745555572
 20
-119.5561771923333
 30
0.0
 10
67.11526664988772
 20
-119.5120799701221
 30
0.0
 10
67.17040411967356
 20
-119.5120799701221
 30
0.0
  0
SPLINE
  5
8A
330
1F
100
AcDbEntity
  8
_U+30EC_U+30A4_U+30E4_U+30FC 1
 62
   179
420
  2234388
370
     9
100
AcDbSpline
210
0.0
220
0.0
230
1.0
 70
    11
 71
     3
 72
    17
 73
    13
 74
     0
 42
0.0000000001
 43
0.0000000001
 12
1.0
 22
0.0
 32
0.0
 13
1.0
 23
0.0
 33
0.0
 40
0.0
 40
0.0
 40
0.0
 40
0.0
 40
1.0
 40
1.0
 40
1.0
 40
2.0
 40
2.0
 40
2.0
 40
3.0
 40
3.0
 40
3.0
 40
4.0
 40
4.0
 40
4.0
 40
4.0
 10
67.17040411967356
 20
-140.5120238537606
 30
0.0
 10
67.22550800715663
 20
-140.5120238537606
 30
0.0
 10
67.27031078379139
 20
-140.5567913537498
 30
0.0
 10
67.27031078379139
 20
-140.6119305204023
 30
0.0
 10
67.27031078379139
 20
-140.6670344092778
 30
0.0
 10
67.22550800715663
 20
-140.7118371870446
 30
0.0
 10
67.17040411967356
 20
-140.7118371870446
 30
0.0
 10
67.11526664988772
 20
-140.7118371870446
 30
0.0
 10
67.07049745555572
 20
-140.6670344092778
 30
0.0
 10
67.07049745555572
 20
-140.6119305204023
 30
0.0
 10
67.07049745555572
 20
-140.5567913537498
 30
0.0
 10
67.11526664988772
 20
-140.5120238537606
 30
0.0
 10
67.17040411967356
 20
-140.5120238537606
 30
0.0
  0
SPLINE
  5
8B
330
1F
100
AcDbEntity
  8
_U+30EC_U+30A4_U+30E4_U+30FC 1
 62
   179
420
  2234388
370
     9
100
AcDbSpline
210
0.0
220
0.0
230
1.0
 70
    11
 71
     3
 72
    17
 73
    13
 74
     0
 42
0.0000000001
 43
0.0000000001
 12
1.0
 22
0.0
 32
0.0
 13
1.0
 23
0.0
 33
0.0
 40
0.0
 40
0.0
 40
0.0
 40
0.0
 40
1.0
 40
1.0
 40
1.0
 40
2.0
 40
2.0
 40
2.0
 40
3.0
 40
3.0
 40
3.0
 40
4.0
 40
4.0
 40
4.0
 40
4.0
 10
71.17016318429786
 20
-144.51174774165
 30
0.0
 10
71.22526707178095
 20
-144.51174774165
 30
0.0
 10
71.2700698484157
 20
-144.5565505194167
 30
0.0
 10
71.2700698484157
 20
-144.6116896860692
 30
0.0
 10
71.2700698484157
 20
-144.6667935749447
 30
0.0
 10
71.22526707178095
 20
-144.7115963527108
 30
0.0
 10
71.17016318429786
 20
-144.7115963527108
 30
0.0
 10
71.11502401903792
 20
-144.7115963527108
 30
0.0
 10
71.07025831556571
 20
-144.6667935749447
 30
0.0
 10
71.07025831556571
 20
-144.6116896860692
 30
0.0
 10
71.07025831556571
 20
-144.5565505194167
 30
0.0
 10
71.11502401903792
 20
-144.51174774165
 30
0.0
 10
71.17016318429786
 20
-144.51174774165
 30
0.0
  0
SPLINE
  5
8C
330
1F
100
AcDbEntity
  8
_U+30EC_U+30A4_U+30E4_U+30FC 1
 62
   179
420
  2234388
370
     9
100
AcDbSpline
210
0.0
220
0.0
230
1.0
 70
    11
 71
     3
 72
    17
 73
    13
 74
     0
 42
0.0000000001
 43
0.0000000001
 12
1.0
 22
0.0
 32
0.0
 13
1.0
 23
0.0
 33
0.0
 40
0.0
 40
0.0
 40
0.0
 40
0.0
 40
1.0
 40
1.0
 40
1.0
 40
2.0
 40
2.0
 40
2.0
 40
3.0
 40
3.0
 40
3.0
 40
4.0
 40
4.0
 40
4.0
 40
4.0
 10
81.17056626249966
 20
-144.51174774165
 30
0.0
 10
81.22570542775962
 20
-144.51174774165
 30
0.0
 10
81.27047497968225
 20
-144.5565505194167
 30
0.0
 10
81.27047497968225
 20
-144.6116896860692
 30
0.0
 10
81.27047497968225
 20
-144.6667935749447
 30
0.0
 10
81.22570542775962
 20
-144.7115963527108
 30
0.0
 10
81.17056626249966
 20
-144.7115963527108
 30
0.0
 10
81.11475681947904
 20
-144.7115963527108
 30
0.0
 10
81.07065959838182
 20
-144.6667935749447
 30
0.0
 10
81.07065959838182
 20
-144.6116896860692
 30
0.0
 10
81.07065959838182
 20
-144.5565505194167
 30
0.0
 10
81.11475681947904
 20
-144.51174774165
 30
0.0
 10
81.17056626249966
 20
-144.51174774165
 30
0.0
  0
POLYLINE
  5
8D
330
1F
100
AcDbEntity
  8
_U+30EC_U+30A4_U+30E4_U+30FC 1
 62
   179
420
  2234388
370
     9
100
AcDb2dPolyline
 66
     1
 10
0.0
 20
0.0
 30
0.0
  0
VERTEX
  5
8E
330
8D
100
AcDbEntity
  8
_U+30EC_U+30A4_U+30E4_U+30FC 1
 62
   179
420
  2234388
370
     9
100
AcDbVertex
100
AcDb2dVertex
 10
115.1702292839849
 20
-128.1117438568609
 30
0.0
  0
VERTEX
  5
8F
330
8D
100
AcDbEntity
  8
_U+30EC_U+30A4_U+30E4_U+30FC 1
 62
   179
420
  2234388
370
     9
100
AcDbVertex
100
AcDb2dVertex
 10
115.1702292839849
 20
-124.3414313578034
 30
0.0
  0
SEQEND
  5
90
330
8D
100
AcDbEntity
  8
_U+30EC_U+30A4_U+30E4_U+30FC 1
 62
   179
420
  2234388
370
     9
  0
POLYLINE
  5
91
330
1F
100
AcDbEntity
  8
_U+30EC_U+30A4_U+30E4_U+30FC 1
 62
   179
420
  2234388
370
     9
100
AcDb2dPolyline
 66
     1
 10
0.0
 20
0.0
 30
0.0
  0
VERTEX
  5
92
330
91
100
AcDbEntity
  8
_U+30EC_U+30A4_U+30E4_U+30FC 1
 62
   179
420
  2234388
370
     9
100
AcDbVertex
100
AcDb2dVertex
 10
115.1702292839849
 20
-128.1117438568609
 30
0.0
  0
VERTEX
  5
93
330
91
100
AcDbEntity
  8
_U+30EC_U+30A4_U+30E4_U+30FC 1
 62
   179
420
  2234388
370
     9
100
AcDbVertex
100
AcDb2dVertex
 10
115.1702292839849
 20
-129.1115160788331
 30
0.0
  0
SEQEND
  5
94
330
91
100
AcDbEntity
  8
_U+30EC_U+30A4_U+30E4_U+30FC 1
 62
   179
420
  2234388
370
     9
  0
POLYLINE
  5
95
330
1F
100
AcDbEntity
  8
_U+30EC_U+30A4_U+30E4_U+30FC 1
 62
   179
420
  2234388
370
     9
100
AcDb2dPolyline
 66
     1
 10
0.0
 20
0.0
 30
0.0
  0
VERTEX
  5
96
330
95
100
AcDbEntity
  8
_U+30EC_U+30A4_U+30E4_U+30FC 1
 62
   179
420
  2234388
370
     9
100
AcDbVertex
100
AcDb2dVertex
 10
113.7101879323448
 20
-128.1117438568609
 30
0.0
  0
VERTEX
  5
97
330
95
100
AcDbEntity
  8
_U+30EC_U+30A4_U+30E4_U+30FC 1
 62
   179
420
  2234388
370
     9
100
AcDbVertex
100
AcDb2dVertex
 10
116.1703542584696
 20
-128.1117438568609
 30
0.0
  0
SEQEND
  5
98
330
95
100
AcDbEntity
  8
_U+30EC_U+30A4_U+30E4_U+30FC 1
 62
   179
420
  2234388
370
     9
  0
POLYLINE
  5
99
330
1F
100
AcDbEntity
  8
_U+30EC_U+30A4_U+30E4_U+30FC 1
 62
   179
420
  2234388
370
     9
100
AcDb2dPolyline
 66
     1
 10
0.0
 20
0.0
 30
0.0
  0
VERTEX
  5
9A
330
99
100
AcDbEntity
  8
_U+30EC_U+30A4_U+30E4_U+30FC 1
 62
   179
420
  2234388
370
     9
100
AcDbVertex
100
AcDb2dVertex
 10
113.7101879323448
 20
-129.1115160788331
 30
0.0
  0
VERTEX
  5
9B
330
99
100
AcDbEntity
  8
_U+30EC_U+30A4_U+30E4_U+30FC 1
 62
   179
420
  2234388
370
     9
100
AcDbVertex
100
AcDb2dVertex
 10
116.1703542584696
 20
-129.1115160788331
 30
0.0
  0
SEQEND
  5
9C
330
99
100
AcDbEntity
  8
_U+30EC_U+30A4_U+30E4_U+30FC 1
 62
   179
420
  2234388
370
     9
  0
POLYLINE
  5
9D
330
1F
100
AcDbEntity
  8
_U+30EC_U+30A4_U+30E4_U+30FC 1
 62
   179
420
  2234388
370
     9
100
AcDb2dPolyline
 66
     1
 10
0.0
 20
0.0
 30
0.0
  0
VERTEX
  5
9E
330
9D
100
AcDbEntity
  8
_U+30EC_U+30A4_U+30E4_U+30FC 1
 62
   179
420
  2234388
370
     9
100
AcDbVertex
100
AcDb2dVertex
 10
115.1702292839849
 20
-140.6119305204023
 30
0.0
  0
VERTEX
  5
9F
330
9D
100
AcDbEntity
  8
_U+30EC_U+30A4_U+30E4_U+30FC 1
 62
   179
420
  2234388
370
     9
100
AcDbVertex
100
AcDb2dVertex
 10
115.1702292839849
 20
-137.6119435767079
 30
0.0
  0
SEQEND
  5
A0
330
9D
100
AcDbEntity
  8
_U+30EC_U+30A4_U+30E4_U+30FC 1
 62
   179
420
  2234388
370
     9
  0
POLYLINE
  5
A1
330
1F
100
AcDbEntity
  8
_U+30EC_U+30A4_U+30E4_U+30FC 1
 62
   179
420
  2234388
370
     9
100
AcDb2dPolyline
 66
     1
 10
0.0
 20
0.0
 30
0.0
  0
VERTEX
  5
A2
330
A1
100
AcDbEntity
  8
_U+30EC_U+30A4_U+30E4_U+30FC 1
 62
   179
420
  2234388
370
     9
100
AcDbVertex
100
AcDb2dVertex
 10
83.71063886796122
 20
-140.6119305204023
 30
0.0
  0
VERTEX
  5
A3
330
A1
100
AcDbEntity
  8
_U+30EC_U+30A4_U+30E4_U+30FC 1
 62
   179
420
  2234388
370
     9
100
AcDbVertex
100
AcDb2dVertex
 10
116.1703542584696
 20
-140.6119305204023
 30
0.0
  0
SEQEND
  5
A4
330
A1
100
AcDbEntity
  8
_U+30EC_U+30A4_U+30E4_U+30FC 1
 62
   179
420
  2234388
370
     9
  0
POLYLINE
  5
A5
330
1F
100
AcDbEntity
  8
_U+30EC_U+30A4_U+30E4_U+30FC 1
 62
   179
420
  2234388
370
     9
100
AcDb2dPolyline
 66
     1
 10
0.0
 20
0.0
 30
0.0
  0
VERTEX
  5
A6
330
A5
100
AcDbEntity
  8
_U+30EC_U+30A4_U+30E4_U+30FC 1
 62
   179
420
  2234388
370
     9
100
AcDbVertex
100
AcDb2dVertex
 10
67.17040411967356
 20
-140.6119305204023
 30
0.0
  0
VERTEX
  5
A7
330
A5
100
AcDbEntity
  8
_U+30EC_U+30A4_U+30E4_U+30FC 1
 62
   179
420
  2234388
370
     9
100
AcDbVertex
100
AcDb2dVertex
 10
67.17040411967356
 20
-119.6119866367637
 30
0.0
  0
SEQEND
  5
A8
330
A5
100
AcDbEntity
  8
_U+30EC_U+30A4_U+30E4_U+30FC 1
 62
   179
420
  2234388
370
     9
  0
POLYLINE
  5
A9
330
1F
100
AcDbEntity
  8
_U+30EC_U+30A4_U+30E4_U+30FC 1
 62
   179
420
  2234388
370
     9
100
AcDb2dPolyline
 66
     1
 10
0.0
 20
0.0
 30
0.0
  0
VERTEX
  5
AA
330
A9
100
AcDbEntity
  8
_U+30EC_U+30A4_U+30E4_U+30FC 1
 62
   179
420
  2234388
370
     9
100
AcDbVertex
100
AcDb2dVertex
 10
68.6304472050645
 20
-140.6119305204023
 30
0.0
  0
VERTEX
  5
AB
330
A9
100
AcDbEntity
  8
_U+30EC_U+30A4_U+30E4_U+30FC 1
 62
   179
420
  2234388
370
     9
100
AcDbVertex
100
AcDb2dVertex
 10
66.17063192295765
 20
-140.6119305204023
 30
0.0
  0
SEQEND
  5
AC
330
A9
100
AcDbEntity
  8
_U+30EC_U+30A4_U+30E4_U+30FC 1
 62
   179
420
  2234388
370
     9
  0
POLYLINE
  5
AD
330
1F
100
AcDbEntity
  8
_U+30EC_U+30A4_U+30E4_U+30FC 1
 62
   179
420
  2234388
370
     9
100
AcDb2dPolyline
 66
     1
 10
0.0
 20
0.0
 30
0.0
  0
VERTEX
  5
AE
330
AD
100
AcDbEntity
  8
_U+30EC_U+30A4_U+30E4_U+30FC 1
 62
   179
420
  2234388
370
     9
100
AcDbVertex
100
AcDb2dVertex
 10
68.6304472050645
 20
-119.6119866367637
 30
0.0
  0
VERTEX
  5
AF
330
AD
100
AcDbEntity
  8
_U+30EC_U+30A4_U+30E4_U+30FC 1
 62
   179
420
  2234388
370
     9
100
AcDbVertex
100
AcDb2dVertex
 10
66.17063192295765
 20
-119.6119866367637
 30
0.0
  0
SEQEND
  5
B0
330
AD
100
AcDbEntity
  8
_U+30EC_U+30A4_U+30E4_U+30FC 1
 62
   179
420
  2234388
370
     9
  0
POLYLINE
  5
B1
330
1F
100
AcDbEntity
  8
_U+30EC_U+30A4_U+30E4_U+30FC 1
 62
   179
420
  2234388
370
     9
100
AcDb2dPolyline
 66
     1
 10
0.0
 20
0.0
 30
0.0
  0
VERTEX
  5
B2
330
B1
100
AcDbEntity
  8
_U+30EC_U+30A4_U+30E4_U+30FC 1
 62
   179
420
  2234388
370
     9
100
AcDbVertex
100
AcDb2dVertex
 10
81.17056626249966
 20
-144.6116896860692
 30
0.0
  0
VERTEX
  5
B3
330
B1
100
AcDbEntity
  8
_U+30EC_U+30A4_U+30E4_U+30FC 1
 62
   179
420
  2234388
370
     9
100
AcDbVertex
100
AcDb2dVertex
 10
71.17016318429786
 20
-144.6116896860692
 30
0.0
  0
SEQEND
  5
B4
330
B1
100
AcDbEntity
  8
_U+30EC_U+30A4_U+30E4_U+30FC 1
 62
   179
420
  2234388
370
     9
  0
POLYLINE
  5
B5
330
1F
100
AcDbEntity
  8
_U+30EC_U+30A4_U+30E4_U+30FC 1
 62
   179
420
  2234388
370
     9
100
AcDb2dPolyline
 66
     1
 10
0.0
 20
0.0
 30
0.0
  0
VERTEX
  5
B6
330
B5
100
AcDbEntity
  8
_U+30EC_U+30A4_U+30E4_U+30FC 1
 62
   179
420
  2234388
370
     9
100
AcDbVertex
100
AcDb2dVertex
 10
81.17056626249966
 20
-143.1516482975454
 30
0.0
  0
VERTEX
  5
B7
330
B5
100
AcDbEntity
  8
_U+30EC_U+30A4_U+30E4_U+30FC 1
 62
   179
420
  2234388
370
     9
100
AcDbVertex
100
AcDb2dVertex
 10
81.17056626249966
 20
-145.6121321858191
 30
0.0
  0
SEQEND
  5
B8
330
B5
100
AcDbEntity
  8
_U+30EC_U+30A4_U+30E4_U+30FC 1
 62
   179
420
  2234388
370
     9
  0
POLYLINE
  5
B9
330
1F
100
AcDbEntity
  8
_U+30EC_U+30A4_U+30E4_U+30FC 1
 62
   179
420
  2234388
370
     9
100
AcDb2dPolyline
 66
     1
 10
0.0
 20
0.0
 30
0.0
  0
VERTEX
  5
BA
330
B9
100
AcDbEntity
  8
_U+30EC_U+30A4_U+30E4_U+30FC 1
 62
   179
420
  2234388
370
     9
100
AcDbVertex
100
AcDb2dVertex
 10
71.17016318429786
 20
-143.1516482975454
 30
0.0
  0
VERTEX
  5
BB
330
B9
100
AcDbEntity
  8
_U+30EC_U+30A4_U+30E4_U+30FC 1
 62
   179
420
  2234388
370
     9
100
AcDbVertex
100
AcDb2dVertex
 10
71.17016318429786
 20
-145.6121321858191
 30
0.0
  0
SEQEND
  5
BC
330
B9
100
AcDbEntity
  8
_U+30EC_U+30A4_U+30E4_U+30FC 1
 62
   179
420
  2234388
370
     9
  0
POLYLINE
  5
BD
330
1F
100
AcDbEntity
  8
_U+30EC_U+30A4_U+30E4_U+30FC 1
 62
   179
420
  2234388
370
     9
100
AcDb2dPolyline
 66
     1
 10
0.0
 20
0.0
 30
0.0
  0
VERTEX
  5
BE
330
BD
100
AcDbEntity
  8
_U+30EC_U+30A4_U+30E4_U+30FC 1
 62
   179
420
  2234388
370
     9
100
AcDbVertex
100
AcDb2dVertex
 10
71.17016318429786
 20
-115.6115571933195
 30
0.0
  0
VERTEX
  5
BF
330
BD
100
AcDbEntity
  8
_U+30EC_U+30A4_U+30E4_U+30FC 1
 62
   179
420
  2234388
370
     9
100
AcDbVertex
100
AcDb2dVertex
 10
111.1704702193606
 20
-115.6115571933195
 30
0.0
  0
SEQEND
  5
C0
330
BD
100
AcDbEntity
  8
_U+30EC_U+30A4_U+30E4_U+30FC 1
 62
   179
420
  2234388
370
     9
  0
POLYLINE
  5
C1
330
1F
100
AcDbEntity
  8
_U+30EC_U+30A4_U+30E4_U+30FC 1
 62
   179
420
  2234388
370
     9
100
AcDb2dPolyline
 66
     1
 10
0.0
 20
0.0
 30
0.0
  0
VERTEX
  5
C2
330
C1
100
AcDbEntity
  8
_U+30EC_U+30A4_U+30E4_U+30FC 1
 62
   179
420
  2234388
370
     9
100
AcDbVertex
100
AcDb2dVertex
 10
71.17016318429786
 20
-117.0715633040653
 30
0.0
  0
VERTEX
  5
C3
330
C1
100
AcDbEntity
  8
_U+30EC_U+30A4_U+30E4_U+30FC 1
 62
   179
420
  2234388
370
     9
100
AcDbVertex
100
AcDb2dVertex
 10
71.17016318429786
 20
-114.6117849713469
 30
0.0
  0
SEQEND
  5
C4
330
C1
100
AcDbEntity
  8
_U+30EC_U+30A4_U+30E4_U+30FC 1
 62
   179
420
  2234388
370
     9
  0
POLYLINE
  5
C5
330
1F
100
AcDbEntity
  8
_U+30EC_U+30A4_U+30E4_U+30FC 1
 62
   179
420
  2234388
370
     9
100
AcDb2dPolyline
 66
     1
 10
0.0
 20
0.0
 30
0.0
  0
VERTEX
  5
C6
330
C5
100
AcDbEntity
  8
_U+30EC_U+30A4_U+30E4_U+30FC 1
 62
   179
420
  2234388
370
     9
100
AcDbVertex
100
AcDb2dVertex
 10
111.1704702193606
 20
-125.5719908019405
 30
0.0
  0
VERTEX
  5
C7
330
C5
100
AcDbEntity
  8
_U+30EC_U+30A4_U+30E4_U+30FC 1
 62
   179
420
  2234388
370
     9
100
AcDbVertex
100
AcDb2dVertex
 10
111.1704702193606
 20
-114.6117849713469
 30
0.0
  0
SEQEND
  5
C8
330
C5
100
AcDbEntity
  8
_U+30EC_U+30A4_U+30E4_U+30FC 1
 62
   179
420
  2234388
370
     9
  0
POLYLINE
  5
C9
330
1F
100
AcDbEntity
  8
_U+30EC_U+30A4_U+30E4_U+30FC 1
 62
   179
420
  2234388
370
     9
100
AcDb2dPolyline
 66
     1
 10
0.0
 20
0.0
 30
0.0
  0
VERTEX
  5
CA
330
C9
100
AcDbEntity
  8
_U+30EC_U+30A4_U+30E4_U+30FC 1
 62
   179
420
  2234388
370
     9
100
AcDbVertex
100
AcDb2dVertex
 10
115.1702292839849
 20
-129.1115160788331
 30
0.0
  0
VERTEX
  5
CB
330
C9
100
AcDbEntity
  8
_U+30EC_U+30A4_U+30E4_U+30FC 1
 62
   179
420
  2234388
370
     9
100
AcDbVertex
100
AcDb2dVertex
 10
115.1702292839849
 20
-137.6119435767079
 30
0.0
  0
SEQEND
  5
CC
330
C9
100
AcDbEntity
  8
_U+30EC_U+30A4_U+30E4_U+30FC 1
 62
   179
420
  2234388
370
     9
  0
POLYLINE
  5
CD
330
1F
100
AcDbEntity
  8
_U+30EC_U+30A4_U+30E4_U+30FC 1
 62
   179
420
  2234388
370
     9
100
AcDb2dPolyline
 66
     1
 10
0.0
 20
0.0
 30
0.0
  0
VERTEX
  5
CE
330
CD
100
AcDbEntity
  8
_U+30EC_U+30A4_U+30E4_U+30FC 1
 62
   179
420
  2234388
370
     9
100
AcDbVertex
100
AcDb2dVertex
 10
83.71063886796122
 20
-137.6119435767079
 30
0.0
  0
VERTEX
  5
CF
330
CD
100
AcDbEntity
  8
_U+30EC_U+30A4_U+30E4_U+30FC 1
 62
   179
420
  2234388
370
     9
100
AcDbVertex
100
AcDb2dVertex
 10
116.1703542584696
 20
-137.6119435767079
 30
0.0
  0
SEQEND
  5
D0
330
CD
100
AcDbEntity
  8
_U+30EC_U+30A4_U+30E4_U+30FC 1
 62
   179
420
  2234388
370
     9
  0
POLYLINE
  5
D1
330
1F
100
AcDbEntity
  8
_U+30EC_U+30A4_U+30E4_U+30FC 1
 62
   179
420
  2234388
370
     9
100
AcDb2dPolyline
 66
     1
 10
0.0
 20
0.0
 30
0.0
  0
VERTEX
  5
D2
330
D1
100
AcDbEntity
  8
_U+30EC_U+30A4_U+30E4_U+30FC 1
 62
   179
420
  2234388
370
     9
100
AcDbVertex
100
AcDb2dVertex
 10
74.77340003681608
 20
-113.5823794160488
 30
0.0
  0
VERTEX
  5
D3
330
D1
100
AcDbEntity
  8
_U+30EC_U+30A4_U+30E4_U+30FC 1
 62
   179
420
  2234388
370
     9
100
AcDbVertex
100
AcDb2dVertex
 10
74.77340003681608
 20
-112.1712683052905
 30
0.0
  0
SEQEND
  5
D4
330
D1
100
AcDbEntity
  8
_U+30EC_U+30A4_U+30E4_U+30FC 1
 62
   179
420
  2234388
370
     9
  0
POLYLINE
  5
D5
330
1F
100
AcDbEntity
  8
_U+30EC_U+30A4_U+30E4_U+30FC 1
 62
   179
420
  2234388
370
     9
100
AcDb2dPolyline
 66
     1
 10
0.0
 20
0.0
 30
0.0
  0
VERTEX
  5
D6
330
D5
100
AcDbEntity
  8
_U+30EC_U+30A4_U+30E4_U+30FC 1
 62
   179
420
  2234388
370
     9
100
AcDbVertex
100
AcDb2dVertex
 10
71.24562234903941
 20
-113.5823794160488
 30
0.0
  0
VERTEX
  5
D7
330
D5
100
AcDbEntity
  8
_U+30EC_U+30A4_U+30E4_U+30FC 1
 62
   179
420
  2234388
370
     9
100
AcDbVertex
100
AcDb2dVertex
 10
71.24562234903941
 20
-112.1712683052905
 30
0.0
  0
SEQEND
  5
D8
330
D5
100
AcDbEntity
  8
_U+30EC_U+30A4_U+30E4_U+30FC 1
 62
   179
420
  2234388
370
     9
  0
POLYLINE
  5
D9
330
1F
100
AcDbEntity
  8
_U+30EC_U+30A4_U+30E4_U+30FC 1
 62
   179
420
  2234388
370
     9
100
AcDb2dPolyline
 66
     1
 10
0.0
 20
0.0
 30
0.0
  0
VERTEX
  5
DA
330
D9
100
AcDbEntity
  8
_U+30EC_U+30A4_U+30E4_U+30FC 1
 62
   179
420
  2234388
370
     9
100
AcDbVertex
100
AcDb2dVertex
 10
70.09909460051199
 20
-112.8768238606697
 30
0.0
  0
VERTEX
  5
DB
330
D9
100
AcDbEntity
  8
_U+30EC_U+30A4_U+30E4_U+30FC 1
 62
   179
420
  2234388
370
     9
100
AcDbVertex
100
AcDb2dVertex
 10
75.86478862008356
 20
-112.8768238606697
 30
0.0
  0
SEQEND
  5
DC
330
D9
100
AcDbEntity
  8
_U+30EC_U+30A4_U+30E4_U+30FC 1
 62
   179
420
  2234388
370
     9
  0
INSERT
  5
DE
330
1F
100
AcDbEntity
  8
_U+30EC_U+30A4_U+30E4_U+30FC 1
100
AcDbBlockReference
  2
block 2
 10
0.0
 20
0.0
 30
0.0
  0
INSERT
  5
EE
330
1F
100
AcDbEntity
  8
_U+30EC_U+30A4_U+30E4_U+30FC 1
100
AcDbBlockReference
  2
block 3
 10
0.0
 20
0.0
 30
0.0
  0
INSERT
  5
F4
330
1F
100
AcDbEntity
  8
_U+30EC_U+30A4_U+30E4_U+30FC 1
100
AcDbBlockReference
  2
block 4
 10
0.0
 20
0.0
 30
0.0
  0
INSERT
  5
FA
330
1F
100
AcDbEntity
  8
_U+30EC_U+30A4_U+30E4_U+30FC 1
100
AcDbBlockReference
  2
block 5
 10
0.0
 20
0.0
 30
0.0
  0
INSERT
  5
102
330
1F
100
AcDbEntity
  8
_U+30EC_U+30A4_U+30E4_U+30FC 1
100
AcDbBlockReference
  2
block 6
 10
0.0
 20
0.0
 30
0.0
  0
INSERT
  5
10B
330
1F
100
AcDbEntity
  8
_U+30EC_U+30A4_U+30E4_U+30FC 1
100
AcDbBlockReference
  2
block 7
 10
0.0
 20
0.0
 30
0.0
  0
INSERT
  5
127
330
1F
100
AcDbEntity
  8
_U+30EC_U+30A4_U+30E4_U+30FC 1
100
AcDbBlockReference
  2
block 8
 10
0.0
 20
0.0
 30
0.0
  0
ENDSEC
  0
SECTION
  2
OBJECTS
  0
DICTIONARY
  5
C
330
0
100
AcDbDictionary
281
     1
  3
ACAD_GROUP
350
D
  3
ACAD_LAYOUT
350
1A
  3
ACAD_MATERIAL
350
3B
  3
ACAD_MLEADERSTYLE
350
139
  3
ACAD_MLINESTYLE
350
17
  3
ACAD_PLOTSETTINGS
350
19
  3
ACAD_PLOTSTYLENAME
350
E
  3
ACAD_TABLESTYLE
350
138
  3
ACAD_VISUALSTYLE
350
2A
  0
SUN
  5
3F
330
29
100
AcDbSun
 90
        1
290
     0
 63
     7
421
 16777215
 40
1.0
291
     1
 91
  2455826
 92
 54000000
292
     0
 70
     2
 71
   256
280
     1
  0
DICTIONARY
  5
D
102
{ACAD_REACTORS
330
C
102
}
330
C
100
AcDbDictionary
281
     1
  0
DICTIONARY
  5
1A
102
{ACAD_REACTORS
330
C
102
}
330
C
100
AcDbDictionary
281
     1
  3
Layout1
350
1E
  3
Layout2
350
26
  3
Model
350
22
  0
DICTIONARY
  5
3B
102
{ACAD_REACTORS
330
C
102
}
330
C
100
AcDbDictionary
281
     1
  3
ByBlock
350
3D
  3
ByLayer
350
3C
  3
Global
350
3E
  0
DICTIONARY
  5
139
102
{ACAD_REACTORS
330
C
102
}
330
C
100
AcDbDictionary
281
     1
  0
DICTIONARY
  5
17
102
{ACAD_REACTORS
330
C
102
}
330
C
100
AcDbDictionary
281
     1
  3
Standard
350
18
  0
DICTIONARY
  5
19
102
{ACAD_REACTORS
330
C
102
}
330
C
100
AcDbDictionary
281
     1
  0
ACDBDICTIONARYWDFLT
  5
E
102
{ACAD_REACTORS
330
C
102
}
330
C
100
AcDbDictionary
281
     1
  3
Normal
350
F
100
AcDbDictionaryWithDefault
340
F
  0
DICTIONARY
  5
138
102
{ACAD_REACTORS
330
C
102
}
330
C
100
AcDbDictionary
281
     1
  0
DICTIONARY
  5
2A
102
{ACAD_REACTORS
330
C
102
}
330
C
100
AcDbDictionary
281
     1
  3
2dWireframe
350
2F
  3
3D Hidden
350
31
  3
3dWireframe
350
30
  3
Basic
350
32
  3
Brighten
350
36
  3
ColorChange
350
3A
  3
Conceptual
350
34
  3
Dim
350
35
  3
Facepattern
350
39
  3
Flat
350
2B
  3
FlatWithEdges
350
2C
  3
Gouraud
350
2D
  3
GouraudWithEdges
350
2E
  3
Linepattern
350
38
  3
Realistic
350
33
  3
Thicken
350
37
  0
LAYOUT
  5
1E
102
{ACAD_REACTORS
330
1A
102
}
330
1A
100
AcDbPlotSettings
  1

  2
none_device
  4

  6

 40
0.0
 41
0.0
 42
0.0
 43
0.0
 44
0.0
 45
0.0
 46
0.0
 47
0.0
 48
0.0
 49
0.0
140
0.0
141
0.0
142
1.0
143
1.0
 70
   688
 72
     0
 73
     0
 74
     5
  7

 75
    16
 76
     0
 77
     2
 78
   300
147
1.0
148
0.0
149
0.0
100
AcDbLayout
  1
Layout1
 70
     1
 71
     1
 10
0.0
 20
0.0
 11
12.0
 21
9.0
 12
0.0
 22
0.0
 32
0.0
 14
1.000000000000000E+20
 24
1.000000000000000E+20
 34
1.000000000000000E+20
 15
-1.000000000000000E+20
 25
-1.000000000000000E+20
 35
-1.000000000000000E+20
146
0.0
 13
0.0
 23
0.0
 33
0.0
 16
1.0
 26
0.0
 36
0.0
 17
0.0
 27
1.0
 37
0.0
 76
     0
330
1B
  0
LAYOUT
  5
26
102
{ACAD_REACTORS
330
1A
102
}
330
1A
100
AcDbPlotSettings
  1

  2
none_device
  4

  6

 40
0.0
 41
0.0
 42
0.0
 43
0.0
 44
0.0
 45
0.0
 46
0.0
 47
0.0
 48
0.0
 49
0.0
140
0.0
141
0.0
142
1.0
143
1.0
 70
   688
 72
     0
 73
     0
 74
     5
  7

 75
    16
 76
     0
 77
     2
 78
   300
147
1.0
148
0.0
149
0.0
100
AcDbLayout
  1
Layout2
 70
     1
 71
     2
 10
0.0
 20
0.0
 11
0.0
 21
0.0
 12
0.0
 22
0.0
 32
0.0
 14
0.0
 24
0.0
 34
0.0
 15
0.0
 25
0.0
 35
0.0
146
0.0
 13
0.0
 23
0.0
 33
0.0
 16
1.0
 26
0.0
 36
0.0
 17
0.0
 27
1.0
 37
0.0
 76
     0
330
23
  0
LAYOUT
  5
22
102
{ACAD_REACTORS
330
1A
102
}
330
1A
100
AcDbPlotSettings
  1

  2
none_device
  4

  6

 40
0.0
 41
0.0
 42
0.0
 43
0.0
 44
0.0
 45
0.0
 46
0.0
 47
0.0
 48
0.0
 49
0.0
140
0.0
141
0.0
142
1.0
143
1.0
 70
  1712
 72
     0
 73
     0
 74
     0
  7

 75
     0
 76
     0
 77
     2
 78
   300
147
1.0
148
0.0
149
0.0
100
AcDbLayout
  1
Model
 70
     1
 71
     0
 10
0.0
 20
0.0
 11
12.0
 21
9.0
 12
0.0
 22
0.0
 32
0.0
 14
1.000000000000000E+20
 24
1.000000000000000E+20
 34
1.000000000000000E+20
 15
-1.000000000000000E+20
 25
-1.000000000000000E+20
 35
-1.000000000000000E+20
146
0.0
 13
0.0
 23
0.0
 33
0.0
 16
1.0
 26
0.0
 36
0.0
 17
0.0
 27
1.0
 37
0.0
 76
     0
330
1F
331
29
  0
MATERIAL
  5
3D
102
{ACAD_REACTORS
330
3B
102
}
330
3B
100
AcDbMaterial
  1
ByBlock
 72
     1
 94
      127
  0
MATERIAL
  5
3C
102
{ACAD_REACTORS
330
3B
102
}
330
3B
100
AcDbMaterial
  1
ByLayer
 72
     1
 94
      127
  0
MATERIAL
  5
3E
102
{ACAD_REACTORS
330
3B
102
}
330
3B
100
AcDbMaterial
  1
Global
 72
     1
 94
      127
  0
MLINESTYLE
  5
18
102
{ACAD_REACTORS
330
17
102
}
330
17
100
AcDbMlineStyle
  2
Standard
 70
     0
  3

 62
   256
 51
90.0
 52
90.0
 71
     2
 49
0.5
 62
   256
  6
BYLAYER
 49
-0.5
 62
   256
  6
BYLAYER
  0
ACDBPLACEHOLDER
  5
F
102
{ACAD_REACTORS
330
E
102
}
330
E
  0
VISUALSTYLE
  5
2F
102
{ACAD_REACTORS
330
2A
102
}
330
2A
100
AcDbVisualStyle
  2
2dWireframe
 70
     4
177
     2
291
     0
 71
     0
176
     1
 72
     2
176
     1
 73
     0
176
     1
 90
        0
176
     1
 40
-0.6
176
     1
 41
-30.0
176
     1
 62
     5
 63
     7
421
 16777215
176
     1
 74
     1
176
     1
 91
        4
176
     1
 64
     7
176
     1
 65
   257
176
     1
 75
     1
176
     1
175
     1
176
     1
 42
1.0
176
     1
 92
        0
176
     1
 66
   257
176
     1
 43
1.0
176
     1
 76
     1
176
     1
 77
     6
176
     1
 78
     2
176
     1
 67
     7
176
     1
 79
     5
176
     1
170
     0
176
     1
171
     0
176
     1
290
     0
176
     1
 93
        1
176
     1
 44
0.0
176
     1
173
     0
176
     1
  0
VISUALSTYLE
  5
31
102
{ACAD_REACTORS
330
2A
102
}
330
2A
100
AcDbVisualStyle
  2
3D Hidden
 70
     6
177
     2
291
     0
 71
     1
176
     1
 72
     2
176
     1
 73
     2
176
     1
 90
        0
176
     1
 40
-0.6
176
     1
 41
-30.0
176
     1
 62
     5
 63
     7
421
 16777215
176
     1
 74
     2
176
     1
 91
        2
176
     1
 64
     7
176
     1
 65
   257
176
     1
 75
     2
176
     1
175
     1
176
     1
 42
40.0
176
     1
 92
        0
176
     1
 66
   257
176
     1
 43
1.0
176
     1
 76
     1
176
     1
 77
     6
176
     1
 78
     2
176
     1
 67
     7
176
     1
 79
     3
176
     1
170
     0
176
     1
171
     0
176
     1
290
     0
176
     1
 93
        1
176
     1
 44
0.0
176
     1
173
     0
176
     1
  0
VISUALSTYLE
  5
30
102
{ACAD_REACTORS
330
2A
102
}
330
2A
100
AcDbVisualStyle
  2
3dWireframe
 70
     5
177
     2
291
     0
 71
     0
176
     1
 72
     2
176
     1
 73
     0
176
     1
 90
        0
176
     1
 40
-0.6
176
     1
 41
-30.0
176
     1
 62
     5
 63
     7
421
 16777215
176
     1
 74
     1
176
     1
 91
        4
176
     1
 64
     7
176
     1
 65
   257
176
     1
 75
     1
176
     1
175
     1
176
     1
 42
1.0
176
     1
 92
        0
176
     1
 66
   257
176
     1
 43
1.0
176
     1
 76
     1
176
     1
 77
     6
176
     1
 78
     2
176
     1
 67
     7
176
     1
 79
     5
176
     1
170
     0
176
     1
171
     0
176
     1
290
     0
176
     1
 93
        1
176
     1
 44
0.0
176
     1
173
     0
176
     1
  0
VISUALSTYLE
  5
32
102
{ACAD_REACTORS
330
2A
102
}
330
2A
100
AcDbVisualStyle
  2
Basic
 70
     7
177
     2
291
     1
 71
     1
176
     1
 72
     0
176
     1
 73
     1
176
     1
 90
        0
176
     1
 40
-0.6
176
     1
 41
-30.0
176
     1
 62
     5
 63
     7
421
 16777215
176
     1
 74
     0
176
     1
 91
        4
176
     1
 64
     7
176
     1
 65
   257
176
     1
 75
     1
176
     1
175
     1
176
     1
 42
1.0
176
     1
 92
        8
176
     1
 66
     7
176
     1
 43
1.0
176
     1
 76
     1
176
     1
 77
     6
176
     1
 78
     2
176
     1
 67
     7
176
     1
 79
     5
176
     1
170
     0
176
     1
171
     0
176
     1
290
     0
176
     1
 93
        1
176
     1
 44
0.0
176
     1
173
     0
176
     1
  0
VISUALSTYLE
  5
36
102
{ACAD_REACTORS
330
2A
102
}
330
2A
100
AcDbVisualStyle
  2
Brighten
 70
    12
177
     2
291
     1
 71
     2
176
     1
 72
     2
176
     1
 73
     0
176
     1
 90
        0
176
     1
 40
-0.6
176
     1
 41
-30.0
176
     1
 62
     5
 63
     7
421
 16777215
176
     1
 74
     1
176
     1
 91
        4
176
     1
 64
     7
176
     1
 65
   257
176
     1
 75
     1
176
     1
175
     1
176
     1
 42
1.0
176
     1
 92
        8
176
     1
 66
     7
176
     1
 43
1.0
176
     1
 76
     1
176
     1
 77
     6
176
     1
 78
     2
176
     1
 67
     7
176
     1
 79
     5
176
     1
170
     0
176
     1
171
     0
176
     1
290
     0
176
     1
 93
        1
176
     1
 44
50.0
176
     1
173
     0
176
     1
  0
VISUALSTYLE
  5
3A
102
{ACAD_REACTORS
330
2A
102
}
330
2A
100
AcDbVisualStyle
  2
ColorChange
 70
    16
177
     2
291
     1
 71
     2
176
     1
 72
     2
176
     1
 73
     3
176
     1
 90
        0
176
     1
 40
-0.6
176
     1
 41
-30.0
176
     1
 62
     5
 63
     8
421
  8421504
176
     1
 74
     1
176
     1
 91
        4
176
     1
 64
     7
176
     1
 65
   257
176
     1
 75
     1
176
     1
175
     1
176
     1
 42
1.0
176
     1
 92
        8
176
     1
 66
     8
424
  8421504
176
     1
 43
1.0
176
     1
 76
     1
176
     1
 77
     6
176
     1
 78
     2
176
     1
 67
     7
176
     1
 79
     5
176
     1
170
     0
176
     1
171
     0
176
     1
290
     0
176
     1
 93
        1
176
     1
 44
0.0
176
     1
173
     0
176
     1
  0
VISUALSTYLE
  5
34
102
{ACAD_REACTORS
330
2A
102
}
330
2A
100
AcDbVisualStyle
  2
Conceptual
 70
     9
177
     2
291
     0
 71
     3
176
     1
 72
     2
176
     1
 73
     0
176
     1
 90
        0
176
     1
 40
-0.6
176
     1
 41
-30.0
176
     1
 62
     5
 63
     7
421
 16777215
176
     1
 74
     2
176
     1
 91
        2
176
     1
 64
     7
176
     1
 65
   257
176
     1
 75
     1
176
     1
175
     1
176
     1
 42
40.0
176
     1
 92
        8
176
     1
 66
     7
176
     1
 43
1.0
176
     1
 76
     1
176
     1
 77
     6
176
     1
 78
     2
176
     1
 67
     7
176
     1
 79
     3
176
     1
170
     0
176
     1
171
     0
176
     1
290
     0
176
     1
 93
        1
176
     1
 44
0.0
176
     1
173
     0
176
     1
  0
VISUALSTYLE
  5
35
102
{ACAD_REACTORS
330
2A
102
}
330
2A
100
AcDbVisualStyle
  2
Dim
 70
    11
177
     2
291
     1
 71
     2
176
     1
 72
     2
176
     1
 73
     0
176
     1
 90
        0
176
     1
 40
-0.6
176
     1
 41
-30.0
176
     1
 62
     5
 63
     7
421
 16777215
176
     1
 74
     1
176
     1
 91
        4
176
     1
 64
     7
176
     1
 65
   257
176
     1
 75
     1
176
     1
175
     1
176
     1
 42
1.0
176
     1
 92
        8
176
     1
 66
     7
176
     1
 43
1.0
176
     1
 76
     1
176
     1
 77
     6
176
     1
 78
     2
176
     1
 67
     7
176
     1
 79
     5
176
     1
170
     0
176
     1
171
     0
176
     1
290
     0
176
     1
 93
        1
176
     1
 44
-50.0
176
     1
173
     0
176
     1
  0
VISUALSTYLE
  5
39
102
{ACAD_REACTORS
330
2A
102
}
330
2A
100
AcDbVisualStyle
  2
Facepattern
 70
    15
177
     2
291
     1
 71
     2
176
     1
 72
     2
176
     1
 73
     0
176
     1
 90
        0
176
     1
 40
-0.6
176
     1
 41
-30.0
176
     1
 62
     5
 63
     7
421
 16777215
176
     1
 74
     1
176
     1
 91
        4
176
     1
 64
     7
176
     1
 65
   257
176
     1
 75
     1
176
     1
175
     1
176
     1
 42
1.0
176
     1
 92
        8
176
     1
 66
     7
176
     1
 43
1.0
176
     1
 76
     1
176
     1
 77
     6
176
     1
 78
     2
176
     1
 67
     7
176
     1
 79
     5
176
     1
170
     0
176
     1
171
     0
176
     1
290
     0
176
     1
 93
        1
176
     1
 44
0.0
176
     1
173
     0
176
     1
  0
VISUALSTYLE
  5
2B
102
{ACAD_REACTORS
330
2A
102
}
330
2A
100
AcDbVisualStyle
  2
Flat
 70
     0
177
     2
291
     1
 71
     2
176
     1
 72
     1
176
     1
 73
     1
176
     1
 90
        2
176
     1
 40
-0.6
176
     1
 41
30.0
176
     1
 62
     5
 63
     7
421
 16777215
176
     1
 74
     0
176
     1
 91
        4
176
     1
 64
     7
176
     1
 65
   257
176
     1
 75
     1
176
     1
175
     1
176
     1
 42
1.0
176
     1
 92
        8
176
     1
 66
     7
176
     1
 43
1.0
176
     1
 76
     1
176
     1
 77
     6
176
     1
 78
     2
176
     1
 67
     7
176
     1
 79
     5
176
     1
170
     0
176
     1
171
     0
176
     1
290
     0
176
     1
 93
       13
176
     1
 44
0.0
176
     1
173
     0
176
     1
  0
VISUALSTYLE
  5
2C
102
{ACAD_REACTORS
330
2A
102
}
330
2A
100
AcDbVisualStyle
  2
FlatWithEdges
 70
     1
177
     2
291
     1
 71
     2
176
     1
 72
     1
176
     1
 73
     1
176
     1
 90
        2
176
     1
 40
-0.6
176
     1
 41
30.0
176
     1
 62
     5
 63
     7
421
 16777215
176
     1
 74
     1
176
     1
 91
        4
176
     1
 64
     7
176
     1
 65
   257
176
     1
 75
     1
176
     1
175
     1
176
     1
 42
1.0
176
     1
 92
        0
176
     1
 66
   257
176
     1
 43
1.0
176
     1
 76
     1
176
     1
 77
     6
176
     1
 78
     2
176
     1
 67
     7
176
     1
 79
     5
176
     1
170
     0
176
     1
171
     0
176
     1
290
     0
176
     1
 93
       13
176
     1
 44
0.0
176
     1
173
     0
176
     1
  0
VISUALSTYLE
  5
2D
102
{ACAD_REACTORS
330
2A
102
}
330
2A
100
AcDbVisualStyle
  2
Gouraud
 70
     2
177
     2
291
     1
 71
     2
176
     1
 72
     2
176
     1
 73
     1
176
     1
 90
        2
176
     1
 40
-0.6
176
     1
 41
30.0
176
     1
 62
     5
 63
     7
421
 16777215
176
     1
 74
     0
176
     1
 91
        4
176
     1
 64
     7
176
     1
 65
   257
176
     1
 75
     1
176
     1
175
     1
176
     1
 42
1.0
176
     1
 92
        0
176
     1
 66
     7
176
     1
 43
1.0
176
     1
 76
     1
176
     1
 77
     6
176
     1
 78
     2
176
     1
 67
     7
176
     1
 79
     5
176
     1
170
     0
176
     1
171
     0
176
     1
290
     0
176
     1
 93
       13
176
     1
 44
0.0
176
     1
173
     0
176
     1
  0
VISUALSTYLE
  5
2E
102
{ACAD_REACTORS
330
2A
102
}
330
2A
100
AcDbVisualStyle
  2
GouraudWithEdges
 70
     3
177
     2
291
     1
 71
     2
176
     1
 72
     2
176
     1
 73
     1
176
     1
 90
        2
176
     1
 40
-0.6
176
     1
 41
30.0
176
     1
 62
     5
 63
     7
421
 16777215
176
     1
 74
     1
176
     1
 91
        4
176
     1
 64
     7
176
     1
 65
   257
176
     1
 75
     1
176
     1
175
     1
176
     1
 42
1.0
176
     1
 92
        0
176
     1
 66
   257
176
     1
 43
1.0
176
     1
 76
     1
176
     1
 77
     6
176
     1
 78
     2
176
     1
 67
     7
176
     1
 79
     5
176
     1
170
     0
176
     1
171
     0
176
     1
290
     0
176
     1
 93
       13
176
     1
 44
0.0
176
     1
173
     0
176
     1
  0
VISUALSTYLE
  5
38
102
{ACAD_REACTORS
330
2A
102
}
330
2A
100
AcDbVisualStyle
  2
Linepattern
 70
    14
177
     2
291
     1
 71
     2
176
     1
 72
     2
176
     1
 73
     0
176
     1
 90
        0
176
     1
 40
-0.6
176
     1
 41
-30.0
176
     1
 62
     5
 63
     7
421
 16777215
176
     1
 74
     1
176
     1
 91
        4
176
     1
 64
     7
176
     1
 65
   257
176
     1
 75
     7
176
     1
175
     7
176
     1
 42
1.0
176
     1
 92
        8
176
     1
 66
     7
176
     1
 43
1.0
176
     1
 76
     1
176
     1
 77
     6
176
     1
 78
     2
176
     1
 67
     7
176
     1
 79
     5
176
     1
170
     0
176
     1
171
     0
176
     1
290
     0
176
     1
 93
        1
176
     1
 44
0.0
176
     1
173
     0
176
     1
  0
VISUALSTYLE
  5
33
102
{ACAD_REACTORS
330
2A
102
}
330
2A
100
AcDbVisualStyle
  2
Realistic
 70
     8
177
     2
291
     0
 71
     2
176
     1
 72
     2
176
     1
 73
     0
176
     1
 90
        0
176
     1
 40
-0.6
176
     1
 41
-30.0
176
     1
 62
     5
 63
     7
421
 16777215
176
     1
 74
     1
176
     1
 91
        0
176
     1
 64
     7
176
     1
 65
   257
176
     1
 75
     1
176
     1
175
     1
176
     1
 42
1.0
176
     1
 92
        8
176
     1
 66
     8
424
  7895160
176
     1
 43
1.0
176
     1
 76
     1
176
     1
 77
     6
176
     1
 78
     2
176
     1
 67
     7
176
     1
 79
     5
176
     1
170
     0
176
     1
171
     0
176
     1
290
     0
176
     1
 93
       13
176
     1
 44
0.0
176
     1
173
     0
176
     1
  0
VISUALSTYLE
  5
37
102
{ACAD_REACTORS
330
2A
102
}
330
2A
100
AcDbVisualStyle
  2
Thicken
 70
    13
177
     2
291
     1
 71
     2
176
     1
 72
     2
176
     1
 73
     0
176
     1
 90
        0
176
     1
 40
-0.6
176
     1
 41
-30.0
176
     1
 62
     5
 63
     7
421
 16777215
176
     1
 74
     1
176
     1
 91
        4
176
     1
 64
     7
176
     1
 65
   257
176
     1
 75
     1
176
     1
175
     1
176
     1
 42
1.0
176
     1
 92
       12
176
     1
 66
     7
176
     1
 43
1.0
176
     1
 76
     1
176
     1
 77
     6
176
     1
 78
     2
176
     1
 67
     7
176
     1
 79
     5
176
     1
170
     0
176
     1
171
     0
176
     1
290
     0
176
     1
 93
        1
176
     1
 44
0.0
176
     1
173
     0
176
     1
  0
ENDSEC
  0
EOF
