  0
SECTION
  2
HEADER
  9
$ACADVER
  1
AC1024
  9
$ACADMAINTVER
 70
     6
  9
$DWGCODEPAGE
  3
UNDEFINED
  9
$INSBASE
 10
0.0
 20
0.0
 30
0.0
  9
$EXTMIN
 10
1.000000000000000E+20
 20
1.000000000000000E+20
 30
1.000000000000000E+20
  9
$EXTMAX
 10
-1.000000000000000E+20
 20
-1.000000000000000E+20
 30
-1.000000000000000E+20
  9
$LIMMIN
 10
0.0
 20
0.0
  9
$LIMMAX
 10
12.0
 20
9.0
  9
$ORTHOMODE
 70
     0
  9
$REGENMODE
 70
     1
  9
$FILLMODE
 70
     1
  9
$QTEXTMODE
 70
     0
  9
$MIRRTEXT
 70
     1
  9
$LTSCALE
 40
1.0
  9
$ATTMODE
 70
     1
  9
$TEXTSIZE
 40
0.2
  9
$TRACEWID
 40
0.05
  9
$TEXTSTYLE
  7
Standard
  9
$CLAYER
  8
0
  9
$CELTYPE
  6
ByLayer
  9
$CECOLOR
 62
   256
  9
$CELTSCALE
 40
1.0
  9
$DISPSILH
 70
     0
  9
$DIMSCALE
 40
1.0
  9
$DIMASZ
 40
0.18
  9
$DIMEXO
 40
0.0625
  9
$DIMDLI
 40
0.38
  9
$DIMRND
 40
0.0
  9
$DIMDLE
 40
0.0
  9
$DIMEXE
 40
0.18
  9
$DIMTP
 40
0.0
  9
$DIMTM
 40
0.0
  9
$DIMTXT
 40
0.18
  9
$DIMCEN
 40
0.09
  9
$DIMTSZ
 40
0.0
  9
$DIMTOL
 70
     0
  9
$DIMLIM
 70
     0
  9
$DIMTIH
 70
     1
  9
$DIMTOH
 70
     1
  9
$DIMSE1
 70
     0
  9
$DIMSE2
 70
     0
  9
$DIMTAD
 70
     0
  9
$DIMZIN
 70
     0
  9
$DIMBLK
  1

  9
$DIMASO
 70
     1
  9
$DIMSHO
 70
     1
  9
$DIMPOST
  1

  9
$DIMAPOST
  1

  9
$DIMALT
 70
     0
  9
$DIMALTD
 70
     2
  9
$DIMALTF
 40
25.4
  9
$DIMLFAC
 40
1.0
  9
$DIMTOFL
 70
     0
  9
$DIMTVP
 40
0.0
  9
$DIMTIX
 70
     0
  9
$DIMSOXD
 70
     0
  9
$DIMSAH
 70
     0
  9
$DIMBLK1
  1

  9
$DIMBLK2
  1

  9
$DIMSTYLE
  2
Standard
  9
$DIMCLRD
 70
     0
  9
$DIMCLRE
 70
     0
  9
$DIMCLRT
 70
     0
  9
$DIMTFAC
 40
1.0
  9
$DIMGAP
 40
0.09
  9
$DIMJUST
 70
     0
  9
$DIMSD1
 70
     0
  9
$DIMSD2
 70
     0
  9
$DIMTOLJ
 70
     1
  9
$DIMTZIN
 70
     0
  9
$DIMALTZ
 70
     0
  9
$DIMALTTZ
 70
     0
  9
$DIMUPT
 70
     0
  9
$DIMDEC
 70
     4
  9
$DIMTDEC
 70
     4
  9
$DIMALTU
 70
     2
  9
$DIMALTTD
 70
     2
  9
$DIMTXSTY
  7
Standard
  9
$DIMAUNIT
 70
     0
  9
$DIMADEC
 70
     0
  9
$DIMALTRND
 40
0.0
  9
$DIMAZIN
 70
     0
  9
$DIMDSEP
 70
    46
  9
$DIMATFIT
 70
     3
  9
$DIMFRAC
 70
     0
  9
$DIMLDRBLK
  1

  9
$DIMLUNIT
 70
     2
  9
$DIMLWD
 70
    -2
  9
$DIMLWE
 70
    -2
  9
$DIMTMOVE
 70
     0
  9
$DIMFXL
 40
1.0
  9
$DIMFXLON
 70
     0
  9
$DIMJOGANG
 40
0.7853981633974483
  9
$DIMTFILL
 70
     0
  9
$DIMTFILLCLR
 70
     0
  9
$DIMARCSYM
 70
     0
  9
$DIMLTYPE
  6

  9
$DIMLTEX1
  6

  9
$DIMLTEX2
  6

  9
$DIMTXTDIRECTION
 70
     0
  9
$LUNITS
 70
     2
  9
$LUPREC
 70
     4
  9
$SKETCHINC
 40
0.1
  9
$FILLETRAD
 40
0.5
  9
$AUNITS
 70
     0
  9
$AUPREC
 70
     0
  9
$MENU
  1
.
  9
$ELEVATION
 40
0.0
  9
$PELEVATION
 40
0.0
  9
$THICKNESS
 40
0.0
  9
$LIMCHECK
 70
     0
  9
$CHAMFERA
 40
0.5
  9
$CHAMFERB
 40
0.5
  9
$CHAMFERC
 40
1.0
  9
$CHAMFERD
 40
0.0
  9
$SKPOLY
 70
     0
  9
$TDCREATE
 40
2457917.591678241
  9
$TDUCREATE
 40
2457917.216678241
  9
$TDUPDATE
 40
2457917.591678241
  9
$TDUUPDATE
 40
2457917.216678241
  9
$TDINDWG
 40
0.0000000116
  9
$TDUSRTIMER
 40
0.0000000116
  9
$USRTIMER
 70
     1
  9
$ANGBASE
 50
0.0
  9
$ANGDIR
 70
     0
  9
$PDMODE
 70
     0
  9
$PDSIZE
 40
0.0
  9
$PLINEWID
 40
0.0
  9
$SPLFRAME
 70
     0
  9
$SPLINETYPE
 70
     6
  9
$SPLINESEGS
 70
     8
  9
$HANDSEED
  5
110
  9
$SURFTAB1
 70
     6
  9
$SURFTAB2
 70
     6
  9
$SURFTYPE
 70
     6
  9
$SURFU
 70
     6
  9
$SURFV
 70
     6
  9
$UCSBASE
  2

  9
$UCSNAME
  2

  9
$UCSORG
 10
0.0
 20
0.0
 30
0.0
  9
$UCSXDIR
 10
1.0
 20
0.0
 30
0.0
  9
$UCSYDIR
 10
0.0
 20
1.0
 30
0.0
  9
$UCSORTHOREF
  2

  9
$UCSORTHOVIEW
 70
     0
  9
$UCSORGTOP
 10
0.0
 20
0.0
 30
0.0
  9
$UCSORGBOTTOM
 10
0.0
 20
0.0
 30
0.0
  9
$UCSORGLEFT
 10
0.0
 20
0.0
 30
0.0
  9
$UCSORGRIGHT
 10
0.0
 20
0.0
 30
0.0
  9
$UCSORGFRONT
 10
0.0
 20
0.0
 30
0.0
  9
$UCSORGBACK
 10
0.0
 20
0.0
 30
0.0
  9
$PUCSBASE
  2

  9
$PUCSNAME
  2

  9
$PUCSORG
 10
0.0
 20
0.0
 30
0.0
  9
$PUCSXDIR
 10
1.0
 20
0.0
 30
0.0
  9
$PUCSYDIR
 10
0.0
 20
1.0
 30
0.0
  9
$PUCSORTHOREF
  2

  9
$PUCSORTHOVIEW
 70
     0
  9
$PUCSORGTOP
 10
0.0
 20
0.0
 30
0.0
  9
$PUCSORGBOTTOM
 10
0.0
 20
0.0
 30
0.0
  9
$PUCSORGLEFT
 10
0.0
 20
0.0
 30
0.0
  9
$PUCSORGRIGHT
 10
0.0
 20
0.0
 30
0.0
  9
$PUCSORGFRONT
 10
0.0
 20
0.0
 30
0.0
  9
$PUCSORGBACK
 10
0.0
 20
0.0
 30
0.0
  9
$USERI1
 70
     0
  9
$USERI2
 70
     0
  9
$USERI3
 70
     0
  9
$USERI4
 70
     0
  9
$USERI5
 70
     0
  9
$USERR1
 40
0.0
  9
$USERR2
 40
0.0
  9
$USERR3
 40
0.0
  9
$USERR4
 40
0.0
  9
$USERR5
 40
0.0
  9
$WORLDVIEW
 70
     1
  9
$SHADEDGE
 70
     3
  9
$SHADEDIF
 70
    70
  9
$TILEMODE
 70
     1
  9
$MAXACTVP
 70
    64
  9
$PINSBASE
 10
0.0
 20
0.0
 30
0.0
  9
$PLIMCHECK
 70
     0
  9
$PEXTMIN
 10
1.000000000000000E+20
 20
1.000000000000000E+20
 30
1.000000000000000E+20
  9
$PEXTMAX
 10
-1.000000000000000E+20
 20
-1.000000000000000E+20
 30
-1.000000000000000E+20
  9
$PLIMMIN
 10
0.0
 20
0.0
  9
$PLIMMAX
 10
12.0
 20
9.0
  9
$UNITMODE
 70
     0
  9
$VISRETAIN
 70
     1
  9
$PLINEGEN
 70
     0
  9
$PSLTSCALE
 70
     1
  9
$TREEDEPTH
 70
  3020
  9
$CMLSTYLE
  2
Standard
  9
$CMLJUST
 70
     0
  9
$CMLSCALE
 40
1.0
  9
$PROXYGRAPHICS
 70
     1
  9
$MEASUREMENT
 70
     0
  9
$CELWEIGHT
370
    -1
  9
$ENDCAPS
280
     0
  9
$JOINSTYLE
280
     0
  9
$LWDISPLAY
290
     1
  9
$INSUNITS
 70
     1
  9
$HYPERLINKBASE
  1

  9
$STYLESHEET
  1

  9
$XEDIT
290
     1
  9
$CEPSNTYPE
380
     0
  9
$PSTYLEMODE
290
     1
  9
$FINGERPRINTGUID
  2
{660D73DF-1D7E-F03B-875C-77CD33083D10}
  9
$VERSIONGUID
  2
{FAEB1C32-E019-11D5-929B-00C0DF256EC4}
  9
$EXTNAMES
290
     1
  9
$PSVPSCALE
 40
0.0
  9
$OLESTARTUP
290
     0
  9
$SORTENTS
280
   127
  9
$INDEXCTL
280
     0
  9
$HIDETEXT
280
     1
  9
$XCLIPFRAME
280
     2
  9
$HALOGAP
280
     0
  9
$OBSCOLOR
 70
   257
  9
$OBSLTYPE
280
     0
  9
$INTERSECTIONDISPLAY
280
     0
  9
$INTERSECTIONCOLOR
 70
   257
  9
$DIMASSOC
280
     2
  9
$PROJECTNAME
  1

  9
$CAMERADISPLAY
290
     0
  9
$LENSLENGTH
 40
50.0
  9
$CAMERAHEIGHT
 40
0.0
  9
$STEPSPERSEC
 40
2.0
  9
$STEPSIZE
 40
6.0
  9
$3DDWFPREC
 40
2.0
  9
$PSOLWIDTH
 40
0.25
  9
$PSOLHEIGHT
 40
4.0
  9
$LOFTANG1
 40
1.570796326794897
  9
$LOFTANG2
 40
1.570796326794897
  9
$LOFTMAG1
 40
0.0
  9
$LOFTMAG2
 40
0.0
  9
$LOFTPARAM
 70
     7
  9
$LOFTNORMALS
280
     1
  9
$LATITUDE
 40
37.795
  9
$LONGITUDE
 40
-122.394
  9
$NORTHDIRECTION
 40
0.0
  9
$TIMEZONE
 70
 -8000
  9
$LIGHTGLYPHDISPLAY
280
     1
  9
$TILEMODELIGHTSYNCH
280
     1
  9
$CMATERIAL
347
3C
  9
$SOLIDHIST
280
     1
  9
$SHOWHIST
280
     1
  9
$DWFFRAME
280
     2
  9
$DGNFRAME
280
     2
  9
$REALWORLDSCALE
290
     1
  9
$INTERFERECOLOR
 62
   256
  9
$CSHADOW
280
     0
  9
$SHADOWPLANELOCATION
 40
0.0
  0
ENDSEC
  0
SECTION
  2
CLASSES
  0
CLASS
  1
ACDBDICTIONARYWDFLT
  2
AcDbDictionaryWithDefault
  3
ObjectDBX Classes
 90
        0
 91
        4
280
     0
281
     0
  0
CLASS
  1
VISUALSTYLE
  2
AcDbVisualStyle
  3
ObjectDBX Classes
 90
     4095
 91
        4
280
     0
281
     0
  0
CLASS
  1
MATERIAL
  2
AcDbMaterial
  3
ObjectDBX Classes
 90
     1153
 91
        4
280
     0
281
     0
  0
CLASS
  1
SUN
  2
AcDbSun
  3
SCENEOE
 90
     1024
 91
        4
280
     0
281
     0
  0
ENDSEC
  0
SECTION
  2
TABLES
  0
TABLE
  2
VPORT
  5
8
330
0
100
AcDbSymbolTable
 70
     1
  0
VPORT
  5
29
330
8
100
AcDbSymbolTableRecord
100
AcDbViewportTableRecord
  2
*Active
 70
     0
 10
0.0
 20
0.0
 11
1.0
 21
1.0
 12
0.0
 22
0.0
 13
0.0
 23
0.0
 14
0.5
 24
0.5
 15
0.5
 25
0.5
 16
0.0
 26
0.0
 36
1.0
 17
91.00082462281999
 27
-128.4993055234307
 37
0.0
 40
256.9986110468615
 41
0.7081814508812795
 42
50.0
 43
0.0
 44
0.0
 50
0.0
 51
0.0
 71
     0
 72
   100
 73
     1
 74
     3
 75
     0
 76
     0
 77
     0
 78
     0
281
     0
 65
     1
110
0.0
120
0.0
130
0.0
111
1.0
121
0.0
131
0.0
112
0.0
122
1.0
132
0.0
 79
     0
146
0.0
 60
     3
 61
     5
292
     1
282
     1
141
0.0
142
0.0
 63
   250
361
3F
  0
ENDTAB
  0
TABLE
  2
LTYPE
  5
5
330
0
100
AcDbSymbolTable
 70
     1
  0
LTYPE
  5
14
330
5
100
AcDbSymbolTableRecord
100
AcDbLinetypeTableRecord
  2
ByBlock
 70
     0
  3

 72
    65
 73
     0
 40
0.0
  0
LTYPE
  5
15
330
5
100
AcDbSymbolTableRecord
100
AcDbLinetypeTableRecord
  2
ByLayer
 70
     0
  3

 72
    65
 73
     0
 40
0.0
  0
LTYPE
  5
16
330
5
100
AcDbSymbolTableRecord
100
AcDbLinetypeTableRecord
  2
Continuous
 70
     0
  3
Solid line
 72
    65
 73
     0
 40
0.0
  0
ENDTAB
  0
TABLE
  2
LAYER
  5
2
330
0
100
AcDbSymbolTable
 70
     2
  0
LAYER
  5
10
330
2
100
AcDbSymbolTableRecord
100
AcDbLayerTableRecord
  2
0
 70
     0
 62
     7
  6
Continuous
370
    -3
390
F
347
3E
  0
LAYER
  5
40
330
2
100
AcDbSymbolTableRecord
100
AcDbLayerTableRecord
  2
_U+30EC_U+30A4_U+30E4_U+30FC 1
 70
     0
 62
     7
  6
Continuous
370
    -3
390
F
347
3E
  0
ENDTAB
  0
TABLE
  2
STYLE
  5
3
330
0
100
AcDbSymbolTable
 70
     1
  0
STYLE
  5
11
330
3
100
AcDbSymbolTableRecord
100
AcDbTextStyleTableRecord
  2
Standard
 70
     0
 40
0.0
 41
1.0
 50
0.0
 71
     0
 42
0.2
  3
txt
  4

  0
ENDTAB
  0
TABLE
  2
VIEW
  5
6
330
0
100
AcDbSymbolTable
 70
     0
  0
ENDTAB
  0
TABLE
  2
UCS
  5
7
330
0
100
AcDbSymbolTable
 70
     0
  0
ENDTAB
  0
TABLE
  2
APPID
  5
9
330
0
100
AcDbSymbolTable
 70
     1
  0
APPID
  5
12
330
9
100
AcDbSymbolTableRecord
100
AcDbRegAppTableRecord
  2
ACAD
 70
     0
  0
ENDTAB
  0
TABLE
  2
DIMSTYLE
  5
A
330
0
100
AcDbSymbolTable
 70
     1
100
AcDbDimStyleTable
  0
DIMSTYLE
105
27
330
A
100
AcDbSymbolTableRecord
100
AcDbDimStyleTableRecord
  2
Standard
 70
     0
178
     0
340
11
  0
ENDTAB
  0
TABLE
  2
BLOCK_RECORD
  5
1
330
0
100
AcDbSymbolTable
 70
     9
  0
BLOCK_RECORD
  5
1F
330
1
100
AcDbSymbolTableRecord
100
AcDbBlockTableRecord
  2
*Model_Space
340
22
 70
     0
280
     1
281
     0
  0
BLOCK_RECORD
  5
1B
330
1
100
AcDbSymbolTableRecord
100
AcDbBlockTableRecord
  2
*Paper_Space
340
1E
 70
     0
280
     1
281
     0
  0
BLOCK_RECORD
  5
23
330
1
100
AcDbSymbolTableRecord
100
AcDbBlockTableRecord
  2
*Paper_Space0
340
26
 70
     0
280
     1
281
     0
  0
BLOCK_RECORD
  5
54
330
1
100
AcDbSymbolTableRecord
100
AcDbBlockTableRecord
  2
block 2
340
0
102
{BLKREFS
331
55
102
}
 70
     0
280
     1
281
     0
  0
BLOCK_RECORD
  5
5D
330
1
100
AcDbSymbolTableRecord
100
AcDbBlockTableRecord
  2
block 3
340
0
102
{BLKREFS
331
5E
102
}
 70
     0
280
     1
281
     0
  0
BLOCK_RECORD
  5
81
330
1
100
AcDbSymbolTableRecord
100
AcDbBlockTableRecord
  2
block 4
340
0
102
{BLKREFS
331
82
102
}
 70
     0
280
     1
281
     0
  0
BLOCK_RECORD
  5
9C
330
1
100
AcDbSymbolTableRecord
100
AcDbBlockTableRecord
  2
block 5
340
0
102
{BLKREFS
331
9D
102
}
 70
     0
280
     1
281
     0
  0
BLOCK_RECORD
  5
B0
330
1
100
AcDbSymbolTableRecord
100
AcDbBlockTableRecord
  2
block 6
340
0
102
{BLKREFS
331
B1
102
}
 70
     0
280
     1
281
     0
  0
BLOCK_RECORD
  5
E5
330
1
100
AcDbSymbolTableRecord
100
AcDbBlockTableRecord
  2
block 7
340
0
102
{BLKREFS
331
E6
102
}
 70
     0
280
     1
281
     0
  0
BLOCK_RECORD
  5
EB
330
1
100
AcDbSymbolTableRecord
100
AcDbBlockTableRecord
  2
block 8
340
0
102
{BLKREFS
331
EC
102
}
 70
     0
280
     1
281
     0
  0
BLOCK_RECORD
  5
F3
330
1
100
AcDbSymbolTableRecord
100
AcDbBlockTableRecord
  2
block 9
340
0
102
{BLKREFS
331
F4
102
}
 70
     0
280
     1
281
     0
  0
ENDTAB
  0
ENDSEC
  0
SECTION
  2
BLOCKS
  0
BLOCK
  5
20
330
1F
100
AcDbEntity
  8
0
100
AcDbBlockBegin
  2
*Model_Space
 70
     0
 10
0.0
 20
0.0
 30
0.0
  3
*Model_Space
  1

  0
ENDBLK
  5
21
330
1F
100
AcDbEntity
  8
0
100
AcDbBlockEnd
  0
BLOCK
  5
1C
330
1B
100
AcDbEntity
 67
     1
  8
0
100
AcDbBlockBegin
  2
*Paper_Space
 70
     0
 10
0.0
 20
0.0
 30
0.0
  3
*Paper_Space
  1

  0
ENDBLK
  5
1D
330
1B
100
AcDbEntity
 67
     1
  8
0
100
AcDbBlockEnd
  0
BLOCK
  5
24
330
23
100
AcDbEntity
  8
0
100
AcDbBlockBegin
  2
*Paper_Space0
 70
     0
 10
0.0
 20
0.0
 30
0.0
  3
*Paper_Space0
  1

  0
ENDBLK
  5
25
330
23
100
AcDbEntity
  8
0
100
AcDbBlockEnd
  0
BLOCK
  5
56
330
54
100
AcDbEntity
  8
0
100
AcDbBlockBegin
  2
block 2
 70
     0
 10
0.0
 20
0.0
 30
0.0
  3
block 2
  1

  0
SPLINE
  5
58
330
54
100
AcDbEntity
  8
_U+30EC_U+30A4_U+30E4_U+30FC 1
370
     0
100
AcDbSpline
210
0.0
220
0.0
230
1.0
 70
    11
 71
     3
 72
    26
 73
    22
 74
     0
 42
0.0000000001
 43
0.0000000001
 12
1.0
 22
0.0
 32
0.0
 13
1.0
 23
0.0
 33
0.0
 40
0.0
 40
0.0
 40
0.0
 40
0.0
 40
1.0
 40
1.0
 40
1.0
 40
2.0
 40
2.0
 40
2.0
 40
3.0
 40
3.0
 40
3.0
 40
4.0
 40
4.0
 40
4.0
 40
5.0
 40
5.0
 40
5.0
 40
6.0
 40
6.0
 40
6.0
 40
7.0
 40
7.0
 40
7.0
 40
7.0
 10
86.4880886285516
 20
-147.2358018295105
 30
0.0
 10
86.4880886285516
 20
-147.2358018295105
 30
0.0
 10
86.4880886285516
 20
-146.1316487264879
 30
0.0
 10
86.4880886285516
 20
-146.1316487264879
 30
0.0
 10
86.4880886285516
 20
-146.1316487264879
 30
0.0
 10
86.13531085086201
 20
-146.1316487264879
 30
0.0
 10
86.13531085086201
 20
-146.1316487264879
 30
0.0
 10
86.13531085086201
 20
-146.1316487264879
 30
0.0
 10
86.13531085086201
 20
-145.9835096206222
 30
0.0
 10
86.13531085086201
 20
-145.9835096206222
 30
0.0
 10
86.49032794061701
 20
-145.9686957100356
 30
0.0
 10
86.54010957037886
 20
-145.8057426935833
 30
0.0
 10
86.57180444884317
 20
-145.691365523473
 30
0.0
 10
86.57180444884317
 20
-145.691365523473
 30
0.0
 10
86.72769501955072
 20
-145.691365523473
 30
0.0
 10
86.72769501955072
 20
-145.691365523473
 30
0.0
 10
86.72769501955072
 20
-145.691365523473
 30
0.0
 10
86.72769501955072
 20
-147.2358018295105
 30
0.0
 10
86.72769501955072
 20
-147.2358018295105
 30
0.0
 10
86.72769501955072
 20
-147.2358018295105
 30
0.0
 10
86.4880886285516
 20
-147.2358018295105
 30
0.0
 10
86.4880886285516
 20
-147.2358018295105
 30
0.0
  0
HATCH
  5
59
330
54
100
AcDbEntity
  8
_U+30EC_U+30A4_U+30E4_U+30FC 1
 62
   179
420
  2234388
100
AcDbHatch
 10
0.0
 20
0.0
 30
0.0
210
0.0
220
0.0
230
1.0
  2
SOLID
 70
     1
 71
     0
 91
        1
 92
        1
 93
        1
 72
     4
 94
        3
 73
     0
 74
     1
 95
       26
 96
       22
 40
0.0
 40
0.0
 40
0.0
 40
0.0
 40
1.0
 40
1.0
 40
1.0
 40
2.0
 40
2.0
 40
2.0
 40
3.0
 40
3.0
 40
3.0
 40
4.0
 40
4.0
 40
4.0
 40
5.0
 40
5.0
 40
5.0
 40
6.0
 40
6.0
 40
6.0
 40
7.0
 40
7.0
 40
7.0
 40
7.0
 10
86.4880886285516
 20
-147.2358018295105
 10
86.4880886285516
 20
-147.2358018295105
 10
86.4880886285516
 20
-146.1316487264879
 10
86.4880886285516
 20
-146.1316487264879
 10
86.4880886285516
 20
-146.1316487264879
 10
86.13531085086201
 20
-146.1316487264879
 10
86.13531085086201
 20
-146.1316487264879
 10
86.13531085086201
 20
-146.1316487264879
 10
86.13531085086201
 20
-145.9835096206222
 10
86.13531085086201
 20
-145.9835096206222
 10
86.49032794061701
 20
-145.9686957100356
 10
86.54010957037886
 20
-145.8057426935833
 10
86.57180444884317
 20
-145.691365523473
 10
86.57180444884317
 20
-145.691365523473
 10
86.72769501955072
 20
-145.691365523473
 10
86.72769501955072
 20
-145.691365523473
 10
86.72769501955072
 20
-145.691365523473
 10
86.72769501955072
 20
-147.2358018295105
 10
86.72769501955072
 20
-147.2358018295105
 10
86.72769501955072
 20
-147.2358018295105
 10
86.4880886285516
 20
-147.2358018295105
 10
86.4880886285516
 20
-147.2358018295105
 97
        0
 97
        0
 75
     2
 76
     1
 98
        0
  0
SPLINE
  5
5A
330
54
100
AcDbEntity
  8
_U+30EC_U+30A4_U+30E4_U+30FC 1
370
     0
100
AcDbSpline
210
0.0
220
0.0
230
1.0
 70
    11
 71
     3
 72
    29
 73
    25
 74
     0
 42
0.0000000001
 43
0.0000000001
 12
1.0
 22
0.0
 32
0.0
 13
1.0
 23
0.0
 33
0.0
 40
0.0
 40
0.0
 40
0.0
 40
0.0
 40
1.0
 40
1.0
 40
1.0
 40
2.0
 40
2.0
 40
2.0
 40
3.0
 40
3.0
 40
3.0
 40
4.0
 40
4.0
 40
4.0
 40
5.0
 40
5.0
 40
5.0
 40
6.0
 40
6.0
 40
6.0
 40
7.0
 40
7.0
 40
7.0
 40
8.0
 40
8.0
 40
8.0
 40
8.0
 10
88.22286646014915
 20
-147.0580349024716
 30
0.0
 10
88.10762801616754
 20
-147.2674967079748
 30
0.0
 10
87.9222818790611
 20
-147.2864447331437
 30
0.0
 10
87.79791393204358
 20
-147.2864447331437
 30
0.0
 10
87.62600366732961
 20
-147.2864447331437
 30
0.0
 10
87.47459172075288
 20
-147.2399359440928
 30
0.0
 10
87.37278914916375
 20
-147.0580349024716
 30
0.0
 10
87.26202932931297
 20
-146.863387007555
 30
0.0
 10
87.24170326595
 20
-146.6263644381698
 30
0.0
 10
87.24170326595
 20
-146.463755931266
 30
0.0
 10
87.24170326595
 20
-146.3197509399826
 30
0.0
 10
87.25979001724755
 20
-146.0679144600108
 30
0.0
 10
87.37278914916375
 20
-145.8691324505119
 30
0.0
 10
87.48819984791962
 20
-145.6662163264307
 30
0.0
 10
87.65993785785932
 20
-145.642789677131
 30
0.0
 10
87.79791393204358
 20
-145.642789677131
 30
0.0
 10
87.96741262991787
 20
-145.642789677131
 30
0.0
 10
88.12123614333427
 20
-145.6872314088907
 30
0.0
 10
88.22286646014915
 20
-145.8691324505119
 30
0.0
 10
88.32914765586911
 20
-146.0617132881374
 30
0.0
 10
88.3539523433629
 20
-146.2901231188094
 30
0.0
 10
88.3539523433629
 20
-146.463755931266
 30
0.0
 10
88.3539523433629
 20
-146.6349771768829
 30
0.0
 10
88.33138696793452
 20
-146.8654540648461
 30
0.0
 10
88.22286646014915
 20
-147.0580349024716
 30
0.0
  0
SPLINE
  5
5B
330
54
100
AcDbEntity
  8
_U+30EC_U+30A4_U+30E4_U+30FC 1
370
     0
100
AcDbSpline
210
0.0
220
0.0
230
1.0
 70
    11
 71
     3
 72
    17
 73
    13
 74
     0
 42
0.0000000001
 43
0.0000000001
 12
1.0
 22
0.0
 32
0.0
 13
1.0
 23
0.0
 33
0.0
 40
0.0
 40
0.0
 40
0.0
 40
0.0
 40
1.0
 40
1.0
 40
1.0
 40
2.0
 40
2.0
 40
2.0
 40
3.0
 40
3.0
 40
3.0
 40
4.0
 40
4.0
 40
4.0
 40
4.0
 10
87.79791393204358
 20
-145.8353705147564
 30
0.0
 10
87.53109128671097
 20
-145.8353705147564
 30
0.0
 10
87.48130965694912
 20
-146.1189018731925
 30
0.0
 10
87.48130965694912
 20
-146.463755931266
 30
0.0
 10
87.48130965694912
 20
-146.7831162827487
 30
0.0
 10
87.51972247160965
 20
-147.0917968382271
 30
0.0
 10
87.79791393204358
 20
-147.0917968382271
 30
0.0
 10
88.06232501053651
 20
-147.0917968382271
 30
0.0
 10
88.11434595236378
 20
-146.8106770466307
 30
0.0
 10
88.11434595236378
 20
-146.463755931266
 30
0.0
 10
88.11434595236378
 20
-146.1440510702348
 30
0.0
 10
88.07369382563783
 20
-145.8353705147564
 30
0.0
 10
87.79791393204358
 20
-145.8353705147564
 30
0.0
  0
HATCH
  5
5C
330
54
100
AcDbEntity
  8
_U+30EC_U+30A4_U+30E4_U+30FC 1
 62
   179
420
  2234388
100
AcDbHatch
 10
0.0
 20
0.0
 30
0.0
210
0.0
220
0.0
230
1.0
  2
SOLID
 70
     1
 71
     0
 91
        2
 92
        1
 93
        1
 72
     4
 94
        3
 73
     0
 74
     1
 95
       29
 96
       25
 40
0.0
 40
0.0
 40
0.0
 40
0.0
 40
1.0
 40
1.0
 40
1.0
 40
2.0
 40
2.0
 40
2.0
 40
3.0
 40
3.0
 40
3.0
 40
4.0
 40
4.0
 40
4.0
 40
5.0
 40
5.0
 40
5.0
 40
6.0
 40
6.0
 40
6.0
 40
7.0
 40
7.0
 40
7.0
 40
8.0
 40
8.0
 40
8.0
 40
8.0
 10
88.22286646014915
 20
-147.0580349024716
 10
88.10762801616754
 20
-147.2674967079748
 10
87.9222818790611
 20
-147.2864447331437
 10
87.79791393204358
 20
-147.2864447331437
 10
87.62600366732961
 20
-147.2864447331437
 10
87.47459172075288
 20
-147.2399359440928
 10
87.37278914916375
 20
-147.0580349024716
 10
87.26202932931297
 20
-146.863387007555
 10
87.24170326595
 20
-146.6263644381698
 10
87.24170326595
 20
-146.463755931266
 10
87.24170326595
 20
-146.3197509399826
 10
87.25979001724755
 20
-146.0679144600108
 10
87.37278914916375
 20
-145.8691324505119
 10
87.48819984791962
 20
-145.6662163264307
 10
87.65993785785932
 20
-145.642789677131
 10
87.79791393204358
 20
-145.642789677131
 10
87.96741262991787
 20
-145.642789677131
 10
88.12123614333427
 20
-145.6872314088907
 10
88.22286646014915
 20
-145.8691324505119
 10
88.32914765586911
 20
-146.0617132881374
 10
88.3539523433629
 20
-146.2901231188094
 10
88.3539523433629
 20
-146.463755931266
 10
88.3539523433629
 20
-146.6349771768829
 10
88.33138696793452
 20
-146.8654540648461
 10
88.22286646014915
 20
-147.0580349024716
 97
        0
 97
        0
 92
        1
 93
        1
 72
     4
 94
        3
 73
     0
 74
     1
 95
       17
 96
       13
 40
0.0
 40
0.0
 40
0.0
 40
0.0
 40
1.0
 40
1.0
 40
1.0
 40
2.0
 40
2.0
 40
2.0
 40
3.0
 40
3.0
 40
3.0
 40
4.0
 40
4.0
 40
4.0
 40
4.0
 10
87.79791393204358
 20
-145.8353705147564
 10
87.53109128671097
 20
-145.8353705147564
 10
87.48130965694912
 20
-146.1189018731925
 10
87.48130965694912
 20
-146.463755931266
 10
87.48130965694912
 20
-146.7831162827487
 10
87.51972247160965
 20
-147.0917968382271
 10
87.79791393204358
 20
-147.0917968382271
 10
88.06232501053651
 20
-147.0917968382271
 10
88.11434595236378
 20
-146.8106770466307
 10
88.11434595236378
 20
-146.463755931266
 10
88.11434595236378
 20
-146.1440510702348
 10
88.07369382563783
 20
-145.8353705147564
 10
87.79791393204358
 20
-145.8353705147564
 97
        0
 97
        0
 75
     2
 76
     1
 98
        0
  0
ENDBLK
  5
57
330
54
100
AcDbEntity
  8
0
100
AcDbBlockEnd
  0
BLOCK
  5
5F
330
5D
100
AcDbEntity
  8
0
100
AcDbBlockBegin
  2
block 3
 70
     0
 10
0.0
 20
0.0
 30
0.0
  3
block 3
  1

  0
SPLINE
  5
61
330
5D
100
AcDbEntity
  8
_U+30EC_U+30A4_U+30E4_U+30FC 1
370
     0
100
AcDbSpline
210
0.0
220
0.0
230
1.0
 70
    11
 71
     3
 72
    26
 73
    22
 74
     0
 42
0.0000000001
 43
0.0000000001
 12
1.0
 22
0.0
 32
0.0
 13
1.0
 23
0.0
 33
0.0
 40
0.0
 40
0.0
 40
0.0
 40
0.0
 40
1.0
 40
1.0
 40
1.0
 40
2.0
 40
2.0
 40
2.0
 40
3.0
 40
3.0
 40
3.0
 40
4.0
 40
4.0
 40
4.0
 40
5.0
 40
5.0
 40
5.0
 40
6.0
 40
6.0
 40
6.0
 40
7.0
 40
7.0
 40
7.0
 40
7.0
 10
75.48789874414886
 20
-147.2358018295105
 30
0.0
 10
75.48789874414886
 20
-147.2358018295105
 30
0.0
 10
75.48789874414886
 20
-146.1316487264879
 30
0.0
 10
75.48789874414886
 20
-146.1316487264879
 30
0.0
 10
75.48789874414886
 20
-146.1316487264879
 30
0.0
 10
75.13512096645928
 20
-146.1316487264879
 30
0.0
 10
75.13512096645928
 20
-146.1316487264879
 30
0.0
 10
75.13512096645928
 20
-146.1316487264879
 30
0.0
 10
75.13512096645928
 20
-145.9835096206222
 30
0.0
 10
75.13512096645928
 20
-145.9835096206222
 30
0.0
 10
75.49013805621428
 20
-145.9686957100356
 30
0.0
 10
75.53991968597613
 20
-145.8057426935833
 30
0.0
 10
75.57161456444044
 20
-145.691365523473
 30
0.0
 10
75.57161456444044
 20
-145.691365523473
 30
0.0
 10
75.727505135148
 20
-145.691365523473
 30
0.0
 10
75.727505135148
 20
-145.691365523473
 30
0.0
 10
75.727505135148
 20
-145.691365523473
 30
0.0
 10
75.727505135148
 20
-147.2358018295105
 30
0.0
 10
75.727505135148
 20
-147.2358018295105
 30
0.0
 10
75.727505135148
 20
-147.2358018295105
 30
0.0
 10
75.48789874414886
 20
-147.2358018295105
 30
0.0
 10
75.48789874414886
 20
-147.2358018295105
 30
0.0
  0
HATCH
  5
62
330
5D
100
AcDbEntity
  8
_U+30EC_U+30A4_U+30E4_U+30FC 1
 62
   179
420
  2234388
100
AcDbHatch
 10
0.0
 20
0.0
 30
0.0
210
0.0
220
0.0
230
1.0
  2
SOLID
 70
     1
 71
     0
 91
        1
 92
        1
 93
        1
 72
     4
 94
        3
 73
     0
 74
     1
 95
       26
 96
       22
 40
0.0
 40
0.0
 40
0.0
 40
0.0
 40
1.0
 40
1.0
 40
1.0
 40
2.0
 40
2.0
 40
2.0
 40
3.0
 40
3.0
 40
3.0
 40
4.0
 40
4.0
 40
4.0
 40
5.0
 40
5.0
 40
5.0
 40
6.0
 40
6.0
 40
6.0
 40
7.0
 40
7.0
 40
7.0
 40
7.0
 10
75.48789874414886
 20
-147.2358018295105
 10
75.48789874414886
 20
-147.2358018295105
 10
75.48789874414886
 20
-146.1316487264879
 10
75.48789874414886
 20
-146.1316487264879
 10
75.48789874414886
 20
-146.1316487264879
 10
75.13512096645928
 20
-146.1316487264879
 10
75.13512096645928
 20
-146.1316487264879
 10
75.13512096645928
 20
-146.1316487264879
 10
75.13512096645928
 20
-145.9835096206222
 10
75.13512096645928
 20
-145.9835096206222
 10
75.49013805621428
 20
-145.9686957100356
 10
75.53991968597613
 20
-145.8057426935833
 10
75.57161456444044
 20
-145.691365523473
 10
75.57161456444044
 20
-145.691365523473
 10
75.727505135148
 20
-145.691365523473
 10
75.727505135148
 20
-145.691365523473
 10
75.727505135148
 20
-145.691365523473
 10
75.727505135148
 20
-147.2358018295105
 10
75.727505135148
 20
-147.2358018295105
 10
75.727505135148
 20
-147.2358018295105
 10
75.48789874414886
 20
-147.2358018295105
 10
75.48789874414886
 20
-147.2358018295105
 97
        0
 97
        0
 75
     2
 76
     1
 98
        0
  0
SPLINE
  5
63
330
5D
100
AcDbEntity
  8
_U+30EC_U+30A4_U+30E4_U+30FC 1
370
     0
100
AcDbSpline
210
0.0
220
0.0
230
1.0
 70
    11
 71
     3
 72
    44
 73
    40
 74
     0
 42
0.0000000001
 43
0.0000000001
 12
1.0
 22
0.0
 32
0.0
 13
1.0
 23
0.0
 33
0.0
 40
0.0
 40
0.0
 40
0.0
 40
0.0
 40
1.0
 40
1.0
 40
1.0
 40
2.0
 40
2.0
 40
2.0
 40
3.0
 40
3.0
 40
3.0
 40
4.0
 40
4.0
 40
4.0
 40
5.0
 40
5.0
 40
5.0
 40
6.0
 40
6.0
 40
6.0
 40
7.0
 40
7.0
 40
7.0
 40
8.0
 40
8.0
 40
8.0
 40
9.0
 40
9.0
 40
9.0
 40
10.0
 40
10.0
 40
10.0
 40
11.0
 40
11.0
 40
11.0
 40
12.0
 40
12.0
 40
12.0
 40
13.0
 40
13.0
 40
13.0
 40
13.0
 10
76.8971150523903
 20
-146.6539252020518
 30
0.0
 10
76.66422659758742
 20
-146.8127441039218
 30
0.0
 10
76.56483559283797
 20
-146.8868136568547
 30
0.0
 10
76.51281465101069
 20
-147.0304741385896
 30
0.0
 10
76.51281465101069
 20
-147.0304741385896
 30
0.0
 10
77.34480521069852
 20
-147.0304741385896
 30
0.0
 10
77.34480521069852
 20
-147.0304741385896
 30
0.0
 10
77.34480521069852
 20
-147.0304741385896
 30
0.0
 10
77.34480521069852
 20
-147.2358018295105
 30
0.0
 10
77.34480521069852
 20
-147.2358018295105
 30
0.0
 10
77.34480521069852
 20
-147.2358018295105
 30
0.0
 10
76.24599200567809
 20
-147.2358018295105
 30
0.0
 10
76.24599200567809
 20
-147.2358018295105
 30
0.0
 10
76.2799261962078
 20
-146.8782009181416
 30
0.0
 10
76.35003388933264
 20
-146.7999972506264
 30
0.0
 10
76.76155054504572
 20
-146.5016519816038
 30
0.0
 10
77.03509112657457
 20
-146.3028699721048
 30
0.0
 10
77.1051988196994
 20
-146.2350015910454
 30
0.0
 10
77.1051988196994
 20
-146.097542281184
 30
0.0
 10
77.1051988196994
 20
-145.9790309964914
 30
0.0
 10
77.02820093560406
 20
-145.8481173680519
 30
0.0
 10
76.81805011100383
 20
-145.8481173680519
 30
0.0
 10
76.54003090534417
 20
-145.8481173680519
 30
0.0
 10
76.53090140230825
 20
-146.0785942560151
 30
0.0
 10
76.52642277817742
 20
-146.1950384834165
 30
0.0
 10
76.52642277817742
 20
-146.1950384834165
 30
0.0
 10
76.2868163871783
 20
-146.1950384834165
 30
0.0
 10
76.2868163871783
 20
-146.1950384834165
 30
0.0
 10
76.29577363543994
 20
-146.0679144600108
 30
0.0
 10
76.30714245054128
 20
-145.9559488567402
 30
0.0
 10
76.392925328124
 20
-145.8374375720476
 30
0.0
 10
76.51057533894527
 20
-145.6765516128864
 30
0.0
 10
76.70952960321846
 20
-145.642789677131
 30
0.0
 10
76.83389755023597
 20
-145.642789677131
 30
0.0
 10
77.1300035071932
 20
-145.642789677131
 30
0.0
 10
77.35152314689476
 20
-145.8267577760433
 30
0.0
 10
77.35152314689476
 20
-146.0996093384751
 30
0.0
 10
77.35152314689476
 20
-146.3283636786957
 30
0.0
 10
77.2273274546515
 20
-146.4275824286709
 30
0.0
 10
76.8971150523903
 20
-146.6539252020518
 30
0.0
  0
HATCH
  5
64
330
5D
100
AcDbEntity
  8
_U+30EC_U+30A4_U+30E4_U+30FC 1
 62
   179
420
  2234388
100
AcDbHatch
 10
0.0
 20
0.0
 30
0.0
210
0.0
220
0.0
230
1.0
  2
SOLID
 70
     1
 71
     0
 91
        1
 92
        1
 93
        1
 72
     4
 94
        3
 73
     0
 74
     1
 95
       44
 96
       40
 40
0.0
 40
0.0
 40
0.0
 40
0.0
 40
1.0
 40
1.0
 40
1.0
 40
2.0
 40
2.0
 40
2.0
 40
3.0
 40
3.0
 40
3.0
 40
4.0
 40
4.0
 40
4.0
 40
5.0
 40
5.0
 40
5.0
 40
6.0
 40
6.0
 40
6.0
 40
7.0
 40
7.0
 40
7.0
 40
8.0
 40
8.0
 40
8.0
 40
9.0
 40
9.0
 40
9.0
 40
10.0
 40
10.0
 40
10.0
 40
11.0
 40
11.0
 40
11.0
 40
12.0
 40
12.0
 40
12.0
 40
13.0
 40
13.0
 40
13.0
 40
13.0
 10
76.8971150523903
 20
-146.6539252020518
 10
76.66422659758742
 20
-146.8127441039218
 10
76.56483559283797
 20
-146.8868136568547
 10
76.51281465101069
 20
-147.0304741385896
 10
76.51281465101069
 20
-147.0304741385896
 10
77.34480521069852
 20
-147.0304741385896
 10
77.34480521069852
 20
-147.0304741385896
 10
77.34480521069852
 20
-147.0304741385896
 10
77.34480521069852
 20
-147.2358018295105
 10
77.34480521069852
 20
-147.2358018295105
 10
77.34480521069852
 20
-147.2358018295105
 10
76.24599200567809
 20
-147.2358018295105
 10
76.24599200567809
 20
-147.2358018295105
 10
76.2799261962078
 20
-146.8782009181416
 10
76.35003388933264
 20
-146.7999972506264
 10
76.76155054504572
 20
-146.5016519816038
 10
77.03509112657457
 20
-146.3028699721048
 10
77.1051988196994
 20
-146.2350015910454
 10
77.1051988196994
 20
-146.097542281184
 10
77.1051988196994
 20
-145.9790309964914
 10
77.02820093560406
 20
-145.8481173680519
 10
76.81805011100383
 20
-145.8481173680519
 10
76.54003090534417
 20
-145.8481173680519
 10
76.53090140230825
 20
-146.0785942560151
 10
76.52642277817742
 20
-146.1950384834165
 10
76.52642277817742
 20
-146.1950384834165
 10
76.2868163871783
 20
-146.1950384834165
 10
76.2868163871783
 20
-146.1950384834165
 10
76.29577363543994
 20
-146.0679144600108
 10
76.30714245054128
 20
-145.9559488567402
 10
76.392925328124
 20
-145.8374375720476
 10
76.51057533894527
 20
-145.6765516128864
 10
76.70952960321846
 20
-145.642789677131
 10
76.83389755023597
 20
-145.642789677131
 10
77.1300035071932
 20
-145.642789677131
 10
77.35152314689476
 20
-145.8267577760433
 10
77.35152314689476
 20
-146.0996093384751
 10
77.35152314689476
 20
-146.3283636786957
 10
77.2273274546515
 20
-146.4275824286709
 10
76.8971150523903
 20
-146.6539252020518
 97
        0
 97
        0
 75
     2
 76
     1
 98
        0
  0
ENDBLK
  5
60
330
5D
100
AcDbEntity
  8
0
100
AcDbBlockEnd
  0
BLOCK
  5
83
330
81
100
AcDbEntity
  8
0
100
AcDbBlockBegin
  2
block 4
 70
     0
 10
0.0
 20
0.0
 30
0.0
  3
block 4
  1

  0
POLYLINE
  5
85
330
81
100
AcDbEntity
  8
_U+30EC_U+30A4_U+30E4_U+30FC 1
370
     0
100
AcDb2dPolyline
 66
     1
 10
0.0
 20
0.0
 30
0.0
  0
VERTEX
  5
86
330
85
100
AcDbEntity
  8
_U+30EC_U+30A4_U+30E4_U+30FC 1
370
     0
100
AcDbVertex
100
AcDb2dVertex
 10
90.87403969082317
 20
-112.4413709571327
 30
0.0
  0
VERTEX
  5
87
330
85
100
AcDbEntity
  8
_U+30EC_U+30A4_U+30E4_U+30FC 1
370
     0
100
AcDbVertex
100
AcDb2dVertex
 10
90.87403969082317
 20
-112.7882920724974
 30
0.0
  0
VERTEX
  5
88
330
85
100
AcDbEntity
  8
_U+30EC_U+30A4_U+30E4_U+30FC 1
370
     0
100
AcDbVertex
100
AcDb2dVertex
 10
90.64115123602028
 20
-112.7882920724974
 30
0.0
  0
VERTEX
  5
89
330
85
100
AcDbEntity
  8
_U+30EC_U+30A4_U+30E4_U+30FC 1
370
     0
100
AcDbVertex
100
AcDb2dVertex
 10
90.64115123602028
 20
-112.4413709571327
 30
0.0
  0
VERTEX
  5
8A
330
85
100
AcDbEntity
  8
_U+30EC_U+30A4_U+30E4_U+30FC 1
370
     0
100
AcDbVertex
100
AcDb2dVertex
 10
89.94041881432045
 20
-112.4413709571327
 30
0.0
  0
VERTEX
  5
8B
330
85
100
AcDbEntity
  8
_U+30EC_U+30A4_U+30E4_U+30FC 1
370
     0
100
AcDbVertex
100
AcDb2dVertex
 10
89.94041881432045
 20
-112.217095241043
 30
0.0
  0
VERTEX
  5
8C
330
85
100
AcDbEntity
  8
_U+30EC_U+30A4_U+30E4_U+30FC 1
370
     0
100
AcDbVertex
100
AcDb2dVertex
 10
90.66612817828833
 20
-111.2438557664599
 30
0.0
  0
VERTEX
  5
8D
330
85
100
AcDbEntity
  8
_U+30EC_U+30A4_U+30E4_U+30FC 1
370
     0
100
AcDbVertex
100
AcDb2dVertex
 10
90.87403969082317
 20
-111.2438557664599
 30
0.0
  0
VERTEX
  5
8E
330
85
100
AcDbEntity
  8
_U+30EC_U+30A4_U+30E4_U+30FC 1
370
     0
100
AcDbVertex
100
AcDb2dVertex
 10
90.87403969082317
 20
-112.2425889476338
 30
0.0
  0
VERTEX
  5
8F
330
85
100
AcDbEntity
  8
_U+30EC_U+30A4_U+30E4_U+30FC 1
370
     0
100
AcDbVertex
100
AcDb2dVertex
 10
91.09573158529899
 20
-112.2425889476338
 30
0.0
  0
VERTEX
  5
90
330
85
100
AcDbEntity
  8
_U+30EC_U+30A4_U+30E4_U+30FC 1
370
     0
100
AcDbVertex
100
AcDb2dVertex
 10
91.09573158529899
 20
-112.4413709571327
 30
0.0
  0
VERTEX
  5
91
330
85
100
AcDbEntity
  8
_U+30EC_U+30A4_U+30E4_U+30FC 1
370
     0
100
AcDbVertex
100
AcDb2dVertex
 10
90.87403969082317
 20
-112.4413709571327
 30
0.0
  0
SEQEND
  5
92
330
85
100
AcDbEntity
  8
_U+30EC_U+30A4_U+30E4_U+30FC 1
370
     0
  0
POLYLINE
  5
93
330
81
100
AcDbEntity
  8
_U+30EC_U+30A4_U+30E4_U+30FC 1
370
     0
100
AcDb2dPolyline
 66
     1
 10
0.0
 20
0.0
 30
0.0
  0
VERTEX
  5
94
330
93
100
AcDbEntity
  8
_U+30EC_U+30A4_U+30E4_U+30FC 1
370
     0
100
AcDbVertex
100
AcDb2dVertex
 10
90.64115123602028
 20
-111.5866427672422
 30
0.0
  0
VERTEX
  5
95
330
93
100
AcDbEntity
  8
_U+30EC_U+30A4_U+30E4_U+30FC 1
370
     0
100
AcDbVertex
100
AcDb2dVertex
 10
90.15298120576037
 20
-112.2425889476338
 30
0.0
  0
VERTEX
  5
96
330
93
100
AcDbEntity
  8
_U+30EC_U+30A4_U+30E4_U+30FC 1
370
     0
100
AcDbVertex
100
AcDb2dVertex
 10
90.64115123602028
 20
-112.2425889476338
 30
0.0
  0
VERTEX
  5
97
330
93
100
AcDbEntity
  8
_U+30EC_U+30A4_U+30E4_U+30FC 1
370
     0
100
AcDbVertex
100
AcDb2dVertex
 10
90.64115123602028
 20
-111.5866427672422
 30
0.0
  0
SEQEND
  5
98
330
93
100
AcDbEntity
  8
_U+30EC_U+30A4_U+30E4_U+30FC 1
370
     0
  0
HATCH
  5
99
330
81
100
AcDbEntity
  8
_U+30EC_U+30A4_U+30E4_U+30FC 1
 62
   179
420
  2234388
100
AcDbHatch
 10
0.0
 20
0.0
 30
0.0
210
0.0
220
0.0
230
1.0
  2
SOLID
 70
     1
 71
     0
 91
        2
 92
        1
 93
       11
 72
     1
 10
90.87403969082317
 20
-112.4413709571327
 11
90.87403969082317
 21
-112.7882920724974
 72
     1
 10
90.87403969082317
 20
-112.7882920724974
 11
90.64115123602028
 21
-112.7882920724974
 72
     1
 10
90.64115123602028
 20
-112.7882920724974
 11
90.64115123602028
 21
-112.4413709571327
 72
     1
 10
90.64115123602028
 20
-112.4413709571327
 11
89.94041881432045
 21
-112.4413709571327
 72
     1
 10
89.94041881432045
 20
-112.4413709571327
 11
89.94041881432045
 21
-112.217095241043
 72
     1
 10
89.94041881432045
 20
-112.217095241043
 11
90.66612817828833
 21
-111.2438557664599
 72
     1
 10
90.66612817828833
 20
-111.2438557664599
 11
90.87403969082317
 21
-111.2438557664599
 72
     1
 10
90.87403969082317
 20
-111.2438557664599
 11
90.87403969082317
 21
-112.2425889476338
 72
     1
 10
90.87403969082317
 20
-112.2425889476338
 11
91.09573158529899
 21
-112.2425889476338
 72
     1
 10
91.09573158529899
 20
-112.2425889476338
 11
91.09573158529899
 21
-112.4413709571327
 72
     1
 10
91.09573158529899
 20
-112.4413709571327
 11
90.87403969082317
 21
-112.4413709571327
 97
        0
 92
        1
 93
        3
 72
     1
 10
90.64115123602028
 20
-111.5866427672422
 11
90.15298120576037
 21
-112.2425889476338
 72
     1
 10
90.15298120576037
 20
-112.2425889476338
 11
90.64115123602028
 21
-112.2425889476338
 72
     1
 10
90.64115123602028
 20
-112.2425889476338
 11
90.64115123602028
 21
-111.5866427672422
 97
        0
 75
     2
 76
     1
 98
        0
  0
SPLINE
  5
9A
330
81
100
AcDbEntity
  8
_U+30EC_U+30A4_U+30E4_U+30FC 1
370
     0
100
AcDbSpline
210
0.0
220
0.0
230
1.0
 70
    11
 71
     3
 72
    44
 73
    40
 74
     0
 42
0.0000000001
 43
0.0000000001
 12
1.0
 22
0.0
 32
0.0
 13
1.0
 23
0.0
 33
0.0
 40
0.0
 40
0.0
 40
0.0
 40
0.0
 40
1.0
 40
1.0
 40
1.0
 40
2.0
 40
2.0
 40
2.0
 40
3.0
 40
3.0
 40
3.0
 40
4.0
 40
4.0
 40
4.0
 40
5.0
 40
5.0
 40
5.0
 40
6.0
 40
6.0
 40
6.0
 40
7.0
 40
7.0
 40
7.0
 40
8.0
 40
8.0
 40
8.0
 40
9.0
 40
9.0
 40
9.0
 40
10.0
 40
10.0
 40
10.0
 40
11.0
 40
11.0
 40
11.0
 40
12.0
 40
12.0
 40
12.0
 40
13.0
 40
13.0
 40
13.0
 40
13.0
 10
91.87656247703086
 20
-112.2064154450387
 30
0.0
 10
91.64367402222797
 20
-112.3652343469087
 30
0.0
 10
91.54411076270425
 20
-112.4393038998416
 30
0.0
 10
91.49208982087698
 20
-112.5829643815765
 30
0.0
 10
91.49208982087698
 20
-112.5829643815765
 30
0.0
 10
92.32408038056482
 20
-112.5829643815765
 30
0.0
 10
92.32408038056482
 20
-112.5829643815765
 30
0.0
 10
92.32408038056482
 20
-112.5829643815765
 30
0.0
 10
92.32408038056482
 20
-112.7882920724974
 30
0.0
 10
92.32408038056482
 20
-112.7882920724974
 30
0.0
 10
92.32408038056482
 20
-112.7882920724974
 30
0.0
 10
91.22526717554439
 20
-112.7882920724974
 30
0.0
 10
91.22526717554439
 20
-112.7882920724974
 30
0.0
 10
91.2592013660741
 20
-112.4306911611285
 30
0.0
 10
91.32930905919892
 20
-112.3524874936133
 30
0.0
 10
91.74082571491202
 20
-112.0541422245906
 30
0.0
 10
92.01436629644085
 20
-111.8553602150917
 30
0.0
 10
92.08464624433995
 20
-111.7874918340323
 30
0.0
 10
92.08464624433995
 20
-111.6500325241708
 30
0.0
 10
92.08464624433995
 20
-111.5315212394782
 30
0.0
 10
92.00747610547036
 20
-111.4006076110387
 30
0.0
 10
91.79732528087011
 20
-111.4006076110387
 30
0.0
 10
91.51930607521045
 20
-111.4006076110387
 30
0.0
 10
91.51000431740029
 20
-111.631084499002
 30
0.0
 10
91.50587020281799
 20
-111.7475287264034
 30
0.0
 10
91.50587020281799
 20
-111.7475287264034
 30
0.0
 10
91.26609155704459
 20
-111.7475287264034
 30
0.0
 10
91.26609155704459
 20
-111.7475287264034
 30
0.0
 10
91.27504880530624
 20
-111.6204047029977
 30
0.0
 10
91.28641762040756
 20
-111.5084390997271
 30
0.0
 10
91.37220049799029
 20
-111.3899278150345
 30
0.0
 10
91.49002276358583
 20
-111.2290418558733
 30
0.0
 10
91.68880477308474
 20
-111.1952799201179
 30
0.0
 10
91.81317272010227
 20
-111.1952799201179
 30
0.0
 10
92.10945093183375
 20
-111.1952799201179
 30
0.0
 10
92.33062606198679
 20
-111.3792480190302
 30
0.0
 10
92.33062606198679
 20
-111.652099581462
 30
0.0
 10
92.33062606198679
 20
-111.8808539216826
 30
0.0
 10
92.2066026245178
 20
-111.9800726716578
 30
0.0
 10
91.87656247703086
 20
-112.2064154450387
 30
0.0
  0
HATCH
  5
9B
330
81
100
AcDbEntity
  8
_U+30EC_U+30A4_U+30E4_U+30FC 1
 62
   179
420
  2234388
100
AcDbHatch
 10
0.0
 20
0.0
 30
0.0
210
0.0
220
0.0
230
1.0
  2
SOLID
 70
     1
 71
     0
 91
        1
 92
        1
 93
        1
 72
     4
 94
        3
 73
     0
 74
     1
 95
       44
 96
       40
 40
0.0
 40
0.0
 40
0.0
 40
0.0
 40
1.0
 40
1.0
 40
1.0
 40
2.0
 40
2.0
 40
2.0
 40
3.0
 40
3.0
 40
3.0
 40
4.0
 40
4.0
 40
4.0
 40
5.0
 40
5.0
 40
5.0
 40
6.0
 40
6.0
 40
6.0
 40
7.0
 40
7.0
 40
7.0
 40
8.0
 40
8.0
 40
8.0
 40
9.0
 40
9.0
 40
9.0
 40
10.0
 40
10.0
 40
10.0
 40
11.0
 40
11.0
 40
11.0
 40
12.0
 40
12.0
 40
12.0
 40
13.0
 40
13.0
 40
13.0
 40
13.0
 10
91.87656247703086
 20
-112.2064154450387
 10
91.64367402222797
 20
-112.3652343469087
 10
91.54411076270425
 20
-112.4393038998416
 10
91.49208982087698
 20
-112.5829643815765
 10
91.49208982087698
 20
-112.5829643815765
 10
92.32408038056482
 20
-112.5829643815765
 10
92.32408038056482
 20
-112.5829643815765
 10
92.32408038056482
 20
-112.5829643815765
 10
92.32408038056482
 20
-112.7882920724974
 10
92.32408038056482
 20
-112.7882920724974
 10
92.32408038056482
 20
-112.7882920724974
 10
91.22526717554439
 20
-112.7882920724974
 10
91.22526717554439
 20
-112.7882920724974
 10
91.2592013660741
 20
-112.4306911611285
 10
91.32930905919892
 20
-112.3524874936133
 10
91.74082571491202
 20
-112.0541422245906
 10
92.01436629644085
 20
-111.8553602150917
 10
92.08464624433995
 20
-111.7874918340323
 10
92.08464624433995
 20
-111.6500325241708
 10
92.08464624433995
 20
-111.5315212394782
 10
92.00747610547036
 20
-111.4006076110387
 10
91.79732528087011
 20
-111.4006076110387
 10
91.51930607521045
 20
-111.4006076110387
 10
91.51000431740029
 20
-111.631084499002
 10
91.50587020281799
 20
-111.7475287264034
 10
91.50587020281799
 20
-111.7475287264034
 10
91.26609155704459
 20
-111.7475287264034
 10
91.26609155704459
 20
-111.7475287264034
 10
91.27504880530624
 20
-111.6204047029977
 10
91.28641762040756
 20
-111.5084390997271
 10
91.37220049799029
 20
-111.3899278150345
 10
91.49002276358583
 20
-111.2290418558733
 10
91.68880477308474
 20
-111.1952799201179
 10
91.81317272010227
 20
-111.1952799201179
 10
92.10945093183375
 20
-111.1952799201179
 10
92.33062606198679
 20
-111.3792480190302
 10
92.33062606198679
 20
-111.652099581462
 10
92.33062606198679
 20
-111.8808539216826
 10
92.2066026245178
 20
-111.9800726716578
 10
91.87656247703086
 20
-112.2064154450387
 97
        0
 97
        0
 75
     2
 76
     1
 98
        0
  0
ENDBLK
  5
84
330
81
100
AcDbEntity
  8
0
100
AcDbBlockEnd
  0
BLOCK
  5
9E
330
9C
100
AcDbEntity
  8
0
100
AcDbBlockBegin
  2
block 5
 70
     0
 10
0.0
 20
0.0
 30
0.0
  3
block 5
  1

  0
SPLINE
  5
A0
330
9C
100
AcDbEntity
  8
_U+30EC_U+30A4_U+30E4_U+30FC 1
370
     0
100
AcDbSpline
210
0.0
220
0.0
230
1.0
 70
    11
 71
     3
 72
    62
 73
    58
 74
     0
 42
0.0000000001
 43
0.0000000001
 12
1.0
 22
0.0
 32
0.0
 13
1.0
 23
0.0
 33
0.0
 40
0.0
 40
0.0
 40
0.0
 40
0.0
 40
1.0
 40
1.0
 40
1.0
 40
2.0
 40
2.0
 40
2.0
 40
3.0
 40
3.0
 40
3.0
 40
4.0
 40
4.0
 40
4.0
 40
5.0
 40
5.0
 40
5.0
 40
6.0
 40
6.0
 40
6.0
 40
7.0
 40
7.0
 40
7.0
 40
8.0
 40
8.0
 40
8.0
 40
9.0
 40
9.0
 40
9.0
 40
10.0
 40
10.0
 40
10.0
 40
11.0
 40
11.0
 40
11.0
 40
12.0
 40
12.0
 40
12.0
 40
13.0
 40
13.0
 40
13.0
 40
14.0
 40
14.0
 40
14.0
 40
15.0
 40
15.0
 40
15.0
 40
16.0
 40
16.0
 40
16.0
 40
17.0
 40
17.0
 40
17.0
 40
18.0
 40
18.0
 40
18.0
 40
19.0
 40
19.0
 40
19.0
 40
19.0
 10
71.50588512752283
 20
-109.7962266435579
 30
0.0
 10
71.40425481070797
 20
-109.7962266435579
 30
0.0
 10
71.17136635590508
 20
-109.7752115610979
 30
0.0
 10
71.03786890585165
 20
-109.5891764048944
 30
0.0
 10
70.95880396446516
 20
-109.4768662920752
 30
0.0
 10
70.95432534033434
 20
-109.3776475421
 30
0.0
 10
70.94967446142925
 20
-109.2928981931629
 30
0.0
 10
70.94967446142925
 20
-109.2928981931629
 30
0.0
 10
71.18497448307181
 20
-109.2928981931629
 30
0.0
 10
71.18497448307181
 20
-109.2928981931629
 30
0.0
 10
71.18721379513723
 20
-109.3669677460958
 30
0.0
 10
71.19841035546429
 20
-109.6015787486413
 30
0.0
 10
71.50140650339202
 20
-109.6015787486413
 30
0.0
 10
71.64833982583792
 20
-109.6015787486413
 30
0.0
 10
71.81112058751597
 20
-109.5319878198392
 30
0.0
 10
71.81112058751597
 20
-109.3035779891672
 30
0.0
 10
71.81112058751597
 20
-109.1871337617657
 30
0.0
 10
71.77046846079003
 20
-109.1385579154237
 30
0.0
 10
71.73653427026031
 20
-109.1068630369594
 30
0.0
 10
71.65746932887383
 20
-109.0327934840265
 30
0.0
 10
71.53310138185631
 20
-109.0200466307311
 30
0.0
 10
71.47436250383281
 20
-109.0200466307311
 30
0.0
 10
71.45386418569556
 20
-109.0200466307311
 30
0.0
 10
71.41545137103503
 20
-109.0221136880223
 30
0.0
 10
71.38616805941041
 20
-109.0262478026046
 30
0.0
 10
71.38616805941041
 20
-109.0262478026046
 30
0.0
 10
71.38616805941041
 20
-108.8315999076879
 30
0.0
 10
71.38616805941041
 20
-108.8315999076879
 30
0.0
 10
71.42682018613635
 20
-108.8381455891099
 30
0.0
 10
71.47195093699312
 20
-108.8402126464011
 30
0.0
 10
71.47884112796362
 20
-108.8402126464011
 30
0.0
 10
71.54894882108846
 20
-108.8402126464011
 30
0.0
 10
71.76133895775412
 20
-108.8188530543925
 30
0.0
 10
71.76133895775412
 20
-108.5821749945559
 30
0.0
 10
71.76133895775412
 20
-108.404408067517
 30
0.0
 10
71.62129582627871
 20
-108.349286539753
 30
0.0
 10
71.50364581545743
 20
-108.349286539753
 30
0.0
 10
71.22114798566693
 20
-108.349286539753
 30
0.0
 10
71.21201848263102
 20
-108.5821749945559
 30
0.0
 10
71.2075398585002
 20
-108.653832980649
 30
0.0
 10
71.2075398585002
 20
-108.653832980649
 30
0.0
 10
70.99049884292945
 20
-108.653832980649
 30
0.0
 10
70.99049884292945
 20
-108.653832980649
 30
0.0
 10
70.9994560911911
 20
-108.529120524083
 30
0.0
 10
71.02891165759
 20
-108.1525715875452
 30
0.0
 10
71.51725394262417
 20
-108.1525715875452
 30
0.0
 10
71.7568603336233
 20
-108.1525715875452
 30
0.0
 10
72.01455347591998
 20
-108.2796956109509
 30
0.0
 10
72.01455347591998
 20
-108.5756293131339
 30
0.0
 10
72.01455347591998
 20
-108.7620089788859
 30
0.0
 10
71.9129231591051
 20
-108.8443467609834
 30
0.0
 10
71.80664196338515
 20
-108.9056694606208
 30
0.0
 10
71.87227103237916
 20
-108.9332302245028
 30
0.0
 10
72.06657441774725
 20
-109.0135009493091
 30
0.0
 10
72.06657441774725
 20
-109.2908311358717
 30
0.0
 10
72.06657441774725
 20
-109.6291395125233
 30
0.0
 10
71.80216333925432
 20
-109.7962266435579
 30
0.0
 10
71.50588512752283
 20
-109.7962266435579
 30
0.0
  0
HATCH
  5
A1
330
9C
100
AcDbEntity
  8
_U+30EC_U+30A4_U+30E4_U+30FC 1
 62
   179
420
  2234388
100
AcDbHatch
 10
0.0
 20
0.0
 30
0.0
210
0.0
220
0.0
230
1.0
  2
SOLID
 70
     1
 71
     0
 91
        1
 92
        1
 93
        1
 72
     4
 94
        3
 73
     0
 74
     1
 95
       62
 96
       58
 40
0.0
 40
0.0
 40
0.0
 40
0.0
 40
1.0
 40
1.0
 40
1.0
 40
2.0
 40
2.0
 40
2.0
 40
3.0
 40
3.0
 40
3.0
 40
4.0
 40
4.0
 40
4.0
 40
5.0
 40
5.0
 40
5.0
 40
6.0
 40
6.0
 40
6.0
 40
7.0
 40
7.0
 40
7.0
 40
8.0
 40
8.0
 40
8.0
 40
9.0
 40
9.0
 40
9.0
 40
10.0
 40
10.0
 40
10.0
 40
11.0
 40
11.0
 40
11.0
 40
12.0
 40
12.0
 40
12.0
 40
13.0
 40
13.0
 40
13.0
 40
14.0
 40
14.0
 40
14.0
 40
15.0
 40
15.0
 40
15.0
 40
16.0
 40
16.0
 40
16.0
 40
17.0
 40
17.0
 40
17.0
 40
18.0
 40
18.0
 40
18.0
 40
19.0
 40
19.0
 40
19.0
 40
19.0
 10
71.50588512752283
 20
-109.7962266435579
 10
71.40425481070797
 20
-109.7962266435579
 10
71.17136635590508
 20
-109.7752115610979
 10
71.03786890585165
 20
-109.5891764048944
 10
70.95880396446516
 20
-109.4768662920752
 10
70.95432534033434
 20
-109.3776475421
 10
70.94967446142925
 20
-109.2928981931629
 10
70.94967446142925
 20
-109.2928981931629
 10
71.18497448307181
 20
-109.2928981931629
 10
71.18497448307181
 20
-109.2928981931629
 10
71.18721379513723
 20
-109.3669677460958
 10
71.19841035546429
 20
-109.6015787486413
 10
71.50140650339202
 20
-109.6015787486413
 10
71.64833982583792
 20
-109.6015787486413
 10
71.81112058751597
 20
-109.5319878198392
 10
71.81112058751597
 20
-109.3035779891672
 10
71.81112058751597
 20
-109.1871337617657
 10
71.77046846079003
 20
-109.1385579154237
 10
71.73653427026031
 20
-109.1068630369594
 10
71.65746932887383
 20
-109.0327934840265
 10
71.53310138185631
 20
-109.0200466307311
 10
71.47436250383281
 20
-109.0200466307311
 10
71.45386418569556
 20
-109.0200466307311
 10
71.41545137103503
 20
-109.0221136880223
 10
71.38616805941041
 20
-109.0262478026046
 10
71.38616805941041
 20
-109.0262478026046
 10
71.38616805941041
 20
-108.8315999076879
 10
71.38616805941041
 20
-108.8315999076879
 10
71.42682018613635
 20
-108.8381455891099
 10
71.47195093699312
 20
-108.8402126464011
 10
71.47884112796362
 20
-108.8402126464011
 10
71.54894882108846
 20
-108.8402126464011
 10
71.76133895775412
 20
-108.8188530543925
 10
71.76133895775412
 20
-108.5821749945559
 10
71.76133895775412
 20
-108.404408067517
 10
71.62129582627871
 20
-108.349286539753
 10
71.50364581545743
 20
-108.349286539753
 10
71.22114798566693
 20
-108.349286539753
 10
71.21201848263102
 20
-108.5821749945559
 10
71.2075398585002
 20
-108.653832980649
 10
71.2075398585002
 20
-108.653832980649
 10
70.99049884292945
 20
-108.653832980649
 10
70.99049884292945
 20
-108.653832980649
 10
70.9994560911911
 20
-108.529120524083
 10
71.02891165759
 20
-108.1525715875452
 10
71.51725394262417
 20
-108.1525715875452
 10
71.7568603336233
 20
-108.1525715875452
 10
72.01455347591998
 20
-108.2796956109509
 10
72.01455347591998
 20
-108.5756293131339
 10
72.01455347591998
 20
-108.7620089788859
 10
71.9129231591051
 20
-108.8443467609834
 10
71.80664196338515
 20
-108.9056694606208
 10
71.87227103237916
 20
-108.9332302245028
 10
72.06657441774725
 20
-109.0135009493091
 10
72.06657441774725
 20
-109.2908311358717
 10
72.06657441774725
 20
-109.6291395125233
 10
71.80216333925432
 20
-109.7962266435579
 10
71.50588512752283
 20
-109.7962266435579
 97
        0
 97
        0
 75
     2
 76
     1
 98
        0
  0
ENDBLK
  5
9F
330
9C
100
AcDbEntity
  8
0
100
AcDbBlockEnd
  0
BLOCK
  5
B2
330
B0
100
AcDbEntity
  8
0
100
AcDbBlockBegin
  2
block 6
 70
     0
 10
0.0
 20
0.0
 30
0.0
  3
block 6
  1

  0
SPLINE
  5
B4
330
B0
100
AcDbEntity
  8
_U+30EC_U+30A4_U+30E4_U+30FC 1
370
     0
100
AcDbSpline
210
0.0
220
0.0
230
1.0
 70
    11
 71
     3
 72
    26
 73
    22
 74
     0
 42
0.0000000001
 43
0.0000000001
 12
1.0
 22
0.0
 32
0.0
 13
1.0
 23
0.0
 33
0.0
 40
0.0
 40
0.0
 40
0.0
 40
0.0
 40
1.0
 40
1.0
 40
1.0
 40
2.0
 40
2.0
 40
2.0
 40
3.0
 40
3.0
 40
3.0
 40
4.0
 40
4.0
 40
4.0
 40
5.0
 40
5.0
 40
5.0
 40
6.0
 40
6.0
 40
6.0
 40
7.0
 40
7.0
 40
7.0
 40
7.0
 10
64.95245224070634
 20
-123.5986571956628
 30
0.0
 10
64.95245224070634
 20
-123.5986571956628
 30
0.0
 10
63.84829913768376
 20
-123.5986571956628
 30
0.0
 10
63.84829913768376
 20
-123.5986571956628
 30
0.0
 10
63.84829913768376
 20
-123.5986571956628
 30
0.0
 10
63.84829913768376
 20
-123.9510904638039
 30
0.0
 10
63.84829913768376
 20
-123.9510904638039
 30
0.0
 10
63.84829913768376
 20
-123.9510904638039
 30
0.0
 10
63.70016003181802
 20
-123.9510904638039
 30
0.0
 10
63.70016003181802
 20
-123.9510904638039
 30
0.0
 10
63.68534612123145
 20
-123.5962456288232
 30
0.0
 10
63.52239310477913
 20
-123.5466362538356
 30
0.0
 10
63.40818818944309
 20
-123.5149413753713
 30
0.0
 10
63.40818818944309
 20
-123.5149413753713
 30
0.0
 10
63.40818818944309
 20
-123.3588785498895
 30
0.0
 10
63.40818818944309
 20
-123.3588785498895
 30
0.0
 10
63.40818818944309
 20
-123.3588785498895
 30
0.0
 10
64.95245224070634
 20
-123.3588785498895
 30
0.0
 10
64.95245224070634
 20
-123.3588785498895
 30
0.0
 10
64.95245224070634
 20
-123.3588785498895
 30
0.0
 10
64.95245224070634
 20
-123.5986571956628
 30
0.0
 10
64.95245224070634
 20
-123.5986571956628
 30
0.0
  0
HATCH
  5
B5
330
B0
100
AcDbEntity
  8
_U+30EC_U+30A4_U+30E4_U+30FC 1
 62
   179
420
  2234388
100
AcDbHatch
 10
0.0
 20
0.0
 30
0.0
210
0.0
220
0.0
230
1.0
  2
SOLID
 70
     1
 71
     0
 91
        1
 92
        1
 93
        1
 72
     4
 94
        3
 73
     0
 74
     1
 95
       26
 96
       22
 40
0.0
 40
0.0
 40
0.0
 40
0.0
 40
1.0
 40
1.0
 40
1.0
 40
2.0
 40
2.0
 40
2.0
 40
3.0
 40
3.0
 40
3.0
 40
4.0
 40
4.0
 40
4.0
 40
5.0
 40
5.0
 40
5.0
 40
6.0
 40
6.0
 40
6.0
 40
7.0
 40
7.0
 40
7.0
 40
7.0
 10
64.95245224070634
 20
-123.5986571956628
 10
64.95245224070634
 20
-123.5986571956628
 10
63.84829913768376
 20
-123.5986571956628
 10
63.84829913768376
 20
-123.5986571956628
 10
63.84829913768376
 20
-123.5986571956628
 10
63.84829913768376
 20
-123.9510904638039
 10
63.84829913768376
 20
-123.9510904638039
 10
63.84829913768376
 20
-123.9510904638039
 10
63.70016003181802
 20
-123.9510904638039
 10
63.70016003181802
 20
-123.9510904638039
 10
63.68534612123145
 20
-123.5962456288232
 10
63.52239310477913
 20
-123.5466362538356
 10
63.40818818944309
 20
-123.5149413753713
 10
63.40818818944309
 20
-123.5149413753713
 10
63.40818818944309
 20
-123.3588785498895
 10
63.40818818944309
 20
-123.3588785498895
 10
63.40818818944309
 20
-123.3588785498895
 10
64.95245224070634
 20
-123.3588785498895
 10
64.95245224070634
 20
-123.3588785498895
 10
64.95245224070634
 20
-123.3588785498895
 10
64.95245224070634
 20
-123.5986571956628
 10
64.95245224070634
 20
-123.5986571956628
 97
        0
 97
        0
 75
     2
 76
     1
 98
        0
  0
SPLINE
  5
B6
330
B0
100
AcDbEntity
  8
_U+30EC_U+30A4_U+30E4_U+30FC 1
370
     0
100
AcDbSpline
210
0.0
220
0.0
230
1.0
 70
    11
 71
     3
 72
    29
 73
    25
 74
     0
 42
0.0000000001
 43
0.0000000001
 12
1.0
 22
0.0
 32
0.0
 13
1.0
 23
0.0
 33
0.0
 40
0.0
 40
0.0
 40
0.0
 40
0.0
 40
1.0
 40
1.0
 40
1.0
 40
2.0
 40
2.0
 40
2.0
 40
3.0
 40
3.0
 40
3.0
 40
4.0
 40
4.0
 40
4.0
 40
5.0
 40
5.0
 40
5.0
 40
6.0
 40
6.0
 40
6.0
 40
7.0
 40
7.0
 40
7.0
 40
8.0
 40
8.0
 40
8.0
 40
8.0
 10
64.77468531366745
 20
-121.863707109291
 30
0.0
 10
64.98414711917063
 20
-121.9791178080469
 30
0.0
 10
65.00309514433951
 20
-122.1644639451533
 30
0.0
 10
65.00309514433951
 20
-122.2888318921708
 30
0.0
 10
65.00309514433951
 20
-122.4603976473363
 30
0.0
 10
64.95658635528864
 20
-122.6119818486873
 30
0.0
 10
64.77468531366745
 20
-122.7136121655022
 30
0.0
 10
64.58003741875083
 20
-122.8245442401272
 30
0.0
 10
64.34301484936564
 20
-122.8448703034902
 30
0.0
 10
64.18040634246185
 20
-122.8448703034902
 30
0.0
 10
64.0364013511784
 20
-122.8448703034902
 30
0.0
 10
63.7847371259809
 20
-122.8269558069669
 30
0.0
 10
63.58578286170772
 20
-122.7136121655022
 30
0.0
 10
63.38269448285224
 20
-122.5985459762948
 30
0.0
 10
63.35944008832681
 20
-122.4266357115808
 30
0.0
 10
63.35944008832681
 20
-122.2888318921708
 30
0.0
 10
63.35944008832681
 20
-122.118988684748
 30
0.0
 10
63.40388182008653
 20
-121.9653374261059
 30
0.0
 10
63.58578286170772
 20
-121.863707109291
 30
0.0
 10
63.77836369933319
 20
-121.7572536587968
 30
0.0
 10
64.00677353000525
 20
-121.732448971303
 30
0.0
 10
64.18040634246185
 20
-121.732448971303
 30
0.0
 10
64.35162758807876
 20
-121.732448971303
 30
0.0
 10
64.58210447604198
 20
-121.7551866015057
 30
0.0
 10
64.77468531366745
 20
-121.863707109291
 30
0.0
  0
SPLINE
  5
B7
330
B0
100
AcDbEntity
  8
_U+30EC_U+30A4_U+30E4_U+30FC 1
370
     0
100
AcDbSpline
210
0.0
220
0.0
230
1.0
 70
    11
 71
     3
 72
    17
 73
    13
 74
     0
 42
0.0000000001
 43
0.0000000001
 12
1.0
 22
0.0
 32
0.0
 13
1.0
 23
0.0
 33
0.0
 40
0.0
 40
0.0
 40
0.0
 40
0.0
 40
1.0
 40
1.0
 40
1.0
 40
2.0
 40
2.0
 40
2.0
 40
3.0
 40
3.0
 40
3.0
 40
4.0
 40
4.0
 40
4.0
 40
4.0
 10
63.55202092595228
 20
-122.2888318921708
 30
0.0
 10
63.55202092595228
 20
-122.5554822827292
 30
0.0
 10
63.83555228438833
 20
-122.6050916577168
 30
0.0
 10
64.18040634246185
 20
-122.6050916577168
 30
0.0
 10
64.49976669394451
 20
-122.6050916577168
 30
0.0
 10
64.8084472494229
 20
-122.5668510978305
 30
0.0
 10
64.8084472494229
 20
-122.2888318921708
 30
0.0
 10
64.8084472494229
 20
-122.0242485589037
 30
0.0
 10
64.5273274578265
 20
-121.9722276170764
 30
0.0
 10
64.18040634246185
 20
-121.9722276170764
 30
0.0
 10
63.86070148143066
 20
-121.9722276170764
 30
0.0
 10
63.55202092595228
 20
-122.0128797438023
 30
0.0
 10
63.55202092595228
 20
-122.2888318921708
 30
0.0
  0
HATCH
  5
B8
330
B0
100
AcDbEntity
  8
_U+30EC_U+30A4_U+30E4_U+30FC 1
 62
   179
420
  2234388
100
AcDbHatch
 10
0.0
 20
0.0
 30
0.0
210
0.0
220
0.0
230
1.0
  2
SOLID
 70
     1
 71
     0
 91
        2
 92
        1
 93
        1
 72
     4
 94
        3
 73
     0
 74
     1
 95
       29
 96
       25
 40
0.0
 40
0.0
 40
0.0
 40
0.0
 40
1.0
 40
1.0
 40
1.0
 40
2.0
 40
2.0
 40
2.0
 40
3.0
 40
3.0
 40
3.0
 40
4.0
 40
4.0
 40
4.0
 40
5.0
 40
5.0
 40
5.0
 40
6.0
 40
6.0
 40
6.0
 40
7.0
 40
7.0
 40
7.0
 40
8.0
 40
8.0
 40
8.0
 40
8.0
 10
64.77468531366745
 20
-121.863707109291
 10
64.98414711917063
 20
-121.9791178080469
 10
65.00309514433951
 20
-122.1644639451533
 10
65.00309514433951
 20
-122.2888318921708
 10
65.00309514433951
 20
-122.4603976473363
 10
64.95658635528864
 20
-122.6119818486873
 10
64.77468531366745
 20
-122.7136121655022
 10
64.58003741875083
 20
-122.8245442401272
 10
64.34301484936564
 20
-122.8448703034902
 10
64.18040634246185
 20
-122.8448703034902
 10
64.0364013511784
 20
-122.8448703034902
 10
63.7847371259809
 20
-122.8269558069669
 10
63.58578286170772
 20
-122.7136121655022
 10
63.38269448285224
 20
-122.5985459762948
 10
63.35944008832681
 20
-122.4266357115808
 10
63.35944008832681
 20
-122.2888318921708
 10
63.35944008832681
 20
-122.118988684748
 10
63.40388182008653
 20
-121.9653374261059
 10
63.58578286170772
 20
-121.863707109291
 10
63.77836369933319
 20
-121.7572536587968
 10
64.00677353000525
 20
-121.732448971303
 10
64.18040634246185
 20
-121.732448971303
 10
64.35162758807876
 20
-121.732448971303
 10
64.58210447604198
 20
-121.7551866015057
 10
64.77468531366745
 20
-121.863707109291
 97
        0
 97
        0
 92
        1
 93
        1
 72
     4
 94
        3
 73
     0
 74
     1
 95
       17
 96
       13
 40
0.0
 40
0.0
 40
0.0
 40
0.0
 40
1.0
 40
1.0
 40
1.0
 40
2.0
 40
2.0
 40
2.0
 40
3.0
 40
3.0
 40
3.0
 40
4.0
 40
4.0
 40
4.0
 40
4.0
 10
63.55202092595228
 20
-122.2888318921708
 10
63.55202092595228
 20
-122.5554822827292
 10
63.83555228438833
 20
-122.6050916577168
 10
64.18040634246185
 20
-122.6050916577168
 10
64.49976669394451
 20
-122.6050916577168
 10
64.8084472494229
 20
-122.5668510978305
 10
64.8084472494229
 20
-122.2888318921708
 10
64.8084472494229
 20
-122.0242485589037
 10
64.5273274578265
 20
-121.9722276170764
 10
64.18040634246185
 20
-121.9722276170764
 10
63.86070148143066
 20
-121.9722276170764
 10
63.55202092595228
 20
-122.0128797438023
 10
63.55202092595228
 20
-122.2888318921708
 97
        0
 97
        0
 75
     2
 76
     1
 98
        0
  0
ENDBLK
  5
B3
330
B0
100
AcDbEntity
  8
0
100
AcDbBlockEnd
  0
BLOCK
  5
E7
330
E5
100
AcDbEntity
  8
0
100
AcDbBlockBegin
  2
block 7
 70
     0
 10
0.0
 20
0.0
 30
0.0
  3
block 7
  1

  0
SPLINE
  5
E9
330
E5
100
AcDbEntity
  8
_U+30EC_U+30A4_U+30E4_U+30FC 1
370
     0
100
AcDbSpline
210
0.0
220
0.0
230
1.0
 70
    11
 71
     3
 72
    62
 73
    58
 74
     0
 42
0.0000000001
 43
0.0000000001
 12
1.0
 22
0.0
 32
0.0
 13
1.0
 23
0.0
 33
0.0
 40
0.0
 40
0.0
 40
0.0
 40
0.0
 40
1.0
 40
1.0
 40
1.0
 40
2.0
 40
2.0
 40
2.0
 40
3.0
 40
3.0
 40
3.0
 40
4.0
 40
4.0
 40
4.0
 40
5.0
 40
5.0
 40
5.0
 40
6.0
 40
6.0
 40
6.0
 40
7.0
 40
7.0
 40
7.0
 40
8.0
 40
8.0
 40
8.0
 40
9.0
 40
9.0
 40
9.0
 40
10.0
 40
10.0
 40
10.0
 40
11.0
 40
11.0
 40
11.0
 40
12.0
 40
12.0
 40
12.0
 40
13.0
 40
13.0
 40
13.0
 40
14.0
 40
14.0
 40
14.0
 40
15.0
 40
15.0
 40
15.0
 40
16.0
 40
16.0
 40
16.0
 40
17.0
 40
17.0
 40
17.0
 40
18.0
 40
18.0
 40
18.0
 40
19.0
 40
19.0
 40
19.0
 40
19.0
 10
118.6659694798821
 20
-142.4192138315827
 30
0.0
 10
118.6659694798821
 20
-142.5208441483976
 30
0.0
 10
118.6449543974221
 20
-142.7537326032005
 30
0.0
 10
118.4589192412186
 20
-142.8870577984796
 30
0.0
 10
118.3466091283995
 20
-142.9662949946404
 30
0.0
 10
118.2473903784243
 20
-142.9707736187712
 30
0.0
 10
118.1626410294871
 20
-142.975252242902
 30
0.0
 10
118.1626410294871
 20
-142.975252242902
 30
0.0
 10
118.1626410294871
 20
-142.740296730808
 30
0.0
 10
118.1626410294871
 20
-142.740296730808
 30
0.0
 10
118.23671058242
 20
-142.7378851639683
 30
0.0
 10
118.4713215849655
 20
-142.726516348867
 30
0.0
 10
118.4713215849655
 20
-142.4236924557135
 30
0.0
 10
118.4713215849655
 20
-142.2765868784934
 30
0.0
 10
118.4017306561635
 20
-142.1139783715896
 30
0.0
 10
118.1733208254914
 20
-142.1139783715896
 30
0.0
 10
118.05687659809
 20
-142.1139783715896
 30
0.0
 10
118.0083007517479
 20
-142.1546304983155
 30
0.0
 10
117.9766058732836
 20
-142.1887369436195
 30
0.0
 10
117.9025363203508
 20
-142.2676296302317
 30
0.0
 10
117.8897894670553
 20
-142.3919975772492
 30
0.0
 10
117.8897894670553
 20
-142.450908710047
 30
0.0
 10
117.8897894670553
 20
-142.47123477341
 30
0.0
 10
117.8918565243465
 20
-142.5094753332963
 30
0.0
 10
117.8959906389288
 20
-142.5391031544694
 30
0.0
 10
117.8959906389288
 20
-142.5391031544694
 30
0.0
 10
117.7013427440122
 20
-142.5391031544694
 30
0.0
 10
117.7013427440122
 20
-142.5391031544694
 30
0.0
 10
117.7078884254341
 20
-142.4984510277434
 30
0.0
 10
117.7099554827253
 20
-142.4529757673382
 30
0.0
 10
117.7099554827253
 20
-142.4464300859162
 30
0.0
 10
117.7099554827253
 20
-142.3761501380171
 30
0.0
 10
117.6885958907167
 20
-142.1635877465772
 30
0.0
 10
117.4515733213316
 20
-142.1635877465772
 30
0.0
 10
117.2741509038412
 20
-142.1635877465772
 30
0.0
 10
117.2190293760772
 20
-142.3038031328268
 30
0.0
 10
117.2190293760772
 20
-142.4212808888739
 30
0.0
 10
117.2190293760772
 20
-142.7041232282129
 30
0.0
 10
117.4515733213316
 20
-142.7130804764745
 30
0.0
 10
117.5235758169733
 20
-142.7175591006053
 30
0.0
 10
117.5235758169733
 20
-142.7175591006053
 30
0.0
 10
117.5235758169733
 20
-142.9346001161761
 30
0.0
 10
117.5235758169733
 20
-142.9346001161761
 30
0.0
 10
117.3988633604072
 20
-142.9256428679144
 30
0.0
 10
117.0223144238694
 20
-142.8963595562898
 30
0.0
 10
117.0223144238694
 20
-142.4078450164814
 30
0.0
 10
117.0223144238694
 20
-142.168066370708
 30
0.0
 10
117.1490939377266
 20
-141.9103732284113
 30
0.0
 10
117.4453721494581
 20
-141.9103732284113
 30
0.0
 10
117.6317518152101
 20
-141.9103732284113
 30
0.0
 10
117.7140895973076
 20
-142.0123480547747
 30
0.0
 10
117.775412296945
 20
-142.1184569957204
 30
0.0
 10
117.802973060827
 20
-142.0530001815006
 30
0.0
 10
117.8832437856334
 20
-141.858352286584
 30
0.0
 10
118.160573972196
 20
-141.858352286584
 30
0.0
 10
118.4988823488475
 20
-141.858352286584
 30
0.0
 10
118.6659694798821
 20
-142.1229356198512
 30
0.0
 10
118.6659694798821
 20
-142.4192138315827
 30
0.0
  0
HATCH
  5
EA
330
E5
100
AcDbEntity
  8
_U+30EC_U+30A4_U+30E4_U+30FC 1
 62
   179
420
  2234388
100
AcDbHatch
 10
0.0
 20
0.0
 30
0.0
210
0.0
220
0.0
230
1.0
  2
SOLID
 70
     1
 71
     0
 91
        1
 92
        1
 93
        1
 72
     4
 94
        3
 73
     0
 74
     1
 95
       62
 96
       58
 40
0.0
 40
0.0
 40
0.0
 40
0.0
 40
1.0
 40
1.0
 40
1.0
 40
2.0
 40
2.0
 40
2.0
 40
3.0
 40
3.0
 40
3.0
 40
4.0
 40
4.0
 40
4.0
 40
5.0
 40
5.0
 40
5.0
 40
6.0
 40
6.0
 40
6.0
 40
7.0
 40
7.0
 40
7.0
 40
8.0
 40
8.0
 40
8.0
 40
9.0
 40
9.0
 40
9.0
 40
10.0
 40
10.0
 40
10.0
 40
11.0
 40
11.0
 40
11.0
 40
12.0
 40
12.0
 40
12.0
 40
13.0
 40
13.0
 40
13.0
 40
14.0
 40
14.0
 40
14.0
 40
15.0
 40
15.0
 40
15.0
 40
16.0
 40
16.0
 40
16.0
 40
17.0
 40
17.0
 40
17.0
 40
18.0
 40
18.0
 40
18.0
 40
19.0
 40
19.0
 40
19.0
 40
19.0
 10
118.6659694798821
 20
-142.4192138315827
 10
118.6659694798821
 20
-142.5208441483976
 10
118.6449543974221
 20
-142.7537326032005
 10
118.4589192412186
 20
-142.8870577984796
 10
118.3466091283995
 20
-142.9662949946404
 10
118.2473903784243
 20
-142.9707736187712
 10
118.1626410294871
 20
-142.975252242902
 10
118.1626410294871
 20
-142.975252242902
 10
118.1626410294871
 20
-142.740296730808
 10
118.1626410294871
 20
-142.740296730808
 10
118.23671058242
 20
-142.7378851639683
 10
118.4713215849655
 20
-142.726516348867
 10
118.4713215849655
 20
-142.4236924557135
 10
118.4713215849655
 20
-142.2765868784934
 10
118.4017306561635
 20
-142.1139783715896
 10
118.1733208254914
 20
-142.1139783715896
 10
118.05687659809
 20
-142.1139783715896
 10
118.0083007517479
 20
-142.1546304983155
 10
117.9766058732836
 20
-142.1887369436195
 10
117.9025363203508
 20
-142.2676296302317
 10
117.8897894670553
 20
-142.3919975772492
 10
117.8897894670553
 20
-142.450908710047
 10
117.8897894670553
 20
-142.47123477341
 10
117.8918565243465
 20
-142.5094753332963
 10
117.8959906389288
 20
-142.5391031544694
 10
117.8959906389288
 20
-142.5391031544694
 10
117.7013427440122
 20
-142.5391031544694
 10
117.7013427440122
 20
-142.5391031544694
 10
117.7078884254341
 20
-142.4984510277434
 10
117.7099554827253
 20
-142.4529757673382
 10
117.7099554827253
 20
-142.4464300859162
 10
117.7099554827253
 20
-142.3761501380171
 10
117.6885958907167
 20
-142.1635877465772
 10
117.4515733213316
 20
-142.1635877465772
 10
117.2741509038412
 20
-142.1635877465772
 10
117.2190293760772
 20
-142.3038031328268
 10
117.2190293760772
 20
-142.4212808888739
 10
117.2190293760772
 20
-142.7041232282129
 10
117.4515733213316
 20
-142.7130804764745
 10
117.5235758169733
 20
-142.7175591006053
 10
117.5235758169733
 20
-142.7175591006053
 10
117.5235758169733
 20
-142.9346001161761
 10
117.5235758169733
 20
-142.9346001161761
 10
117.3988633604072
 20
-142.9256428679144
 10
117.0223144238694
 20
-142.8963595562898
 10
117.0223144238694
 20
-142.4078450164814
 10
117.0223144238694
 20
-142.168066370708
 10
117.1490939377266
 20
-141.9103732284113
 10
117.4453721494581
 20
-141.9103732284113
 10
117.6317518152101
 20
-141.9103732284113
 10
117.7140895973076
 20
-142.0123480547747
 10
117.775412296945
 20
-142.1184569957204
 10
117.802973060827
 20
-142.0530001815006
 10
117.8832437856334
 20
-141.858352286584
 10
118.160573972196
 20
-141.858352286584
 10
118.4988823488475
 20
-141.858352286584
 10
118.6659694798821
 20
-142.1229356198512
 10
118.6659694798821
 20
-142.4192138315827
 97
        0
 97
        0
 75
     2
 76
     1
 98
        0
  0
ENDBLK
  5
E8
330
E5
100
AcDbEntity
  8
0
100
AcDbBlockEnd
  0
BLOCK
  5
ED
330
EB
100
AcDbEntity
  8
0
100
AcDbBlockBegin
  2
block 8
 70
     0
 10
0.0
 20
0.0
 30
0.0
  3
block 8
  1

  0
SPLINE
  5
EF
330
EB
100
AcDbEntity
  8
_U+30EC_U+30A4_U+30E4_U+30FC 1
370
     0
100
AcDbSpline
210
0.0
220
0.0
230
1.0
 70
    11
 71
     3
 72
    26
 73
    22
 74
     0
 42
0.0000000001
 43
0.0000000001
 12
1.0
 22
0.0
 32
0.0
 13
1.0
 23
0.0
 33
0.0
 40
0.0
 40
0.0
 40
0.0
 40
0.0
 40
1.0
 40
1.0
 40
1.0
 40
2.0
 40
2.0
 40
2.0
 40
3.0
 40
3.0
 40
3.0
 40
4.0
 40
4.0
 40
4.0
 40
5.0
 40
5.0
 40
5.0
 40
6.0
 40
6.0
 40
6.0
 40
7.0
 40
7.0
 40
7.0
 40
7.0
 10
118.6153265762489
 20
-135.7043782212822
 30
0.0
 10
118.6153265762489
 20
-135.7043782212822
 30
0.0
 10
117.5111734732264
 20
-135.7043782212822
 30
0.0
 10
117.5111734732264
 20
-135.7043782212822
 30
0.0
 10
117.5111734732264
 20
-135.7043782212822
 30
0.0
 10
117.5111734732264
 20
-136.0568114894233
 30
0.0
 10
117.5111734732264
 20
-136.0568114894233
 30
0.0
 10
117.5111734732264
 20
-136.0568114894233
 30
0.0
 10
117.3630343673606
 20
-136.0568114894233
 30
0.0
 10
117.3630343673606
 20
-136.0568114894233
 30
0.0
 10
117.3482204567741
 20
-135.7019666544426
 30
0.0
 10
117.1852674403217
 20
-135.652357279455
 30
0.0
 10
117.07123477976
 20
-135.6206624009907
 30
0.0
 10
117.07123477976
 20
-135.6206624009907
 30
0.0
 10
117.07123477976
 20
-135.4645995755089
 30
0.0
 10
117.07123477976
 20
-135.4645995755089
 30
0.0
 10
117.07123477976
 20
-135.4645995755089
 30
0.0
 10
118.6153265762489
 20
-135.4645995755089
 30
0.0
 10
118.6153265762489
 20
-135.4645995755089
 30
0.0
 10
118.6153265762489
 20
-135.4645995755089
 30
0.0
 10
118.6153265762489
 20
-135.7043782212822
 30
0.0
 10
118.6153265762489
 20
-135.7043782212822
 30
0.0
  0
HATCH
  5
F0
330
EB
100
AcDbEntity
  8
_U+30EC_U+30A4_U+30E4_U+30FC 1
 62
   179
420
  2234388
100
AcDbHatch
 10
0.0
 20
0.0
 30
0.0
210
0.0
220
0.0
230
1.0
  2
SOLID
 70
     1
 71
     0
 91
        1
 92
        1
 93
        1
 72
     4
 94
        3
 73
     0
 74
     1
 95
       26
 96
       22
 40
0.0
 40
0.0
 40
0.0
 40
0.0
 40
1.0
 40
1.0
 40
1.0
 40
2.0
 40
2.0
 40
2.0
 40
3.0
 40
3.0
 40
3.0
 40
4.0
 40
4.0
 40
4.0
 40
5.0
 40
5.0
 40
5.0
 40
6.0
 40
6.0
 40
6.0
 40
7.0
 40
7.0
 40
7.0
 40
7.0
 10
118.6153265762489
 20
-135.7043782212822
 10
118.6153265762489
 20
-135.7043782212822
 10
117.5111734732264
 20
-135.7043782212822
 10
117.5111734732264
 20
-135.7043782212822
 10
117.5111734732264
 20
-135.7043782212822
 10
117.5111734732264
 20
-136.0568114894233
 10
117.5111734732264
 20
-136.0568114894233
 10
117.5111734732264
 20
-136.0568114894233
 10
117.3630343673606
 20
-136.0568114894233
 10
117.3630343673606
 20
-136.0568114894233
 10
117.3482204567741
 20
-135.7019666544426
 10
117.1852674403217
 20
-135.652357279455
 10
117.07123477976
 20
-135.6206624009907
 10
117.07123477976
 20
-135.6206624009907
 10
117.07123477976
 20
-135.4645995755089
 10
117.07123477976
 20
-135.4645995755089
 10
117.07123477976
 20
-135.4645995755089
 10
118.6153265762489
 20
-135.4645995755089
 10
118.6153265762489
 20
-135.4645995755089
 10
118.6153265762489
 20
-135.4645995755089
 10
118.6153265762489
 20
-135.7043782212822
 10
118.6153265762489
 20
-135.7043782212822
 97
        0
 97
        0
 75
     2
 76
     1
 98
        0
  0
SPLINE
  5
F1
330
EB
100
AcDbEntity
  8
_U+30EC_U+30A4_U+30E4_U+30FC 1
370
     0
100
AcDbSpline
210
0.0
220
0.0
230
1.0
 70
    11
 71
     3
 72
    62
 73
    58
 74
     0
 42
0.0000000001
 43
0.0000000001
 12
1.0
 22
0.0
 32
0.0
 13
1.0
 23
0.0
 33
0.0
 40
0.0
 40
0.0
 40
0.0
 40
0.0
 40
1.0
 40
1.0
 40
1.0
 40
2.0
 40
2.0
 40
2.0
 40
3.0
 40
3.0
 40
3.0
 40
4.0
 40
4.0
 40
4.0
 40
5.0
 40
5.0
 40
5.0
 40
6.0
 40
6.0
 40
6.0
 40
7.0
 40
7.0
 40
7.0
 40
8.0
 40
8.0
 40
8.0
 40
9.0
 40
9.0
 40
9.0
 40
10.0
 40
10.0
 40
10.0
 40
11.0
 40
11.0
 40
11.0
 40
12.0
 40
12.0
 40
12.0
 40
13.0
 40
13.0
 40
13.0
 40
14.0
 40
14.0
 40
14.0
 40
15.0
 40
15.0
 40
15.0
 40
16.0
 40
16.0
 40
16.0
 40
17.0
 40
17.0
 40
17.0
 40
18.0
 40
18.0
 40
18.0
 40
19.0
 40
19.0
 40
19.0
 40
19.0
 10
118.6659694798821
 20
-134.4035101660519
 30
0.0
 10
118.6659694798821
 20
-134.5051404828668
 30
0.0
 10
118.6449543974221
 20
-134.7380289376697
 30
0.0
 10
118.4589192412186
 20
-134.8713541329488
 30
0.0
 10
118.3466091283995
 20
-134.9505913291096
 30
0.0
 10
118.2473903784243
 20
-134.9550699532404
 30
0.0
 10
118.1626410294871
 20
-134.9595485773712
 30
0.0
 10
118.1626410294871
 20
-134.9595485773712
 30
0.0
 10
118.1626410294871
 20
-134.7245930652772
 30
0.0
 10
118.1626410294871
 20
-134.7245930652772
 30
0.0
 10
118.23671058242
 20
-134.7221814984375
 30
0.0
 10
118.4713215849655
 20
-134.7108126833362
 30
0.0
 10
118.4713215849655
 20
-134.4079887901827
 30
0.0
 10
118.4713215849655
 20
-134.2608832129626
 30
0.0
 10
118.4017306561635
 20
-134.0982747060588
 30
0.0
 10
118.1733208254914
 20
-134.0982747060588
 30
0.0
 10
118.05687659809
 20
-134.0982747060588
 30
0.0
 10
118.0083007517479
 20
-134.1389268327847
 30
0.0
 10
117.9766058732836
 20
-134.1726887685402
 30
0.0
 10
117.9025363203508
 20
-134.2519259647009
 30
0.0
 10
117.8897894670553
 20
-134.3762939117184
 30
0.0
 10
117.8897894670553
 20
-134.4352050445162
 30
0.0
 10
117.8897894670553
 20
-134.4555311078792
 30
0.0
 10
117.8918565243465
 20
-134.4937716677655
 30
0.0
 10
117.8959906389288
 20
-134.5233994889386
 30
0.0
 10
117.8959906389288
 20
-134.5233994889386
 30
0.0
 10
117.7013427440122
 20
-134.5233994889386
 30
0.0
 10
117.7013427440122
 20
-134.5233994889386
 30
0.0
 10
117.7078884254341
 20
-134.4827473622126
 30
0.0
 10
117.7099554827253
 20
-134.4372721018074
 30
0.0
 10
117.7099554827253
 20
-134.4307264203854
 30
0.0
 10
117.7099554827253
 20
-134.3604464724863
 30
0.0
 10
117.6885958907167
 20
-134.1478840810464
 30
0.0
 10
117.4515733213316
 20
-134.1478840810464
 30
0.0
 10
117.2741509038412
 20
-134.1478840810464
 30
0.0
 10
117.2190293760772
 20
-134.288099467296
 30
0.0
 10
117.2190293760772
 20
-134.405577223343
 30
0.0
 10
117.2190293760772
 20
-134.6884195626821
 30
0.0
 10
117.4515733213316
 20
-134.6973768109437
 30
0.0
 10
117.5235758169733
 20
-134.7018554350745
 30
0.0
 10
117.5235758169733
 20
-134.7018554350745
 30
0.0
 10
117.5235758169733
 20
-134.9188964506453
 30
0.0
 10
117.5235758169733
 20
-134.9188964506453
 30
0.0
 10
117.3988633604072
 20
-134.9099392023836
 30
0.0
 10
117.0223144238694
 20
-134.880655890759
 30
0.0
 10
117.0223144238694
 20
-134.3921413509506
 30
0.0
 10
117.0223144238694
 20
-134.1523627051772
 30
0.0
 10
117.1490939377266
 20
-133.8946695628805
 30
0.0
 10
117.4453721494581
 20
-133.8946695628805
 30
0.0
 10
117.6317518152101
 20
-133.8946695628805
 30
0.0
 10
117.7140895973076
 20
-133.9966443892439
 30
0.0
 10
117.775412296945
 20
-134.1027533301896
 30
0.0
 10
117.802973060827
 20
-134.0372965159698
 30
0.0
 10
117.8832437856334
 20
-133.8426486210532
 30
0.0
 10
118.160573972196
 20
-133.8426486210532
 30
0.0
 10
118.4988823488475
 20
-133.8426486210532
 30
0.0
 10
118.6659694798821
 20
-134.1072319543204
 30
0.0
 10
118.6659694798821
 20
-134.4035101660519
 30
0.0
  0
HATCH
  5
F2
330
EB
100
AcDbEntity
  8
_U+30EC_U+30A4_U+30E4_U+30FC 1
 62
   179
420
  2234388
100
AcDbHatch
 10
0.0
 20
0.0
 30
0.0
210
0.0
220
0.0
230
1.0
  2
SOLID
 70
     1
 71
     0
 91
        1
 92
        1
 93
        1
 72
     4
 94
        3
 73
     0
 74
     1
 95
       62
 96
       58
 40
0.0
 40
0.0
 40
0.0
 40
0.0
 40
1.0
 40
1.0
 40
1.0
 40
2.0
 40
2.0
 40
2.0
 40
3.0
 40
3.0
 40
3.0
 40
4.0
 40
4.0
 40
4.0
 40
5.0
 40
5.0
 40
5.0
 40
6.0
 40
6.0
 40
6.0
 40
7.0
 40
7.0
 40
7.0
 40
8.0
 40
8.0
 40
8.0
 40
9.0
 40
9.0
 40
9.0
 40
10.0
 40
10.0
 40
10.0
 40
11.0
 40
11.0
 40
11.0
 40
12.0
 40
12.0
 40
12.0
 40
13.0
 40
13.0
 40
13.0
 40
14.0
 40
14.0
 40
14.0
 40
15.0
 40
15.0
 40
15.0
 40
16.0
 40
16.0
 40
16.0
 40
17.0
 40
17.0
 40
17.0
 40
18.0
 40
18.0
 40
18.0
 40
19.0
 40
19.0
 40
19.0
 40
19.0
 10
118.6659694798821
 20
-134.4035101660519
 10
118.6659694798821
 20
-134.5051404828668
 10
118.6449543974221
 20
-134.7380289376697
 10
118.4589192412186
 20
-134.8713541329488
 10
118.3466091283995
 20
-134.9505913291096
 10
118.2473903784243
 20
-134.9550699532404
 10
118.1626410294871
 20
-134.9595485773712
 10
118.1626410294871
 20
-134.9595485773712
 10
118.1626410294871
 20
-134.7245930652772
 10
118.1626410294871
 20
-134.7245930652772
 10
118.23671058242
 20
-134.7221814984375
 10
118.4713215849655
 20
-134.7108126833362
 10
118.4713215849655
 20
-134.4079887901827
 10
118.4713215849655
 20
-134.2608832129626
 10
118.4017306561635
 20
-134.0982747060588
 10
118.1733208254914
 20
-134.0982747060588
 10
118.05687659809
 20
-134.0982747060588
 10
118.0083007517479
 20
-134.1389268327847
 10
117.9766058732836
 20
-134.1726887685402
 10
117.9025363203508
 20
-134.2519259647009
 10
117.8897894670553
 20
-134.3762939117184
 10
117.8897894670553
 20
-134.4352050445162
 10
117.8897894670553
 20
-134.4555311078792
 10
117.8918565243465
 20
-134.4937716677655
 10
117.8959906389288
 20
-134.5233994889386
 10
117.8959906389288
 20
-134.5233994889386
 10
117.7013427440122
 20
-134.5233994889386
 10
117.7013427440122
 20
-134.5233994889386
 10
117.7078884254341
 20
-134.4827473622126
 10
117.7099554827253
 20
-134.4372721018074
 10
117.7099554827253
 20
-134.4307264203854
 10
117.7099554827253
 20
-134.3604464724863
 10
117.6885958907167
 20
-134.1478840810464
 10
117.4515733213316
 20
-134.1478840810464
 10
117.2741509038412
 20
-134.1478840810464
 10
117.2190293760772
 20
-134.288099467296
 10
117.2190293760772
 20
-134.405577223343
 10
117.2190293760772
 20
-134.6884195626821
 10
117.4515733213316
 20
-134.6973768109437
 10
117.5235758169733
 20
-134.7018554350745
 10
117.5235758169733
 20
-134.7018554350745
 10
117.5235758169733
 20
-134.9188964506453
 10
117.5235758169733
 20
-134.9188964506453
 10
117.3988633604072
 20
-134.9099392023836
 10
117.0223144238694
 20
-134.880655890759
 10
117.0223144238694
 20
-134.3921413509506
 10
117.0223144238694
 20
-134.1523627051772
 10
117.1490939377266
 20
-133.8946695628805
 10
117.4453721494581
 20
-133.8946695628805
 10
117.6317518152101
 20
-133.8946695628805
 10
117.7140895973076
 20
-133.9966443892439
 10
117.775412296945
 20
-134.1027533301896
 10
117.802973060827
 20
-134.0372965159698
 10
117.8832437856334
 20
-133.8426486210532
 10
118.160573972196
 20
-133.8426486210532
 10
118.4988823488475
 20
-133.8426486210532
 10
118.6659694798821
 20
-134.1072319543204
 10
118.6659694798821
 20
-134.4035101660519
 97
        0
 97
        0
 75
     2
 76
     1
 98
        0
  0
ENDBLK
  5
EE
330
EB
100
AcDbEntity
  8
0
100
AcDbBlockEnd
  0
BLOCK
  5
F5
330
F3
100
AcDbEntity
  8
0
100
AcDbBlockBegin
  2
block 9
 70
     0
 10
0.0
 20
0.0
 30
0.0
  3
block 9
  1

  0
SPLINE
  5
F7
330
F3
100
AcDbEntity
  8
_U+30EC_U+30A4_U+30E4_U+30FC 1
370
     0
100
AcDbSpline
210
0.0
220
0.0
230
1.0
 70
    11
 71
     3
 72
    26
 73
    22
 74
     0
 42
0.0000000001
 43
0.0000000001
 12
1.0
 22
0.0
 32
0.0
 13
1.0
 23
0.0
 33
0.0
 40
0.0
 40
0.0
 40
0.0
 40
0.0
 40
1.0
 40
1.0
 40
1.0
 40
2.0
 40
2.0
 40
2.0
 40
3.0
 40
3.0
 40
3.0
 40
4.0
 40
4.0
 40
4.0
 40
5.0
 40
5.0
 40
5.0
 40
6.0
 40
6.0
 40
6.0
 40
7.0
 40
7.0
 40
7.0
 40
7.0
 10
118.6153265762489
 20
-125.8269449555224
 30
0.0
 10
118.6153265762489
 20
-125.8269449555224
 30
0.0
 10
117.5111734732264
 20
-125.8269449555224
 30
0.0
 10
117.5111734732264
 20
-125.8269449555224
 30
0.0
 10
117.5111734732264
 20
-125.8269449555224
 30
0.0
 10
117.5111734732264
 20
-126.1793782236635
 30
0.0
 10
117.5111734732264
 20
-126.1793782236635
 30
0.0
 10
117.5111734732264
 20
-126.1793782236635
 30
0.0
 10
117.3630343673606
 20
-126.1793782236635
 30
0.0
 10
117.3630343673606
 20
-126.1793782236635
 30
0.0
 10
117.3482204567741
 20
-125.8245333886828
 30
0.0
 10
117.1852674403217
 20
-125.7749240136952
 30
0.0
 10
117.07123477976
 20
-125.7432291352309
 30
0.0
 10
117.07123477976
 20
-125.7432291352309
 30
0.0
 10
117.07123477976
 20
-125.5871663097491
 30
0.0
 10
117.07123477976
 20
-125.5871663097491
 30
0.0
 10
117.07123477976
 20
-125.5871663097491
 30
0.0
 10
118.6153265762489
 20
-125.5871663097491
 30
0.0
 10
118.6153265762489
 20
-125.5871663097491
 30
0.0
 10
118.6153265762489
 20
-125.5871663097491
 30
0.0
 10
118.6153265762489
 20
-125.8269449555224
 30
0.0
 10
118.6153265762489
 20
-125.8269449555224
 30
0.0
  0
HATCH
  5
F8
330
F3
100
AcDbEntity
  8
_U+30EC_U+30A4_U+30E4_U+30FC 1
 62
   179
420
  2234388
100
AcDbHatch
 10
0.0
 20
0.0
 30
0.0
210
0.0
220
0.0
230
1.0
  2
SOLID
 70
     1
 71
     0
 91
        1
 92
        1
 93
        1
 72
     4
 94
        3
 73
     0
 74
     1
 95
       26
 96
       22
 40
0.0
 40
0.0
 40
0.0
 40
0.0
 40
1.0
 40
1.0
 40
1.0
 40
2.0
 40
2.0
 40
2.0
 40
3.0
 40
3.0
 40
3.0
 40
4.0
 40
4.0
 40
4.0
 40
5.0
 40
5.0
 40
5.0
 40
6.0
 40
6.0
 40
6.0
 40
7.0
 40
7.0
 40
7.0
 40
7.0
 10
118.6153265762489
 20
-125.8269449555224
 10
118.6153265762489
 20
-125.8269449555224
 10
117.5111734732264
 20
-125.8269449555224
 10
117.5111734732264
 20
-125.8269449555224
 10
117.5111734732264
 20
-125.8269449555224
 10
117.5111734732264
 20
-126.1793782236635
 10
117.5111734732264
 20
-126.1793782236635
 10
117.5111734732264
 20
-126.1793782236635
 10
117.3630343673606
 20
-126.1793782236635
 10
117.3630343673606
 20
-126.1793782236635
 10
117.3482204567741
 20
-125.8245333886828
 10
117.1852674403217
 20
-125.7749240136952
 10
117.07123477976
 20
-125.7432291352309
 10
117.07123477976
 20
-125.7432291352309
 10
117.07123477976
 20
-125.5871663097491
 10
117.07123477976
 20
-125.5871663097491
 10
117.07123477976
 20
-125.5871663097491
 10
118.6153265762489
 20
-125.5871663097491
 10
118.6153265762489
 20
-125.5871663097491
 10
118.6153265762489
 20
-125.5871663097491
 10
118.6153265762489
 20
-125.8269449555224
 10
118.6153265762489
 20
-125.8269449555224
 97
        0
 97
        0
 75
     2
 76
     1
 98
        0
  0
ENDBLK
  5
F6
330
F3
100
AcDbEntity
  8
0
100
AcDbBlockEnd
  0
ENDSEC
  0
SECTION
  2
ENTITIES
  0
SPLINE
  5
41
330
1F
100
AcDbEntity
  8
_U+30EC_U+30A4_U+30E4_U+30FC 1
 62
   179
420
  2234388
370
     9
100
AcDbSpline
210
0.0
220
0.0
230
1.0
 70
    11
 71
     3
 72
    17
 73
    13
 74
     0
 42
0.0000000001
 43
0.0000000001
 12
1.0
 22
0.0
 32
0.0
 13
1.0
 23
0.0
 33
0.0
 40
0.0
 40
0.0
 40
0.0
 40
0.0
 40
1.0
 40
1.0
 40
1.0
 40
2.0
 40
2.0
 40
2.0
 40
3.0
 40
3.0
 40
3.0
 40
4.0
 40
4.0
 40
4.0
 40
4.0
 10
92.26034709068689
 20
-147.9179230185763
 30
0.0
 10
92.26034709068689
 20
-147.8628191297008
 30
0.0
 10
92.21554431405214
 20
-147.8180163519341
 30
0.0
 10
92.16044042656907
 20
-147.8180163519341
 30
0.0
 10
92.10530126130911
 20
-147.8180163519341
 30
0.0
 10
92.06053608809624
 20
-147.8628191297008
 30
0.0
 10
92.06053608809624
 20
-147.9179230185763
 30
0.0
 10
92.06053608809624
 20
-147.9730621852288
 30
0.0
 10
92.10530126130911
 20
-148.017829685218
 30
0.0
 10
92.16044042656907
 20
-148.017829685218
 30
0.0
 10
92.21554431405214
 20
-148.017829685218
 30
0.0
 10
92.26034709068689
 20
-147.9730621852288
 30
0.0
 10
92.26034709068689
 20
-147.9179230185763
 30
0.0
  0
SPLINE
  5
42
330
1F
100
AcDbEntity
  8
_U+30EC_U+30A4_U+30E4_U+30FC 1
 62
   179
420
  2234388
370
     9
100
AcDbSpline
210
0.0
220
0.0
230
1.0
 70
    11
 71
     3
 72
    17
 73
    13
 74
     0
 42
0.0000000001
 43
0.0000000001
 12
1.0
 22
0.0
 32
0.0
 13
1.0
 23
0.0
 33
0.0
 40
0.0
 40
0.0
 40
0.0
 40
0.0
 40
1.0
 40
1.0
 40
1.0
 40
2.0
 40
2.0
 40
2.0
 40
3.0
 40
3.0
 40
3.0
 40
4.0
 40
4.0
 40
4.0
 40
4.0
 10
70.26066681861217
 20
-147.9179230185763
 30
0.0
 10
70.26066681861217
 20
-147.8628191297008
 30
0.0
 10
70.2158640419774
 20
-147.8180163519341
 30
0.0
 10
70.16076015449433
 20
-147.8180163519341
 30
0.0
 10
70.10562098923438
 20
-147.8180163519341
 30
0.0
 10
70.0608534903765
 20
-147.8628191297008
 30
0.0
 10
70.0608534903765
 20
-147.9179230185763
 30
0.0
 10
70.0608534903765
 20
-147.9730621852288
 30
0.0
 10
70.10562098923438
 20
-148.017829685218
 30
0.0
 10
70.16076015449433
 20
-148.017829685218
 30
0.0
 10
70.2158640419774
 20
-148.017829685218
 30
0.0
 10
70.26066681861217
 20
-147.9730621852288
 30
0.0
 10
70.26066681861217
 20
-147.9179230185763
 30
0.0
  0
POLYLINE
  5
43
330
1F
100
AcDbEntity
  8
_U+30EC_U+30A4_U+30E4_U+30FC 1
 62
   179
420
  2234388
370
     9
100
AcDb2dPolyline
 66
     1
 10
0.0
 20
0.0
 30
0.0
  0
VERTEX
  5
44
330
43
100
AcDbEntity
  8
_U+30EC_U+30A4_U+30E4_U+30FC 1
 62
   179
420
  2234388
370
     9
100
AcDbVertex
100
AcDb2dVertex
 10
70.16076015449433
 20
-130.4175346896178
 30
0.0
  0
VERTEX
  5
45
330
43
100
AcDbEntity
  8
_U+30EC_U+30A4_U+30E4_U+30FC 1
 62
   179
420
  2234388
370
     9
100
AcDbVertex
100
AcDb2dVertex
 10
70.16076015449433
 20
-148.9184007961038
 30
0.0
  0
SEQEND
  5
46
330
43
100
AcDbEntity
  8
_U+30EC_U+30A4_U+30E4_U+30FC 1
 62
   179
420
  2234388
370
     9
  0
POLYLINE
  5
47
330
1F
100
AcDbEntity
  8
_U+30EC_U+30A4_U+30E4_U+30FC 1
 62
   179
420
  2234388
370
     9
100
AcDb2dPolyline
 66
     1
 10
0.0
 20
0.0
 30
0.0
  0
VERTEX
  5
48
330
47
100
AcDbEntity
  8
_U+30EC_U+30A4_U+30E4_U+30FC 1
 62
   179
420
  2234388
370
     9
100
AcDbVertex
100
AcDb2dVertex
 10
70.16076015449433
 20
-147.9179230185763
 30
0.0
  0
VERTEX
  5
49
330
47
100
AcDbEntity
  8
_U+30EC_U+30A4_U+30E4_U+30FC 1
 62
   179
420
  2234388
370
     9
100
AcDbVertex
100
AcDb2dVertex
 10
92.16044042656907
 20
-147.9179230185763
 30
0.0
  0
SEQEND
  5
4A
330
47
100
AcDbEntity
  8
_U+30EC_U+30A4_U+30E4_U+30FC 1
 62
   179
420
  2234388
370
     9
  0
POLYLINE
  5
4B
330
1F
100
AcDbEntity
  8
_U+30EC_U+30A4_U+30E4_U+30FC 1
 62
   179
420
  2234388
370
     9
100
AcDb2dPolyline
 66
     1
 10
0.0
 20
0.0
 30
0.0
  0
VERTEX
  5
4C
330
4B
100
AcDbEntity
  8
_U+30EC_U+30A4_U+30E4_U+30FC 1
 62
   179
420
  2234388
370
     9
100
AcDbVertex
100
AcDb2dVertex
 10
92.16044042656907
 20
-146.4579169078302
 30
0.0
  0
VERTEX
  5
4D
330
4B
100
AcDbEntity
  8
_U+30EC_U+30A4_U+30E4_U+30FC 1
 62
   179
420
  2234388
370
     9
100
AcDbVertex
100
AcDb2dVertex
 10
92.16044042656907
 20
-148.9184007961038
 30
0.0
  0
SEQEND
  5
4E
330
4B
100
AcDbEntity
  8
_U+30EC_U+30A4_U+30E4_U+30FC 1
 62
   179
420
  2234388
370
     9
  0
SPLINE
  5
4F
330
1F
100
AcDbEntity
  8
_U+30EC_U+30A4_U+30E4_U+30FC 1
 62
   179
420
  2234388
370
     9
100
AcDbSpline
210
0.0
220
0.0
230
1.0
 70
    11
 71
     3
 72
    17
 73
    13
 74
     0
 42
0.0000000001
 43
0.0000000001
 12
1.0
 22
0.0
 32
0.0
 13
1.0
 23
0.0
 33
0.0
 40
0.0
 40
0.0
 40
0.0
 40
0.0
 40
1.0
 40
1.0
 40
1.0
 40
2.0
 40
2.0
 40
2.0
 40
3.0
 40
3.0
 40
3.0
 40
4.0
 40
4.0
 40
4.0
 40
4.0
 10
82.260261512477
 20
-147.9179230185763
 30
0.0
 10
82.260261512477
 20
-147.8628191297008
 30
0.0
 10
82.21549401361912
 20
-147.8180163519341
 30
0.0
 10
82.16035484835916
 20
-147.8180163519341
 30
0.0
 10
82.10525096087609
 20
-147.8180163519341
 30
0.0
 10
82.06044818424132
 20
-147.8628191297008
 30
0.0
 10
82.06044818424132
 20
-147.9179230185763
 30
0.0
 10
82.06044818424132
 20
-147.9730621852288
 30
0.0
 10
82.10525096087609
 20
-148.017829685218
 30
0.0
 10
82.16035484835916
 20
-148.017829685218
 30
0.0
 10
82.21549401361912
 20
-148.017829685218
 30
0.0
 10
82.260261512477
 20
-147.9730621852288
 30
0.0
 10
82.260261512477
 20
-147.9179230185763
 30
0.0
  0
POLYLINE
  5
50
330
1F
100
AcDbEntity
  8
_U+30EC_U+30A4_U+30E4_U+30FC 1
 62
   179
420
  2234388
370
     9
100
AcDb2dPolyline
 66
     1
 10
0.0
 20
0.0
 30
0.0
  0
VERTEX
  5
51
330
50
100
AcDbEntity
  8
_U+30EC_U+30A4_U+30E4_U+30FC 1
 62
   179
420
  2234388
370
     9
100
AcDbVertex
100
AcDb2dVertex
 10
82.16035484835916
 20
-146.4579169078302
 30
0.0
  0
VERTEX
  5
52
330
50
100
AcDbEntity
  8
_U+30EC_U+30A4_U+30E4_U+30FC 1
 62
   179
420
  2234388
370
     9
100
AcDbVertex
100
AcDb2dVertex
 10
82.16035484835916
 20
-148.9184007961038
 30
0.0
  0
SEQEND
  5
53
330
50
100
AcDbEntity
  8
_U+30EC_U+30A4_U+30E4_U+30FC 1
 62
   179
420
  2234388
370
     9
  0
INSERT
  5
55
330
1F
100
AcDbEntity
  8
_U+30EC_U+30A4_U+30E4_U+30FC 1
100
AcDbBlockReference
  2
block 2
 10
0.0
 20
0.0
 30
0.0
  0
INSERT
  5
5E
330
1F
100
AcDbEntity
  8
_U+30EC_U+30A4_U+30E4_U+30FC 1
100
AcDbBlockReference
  2
block 3
 10
0.0
 20
0.0
 30
0.0
  0
SPLINE
  5
65
330
1F
100
AcDbEntity
  8
_U+30EC_U+30A4_U+30E4_U+30FC 1
 62
   179
420
  2234388
370
     9
100
AcDbSpline
210
0.0
220
0.0
230
1.0
 70
    11
 71
     3
 72
    17
 73
    13
 74
     0
 42
0.0000000001
 43
0.0000000001
 12
1.0
 22
0.0
 32
0.0
 13
1.0
 23
0.0
 33
0.0
 40
0.0
 40
0.0
 40
0.0
 40
0.0
 40
1.0
 40
1.0
 40
1.0
 40
2.0
 40
2.0
 40
2.0
 40
3.0
 40
3.0
 40
3.0
 40
4.0
 40
4.0
 40
4.0
 40
4.0
 10
70.24860181891997
 20
-113.9575585826218
 30
0.0
 10
70.24860181891997
 20
-113.9024194159687
 30
0.0
 10
70.20379904228521
 20
-113.8576519159801
 30
0.0
 10
70.14869515480214
 20
-113.8576519159801
 30
0.0
 10
70.09355598954218
 20
-113.8576519159801
 30
0.0
 10
70.0487884906843
 20
-113.9024194159687
 30
0.0
 10
70.0487884906843
 20
-113.9575585826218
 30
0.0
 10
70.0487884906843
 20
-114.0126624714967
 30
0.0
 10
70.09355598954218
 20
-114.0574652492634
 30
0.0
 10
70.14869515480214
 20
-114.0574652492634
 30
0.0
 10
70.20379904228521
 20
-114.0574652492634
 30
0.0
 10
70.24860181891997
 20
-114.0126624714967
 30
0.0
 10
70.24860181891997
 20
-113.9575585826218
 30
0.0
  0
SPLINE
  5
66
330
1F
100
AcDbEntity
  8
_U+30EC_U+30A4_U+30E4_U+30FC 1
 62
   179
420
  2234388
370
     9
100
AcDbSpline
210
0.0
220
0.0
230
1.0
 70
    11
 71
     3
 72
    17
 73
    13
 74
     0
 42
0.0000000001
 43
0.0000000001
 12
1.0
 22
0.0
 32
0.0
 13
1.0
 23
0.0
 33
0.0
 40
0.0
 40
0.0
 40
0.0
 40
0.0
 40
1.0
 40
1.0
 40
1.0
 40
2.0
 40
2.0
 40
2.0
 40
3.0
 40
3.0
 40
3.0
 40
4.0
 40
4.0
 40
4.0
 40
4.0
 10
112.2487707474064
 20
-113.9575585826218
 30
0.0
 10
112.2487707474064
 20
-113.9024194159687
 30
0.0
 10
112.2040032485485
 20
-113.8576519159801
 30
0.0
 10
112.1488640832886
 20
-113.8576519159801
 30
0.0
 10
112.0937601958055
 20
-113.8576519159801
 30
0.0
 10
112.0489574191707
 20
-113.9024194159687
 30
0.0
 10
112.0489574191707
 20
-113.9575585826218
 30
0.0
 10
112.0489574191707
 20
-114.0126624714967
 30
0.0
 10
112.0937601958055
 20
-114.0574652492634
 30
0.0
 10
112.1488640832886
 20
-114.0574652492634
 30
0.0
 10
112.2040032485485
 20
-114.0574652492634
 30
0.0
 10
112.2487707474064
 20
-114.0126624714967
 30
0.0
 10
112.2487707474064
 20
-113.9575585826218
 30
0.0
  0
POLYLINE
  5
67
330
1F
100
AcDbEntity
  8
_U+30EC_U+30A4_U+30E4_U+30FC 1
 62
   179
420
  2234388
370
     9
100
AcDb2dPolyline
 66
     1
 10
0.0
 20
0.0
 30
0.0
  0
VERTEX
  5
68
330
67
100
AcDbEntity
  8
_U+30EC_U+30A4_U+30E4_U+30FC 1
 62
   179
420
  2234388
370
     9
100
AcDbVertex
100
AcDb2dVertex
 10
70.14869515480214
 20
-113.9575585826218
 30
0.0
  0
VERTEX
  5
69
330
67
100
AcDbEntity
  8
_U+30EC_U+30A4_U+30E4_U+30FC 1
 62
   179
420
  2234388
370
     9
100
AcDbVertex
100
AcDb2dVertex
 10
112.1488640832886
 20
-113.9575585826218
 30
0.0
  0
SEQEND
  5
6A
330
67
100
AcDbEntity
  8
_U+30EC_U+30A4_U+30E4_U+30FC 1
 62
   179
420
  2234388
370
     9
  0
POLYLINE
  5
6B
330
1F
100
AcDbEntity
  8
_U+30EC_U+30A4_U+30E4_U+30FC 1
 62
   179
420
  2234388
370
     9
100
AcDb2dPolyline
 66
     1
 10
0.0
 20
0.0
 30
0.0
  0
VERTEX
  5
6C
330
6B
100
AcDbEntity
  8
_U+30EC_U+30A4_U+30E4_U+30FC 1
 62
   179
420
  2234388
370
     9
100
AcDbVertex
100
AcDb2dVertex
 10
70.14869515480214
 20
-115.4175999711455
 30
0.0
  0
VERTEX
  5
6D
330
6B
100
AcDbEntity
  8
_U+30EC_U+30A4_U+30E4_U+30FC 1
 62
   179
420
  2234388
370
     9
100
AcDbVertex
100
AcDb2dVertex
 10
70.14869515480214
 20
-112.9577863606496
 30
0.0
  0
SEQEND
  5
6E
330
6B
100
AcDbEntity
  8
_U+30EC_U+30A4_U+30E4_U+30FC 1
 62
   179
420
  2234388
370
     9
  0
POLYLINE
  5
6F
330
1F
100
AcDbEntity
  8
_U+30EC_U+30A4_U+30E4_U+30FC 1
 62
   179
420
  2234388
370
     9
100
AcDb2dPolyline
 66
     1
 10
0.0
 20
0.0
 30
0.0
  0
VERTEX
  5
70
330
6F
100
AcDbEntity
  8
_U+30EC_U+30A4_U+30E4_U+30FC 1
 62
   179
420
  2234388
370
     9
100
AcDbVertex
100
AcDb2dVertex
 10
112.1488640832886
 20
-124.4175608022288
 30
0.0
  0
VERTEX
  5
71
330
6F
100
AcDbEntity
  8
_U+30EC_U+30A4_U+30E4_U+30FC 1
 62
   179
420
  2234388
370
     9
100
AcDbVertex
100
AcDb2dVertex
 10
112.1488640832886
 20
-112.9577863606496
 30
0.0
  0
SEQEND
  5
72
330
6F
100
AcDbEntity
  8
_U+30EC_U+30A4_U+30E4_U+30FC 1
 62
   179
420
  2234388
370
     9
  0
SPLINE
  5
73
330
1F
100
AcDbEntity
  8
_U+30EC_U+30A4_U+30E4_U+30FC 1
 62
   179
420
  2234388
370
     9
100
AcDbSpline
210
0.0
220
0.0
230
1.0
 70
    11
 71
     3
 72
    17
 73
    13
 74
     0
 42
0.0000000001
 43
0.0000000001
 12
1.0
 22
0.0
 32
0.0
 13
1.0
 23
0.0
 33
0.0
 40
0.0
 40
0.0
 40
0.0
 40
0.0
 40
1.0
 40
1.0
 40
1.0
 40
2.0
 40
2.0
 40
2.0
 40
3.0
 40
3.0
 40
3.0
 40
4.0
 40
4.0
 40
4.0
 40
4.0
 10
73.23754674266563
 20
-111.7630338609482
 30
0.0
 10
73.23754674266563
 20
-111.7072244165178
 30
0.0
 10
73.19277924380775
 20
-111.6624216387511
 30
0.0
 10
73.13764007854779
 20
-111.6624216387511
 30
0.0
 10
73.08253619106472
 20
-111.6624216387511
 30
0.0
 10
73.03773341442997
 20
-111.7072244165178
 30
0.0
 10
73.03773341442997
 20
-111.7630338609482
 30
0.0
 10
73.03773341442997
 20
-111.8181377498232
 30
0.0
 10
73.08253619106472
 20
-111.8629405275899
 30
0.0
 10
73.13764007854779
 20
-111.8629405275899
 30
0.0
 10
73.19277924380775
 20
-111.8629405275899
 30
0.0
 10
73.23754674266563
 20
-111.8181377498232
 30
0.0
 10
73.23754674266563
 20
-111.7630338609482
 30
0.0
  0
SPLINE
  5
74
330
1F
100
AcDbEntity
  8
_U+30EC_U+30A4_U+30E4_U+30FC 1
 62
   179
420
  2234388
370
     9
100
AcDbSpline
210
0.0
220
0.0
230
1.0
 70
    11
 71
     3
 72
    17
 73
    13
 74
     0
 42
0.0000000001
 43
0.0000000001
 12
1.0
 22
0.0
 32
0.0
 13
1.0
 23
0.0
 33
0.0
 40
0.0
 40
0.0
 40
0.0
 40
0.0
 40
1.0
 40
1.0
 40
1.0
 40
2.0
 40
2.0
 40
2.0
 40
3.0
 40
3.0
 40
3.0
 40
4.0
 40
4.0
 40
4.0
 40
4.0
 10
70.06187654590595
 20
-111.7630338609482
 30
0.0
 10
70.06187654590595
 20
-111.7072244165178
 30
0.0
 10
70.01707376927119
 20
-111.6624216387511
 30
0.0
 10
69.96196988178812
 20
-111.6624216387511
 30
0.0
 10
69.90683071652816
 20
-111.6624216387511
 30
0.0
 10
69.86206321767028
 20
-111.7072244165178
 30
0.0
 10
69.86206321767028
 20
-111.7630338609482
 30
0.0
 10
69.86206321767028
 20
-111.8181377498232
 30
0.0
 10
69.90683071652816
 20
-111.8629405275899
 30
0.0
 10
69.96196988178812
 20
-111.8629405275899
 30
0.0
 10
70.01707376927119
 20
-111.8629405275899
 30
0.0
 10
70.06187654590595
 20
-111.8181377498232
 30
0.0
 10
70.06187654590595
 20
-111.7630338609482
 30
0.0
  0
POLYLINE
  5
75
330
1F
100
AcDbEntity
  8
_U+30EC_U+30A4_U+30E4_U+30FC 1
 62
   179
420
  2234388
370
     9
100
AcDb2dPolyline
 66
     1
 10
0.0
 20
0.0
 30
0.0
  0
VERTEX
  5
76
330
75
100
AcDbEntity
  8
_U+30EC_U+30A4_U+30E4_U+30FC 1
 62
   179
420
  2234388
370
     9
100
AcDbVertex
100
AcDb2dVertex
 10
69.96196988178812
 20
-111.0574783055691
 30
0.0
  0
VERTEX
  5
77
330
75
100
AcDbEntity
  8
_U+30EC_U+30A4_U+30E4_U+30FC 1
 62
   179
420
  2234388
370
     9
100
AcDbVertex
100
AcDb2dVertex
 10
69.96196988178812
 20
-112.2922005274826
 30
0.0
  0
SEQEND
  5
78
330
75
100
AcDbEntity
  8
_U+30EC_U+30A4_U+30E4_U+30FC 1
 62
   179
420
  2234388
370
     9
  0
POLYLINE
  5
79
330
1F
100
AcDbEntity
  8
_U+30EC_U+30A4_U+30E4_U+30FC 1
 62
   179
420
  2234388
370
     9
100
AcDb2dPolyline
 66
     1
 10
0.0
 20
0.0
 30
0.0
  0
VERTEX
  5
7A
330
79
100
AcDbEntity
  8
_U+30EC_U+30A4_U+30E4_U+30FC 1
 62
   179
420
  2234388
370
     9
100
AcDbVertex
100
AcDb2dVertex
 10
73.13764007854779
 20
-111.0574783055691
 30
0.0
  0
VERTEX
  5
7B
330
79
100
AcDbEntity
  8
_U+30EC_U+30A4_U+30E4_U+30FC 1
 62
   179
420
  2234388
370
     9
100
AcDbVertex
100
AcDb2dVertex
 10
73.13764007854779
 20
-112.2922005274826
 30
0.0
  0
SEQEND
  5
7C
330
79
100
AcDbEntity
  8
_U+30EC_U+30A4_U+30E4_U+30FC 1
 62
   179
420
  2234388
370
     9
  0
POLYLINE
  5
7D
330
1F
100
AcDbEntity
  8
_U+30EC_U+30A4_U+30E4_U+30FC 1
 62
   179
420
  2234388
370
     9
100
AcDb2dPolyline
 66
     1
 10
0.0
 20
0.0
 30
0.0
  0
VERTEX
  5
7E
330
7D
100
AcDbEntity
  8
_U+30EC_U+30A4_U+30E4_U+30FC 1
 62
   179
420
  2234388
370
     9
100
AcDbVertex
100
AcDb2dVertex
 10
68.74929630161489
 20
-111.7630338609482
 30
0.0
  0
VERTEX
  5
7F
330
7D
100
AcDbEntity
  8
_U+30EC_U+30A4_U+30E4_U+30FC 1
 62
   179
420
  2234388
370
     9
100
AcDbVertex
100
AcDb2dVertex
 10
74.43850810091544
 20
-111.7630338609482
 30
0.0
  0
SEQEND
  5
80
330
7D
100
AcDbEntity
  8
_U+30EC_U+30A4_U+30E4_U+30FC 1
 62
   179
420
  2234388
370
     9
  0
INSERT
  5
82
330
1F
100
AcDbEntity
  8
_U+30EC_U+30A4_U+30E4_U+30FC 1
100
AcDbBlockReference
  2
block 4
 10
0.0
 20
0.0
 30
0.0
  0
INSERT
  5
9D
330
1F
100
AcDbEntity
  8
_U+30EC_U+30A4_U+30E4_U+30FC 1
100
AcDbBlockReference
  2
block 5
 10
0.0
 20
0.0
 30
0.0
  0
SPLINE
  5
A2
330
1F
100
AcDbEntity
  8
_U+30EC_U+30A4_U+30E4_U+30FC 1
 62
   179
420
  2234388
370
     9
100
AcDbSpline
210
0.0
220
0.0
230
1.0
 70
    11
 71
     3
 72
    17
 73
    13
 74
     0
 42
0.0000000001
 43
0.0000000001
 12
1.0
 22
0.0
 32
0.0
 13
1.0
 23
0.0
 33
0.0
 40
0.0
 40
0.0
 40
0.0
 40
0.0
 40
1.0
 40
1.0
 40
1.0
 40
2.0
 40
2.0
 40
2.0
 40
3.0
 40
3.0
 40
3.0
 40
4.0
 40
4.0
 40
4.0
 40
4.0
 10
66.26090775398785
 20
-127.9177866346872
 30
0.0
 10
66.26090775398785
 20
-127.8626474680345
 30
0.0
 10
66.2161049773531
 20
-127.8178799680456
 30
0.0
 10
66.16100276123741
 20
-127.8178799680456
 30
0.0
 10
66.10519164684939
 20
-127.8178799680456
 30
0.0
 10
66.06109442575219
 20
-127.8626474680345
 30
0.0
 10
66.06109442575219
 20
-127.9177866346872
 30
0.0
 10
66.06109442575219
 20
-127.9735960791177
 30
0.0
 10
66.10519164684939
 20
-128.0176933013288
 30
0.0
 10
66.16100276123741
 20
-128.0176933013288
 30
0.0
 10
66.2161049773531
 20
-128.0176933013288
 30
0.0
 10
66.26090775398785
 20
-127.9735960791177
 30
0.0
 10
66.26090775398785
 20
-127.9177866346872
 30
0.0
  0
SPLINE
  5
A3
330
1F
100
AcDbEntity
  8
_U+30EC_U+30A4_U+30E4_U+30FC 1
 62
   179
420
  2234388
370
     9
100
AcDbSpline
210
0.0
220
0.0
230
1.0
 70
    11
 71
     3
 72
    17
 73
    13
 74
     0
 42
0.0000000001
 43
0.0000000001
 12
1.0
 22
0.0
 32
0.0
 13
1.0
 23
0.0
 33
0.0
 40
0.0
 40
0.0
 40
0.0
 40
0.0
 40
1.0
 40
1.0
 40
1.0
 40
2.0
 40
2.0
 40
2.0
 40
3.0
 40
3.0
 40
3.0
 40
4.0
 40
4.0
 40
4.0
 40
4.0
 10
66.26090775398785
 20
-117.9180535816316
 30
0.0
 10
66.26090775398785
 20
-117.8629144149786
 30
0.0
 10
66.2161049773531
 20
-117.81814691499
 30
0.0
 10
66.16100276123741
 20
-117.81814691499
 30
0.0
 10
66.10519164684939
 20
-117.81814691499
 30
0.0
 10
66.06109442575219
 20
-117.8629144149786
 30
0.0
 10
66.06109442575219
 20
-117.9180535816316
 30
0.0
 10
66.06109442575219
 20
-117.9731574705066
 30
0.0
 10
66.10519164684939
 20
-118.0179602482733
 30
0.0
 10
66.16100276123741
 20
-118.0179602482733
 30
0.0
 10
66.2161049773531
 20
-118.0179602482733
 30
0.0
 10
66.26090775398785
 20
-117.9731574705066
 30
0.0
 10
66.26090775398785
 20
-117.9180535816316
 30
0.0
  0
POLYLINE
  5
A4
330
1F
100
AcDbEntity
  8
_U+30EC_U+30A4_U+30E4_U+30FC 1
 62
   179
420
  2234388
370
     9
100
AcDb2dPolyline
 66
     1
 10
0.0
 20
0.0
 30
0.0
  0
VERTEX
  5
A5
330
A4
100
AcDbEntity
  8
_U+30EC_U+30A4_U+30E4_U+30FC 1
 62
   179
420
  2234388
370
     9
100
AcDbVertex
100
AcDb2dVertex
 10
66.16100276123741
 20
-117.9180535816316
 30
0.0
  0
VERTEX
  5
A6
330
A4
100
AcDbEntity
  8
_U+30EC_U+30A4_U+30E4_U+30FC 1
 62
   179
420
  2234388
370
     9
100
AcDbVertex
100
AcDb2dVertex
 10
66.16100276123741
 20
-127.9177866346872
 30
0.0
  0
SEQEND
  5
A7
330
A4
100
AcDbEntity
  8
_U+30EC_U+30A4_U+30E4_U+30FC 1
 62
   179
420
  2234388
370
     9
  0
POLYLINE
  5
A8
330
1F
100
AcDbEntity
  8
_U+30EC_U+30A4_U+30E4_U+30FC 1
 62
   179
420
  2234388
370
     9
100
AcDb2dPolyline
 66
     1
 10
0.0
 20
0.0
 30
0.0
  0
VERTEX
  5
A9
330
A8
100
AcDbEntity
  8
_U+30EC_U+30A4_U+30E4_U+30FC 1
 62
   179
420
  2234388
370
     9
100
AcDbVertex
100
AcDb2dVertex
 10
67.62100716373327
 20
-117.9180535816316
 30
0.0
  0
VERTEX
  5
AA
330
A8
100
AcDbEntity
  8
_U+30EC_U+30A4_U+30E4_U+30FC 1
 62
   179
420
  2234388
370
     9
100
AcDbVertex
100
AcDb2dVertex
 10
65.16052498370999
 20
-117.9180535816316
 30
0.0
  0
SEQEND
  5
AB
330
A8
100
AcDbEntity
  8
_U+30EC_U+30A4_U+30E4_U+30FC 1
 62
   179
420
  2234388
370
     9
  0
POLYLINE
  5
AC
330
1F
100
AcDbEntity
  8
_U+30EC_U+30A4_U+30E4_U+30FC 1
 62
   179
420
  2234388
370
     9
100
AcDb2dPolyline
 66
     1
 10
0.0
 20
0.0
 30
0.0
  0
VERTEX
  5
AD
330
AC
100
AcDbEntity
  8
_U+30EC_U+30A4_U+30E4_U+30FC 1
 62
   179
420
  2234388
370
     9
100
AcDbVertex
100
AcDb2dVertex
 10
67.62100716373327
 20
-127.9177866346872
 30
0.0
  0
VERTEX
  5
AE
330
AC
100
AcDbEntity
  8
_U+30EC_U+30A4_U+30E4_U+30FC 1
 62
   179
420
  2234388
370
     9
100
AcDbVertex
100
AcDb2dVertex
 10
65.16052498370999
 20
-127.9177866346872
 30
0.0
  0
SEQEND
  5
AF
330
AC
100
AcDbEntity
  8
_U+30EC_U+30A4_U+30E4_U+30FC 1
 62
   179
420
  2234388
370
     9
  0
INSERT
  5
B1
330
1F
100
AcDbEntity
  8
_U+30EC_U+30A4_U+30E4_U+30FC 1
100
AcDbBlockReference
  2
block 6
 10
0.0
 20
0.0
 30
0.0
  0
SPLINE
  5
B9
330
1F
100
AcDbEntity
  8
_U+30EC_U+30A4_U+30E4_U+30FC 1
 62
   179
420
  2234388
370
     9
100
AcDbSpline
210
0.0
220
0.0
230
1.0
 70
    11
 71
     3
 72
    17
 73
    13
 74
     0
 42
0.0000000001
 43
0.0000000001
 12
1.0
 22
0.0
 32
0.0
 13
1.0
 23
0.0
 33
0.0
 40
0.0
 40
0.0
 40
0.0
 40
0.0
 40
1.0
 40
1.0
 40
1.0
 40
2.0
 40
2.0
 40
2.0
 40
3.0
 40
3.0
 40
3.0
 40
4.0
 40
4.0
 40
4.0
 40
4.0
 10
116.2085953686051
 20
-126.9173088571595
 30
0.0
 10
116.2085953686051
 20
-126.8622049682846
 30
0.0
 10
116.1637925919703
 20
-126.8174021905178
 30
0.0
 10
116.1086916376396
 20
-126.8174021905178
 30
0.0
 10
116.0535495392273
 20
-126.8174021905178
 30
0.0
 10
116.0087820403694
 20
-126.8622049682846
 30
0.0
 10
116.0087820403694
 20
-126.9173088571595
 30
0.0
 10
116.0087820403694
 20
-126.9731183015902
 30
0.0
 10
116.0535495392273
 20
-127.0179210793566
 30
0.0
 10
116.1086916376396
 20
-127.0179210793566
 30
0.0
 10
116.1637925919703
 20
-127.0179210793566
 30
0.0
 10
116.2085953686051
 20
-126.9731183015902
 30
0.0
 10
116.2085953686051
 20
-126.9173088571595
 30
0.0
  0
SPLINE
  5
BA
330
1F
100
AcDbEntity
  8
_U+30EC_U+30A4_U+30E4_U+30FC 1
 62
   179
420
  2234388
370
     9
100
AcDbSpline
210
0.0
220
0.0
230
1.0
 70
    11
 71
     3
 72
    17
 73
    13
 74
     0
 42
0.0000000001
 43
0.0000000001
 12
1.0
 22
0.0
 32
0.0
 13
1.0
 23
0.0
 33
0.0
 40
0.0
 40
0.0
 40
0.0
 40
0.0
 40
1.0
 40
1.0
 40
1.0
 40
2.0
 40
2.0
 40
2.0
 40
3.0
 40
3.0
 40
3.0
 40
4.0
 40
4.0
 40
4.0
 40
4.0
 10
116.2085953686051
 20
-127.9177866346872
 30
0.0
 10
116.2085953686051
 20
-127.8626474680345
 30
0.0
 10
116.1637925919703
 20
-127.8178799680456
 30
0.0
 10
116.1086916376396
 20
-127.8178799680456
 30
0.0
 10
116.0535495392273
 20
-127.8178799680456
 30
0.0
 10
116.0087820403694
 20
-127.8626474680345
 30
0.0
 10
116.0087820403694
 20
-127.9177866346872
 30
0.0
 10
116.0087820403694
 20
-127.9728905235625
 30
0.0
 10
116.0535495392273
 20
-128.0176933013288
 30
0.0
 10
116.1086916376396
 20
-128.0176933013288
 30
0.0
 10
116.1637925919703
 20
-128.0176933013288
 30
0.0
 10
116.2085953686051
 20
-127.9728905235625
 30
0.0
 10
116.2085953686051
 20
-127.9177866346872
 30
0.0
  0
SPLINE
  5
BB
330
1F
100
AcDbEntity
  8
_U+30EC_U+30A4_U+30E4_U+30FC 1
 62
   179
420
  2234388
370
     9
100
AcDbSpline
210
0.0
220
0.0
230
1.0
 70
    11
 71
     3
 72
    17
 73
    13
 74
     0
 42
0.0000000001
 43
0.0000000001
 12
1.0
 22
0.0
 32
0.0
 13
1.0
 23
0.0
 33
0.0
 40
0.0
 40
0.0
 40
0.0
 40
0.0
 40
1.0
 40
1.0
 40
1.0
 40
2.0
 40
2.0
 40
2.0
 40
3.0
 40
3.0
 40
3.0
 40
4.0
 40
4.0
 40
4.0
 40
4.0
 10
116.2085953686051
 20
-140.9175066314371
 30
0.0
 10
116.2085953686051
 20
-140.8623674647847
 30
0.0
 10
116.1637925919703
 20
-140.8175999647955
 30
0.0
 10
116.1086916376396
 20
-140.8175999647955
 30
0.0
 10
116.0535495392273
 20
-140.8175999647955
 30
0.0
 10
116.0087820403694
 20
-140.8623674647847
 30
0.0
 10
116.0087820403694
 20
-140.9175066314371
 30
0.0
 10
116.0087820403694
 20
-140.9726105203127
 30
0.0
 10
116.0535495392273
 20
-141.0174132980788
 30
0.0
 10
116.1086916376396
 20
-141.0174132980788
 30
0.0
 10
116.1637925919703
 20
-141.0174132980788
 30
0.0
 10
116.2085953686051
 20
-140.9726105203127
 30
0.0
 10
116.2085953686051
 20
-140.9175066314371
 30
0.0
  0
SPLINE
  5
BC
330
1F
100
AcDbEntity
  8
_U+30EC_U+30A4_U+30E4_U+30FC 1
 62
   179
420
  2234388
370
     9
100
AcDbSpline
210
0.0
220
0.0
230
1.0
 70
    11
 71
     3
 72
    17
 73
    13
 74
     0
 42
0.0000000001
 43
0.0000000001
 12
1.0
 22
0.0
 32
0.0
 13
1.0
 23
0.0
 33
0.0
 40
0.0
 40
0.0
 40
0.0
 40
0.0
 40
1.0
 40
1.0
 40
1.0
 40
2.0
 40
2.0
 40
2.0
 40
3.0
 40
3.0
 40
3.0
 40
4.0
 40
4.0
 40
4.0
 40
4.0
 10
116.2085953686051
 20
-143.9174935751315
 30
0.0
 10
116.2085953686051
 20
-143.862354408479
 30
0.0
 10
116.1637925919703
 20
-143.8175869084898
 30
0.0
 10
116.1086916376396
 20
-143.8175869084898
 30
0.0
 10
116.0535495392273
 20
-143.8175869084898
 30
0.0
 10
116.0087820403694
 20
-143.862354408479
 30
0.0
 10
116.0087820403694
 20
-143.9174935751315
 30
0.0
 10
116.0087820403694
 20
-143.9733030195626
 30
0.0
 10
116.0535495392273
 20
-144.0174002417737
 30
0.0
 10
116.1086916376396
 20
-144.0174002417737
 30
0.0
 10
116.1637925919703
 20
-144.0174002417737
 30
0.0
 10
116.2085953686051
 20
-143.9733030195626
 30
0.0
 10
116.2085953686051
 20
-143.9174935751315
 30
0.0
  0
POLYLINE
  5
BD
330
1F
100
AcDbEntity
  8
_U+30EC_U+30A4_U+30E4_U+30FC 1
 62
   179
420
  2234388
370
     9
100
AcDb2dPolyline
 66
     1
 10
0.0
 20
0.0
 30
0.0
  0
VERTEX
  5
BE
330
BD
100
AcDbEntity
  8
_U+30EC_U+30A4_U+30E4_U+30FC 1
 62
   179
420
  2234388
370
     9
100
AcDbVertex
100
AcDb2dVertex
 10
116.1086916376396
 20
-126.9173088571595
 30
0.0
  0
VERTEX
  5
BF
330
BD
100
AcDbEntity
  8
_U+30EC_U+30A4_U+30E4_U+30FC 1
 62
   179
420
  2234388
370
     9
100
AcDbVertex
100
AcDb2dVertex
 10
116.1086916376396
 20
-123.146996358102
 30
0.0
  0
SEQEND
  5
C0
330
BD
100
AcDbEntity
  8
_U+30EC_U+30A4_U+30E4_U+30FC 1
 62
   179
420
  2234388
370
     9
  0
POLYLINE
  5
C1
330
1F
100
AcDbEntity
  8
_U+30EC_U+30A4_U+30E4_U+30FC 1
 62
   179
420
  2234388
370
     9
100
AcDb2dPolyline
 66
     1
 10
0.0
 20
0.0
 30
0.0
  0
VERTEX
  5
C2
330
C1
100
AcDbEntity
  8
_U+30EC_U+30A4_U+30E4_U+30FC 1
 62
   179
420
  2234388
370
     9
100
AcDbVertex
100
AcDb2dVertex
 10
116.1086916376396
 20
-126.9173088571595
 30
0.0
  0
VERTEX
  5
C3
330
C1
100
AcDbEntity
  8
_U+30EC_U+30A4_U+30E4_U+30FC 1
 62
   179
420
  2234388
370
     9
100
AcDbVertex
100
AcDb2dVertex
 10
116.1086916376396
 20
-127.9177866346872
 30
0.0
  0
SEQEND
  5
C4
330
C1
100
AcDbEntity
  8
_U+30EC_U+30A4_U+30E4_U+30FC 1
 62
   179
420
  2234388
370
     9
  0
POLYLINE
  5
C5
330
1F
100
AcDbEntity
  8
_U+30EC_U+30A4_U+30E4_U+30FC 1
 62
   179
420
  2234388
370
     9
100
AcDb2dPolyline
 66
     1
 10
0.0
 20
0.0
 30
0.0
  0
VERTEX
  5
C6
330
C5
100
AcDbEntity
  8
_U+30EC_U+30A4_U+30E4_U+30FC 1
 62
   179
420
  2234388
370
     9
100
AcDbVertex
100
AcDb2dVertex
 10
114.6486473528471
 20
-126.9173088571595
 30
0.0
  0
VERTEX
  5
C7
330
C5
100
AcDbEntity
  8
_U+30EC_U+30A4_U+30E4_U+30FC 1
 62
   179
420
  2234388
370
     9
100
AcDbVertex
100
AcDb2dVertex
 10
117.1084256234263
 20
-126.9173088571595
 30
0.0
  0
SEQEND
  5
C8
330
C5
100
AcDbEntity
  8
_U+30EC_U+30A4_U+30E4_U+30FC 1
 62
   179
420
  2234388
370
     9
  0
POLYLINE
  5
C9
330
1F
100
AcDbEntity
  8
_U+30EC_U+30A4_U+30E4_U+30FC 1
 62
   179
420
  2234388
370
     9
100
AcDb2dPolyline
 66
     1
 10
0.0
 20
0.0
 30
0.0
  0
VERTEX
  5
CA
330
C9
100
AcDbEntity
  8
_U+30EC_U+30A4_U+30E4_U+30FC 1
 62
   179
420
  2234388
370
     9
100
AcDbVertex
100
AcDb2dVertex
 10
114.6486473528471
 20
-127.9177866346872
 30
0.0
  0
VERTEX
  5
CB
330
C9
100
AcDbEntity
  8
_U+30EC_U+30A4_U+30E4_U+30FC 1
 62
   179
420
  2234388
370
     9
100
AcDbVertex
100
AcDb2dVertex
 10
117.1084256234263
 20
-127.9177866346872
 30
0.0
  0
SEQEND
  5
CC
330
C9
100
AcDbEntity
  8
_U+30EC_U+30A4_U+30E4_U+30FC 1
 62
   179
420
  2234388
370
     9
  0
POLYLINE
  5
CD
330
1F
100
AcDbEntity
  8
_U+30EC_U+30A4_U+30E4_U+30FC 1
 62
   179
420
  2234388
370
     9
100
AcDb2dPolyline
 66
     1
 10
0.0
 20
0.0
 30
0.0
  0
VERTEX
  5
CE
330
CD
100
AcDbEntity
  8
_U+30EC_U+30A4_U+30E4_U+30FC 1
 62
   179
420
  2234388
370
     9
100
AcDbVertex
100
AcDb2dVertex
 10
116.1086916376396
 20
-143.9174935751315
 30
0.0
  0
VERTEX
  5
CF
330
CD
100
AcDbEntity
  8
_U+30EC_U+30A4_U+30E4_U+30FC 1
 62
   179
420
  2234388
370
     9
100
AcDbVertex
100
AcDb2dVertex
 10
116.1086916376396
 20
-144.9751213526453
 30
0.0
  0
SEQEND
  5
D0
330
CD
100
AcDbEntity
  8
_U+30EC_U+30A4_U+30E4_U+30FC 1
 62
   179
420
  2234388
370
     9
  0
POLYLINE
  5
D1
330
1F
100
AcDbEntity
  8
_U+30EC_U+30A4_U+30E4_U+30FC 1
 62
   179
420
  2234388
370
     9
100
AcDb2dPolyline
 66
     1
 10
0.0
 20
0.0
 30
0.0
  0
VERTEX
  5
D2
330
D1
100
AcDbEntity
  8
_U+30EC_U+30A4_U+30E4_U+30FC 1
 62
   179
420
  2234388
370
     9
100
AcDbVertex
100
AcDb2dVertex
 10
116.1086916376396
 20
-140.9175066314371
 30
0.0
  0
VERTEX
  5
D3
330
D1
100
AcDbEntity
  8
_U+30EC_U+30A4_U+30E4_U+30FC 1
 62
   179
420
  2234388
370
     9
100
AcDbVertex
100
AcDb2dVertex
 10
116.1086916376396
 20
-143.9174935751315
 30
0.0
  0
SEQEND
  5
D4
330
D1
100
AcDbEntity
  8
_U+30EC_U+30A4_U+30E4_U+30FC 1
 62
   179
420
  2234388
370
     9
  0
POLYLINE
  5
D5
330
1F
100
AcDbEntity
  8
_U+30EC_U+30A4_U+30E4_U+30FC 1
 62
   179
420
  2234388
370
     9
100
AcDb2dPolyline
 66
     1
 10
0.0
 20
0.0
 30
0.0
  0
VERTEX
  5
D6
330
D5
100
AcDbEntity
  8
_U+30EC_U+30A4_U+30E4_U+30FC 1
 62
   179
420
  2234388
370
     9
100
AcDbVertex
100
AcDb2dVertex
 10
94.64847619642731
 20
-143.9174935751315
 30
0.0
  0
VERTEX
  5
D7
330
D5
100
AcDbEntity
  8
_U+30EC_U+30A4_U+30E4_U+30FC 1
 62
   179
420
  2234388
370
     9
100
AcDbVertex
100
AcDb2dVertex
 10
117.1084256234263
 20
-143.9174935751315
 30
0.0
  0
SEQEND
  5
D8
330
D5
100
AcDbEntity
  8
_U+30EC_U+30A4_U+30E4_U+30FC 1
 62
   179
420
  2234388
370
     9
  0
POLYLINE
  5
D9
330
1F
100
AcDbEntity
  8
_U+30EC_U+30A4_U+30E4_U+30FC 1
 62
   179
420
  2234388
370
     9
100
AcDb2dPolyline
 66
     1
 10
0.0
 20
0.0
 30
0.0
  0
VERTEX
  5
DA
330
D9
100
AcDbEntity
  8
_U+30EC_U+30A4_U+30E4_U+30FC 1
 62
   179
420
  2234388
370
     9
100
AcDbVertex
100
AcDb2dVertex
 10
116.1086916376396
 20
-127.9177866346872
 30
0.0
  0
VERTEX
  5
DB
330
D9
100
AcDbEntity
  8
_U+30EC_U+30A4_U+30E4_U+30FC 1
 62
   179
420
  2234388
370
     9
100
AcDbVertex
100
AcDb2dVertex
 10
116.1086916376396
 20
-140.9175066314371
 30
0.0
  0
SEQEND
  5
DC
330
D9
100
AcDbEntity
  8
_U+30EC_U+30A4_U+30E4_U+30FC 1
 62
   179
420
  2234388
370
     9
  0
POLYLINE
  5
DD
330
1F
100
AcDbEntity
  8
_U+30EC_U+30A4_U+30E4_U+30FC 1
 62
   179
420
  2234388
370
     9
100
AcDb2dPolyline
 66
     1
 10
0.0
 20
0.0
 30
0.0
  0
VERTEX
  5
DE
330
DD
100
AcDbEntity
  8
_U+30EC_U+30A4_U+30E4_U+30FC 1
 62
   179
420
  2234388
370
     9
100
AcDbVertex
100
AcDb2dVertex
 10
114.6486473528471
 20
-127.9177866346872
 30
0.0
  0
VERTEX
  5
DF
330
DD
100
AcDbEntity
  8
_U+30EC_U+30A4_U+30E4_U+30FC 1
 62
   179
420
  2234388
370
     9
100
AcDbVertex
100
AcDb2dVertex
 10
117.1084256234263
 20
-127.9177866346872
 30
0.0
  0
SEQEND
  5
E0
330
DD
100
AcDbEntity
  8
_U+30EC_U+30A4_U+30E4_U+30FC 1
 62
   179
420
  2234388
370
     9
  0
POLYLINE
  5
E1
330
1F
100
AcDbEntity
  8
_U+30EC_U+30A4_U+30E4_U+30FC 1
 62
   179
420
  2234388
370
     9
100
AcDb2dPolyline
 66
     1
 10
0.0
 20
0.0
 30
0.0
  0
VERTEX
  5
E2
330
E1
100
AcDbEntity
  8
_U+30EC_U+30A4_U+30E4_U+30FC 1
 62
   179
420
  2234388
370
     9
100
AcDbVertex
100
AcDb2dVertex
 10
94.64847619642731
 20
-140.9175066314371
 30
0.0
  0
VERTEX
  5
E3
330
E1
100
AcDbEntity
  8
_U+30EC_U+30A4_U+30E4_U+30FC 1
 62
   179
420
  2234388
370
     9
100
AcDbVertex
100
AcDb2dVertex
 10
117.1084256234263
 20
-140.9175066314371
 30
0.0
  0
SEQEND
  5
E4
330
E1
100
AcDbEntity
  8
_U+30EC_U+30A4_U+30E4_U+30FC 1
 62
   179
420
  2234388
370
     9
  0
INSERT
  5
E6
330
1F
100
AcDbEntity
  8
_U+30EC_U+30A4_U+30E4_U+30FC 1
100
AcDbBlockReference
  2
block 7
 10
0.0
 20
0.0
 30
0.0
  0
INSERT
  5
EC
330
1F
100
AcDbEntity
  8
_U+30EC_U+30A4_U+30E4_U+30FC 1
100
AcDbBlockReference
  2
block 8
 10
0.0
 20
0.0
 30
0.0
  0
INSERT
  5
F4
330
1F
100
AcDbEntity
  8
_U+30EC_U+30A4_U+30E4_U+30FC 1
100
AcDbBlockReference
  2
block 9
 10
0.0
 20
0.0
 30
0.0
  0
POLYLINE
  5
F9
330
1F
100
AcDbEntity
  8
_U+30EC_U+30A4_U+30E4_U+30FC 1
 62
     7
420
 16777215
370
    25
100
AcDb2dPolyline
 66
     1
 10
0.0
 20
0.0
 30
0.0
  0
VERTEX
  5
FA
330
F9
100
AcDbEntity
  8
_U+30EC_U+30A4_U+30E4_U+30FC 1
 62
     7
420
 16777215
370
    25
100
AcDbVertex
100
AcDb2dVertex
 10
112.1488640832886
 20
-127.9177866346872
 30
0.0
  0
VERTEX
  5
FB
330
F9
100
AcDbEntity
  8
_U+30EC_U+30A4_U+30E4_U+30FC 1
 62
     7
420
 16777215
370
    25
100
AcDbVertex
100
AcDb2dVertex
 10
112.1488640832886
 20
-126.9173088571595
 30
0.0
  0
VERTEX
  5
FC
330
F9
100
AcDbEntity
  8
_U+30EC_U+30A4_U+30E4_U+30FC 1
 62
     7
420
 16777215
370
    25
100
AcDbVertex
100
AcDb2dVertex
 10
71.14864374040243
 20
-126.9173088571595
 30
0.0
  0
VERTEX
  5
FD
330
F9
100
AcDbEntity
  8
_U+30EC_U+30A4_U+30E4_U+30FC 1
 62
     7
420
 16777215
370
    25
100
AcDbVertex
100
AcDb2dVertex
 10
71.14864374040243
 20
-118.917790525826
 30
0.0
  0
VERTEX
  5
FE
330
F9
100
AcDbEntity
  8
_U+30EC_U+30A4_U+30E4_U+30FC 1
 62
     7
420
 16777215
370
    25
100
AcDbVertex
100
AcDb2dVertex
 10
73.14885841159493
 20
-118.917790525826
 30
0.0
  0
VERTEX
  5
FF
330
F9
100
AcDbEntity
  8
_U+30EC_U+30A4_U+30E4_U+30FC 1
 62
     7
420
 16777215
370
    25
100
AcDbVertex
100
AcDb2dVertex
 10
73.14885841159493
 20
-117.9180535816316
 30
0.0
  0
VERTEX
  5
100
330
F9
100
AcDbEntity
  8
_U+30EC_U+30A4_U+30E4_U+30FC 1
 62
     7
420
 16777215
370
    25
100
AcDbVertex
100
AcDb2dVertex
 10
70.14887154368652
 20
-117.9180535816316
 30
0.0
  0
VERTEX
  5
101
330
F9
100
AcDbEntity
  8
_U+30EC_U+30A4_U+30E4_U+30FC 1
 62
     7
420
 16777215
370
    25
100
AcDbVertex
100
AcDb2dVertex
 10
70.14887154368652
 20
-127.9177866346872
 30
0.0
  0
VERTEX
  5
102
330
F9
100
AcDbEntity
  8
_U+30EC_U+30A4_U+30E4_U+30FC 1
 62
     7
420
 16777215
370
    25
100
AcDbVertex
100
AcDb2dVertex
 10
82.14881901532014
 20
-127.9177866346872
 30
0.0
  0
VERTEX
  5
103
330
F9
100
AcDbEntity
  8
_U+30EC_U+30A4_U+30E4_U+30FC 1
 62
     7
420
 16777215
370
    25
100
AcDbVertex
100
AcDb2dVertex
 10
82.14881901532014
 20
-143.9174935751315
 30
0.0
  0
VERTEX
  5
104
330
F9
100
AcDbEntity
  8
_U+30EC_U+30A4_U+30E4_U+30FC 1
 62
     7
420
 16777215
370
    25
100
AcDbVertex
100
AcDb2dVertex
 10
92.14873053251864
 20
-143.9174935751315
 30
0.0
  0
VERTEX
  5
105
330
F9
100
AcDbEntity
  8
_U+30EC_U+30A4_U+30E4_U+30FC 1
 62
     7
420
 16777215
370
    25
100
AcDbVertex
100
AcDb2dVertex
 10
92.14873053251864
 20
-140.9175066314371
 30
0.0
  0
VERTEX
  5
106
330
F9
100
AcDbEntity
  8
_U+30EC_U+30A4_U+30E4_U+30FC 1
 62
     7
420
 16777215
370
    25
100
AcDbVertex
100
AcDb2dVertex
 10
87.14902055442103
 20
-140.9175066314371
 30
0.0
  0
VERTEX
  5
107
330
F9
100
AcDbEntity
  8
_U+30EC_U+30A4_U+30E4_U+30FC 1
 62
     7
420
 16777215
370
    25
100
AcDbVertex
100
AcDb2dVertex
 10
87.14902055442103
 20
-141.917949131187
 30
0.0
  0
VERTEX
  5
108
330
F9
100
AcDbEntity
  8
_U+30EC_U+30A4_U+30E4_U+30FC 1
 62
     7
420
 16777215
370
    25
100
AcDbVertex
100
AcDb2dVertex
 10
91.14877961904534
 20
-141.917949131187
 30
0.0
  0
VERTEX
  5
109
330
F9
100
AcDbEntity
  8
_U+30EC_U+30A4_U+30E4_U+30FC 1
 62
     7
420
 16777215
370
    25
100
AcDbVertex
100
AcDb2dVertex
 10
91.14877961904534
 20
-142.9177213531596
 30
0.0
  0
VERTEX
  5
10A
330
F9
100
AcDbEntity
  8
_U+30EC_U+30A4_U+30E4_U+30FC 1
 62
     7
420
 16777215
370
    25
100
AcDbVertex
100
AcDb2dVertex
 10
83.14894398980482
 20
-142.9177213531596
 30
0.0
  0
VERTEX
  5
10B
330
F9
100
AcDbEntity
  8
_U+30EC_U+30A4_U+30E4_U+30FC 1
 62
     7
420
 16777215
370
    25
100
AcDbVertex
100
AcDb2dVertex
 10
83.14894398980482
 20
-127.9177866346872
 30
0.0
  0
VERTEX
  5
10C
330
F9
100
AcDbEntity
  8
_U+30EC_U+30A4_U+30E4_U+30FC 1
 62
     7
420
 16777215
370
    25
100
AcDbVertex
100
AcDb2dVertex
 10
112.1488640832886
 20
-127.9177866346872
 30
0.0
  0
SEQEND
  5
10D
330
F9
100
AcDbEntity
  8
_U+30EC_U+30A4_U+30E4_U+30FC 1
 62
     7
420
 16777215
370
    25
  0
ENDSEC
  0
SECTION
  2
OBJECTS
  0
DICTIONARY
  5
C
330
0
100
AcDbDictionary
281
     1
  3
ACAD_GROUP
350
D
  3
ACAD_LAYOUT
350
1A
  3
ACAD_MATERIAL
350
3B
  3
ACAD_MLEADERSTYLE
350
10F
  3
ACAD_MLINESTYLE
350
17
  3
ACAD_PLOTSETTINGS
350
19
  3
ACAD_PLOTSTYLENAME
350
E
  3
ACAD_TABLESTYLE
350
10E
  3
ACAD_VISUALSTYLE
350
2A
  0
SUN
  5
3F
330
29
100
AcDbSun
 90
        1
290
     0
 63
     7
421
 16777215
 40
1.0
291
     1
 91
  2455826
 92
 54000000
292
     0
 70
     2
 71
   256
280
     1
  0
DICTIONARY
  5
D
102
{ACAD_REACTORS
330
C
102
}
330
C
100
AcDbDictionary
281
     1
  0
DICTIONARY
  5
1A
102
{ACAD_REACTORS
330
C
102
}
330
C
100
AcDbDictionary
281
     1
  3
Layout1
350
1E
  3
Layout2
350
26
  3
Model
350
22
  0
DICTIONARY
  5
3B
102
{ACAD_REACTORS
330
C
102
}
330
C
100
AcDbDictionary
281
     1
  3
ByBlock
350
3D
  3
ByLayer
350
3C
  3
Global
350
3E
  0
DICTIONARY
  5
10F
102
{ACAD_REACTORS
330
C
102
}
330
C
100
AcDbDictionary
281
     1
  0
DICTIONARY
  5
17
102
{ACAD_REACTORS
330
C
102
}
330
C
100
AcDbDictionary
281
     1
  3
Standard
350
18
  0
DICTIONARY
  5
19
102
{ACAD_REACTORS
330
C
102
}
330
C
100
AcDbDictionary
281
     1
  0
ACDBDICTIONARYWDFLT
  5
E
102
{ACAD_REACTORS
330
C
102
}
330
C
100
AcDbDictionary
281
     1
  3
Normal
350
F
100
AcDbDictionaryWithDefault
340
F
  0
DICTIONARY
  5
10E
102
{ACAD_REACTORS
330
C
102
}
330
C
100
AcDbDictionary
281
     1
  0
DICTIONARY
  5
2A
102
{ACAD_REACTORS
330
C
102
}
330
C
100
AcDbDictionary
281
     1
  3
2dWireframe
350
2F
  3
3D Hidden
350
31
  3
3dWireframe
350
30
  3
Basic
350
32
  3
Brighten
350
36
  3
ColorChange
350
3A
  3
Conceptual
350
34
  3
Dim
350
35
  3
Facepattern
350
39
  3
Flat
350
2B
  3
FlatWithEdges
350
2C
  3
Gouraud
350
2D
  3
GouraudWithEdges
350
2E
  3
Linepattern
350
38
  3
Realistic
350
33
  3
Thicken
350
37
  0
LAYOUT
  5
1E
102
{ACAD_REACTORS
330
1A
102
}
330
1A
100
AcDbPlotSettings
  1

  2
none_device
  4

  6

 40
0.0
 41
0.0
 42
0.0
 43
0.0
 44
0.0
 45
0.0
 46
0.0
 47
0.0
 48
0.0
 49
0.0
140
0.0
141
0.0
142
1.0
143
1.0
 70
   688
 72
     0
 73
     0
 74
     5
  7

 75
    16
 76
     0
 77
     2
 78
   300
147
1.0
148
0.0
149
0.0
100
AcDbLayout
  1
Layout1
 70
     1
 71
     1
 10
0.0
 20
0.0
 11
12.0
 21
9.0
 12
0.0
 22
0.0
 32
0.0
 14
1.000000000000000E+20
 24
1.000000000000000E+20
 34
1.000000000000000E+20
 15
-1.000000000000000E+20
 25
-1.000000000000000E+20
 35
-1.000000000000000E+20
146
0.0
 13
0.0
 23
0.0
 33
0.0
 16
1.0
 26
0.0
 36
0.0
 17
0.0
 27
1.0
 37
0.0
 76
     0
330
1B
  0
LAYOUT
  5
26
102
{ACAD_REACTORS
330
1A
102
}
330
1A
100
AcDbPlotSettings
  1

  2
none_device
  4

  6

 40
0.0
 41
0.0
 42
0.0
 43
0.0
 44
0.0
 45
0.0
 46
0.0
 47
0.0
 48
0.0
 49
0.0
140
0.0
141
0.0
142
1.0
143
1.0
 70
   688
 72
     0
 73
     0
 74
     5
  7

 75
    16
 76
     0
 77
     2
 78
   300
147
1.0
148
0.0
149
0.0
100
AcDbLayout
  1
Layout2
 70
     1
 71
     2
 10
0.0
 20
0.0
 11
0.0
 21
0.0
 12
0.0
 22
0.0
 32
0.0
 14
0.0
 24
0.0
 34
0.0
 15
0.0
 25
0.0
 35
0.0
146
0.0
 13
0.0
 23
0.0
 33
0.0
 16
1.0
 26
0.0
 36
0.0
 17
0.0
 27
1.0
 37
0.0
 76
     0
330
23
  0
LAYOUT
  5
22
102
{ACAD_REACTORS
330
1A
102
}
330
1A
100
AcDbPlotSettings
  1

  2
none_device
  4

  6

 40
0.0
 41
0.0
 42
0.0
 43
0.0
 44
0.0
 45
0.0
 46
0.0
 47
0.0
 48
0.0
 49
0.0
140
0.0
141
0.0
142
1.0
143
1.0
 70
  1712
 72
     0
 73
     0
 74
     0
  7

 75
     0
 76
     0
 77
     2
 78
   300
147
1.0
148
0.0
149
0.0
100
AcDbLayout
  1
Model
 70
     1
 71
     0
 10
0.0
 20
0.0
 11
12.0
 21
9.0
 12
0.0
 22
0.0
 32
0.0
 14
1.000000000000000E+20
 24
1.000000000000000E+20
 34
1.000000000000000E+20
 15
-1.000000000000000E+20
 25
-1.000000000000000E+20
 35
-1.000000000000000E+20
146
0.0
 13
0.0
 23
0.0
 33
0.0
 16
1.0
 26
0.0
 36
0.0
 17
0.0
 27
1.0
 37
0.0
 76
     0
330
1F
331
29
  0
MATERIAL
  5
3D
102
{ACAD_REACTORS
330
3B
102
}
330
3B
100
AcDbMaterial
  1
ByBlock
 72
     1
 94
      127
  0
MATERIAL
  5
3C
102
{ACAD_REACTORS
330
3B
102
}
330
3B
100
AcDbMaterial
  1
ByLayer
 72
     1
 94
      127
  0
MATERIAL
  5
3E
102
{ACAD_REACTORS
330
3B
102
}
330
3B
100
AcDbMaterial
  1
Global
 72
     1
 94
      127
  0
MLINESTYLE
  5
18
102
{ACAD_REACTORS
330
17
102
}
330
17
100
AcDbMlineStyle
  2
Standard
 70
     0
  3

 62
   256
 51
90.0
 52
90.0
 71
     2
 49
0.5
 62
   256
  6
BYLAYER
 49
-0.5
 62
   256
  6
BYLAYER
  0
ACDBPLACEHOLDER
  5
F
102
{ACAD_REACTORS
330
E
102
}
330
E
  0
VISUALSTYLE
  5
2F
102
{ACAD_REACTORS
330
2A
102
}
330
2A
100
AcDbVisualStyle
  2
2dWireframe
 70
     4
177
     2
291
     0
 71
     0
176
     1
 72
     2
176
     1
 73
     0
176
     1
 90
        0
176
     1
 40
-0.6
176
     1
 41
-30.0
176
     1
 62
     5
 63
     7
421
 16777215
176
     1
 74
     1
176
     1
 91
        4
176
     1
 64
     7
176
     1
 65
   257
176
     1
 75
     1
176
     1
175
     1
176
     1
 42
1.0
176
     1
 92
        0
176
     1
 66
   257
176
     1
 43
1.0
176
     1
 76
     1
176
     1
 77
     6
176
     1
 78
     2
176
     1
 67
     7
176
     1
 79
     5
176
     1
170
     0
176
     1
171
     0
176
     1
290
     0
176
     1
 93
        1
176
     1
 44
0.0
176
     1
173
     0
176
     1
  0
VISUALSTYLE
  5
31
102
{ACAD_REACTORS
330
2A
102
}
330
2A
100
AcDbVisualStyle
  2
3D Hidden
 70
     6
177
     2
291
     0
 71
     1
176
     1
 72
     2
176
     1
 73
     2
176
     1
 90
        0
176
     1
 40
-0.6
176
     1
 41
-30.0
176
     1
 62
     5
 63
     7
421
 16777215
176
     1
 74
     2
176
     1
 91
        2
176
     1
 64
     7
176
     1
 65
   257
176
     1
 75
     2
176
     1
175
     1
176
     1
 42
40.0
176
     1
 92
        0
176
     1
 66
   257
176
     1
 43
1.0
176
     1
 76
     1
176
     1
 77
     6
176
     1
 78
     2
176
     1
 67
     7
176
     1
 79
     3
176
     1
170
     0
176
     1
171
     0
176
     1
290
     0
176
     1
 93
        1
176
     1
 44
0.0
176
     1
173
     0
176
     1
  0
VISUALSTYLE
  5
30
102
{ACAD_REACTORS
330
2A
102
}
330
2A
100
AcDbVisualStyle
  2
3dWireframe
 70
     5
177
     2
291
     0
 71
     0
176
     1
 72
     2
176
     1
 73
     0
176
     1
 90
        0
176
     1
 40
-0.6
176
     1
 41
-30.0
176
     1
 62
     5
 63
     7
421
 16777215
176
     1
 74
     1
176
     1
 91
        4
176
     1
 64
     7
176
     1
 65
   257
176
     1
 75
     1
176
     1
175
     1
176
     1
 42
1.0
176
     1
 92
        0
176
     1
 66
   257
176
     1
 43
1.0
176
     1
 76
     1
176
     1
 77
     6
176
     1
 78
     2
176
     1
 67
     7
176
     1
 79
     5
176
     1
170
     0
176
     1
171
     0
176
     1
290
     0
176
     1
 93
        1
176
     1
 44
0.0
176
     1
173
     0
176
     1
  0
VISUALSTYLE
  5
32
102
{ACAD_REACTORS
330
2A
102
}
330
2A
100
AcDbVisualStyle
  2
Basic
 70
     7
177
     2
291
     1
 71
     1
176
     1
 72
     0
176
     1
 73
     1
176
     1
 90
        0
176
     1
 40
-0.6
176
     1
 41
-30.0
176
     1
 62
     5
 63
     7
421
 16777215
176
     1
 74
     0
176
     1
 91
        4
176
     1
 64
     7
176
     1
 65
   257
176
     1
 75
     1
176
     1
175
     1
176
     1
 42
1.0
176
     1
 92
        8
176
     1
 66
     7
176
     1
 43
1.0
176
     1
 76
     1
176
     1
 77
     6
176
     1
 78
     2
176
     1
 67
     7
176
     1
 79
     5
176
     1
170
     0
176
     1
171
     0
176
     1
290
     0
176
     1
 93
        1
176
     1
 44
0.0
176
     1
173
     0
176
     1
  0
VISUALSTYLE
  5
36
102
{ACAD_REACTORS
330
2A
102
}
330
2A
100
AcDbVisualStyle
  2
Brighten
 70
    12
177
     2
291
     1
 71
     2
176
     1
 72
     2
176
     1
 73
     0
176
     1
 90
        0
176
     1
 40
-0.6
176
     1
 41
-30.0
176
     1
 62
     5
 63
     7
421
 16777215
176
     1
 74
     1
176
     1
 91
        4
176
     1
 64
     7
176
     1
 65
   257
176
     1
 75
     1
176
     1
175
     1
176
     1
 42
1.0
176
     1
 92
        8
176
     1
 66
     7
176
     1
 43
1.0
176
     1
 76
     1
176
     1
 77
     6
176
     1
 78
     2
176
     1
 67
     7
176
     1
 79
     5
176
     1
170
     0
176
     1
171
     0
176
     1
290
     0
176
     1
 93
        1
176
     1
 44
50.0
176
     1
173
     0
176
     1
  0
VISUALSTYLE
  5
3A
102
{ACAD_REACTORS
330
2A
102
}
330
2A
100
AcDbVisualStyle
  2
ColorChange
 70
    16
177
     2
291
     1
 71
     2
176
     1
 72
     2
176
     1
 73
     3
176
     1
 90
        0
176
     1
 40
-0.6
176
     1
 41
-30.0
176
     1
 62
     5
 63
     8
421
  8421504
176
     1
 74
     1
176
     1
 91
        4
176
     1
 64
     7
176
     1
 65
   257
176
     1
 75
     1
176
     1
175
     1
176
     1
 42
1.0
176
     1
 92
        8
176
     1
 66
     8
424
  8421504
176
     1
 43
1.0
176
     1
 76
     1
176
     1
 77
     6
176
     1
 78
     2
176
     1
 67
     7
176
     1
 79
     5
176
     1
170
     0
176
     1
171
     0
176
     1
290
     0
176
     1
 93
        1
176
     1
 44
0.0
176
     1
173
     0
176
     1
  0
VISUALSTYLE
  5
34
102
{ACAD_REACTORS
330
2A
102
}
330
2A
100
AcDbVisualStyle
  2
Conceptual
 70
     9
177
     2
291
     0
 71
     3
176
     1
 72
     2
176
     1
 73
     0
176
     1
 90
        0
176
     1
 40
-0.6
176
     1
 41
-30.0
176
     1
 62
     5
 63
     7
421
 16777215
176
     1
 74
     2
176
     1
 91
        2
176
     1
 64
     7
176
     1
 65
   257
176
     1
 75
     1
176
     1
175
     1
176
     1
 42
40.0
176
     1
 92
        8
176
     1
 66
     7
176
     1
 43
1.0
176
     1
 76
     1
176
     1
 77
     6
176
     1
 78
     2
176
     1
 67
     7
176
     1
 79
     3
176
     1
170
     0
176
     1
171
     0
176
     1
290
     0
176
     1
 93
        1
176
     1
 44
0.0
176
     1
173
     0
176
     1
  0
VISUALSTYLE
  5
35
102
{ACAD_REACTORS
330
2A
102
}
330
2A
100
AcDbVisualStyle
  2
Dim
 70
    11
177
     2
291
     1
 71
     2
176
     1
 72
     2
176
     1
 73
     0
176
     1
 90
        0
176
     1
 40
-0.6
176
     1
 41
-30.0
176
     1
 62
     5
 63
     7
421
 16777215
176
     1
 74
     1
176
     1
 91
        4
176
     1
 64
     7
176
     1
 65
   257
176
     1
 75
     1
176
     1
175
     1
176
     1
 42
1.0
176
     1
 92
        8
176
     1
 66
     7
176
     1
 43
1.0
176
     1
 76
     1
176
     1
 77
     6
176
     1
 78
     2
176
     1
 67
     7
176
     1
 79
     5
176
     1
170
     0
176
     1
171
     0
176
     1
290
     0
176
     1
 93
        1
176
     1
 44
-50.0
176
     1
173
     0
176
     1
  0
VISUALSTYLE
  5
39
102
{ACAD_REACTORS
330
2A
102
}
330
2A
100
AcDbVisualStyle
  2
Facepattern
 70
    15
177
     2
291
     1
 71
     2
176
     1
 72
     2
176
     1
 73
     0
176
     1
 90
        0
176
     1
 40
-0.6
176
     1
 41
-30.0
176
     1
 62
     5
 63
     7
421
 16777215
176
     1
 74
     1
176
     1
 91
        4
176
     1
 64
     7
176
     1
 65
   257
176
     1
 75
     1
176
     1
175
     1
176
     1
 42
1.0
176
     1
 92
        8
176
     1
 66
     7
176
     1
 43
1.0
176
     1
 76
     1
176
     1
 77
     6
176
     1
 78
     2
176
     1
 67
     7
176
     1
 79
     5
176
     1
170
     0
176
     1
171
     0
176
     1
290
     0
176
     1
 93
        1
176
     1
 44
0.0
176
     1
173
     0
176
     1
  0
VISUALSTYLE
  5
2B
102
{ACAD_REACTORS
330
2A
102
}
330
2A
100
AcDbVisualStyle
  2
Flat
 70
     0
177
     2
291
     1
 71
     2
176
     1
 72
     1
176
     1
 73
     1
176
     1
 90
        2
176
     1
 40
-0.6
176
     1
 41
30.0
176
     1
 62
     5
 63
     7
421
 16777215
176
     1
 74
     0
176
     1
 91
        4
176
     1
 64
     7
176
     1
 65
   257
176
     1
 75
     1
176
     1
175
     1
176
     1
 42
1.0
176
     1
 92
        8
176
     1
 66
     7
176
     1
 43
1.0
176
     1
 76
     1
176
     1
 77
     6
176
     1
 78
     2
176
     1
 67
     7
176
     1
 79
     5
176
     1
170
     0
176
     1
171
     0
176
     1
290
     0
176
     1
 93
       13
176
     1
 44
0.0
176
     1
173
     0
176
     1
  0
VISUALSTYLE
  5
2C
102
{ACAD_REACTORS
330
2A
102
}
330
2A
100
AcDbVisualStyle
  2
FlatWithEdges
 70
     1
177
     2
291
     1
 71
     2
176
     1
 72
     1
176
     1
 73
     1
176
     1
 90
        2
176
     1
 40
-0.6
176
     1
 41
30.0
176
     1
 62
     5
 63
     7
421
 16777215
176
     1
 74
     1
176
     1
 91
        4
176
     1
 64
     7
176
     1
 65
   257
176
     1
 75
     1
176
     1
175
     1
176
     1
 42
1.0
176
     1
 92
        0
176
     1
 66
   257
176
     1
 43
1.0
176
     1
 76
     1
176
     1
 77
     6
176
     1
 78
     2
176
     1
 67
     7
176
     1
 79
     5
176
     1
170
     0
176
     1
171
     0
176
     1
290
     0
176
     1
 93
       13
176
     1
 44
0.0
176
     1
173
     0
176
     1
  0
VISUALSTYLE
  5
2D
102
{ACAD_REACTORS
330
2A
102
}
330
2A
100
AcDbVisualStyle
  2
Gouraud
 70
     2
177
     2
291
     1
 71
     2
176
     1
 72
     2
176
     1
 73
     1
176
     1
 90
        2
176
     1
 40
-0.6
176
     1
 41
30.0
176
     1
 62
     5
 63
     7
421
 16777215
176
     1
 74
     0
176
     1
 91
        4
176
     1
 64
     7
176
     1
 65
   257
176
     1
 75
     1
176
     1
175
     1
176
     1
 42
1.0
176
     1
 92
        0
176
     1
 66
     7
176
     1
 43
1.0
176
     1
 76
     1
176
     1
 77
     6
176
     1
 78
     2
176
     1
 67
     7
176
     1
 79
     5
176
     1
170
     0
176
     1
171
     0
176
     1
290
     0
176
     1
 93
       13
176
     1
 44
0.0
176
     1
173
     0
176
     1
  0
VISUALSTYLE
  5
2E
102
{ACAD_REACTORS
330
2A
102
}
330
2A
100
AcDbVisualStyle
  2
GouraudWithEdges
 70
     3
177
     2
291
     1
 71
     2
176
     1
 72
     2
176
     1
 73
     1
176
     1
 90
        2
176
     1
 40
-0.6
176
     1
 41
30.0
176
     1
 62
     5
 63
     7
421
 16777215
176
     1
 74
     1
176
     1
 91
        4
176
     1
 64
     7
176
     1
 65
   257
176
     1
 75
     1
176
     1
175
     1
176
     1
 42
1.0
176
     1
 92
        0
176
     1
 66
   257
176
     1
 43
1.0
176
     1
 76
     1
176
     1
 77
     6
176
     1
 78
     2
176
     1
 67
     7
176
     1
 79
     5
176
     1
170
     0
176
     1
171
     0
176
     1
290
     0
176
     1
 93
       13
176
     1
 44
0.0
176
     1
173
     0
176
     1
  0
VISUALSTYLE
  5
38
102
{ACAD_REACTORS
330
2A
102
}
330
2A
100
AcDbVisualStyle
  2
Linepattern
 70
    14
177
     2
291
     1
 71
     2
176
     1
 72
     2
176
     1
 73
     0
176
     1
 90
        0
176
     1
 40
-0.6
176
     1
 41
-30.0
176
     1
 62
     5
 63
     7
421
 16777215
176
     1
 74
     1
176
     1
 91
        4
176
     1
 64
     7
176
     1
 65
   257
176
     1
 75
     7
176
     1
175
     7
176
     1
 42
1.0
176
     1
 92
        8
176
     1
 66
     7
176
     1
 43
1.0
176
     1
 76
     1
176
     1
 77
     6
176
     1
 78
     2
176
     1
 67
     7
176
     1
 79
     5
176
     1
170
     0
176
     1
171
     0
176
     1
290
     0
176
     1
 93
        1
176
     1
 44
0.0
176
     1
173
     0
176
     1
  0
VISUALSTYLE
  5
33
102
{ACAD_REACTORS
330
2A
102
}
330
2A
100
AcDbVisualStyle
  2
Realistic
 70
     8
177
     2
291
     0
 71
     2
176
     1
 72
     2
176
     1
 73
     0
176
     1
 90
        0
176
     1
 40
-0.6
176
     1
 41
-30.0
176
     1
 62
     5
 63
     7
421
 16777215
176
     1
 74
     1
176
     1
 91
        0
176
     1
 64
     7
176
     1
 65
   257
176
     1
 75
     1
176
     1
175
     1
176
     1
 42
1.0
176
     1
 92
        8
176
     1
 66
     8
424
  7895160
176
     1
 43
1.0
176
     1
 76
     1
176
     1
 77
     6
176
     1
 78
     2
176
     1
 67
     7
176
     1
 79
     5
176
     1
170
     0
176
     1
171
     0
176
     1
290
     0
176
     1
 93
       13
176
     1
 44
0.0
176
     1
173
     0
176
     1
  0
VISUALSTYLE
  5
37
102
{ACAD_REACTORS
330
2A
102
}
330
2A
100
AcDbVisualStyle
  2
Thicken
 70
    13
177
     2
291
     1
 71
     2
176
     1
 72
     2
176
     1
 73
     0
176
     1
 90
        0
176
     1
 40
-0.6
176
     1
 41
-30.0
176
     1
 62
     5
 63
     7
421
 16777215
176
     1
 74
     1
176
     1
 91
        4
176
     1
 64
     7
176
     1
 65
   257
176
     1
 75
     1
176
     1
175
     1
176
     1
 42
1.0
176
     1
 92
       12
176
     1
 66
     7
176
     1
 43
1.0
176
     1
 76
     1
176
     1
 77
     6
176
     1
 78
     2
176
     1
 67
     7
176
     1
 79
     5
176
     1
170
     0
176
     1
171
     0
176
     1
290
     0
176
     1
 93
        1
176
     1
 44
0.0
176
     1
173
     0
176
     1
  0
ENDSEC
  0
EOF
