  0
SECTION
  2
HEADER
  9
$ACADVER
  1
AC1024
  9
$ACADMAINTVER
 70
     6
  9
$DWGCODEPAGE
  3
UNDEFINED
  9
$INSBASE
 10
0.0
 20
0.0
 30
0.0
  9
$EXTMIN
 10
1.000000000000000E+20
 20
1.000000000000000E+20
 30
1.000000000000000E+20
  9
$EXTMAX
 10
-1.000000000000000E+20
 20
-1.000000000000000E+20
 30
-1.000000000000000E+20
  9
$LIMMIN
 10
0.0
 20
0.0
  9
$LIMMAX
 10
12.0
 20
9.0
  9
$ORTHOMODE
 70
     0
  9
$REGENMODE
 70
     1
  9
$FILLMODE
 70
     1
  9
$QTEXTMODE
 70
     0
  9
$MIRRTEXT
 70
     1
  9
$LTSCALE
 40
1.0
  9
$ATTMODE
 70
     1
  9
$TEXTSIZE
 40
0.2
  9
$TRACEWID
 40
0.05
  9
$TEXTSTYLE
  7
Standard
  9
$CLAYER
  8
0
  9
$CELTYPE
  6
ByLayer
  9
$CECOLOR
 62
   256
  9
$CELTSCALE
 40
1.0
  9
$DISPSILH
 70
     0
  9
$DIMSCALE
 40
1.0
  9
$DIMASZ
 40
0.18
  9
$DIMEXO
 40
0.0625
  9
$DIMDLI
 40
0.38
  9
$DIMRND
 40
0.0
  9
$DIMDLE
 40
0.0
  9
$DIMEXE
 40
0.18
  9
$DIMTP
 40
0.0
  9
$DIMTM
 40
0.0
  9
$DIMTXT
 40
0.18
  9
$DIMCEN
 40
0.09
  9
$DIMTSZ
 40
0.0
  9
$DIMTOL
 70
     0
  9
$DIMLIM
 70
     0
  9
$DIMTIH
 70
     1
  9
$DIMTOH
 70
     1
  9
$DIMSE1
 70
     0
  9
$DIMSE2
 70
     0
  9
$DIMTAD
 70
     0
  9
$DIMZIN
 70
     0
  9
$DIMBLK
  1

  9
$DIMASO
 70
     1
  9
$DIMSHO
 70
     1
  9
$DIMPOST
  1

  9
$DIMAPOST
  1

  9
$DIMALT
 70
     0
  9
$DIMALTD
 70
     2
  9
$DIMALTF
 40
25.4
  9
$DIMLFAC
 40
1.0
  9
$DIMTOFL
 70
     0
  9
$DIMTVP
 40
0.0
  9
$DIMTIX
 70
     0
  9
$DIMSOXD
 70
     0
  9
$DIMSAH
 70
     0
  9
$DIMBLK1
  1

  9
$DIMBLK2
  1

  9
$DIMSTYLE
  2
Standard
  9
$DIMCLRD
 70
     0
  9
$DIMCLRE
 70
     0
  9
$DIMCLRT
 70
     0
  9
$DIMTFAC
 40
1.0
  9
$DIMGAP
 40
0.09
  9
$DIMJUST
 70
     0
  9
$DIMSD1
 70
     0
  9
$DIMSD2
 70
     0
  9
$DIMTOLJ
 70
     1
  9
$DIMTZIN
 70
     0
  9
$DIMALTZ
 70
     0
  9
$DIMALTTZ
 70
     0
  9
$DIMUPT
 70
     0
  9
$DIMDEC
 70
     4
  9
$DIMTDEC
 70
     4
  9
$DIMALTU
 70
     2
  9
$DIMALTTD
 70
     2
  9
$DIMTXSTY
  7
Standard
  9
$DIMAUNIT
 70
     0
  9
$DIMADEC
 70
     0
  9
$DIMALTRND
 40
0.0
  9
$DIMAZIN
 70
     0
  9
$DIMDSEP
 70
    46
  9
$DIMATFIT
 70
     3
  9
$DIMFRAC
 70
     0
  9
$DIMLDRBLK
  1

  9
$DIMLUNIT
 70
     2
  9
$DIMLWD
 70
    -2
  9
$DIMLWE
 70
    -2
  9
$DIMTMOVE
 70
     0
  9
$DIMFXL
 40
1.0
  9
$DIMFXLON
 70
     0
  9
$DIMJOGANG
 40
0.7853981633974483
  9
$DIMTFILL
 70
     0
  9
$DIMTFILLCLR
 70
     0
  9
$DIMARCSYM
 70
     0
  9
$DIMLTYPE
  6

  9
$DIMLTEX1
  6

  9
$DIMLTEX2
  6

  9
$DIMTXTDIRECTION
 70
     0
  9
$LUNITS
 70
     2
  9
$LUPREC
 70
     4
  9
$SKETCHINC
 40
0.1
  9
$FILLETRAD
 40
0.5
  9
$AUNITS
 70
     0
  9
$AUPREC
 70
     0
  9
$MENU
  1
.
  9
$ELEVATION
 40
0.0
  9
$PELEVATION
 40
0.0
  9
$THICKNESS
 40
0.0
  9
$LIMCHECK
 70
     0
  9
$CHAMFERA
 40
0.5
  9
$CHAMFERB
 40
0.5
  9
$CHAMFERC
 40
1.0
  9
$CHAMFERD
 40
0.0
  9
$SKPOLY
 70
     0
  9
$TDCREATE
 40
2457917.591655093
  9
$TDUCREATE
 40
2457917.216655093
  9
$TDUPDATE
 40
2457917.591655093
  9
$TDUUPDATE
 40
2457917.216655093
  9
$TDINDWG
 40
0.0000000116
  9
$TDUSRTIMER
 40
0.0000000116
  9
$USRTIMER
 70
     1
  9
$ANGBASE
 50
0.0
  9
$ANGDIR
 70
     0
  9
$PDMODE
 70
     0
  9
$PDSIZE
 40
0.0
  9
$PLINEWID
 40
0.0
  9
$SPLFRAME
 70
     0
  9
$SPLINETYPE
 70
     6
  9
$SPLINESEGS
 70
     8
  9
$HANDSEED
  5
111
  9
$SURFTAB1
 70
     6
  9
$SURFTAB2
 70
     6
  9
$SURFTYPE
 70
     6
  9
$SURFU
 70
     6
  9
$SURFV
 70
     6
  9
$UCSBASE
  2

  9
$UCSNAME
  2

  9
$UCSORG
 10
0.0
 20
0.0
 30
0.0
  9
$UCSXDIR
 10
1.0
 20
0.0
 30
0.0
  9
$UCSYDIR
 10
0.0
 20
1.0
 30
0.0
  9
$UCSORTHOREF
  2

  9
$UCSORTHOVIEW
 70
     0
  9
$UCSORGTOP
 10
0.0
 20
0.0
 30
0.0
  9
$UCSORGBOTTOM
 10
0.0
 20
0.0
 30
0.0
  9
$UCSORGLEFT
 10
0.0
 20
0.0
 30
0.0
  9
$UCSORGRIGHT
 10
0.0
 20
0.0
 30
0.0
  9
$UCSORGFRONT
 10
0.0
 20
0.0
 30
0.0
  9
$UCSORGBACK
 10
0.0
 20
0.0
 30
0.0
  9
$PUCSBASE
  2

  9
$PUCSNAME
  2

  9
$PUCSORG
 10
0.0
 20
0.0
 30
0.0
  9
$PUCSXDIR
 10
1.0
 20
0.0
 30
0.0
  9
$PUCSYDIR
 10
0.0
 20
1.0
 30
0.0
  9
$PUCSORTHOREF
  2

  9
$PUCSORTHOVIEW
 70
     0
  9
$PUCSORGTOP
 10
0.0
 20
0.0
 30
0.0
  9
$PUCSORGBOTTOM
 10
0.0
 20
0.0
 30
0.0
  9
$PUCSORGLEFT
 10
0.0
 20
0.0
 30
0.0
  9
$PUCSORGRIGHT
 10
0.0
 20
0.0
 30
0.0
  9
$PUCSORGFRONT
 10
0.0
 20
0.0
 30
0.0
  9
$PUCSORGBACK
 10
0.0
 20
0.0
 30
0.0
  9
$USERI1
 70
     0
  9
$USERI2
 70
     0
  9
$USERI3
 70
     0
  9
$USERI4
 70
     0
  9
$USERI5
 70
     0
  9
$USERR1
 40
0.0
  9
$USERR2
 40
0.0
  9
$USERR3
 40
0.0
  9
$USERR4
 40
0.0
  9
$USERR5
 40
0.0
  9
$WORLDVIEW
 70
     1
  9
$SHADEDGE
 70
     3
  9
$SHADEDIF
 70
    70
  9
$TILEMODE
 70
     1
  9
$MAXACTVP
 70
    64
  9
$PINSBASE
 10
0.0
 20
0.0
 30
0.0
  9
$PLIMCHECK
 70
     0
  9
$PEXTMIN
 10
1.000000000000000E+20
 20
1.000000000000000E+20
 30
1.000000000000000E+20
  9
$PEXTMAX
 10
-1.000000000000000E+20
 20
-1.000000000000000E+20
 30
-1.000000000000000E+20
  9
$PLIMMIN
 10
0.0
 20
0.0
  9
$PLIMMAX
 10
12.0
 20
9.0
  9
$UNITMODE
 70
     0
  9
$VISRETAIN
 70
     1
  9
$PLINEGEN
 70
     0
  9
$PSLTSCALE
 70
     1
  9
$TREEDEPTH
 70
  3020
  9
$CMLSTYLE
  2
Standard
  9
$CMLJUST
 70
     0
  9
$CMLSCALE
 40
1.0
  9
$PROXYGRAPHICS
 70
     1
  9
$MEASUREMENT
 70
     0
  9
$CELWEIGHT
370
    -1
  9
$ENDCAPS
280
     0
  9
$JOINSTYLE
280
     0
  9
$LWDISPLAY
290
     1
  9
$INSUNITS
 70
     1
  9
$HYPERLINKBASE
  1

  9
$STYLESHEET
  1

  9
$XEDIT
290
     1
  9
$CEPSNTYPE
380
     0
  9
$PSTYLEMODE
290
     1
  9
$FINGERPRINTGUID
  2
{662CE419-5C06-7647-56BC-921BECFE7EDC}
  9
$VERSIONGUID
  2
{FAEB1C32-E019-11D5-929B-00C0DF256EC4}
  9
$EXTNAMES
290
     1
  9
$PSVPSCALE
 40
0.0
  9
$OLESTARTUP
290
     0
  9
$SORTENTS
280
   127
  9
$INDEXCTL
280
     0
  9
$HIDETEXT
280
     1
  9
$XCLIPFRAME
280
     2
  9
$HALOGAP
280
     0
  9
$OBSCOLOR
 70
   257
  9
$OBSLTYPE
280
     0
  9
$INTERSECTIONDISPLAY
280
     0
  9
$INTERSECTIONCOLOR
 70
   257
  9
$DIMASSOC
280
     2
  9
$PROJECTNAME
  1

  9
$CAMERADISPLAY
290
     0
  9
$LENSLENGTH
 40
50.0
  9
$CAMERAHEIGHT
 40
0.0
  9
$STEPSPERSEC
 40
2.0
  9
$STEPSIZE
 40
6.0
  9
$3DDWFPREC
 40
2.0
  9
$PSOLWIDTH
 40
0.25
  9
$PSOLHEIGHT
 40
4.0
  9
$LOFTANG1
 40
1.570796326794897
  9
$LOFTANG2
 40
1.570796326794897
  9
$LOFTMAG1
 40
0.0
  9
$LOFTMAG2
 40
0.0
  9
$LOFTPARAM
 70
     7
  9
$LOFTNORMALS
280
     1
  9
$LATITUDE
 40
37.795
  9
$LONGITUDE
 40
-122.394
  9
$NORTHDIRECTION
 40
0.0
  9
$TIMEZONE
 70
 -8000
  9
$LIGHTGLYPHDISPLAY
280
     1
  9
$TILEMODELIGHTSYNCH
280
     1
  9
$CMATERIAL
347
3C
  9
$SOLIDHIST
280
     1
  9
$SHOWHIST
280
     1
  9
$DWFFRAME
280
     2
  9
$DGNFRAME
280
     2
  9
$REALWORLDSCALE
290
     1
  9
$INTERFERECOLOR
 62
   256
  9
$CSHADOW
280
     0
  9
$SHADOWPLANELOCATION
 40
0.0
  0
ENDSEC
  0
SECTION
  2
CLASSES
  0
CLASS
  1
ACDBDICTIONARYWDFLT
  2
AcDbDictionaryWithDefault
  3
ObjectDBX Classes
 90
        0
 91
        4
280
     0
281
     0
  0
CLASS
  1
VISUALSTYLE
  2
AcDbVisualStyle
  3
ObjectDBX Classes
 90
     4095
 91
        4
280
     0
281
     0
  0
CLASS
  1
MATERIAL
  2
AcDbMaterial
  3
ObjectDBX Classes
 90
     1153
 91
        4
280
     0
281
     0
  0
CLASS
  1
SUN
  2
AcDbSun
  3
SCENEOE
 90
     1024
 91
        4
280
     0
281
     0
  0
ENDSEC
  0
SECTION
  2
TABLES
  0
TABLE
  2
VPORT
  5
8
330
0
100
AcDbSymbolTable
 70
     1
  0
VPORT
  5
29
330
8
100
AcDbSymbolTableRecord
100
AcDbViewportTableRecord
  2
*Active
 70
     0
 10
0.0
 20
0.0
 11
1.0
 21
1.0
 12
0.0
 22
0.0
 13
0.0
 23
0.0
 14
0.5
 24
0.5
 15
0.5
 25
0.5
 16
0.0
 26
0.0
 36
1.0
 17
91.00082462281999
 27
-128.4993055234307
 37
0.0
 40
256.9986110468615
 41
0.7081814508812795
 42
50.0
 43
0.0
 44
0.0
 50
0.0
 51
0.0
 71
     0
 72
   100
 73
     1
 74
     3
 75
     0
 76
     0
 77
     0
 78
     0
281
     0
 65
     1
110
0.0
120
0.0
130
0.0
111
1.0
121
0.0
131
0.0
112
0.0
122
1.0
132
0.0
 79
     0
146
0.0
 60
     3
 61
     5
292
     1
282
     1
141
0.0
142
0.0
 63
   250
361
3F
  0
ENDTAB
  0
TABLE
  2
LTYPE
  5
5
330
0
100
AcDbSymbolTable
 70
     1
  0
LTYPE
  5
14
330
5
100
AcDbSymbolTableRecord
100
AcDbLinetypeTableRecord
  2
ByBlock
 70
     0
  3

 72
    65
 73
     0
 40
0.0
  0
LTYPE
  5
15
330
5
100
AcDbSymbolTableRecord
100
AcDbLinetypeTableRecord
  2
ByLayer
 70
     0
  3

 72
    65
 73
     0
 40
0.0
  0
LTYPE
  5
16
330
5
100
AcDbSymbolTableRecord
100
AcDbLinetypeTableRecord
  2
Continuous
 70
     0
  3
Solid line
 72
    65
 73
     0
 40
0.0
  0
ENDTAB
  0
TABLE
  2
LAYER
  5
2
330
0
100
AcDbSymbolTable
 70
     2
  0
LAYER
  5
10
330
2
100
AcDbSymbolTableRecord
100
AcDbLayerTableRecord
  2
0
 70
     0
 62
     7
  6
Continuous
370
    -3
390
F
347
3E
  0
LAYER
  5
40
330
2
100
AcDbSymbolTableRecord
100
AcDbLayerTableRecord
  2
_U+30EC_U+30A4_U+30E4_U+30FC 1
 70
     0
 62
     7
  6
Continuous
370
    -3
390
F
347
3E
  0
ENDTAB
  0
TABLE
  2
STYLE
  5
3
330
0
100
AcDbSymbolTable
 70
     1
  0
STYLE
  5
11
330
3
100
AcDbSymbolTableRecord
100
AcDbTextStyleTableRecord
  2
Standard
 70
     0
 40
0.0
 41
1.0
 50
0.0
 71
     0
 42
0.2
  3
txt
  4

  0
ENDTAB
  0
TABLE
  2
VIEW
  5
6
330
0
100
AcDbSymbolTable
 70
     0
  0
ENDTAB
  0
TABLE
  2
UCS
  5
7
330
0
100
AcDbSymbolTable
 70
     0
  0
ENDTAB
  0
TABLE
  2
APPID
  5
9
330
0
100
AcDbSymbolTable
 70
     1
  0
APPID
  5
12
330
9
100
AcDbSymbolTableRecord
100
AcDbRegAppTableRecord
  2
ACAD
 70
     0
  0
ENDTAB
  0
TABLE
  2
DIMSTYLE
  5
A
330
0
100
AcDbSymbolTable
 70
     1
100
AcDbDimStyleTable
  0
DIMSTYLE
105
27
330
A
100
AcDbSymbolTableRecord
100
AcDbDimStyleTableRecord
  2
Standard
 70
     0
178
     0
340
11
  0
ENDTAB
  0
TABLE
  2
BLOCK_RECORD
  5
1
330
0
100
AcDbSymbolTable
 70
     9
  0
BLOCK_RECORD
  5
1F
330
1
100
AcDbSymbolTableRecord
100
AcDbBlockTableRecord
  2
*Model_Space
340
22
 70
     0
280
     1
281
     0
  0
BLOCK_RECORD
  5
1B
330
1
100
AcDbSymbolTableRecord
100
AcDbBlockTableRecord
  2
*Paper_Space
340
1E
 70
     0
280
     1
281
     0
  0
BLOCK_RECORD
  5
23
330
1
100
AcDbSymbolTableRecord
100
AcDbBlockTableRecord
  2
*Paper_Space0
340
26
 70
     0
280
     1
281
     0
  0
BLOCK_RECORD
  5
54
330
1
100
AcDbSymbolTableRecord
100
AcDbBlockTableRecord
  2
block 2
340
0
102
{BLKREFS
331
55
102
}
 70
     0
280
     1
281
     0
  0
BLOCK_RECORD
  5
5D
330
1
100
AcDbSymbolTableRecord
100
AcDbBlockTableRecord
  2
block 3
340
0
102
{BLKREFS
331
5E
102
}
 70
     0
280
     1
281
     0
  0
BLOCK_RECORD
  5
81
330
1
100
AcDbSymbolTableRecord
100
AcDbBlockTableRecord
  2
block 4
340
0
102
{BLKREFS
331
82
102
}
 70
     0
280
     1
281
     0
  0
BLOCK_RECORD
  5
9C
330
1
100
AcDbSymbolTableRecord
100
AcDbBlockTableRecord
  2
block 5
340
0
102
{BLKREFS
331
9D
102
}
 70
     0
280
     1
281
     0
  0
BLOCK_RECORD
  5
B0
330
1
100
AcDbSymbolTableRecord
100
AcDbBlockTableRecord
  2
block 6
340
0
102
{BLKREFS
331
B1
102
}
 70
     0
280
     1
281
     0
  0
BLOCK_RECORD
  5
E5
330
1
100
AcDbSymbolTableRecord
100
AcDbBlockTableRecord
  2
block 7
340
0
102
{BLKREFS
331
E6
102
}
 70
     0
280
     1
281
     0
  0
BLOCK_RECORD
  5
EB
330
1
100
AcDbSymbolTableRecord
100
AcDbBlockTableRecord
  2
block 8
340
0
102
{BLKREFS
331
EC
102
}
 70
     0
280
     1
281
     0
  0
BLOCK_RECORD
  5
F4
330
1
100
AcDbSymbolTableRecord
100
AcDbBlockTableRecord
  2
block 9
340
0
102
{BLKREFS
331
F5
102
}
 70
     0
280
     1
281
     0
  0
ENDTAB
  0
ENDSEC
  0
SECTION
  2
BLOCKS
  0
BLOCK
  5
20
330
1F
100
AcDbEntity
  8
0
100
AcDbBlockBegin
  2
*Model_Space
 70
     0
 10
0.0
 20
0.0
 30
0.0
  3
*Model_Space
  1

  0
ENDBLK
  5
21
330
1F
100
AcDbEntity
  8
0
100
AcDbBlockEnd
  0
BLOCK
  5
1C
330
1B
100
AcDbEntity
 67
     1
  8
0
100
AcDbBlockBegin
  2
*Paper_Space
 70
     0
 10
0.0
 20
0.0
 30
0.0
  3
*Paper_Space
  1

  0
ENDBLK
  5
1D
330
1B
100
AcDbEntity
 67
     1
  8
0
100
AcDbBlockEnd
  0
BLOCK
  5
24
330
23
100
AcDbEntity
  8
0
100
AcDbBlockBegin
  2
*Paper_Space0
 70
     0
 10
0.0
 20
0.0
 30
0.0
  3
*Paper_Space0
  1

  0
ENDBLK
  5
25
330
23
100
AcDbEntity
  8
0
100
AcDbBlockEnd
  0
BLOCK
  5
56
330
54
100
AcDbEntity
  8
0
100
AcDbBlockBegin
  2
block 2
 70
     0
 10
0.0
 20
0.0
 30
0.0
  3
block 2
  1

  0
SPLINE
  5
58
330
54
100
AcDbEntity
  8
_U+30EC_U+30A4_U+30E4_U+30FC 1
370
     0
100
AcDbSpline
210
0.0
220
0.0
230
1.0
 70
    11
 71
     3
 72
    26
 73
    22
 74
     0
 42
0.0000000001
 43
0.0000000001
 12
1.0
 22
0.0
 32
0.0
 13
1.0
 23
0.0
 33
0.0
 40
0.0
 40
0.0
 40
0.0
 40
0.0
 40
1.0
 40
1.0
 40
1.0
 40
2.0
 40
2.0
 40
2.0
 40
3.0
 40
3.0
 40
3.0
 40
4.0
 40
4.0
 40
4.0
 40
5.0
 40
5.0
 40
5.0
 40
6.0
 40
6.0
 40
6.0
 40
7.0
 40
7.0
 40
7.0
 40
7.0
 10
86.27380368936905
 20
-145.8805012656132
 30
0.0
 10
86.27380368936905
 20
-145.8805012656132
 30
0.0
 10
86.27380368936905
 20
-144.7763481625906
 30
0.0
 10
86.27380368936905
 20
-144.7763481625906
 30
0.0
 10
86.27380368936905
 20
-144.7763481625906
 30
0.0
 10
85.92102591167946
 20
-144.7763481625906
 30
0.0
 10
85.92102591167946
 20
-144.7763481625906
 30
0.0
 10
85.92102591167946
 20
-144.7763481625906
 30
0.0
 10
85.92102591167946
 20
-144.6282090567249
 30
0.0
 10
85.92102591167946
 20
-144.6282090567249
 30
0.0
 10
86.27604300143446
 20
-144.6133951461383
 30
0.0
 10
86.32582463119633
 20
-144.450442129686
 30
0.0
 10
86.35751950966062
 20
-144.3360649595757
 30
0.0
 10
86.35751950966062
 20
-144.3360649595757
 30
0.0
 10
86.51341008036817
 20
-144.3360649595757
 30
0.0
 10
86.51341008036817
 20
-144.3360649595757
 30
0.0
 10
86.51341008036817
 20
-144.3360649595757
 30
0.0
 10
86.51341008036817
 20
-145.8805012656132
 30
0.0
 10
86.51341008036817
 20
-145.8805012656132
 30
0.0
 10
86.51341008036817
 20
-145.8805012656132
 30
0.0
 10
86.27380368936905
 20
-145.8805012656132
 30
0.0
 10
86.27380368936905
 20
-145.8805012656132
 30
0.0
  0
HATCH
  5
59
330
54
100
AcDbEntity
  8
_U+30EC_U+30A4_U+30E4_U+30FC 1
 62
   179
420
  2234388
100
AcDbHatch
 10
0.0
 20
0.0
 30
0.0
210
0.0
220
0.0
230
1.0
  2
SOLID
 70
     1
 71
     0
 91
        1
 92
        1
 93
        1
 72
     4
 94
        3
 73
     0
 74
     1
 95
       26
 96
       22
 40
0.0
 40
0.0
 40
0.0
 40
0.0
 40
1.0
 40
1.0
 40
1.0
 40
2.0
 40
2.0
 40
2.0
 40
3.0
 40
3.0
 40
3.0
 40
4.0
 40
4.0
 40
4.0
 40
5.0
 40
5.0
 40
5.0
 40
6.0
 40
6.0
 40
6.0
 40
7.0
 40
7.0
 40
7.0
 40
7.0
 10
86.27380368936905
 20
-145.8805012656132
 10
86.27380368936905
 20
-145.8805012656132
 10
86.27380368936905
 20
-144.7763481625906
 10
86.27380368936905
 20
-144.7763481625906
 10
86.27380368936905
 20
-144.7763481625906
 10
85.92102591167946
 20
-144.7763481625906
 10
85.92102591167946
 20
-144.7763481625906
 10
85.92102591167946
 20
-144.7763481625906
 10
85.92102591167946
 20
-144.6282090567249
 10
85.92102591167946
 20
-144.6282090567249
 10
86.27604300143446
 20
-144.6133951461383
 10
86.32582463119633
 20
-144.450442129686
 10
86.35751950966062
 20
-144.3360649595757
 10
86.35751950966062
 20
-144.3360649595757
 10
86.51341008036817
 20
-144.3360649595757
 10
86.51341008036817
 20
-144.3360649595757
 10
86.51341008036817
 20
-144.3360649595757
 10
86.51341008036817
 20
-145.8805012656132
 10
86.51341008036817
 20
-145.8805012656132
 10
86.51341008036817
 20
-145.8805012656132
 10
86.27380368936905
 20
-145.8805012656132
 10
86.27380368936905
 20
-145.8805012656132
 97
        0
 97
        0
 75
     2
 76
     1
 98
        0
  0
SPLINE
  5
5A
330
54
100
AcDbEntity
  8
_U+30EC_U+30A4_U+30E4_U+30FC 1
370
     0
100
AcDbSpline
210
0.0
220
0.0
230
1.0
 70
    11
 71
     3
 72
    29
 73
    25
 74
     0
 42
0.0000000001
 43
0.0000000001
 12
1.0
 22
0.0
 32
0.0
 13
1.0
 23
0.0
 33
0.0
 40
0.0
 40
0.0
 40
0.0
 40
0.0
 40
1.0
 40
1.0
 40
1.0
 40
2.0
 40
2.0
 40
2.0
 40
3.0
 40
3.0
 40
3.0
 40
4.0
 40
4.0
 40
4.0
 40
5.0
 40
5.0
 40
5.0
 40
6.0
 40
6.0
 40
6.0
 40
7.0
 40
7.0
 40
7.0
 40
8.0
 40
8.0
 40
8.0
 40
8.0
 10
88.00858152096662
 20
-145.7027343385743
 30
0.0
 10
87.893343076985
 20
-145.9121961440775
 30
0.0
 10
87.70799693987856
 20
-145.9311441692464
 30
0.0
 10
87.58362899286104
 20
-145.9311441692464
 30
0.0
 10
87.41171872814708
 20
-145.9311441692464
 30
0.0
 10
87.26030678157035
 20
-145.8846353801955
 30
0.0
 10
87.15850420998122
 20
-145.7027343385743
 30
0.0
 10
87.04774439013043
 20
-145.5080864436577
 30
0.0
 10
87.02741832676746
 20
-145.2710638742725
 30
0.0
 10
87.02741832676746
 20
-145.1084553673687
 30
0.0
 10
87.02741832676746
 20
-144.9644503760853
 30
0.0
 10
87.04550507806502
 20
-144.7126138961135
 30
0.0
 10
87.15850420998122
 20
-144.5138318866146
 30
0.0
 10
87.27391490873708
 20
-144.3109157625334
 30
0.0
 10
87.44565291867679
 20
-144.2874891132337
 30
0.0
 10
87.58362899286104
 20
-144.2874891132337
 30
0.0
 10
87.75312769073534
 20
-144.2874891132337
 30
0.0
 10
87.90695120415174
 20
-144.3319308449934
 30
0.0
 10
88.00858152096662
 20
-144.5138318866146
 30
0.0
 10
88.11486271668656
 20
-144.7064127242401
 30
0.0
 10
88.13966740418037
 20
-144.9348225549121
 30
0.0
 10
88.13966740418037
 20
-145.1084553673687
 30
0.0
 10
88.13966740418037
 20
-145.2796766129856
 30
0.0
 10
88.11710202875197
 20
-145.5101535009489
 30
0.0
 10
88.00858152096662
 20
-145.7027343385743
 30
0.0
  0
SPLINE
  5
5B
330
54
100
AcDbEntity
  8
_U+30EC_U+30A4_U+30E4_U+30FC 1
370
     0
100
AcDbSpline
210
0.0
220
0.0
230
1.0
 70
    11
 71
     3
 72
    17
 73
    13
 74
     0
 42
0.0000000001
 43
0.0000000001
 12
1.0
 22
0.0
 32
0.0
 13
1.0
 23
0.0
 33
0.0
 40
0.0
 40
0.0
 40
0.0
 40
0.0
 40
1.0
 40
1.0
 40
1.0
 40
2.0
 40
2.0
 40
2.0
 40
3.0
 40
3.0
 40
3.0
 40
4.0
 40
4.0
 40
4.0
 40
4.0
 10
87.58362899286104
 20
-144.4800699508592
 30
0.0
 10
87.31680634752844
 20
-144.4800699508592
 30
0.0
 10
87.26702471776657
 20
-144.7636013092952
 30
0.0
 10
87.26702471776657
 20
-145.1084553673687
 30
0.0
 10
87.26702471776657
 20
-145.4278157188514
 30
0.0
 10
87.30543753242712
 20
-145.7364962743298
 30
0.0
 10
87.58362899286104
 20
-145.7364962743298
 30
0.0
 10
87.84804007135396
 20
-145.7364962743298
 30
0.0
 10
87.90006101318124
 20
-145.4553764827334
 30
0.0
 10
87.90006101318124
 20
-145.1084553673687
 30
0.0
 10
87.90006101318124
 20
-144.7887505063375
 30
0.0
 10
87.85940888645528
 20
-144.4800699508592
 30
0.0
 10
87.58362899286104
 20
-144.4800699508592
 30
0.0
  0
HATCH
  5
5C
330
54
100
AcDbEntity
  8
_U+30EC_U+30A4_U+30E4_U+30FC 1
 62
   179
420
  2234388
100
AcDbHatch
 10
0.0
 20
0.0
 30
0.0
210
0.0
220
0.0
230
1.0
  2
SOLID
 70
     1
 71
     0
 91
        2
 92
        1
 93
        1
 72
     4
 94
        3
 73
     0
 74
     1
 95
       29
 96
       25
 40
0.0
 40
0.0
 40
0.0
 40
0.0
 40
1.0
 40
1.0
 40
1.0
 40
2.0
 40
2.0
 40
2.0
 40
3.0
 40
3.0
 40
3.0
 40
4.0
 40
4.0
 40
4.0
 40
5.0
 40
5.0
 40
5.0
 40
6.0
 40
6.0
 40
6.0
 40
7.0
 40
7.0
 40
7.0
 40
8.0
 40
8.0
 40
8.0
 40
8.0
 10
88.00858152096662
 20
-145.7027343385743
 10
87.893343076985
 20
-145.9121961440775
 10
87.70799693987856
 20
-145.9311441692464
 10
87.58362899286104
 20
-145.9311441692464
 10
87.41171872814708
 20
-145.9311441692464
 10
87.26030678157035
 20
-145.8846353801955
 10
87.15850420998122
 20
-145.7027343385743
 10
87.04774439013043
 20
-145.5080864436577
 10
87.02741832676746
 20
-145.2710638742725
 10
87.02741832676746
 20
-145.1084553673687
 10
87.02741832676746
 20
-144.9644503760853
 10
87.04550507806502
 20
-144.7126138961135
 10
87.15850420998122
 20
-144.5138318866146
 10
87.27391490873708
 20
-144.3109157625334
 10
87.44565291867679
 20
-144.2874891132337
 10
87.58362899286104
 20
-144.2874891132337
 10
87.75312769073534
 20
-144.2874891132337
 10
87.90695120415174
 20
-144.3319308449934
 10
88.00858152096662
 20
-144.5138318866146
 10
88.11486271668656
 20
-144.7064127242401
 10
88.13966740418037
 20
-144.9348225549121
 10
88.13966740418037
 20
-145.1084553673687
 10
88.13966740418037
 20
-145.2796766129856
 10
88.11710202875197
 20
-145.5101535009489
 10
88.00858152096662
 20
-145.7027343385743
 97
        0
 97
        0
 92
        1
 93
        1
 72
     4
 94
        3
 73
     0
 74
     1
 95
       17
 96
       13
 40
0.0
 40
0.0
 40
0.0
 40
0.0
 40
1.0
 40
1.0
 40
1.0
 40
2.0
 40
2.0
 40
2.0
 40
3.0
 40
3.0
 40
3.0
 40
4.0
 40
4.0
 40
4.0
 40
4.0
 10
87.58362899286104
 20
-144.4800699508592
 10
87.31680634752844
 20
-144.4800699508592
 10
87.26702471776657
 20
-144.7636013092952
 10
87.26702471776657
 20
-145.1084553673687
 10
87.26702471776657
 20
-145.4278157188514
 10
87.30543753242712
 20
-145.7364962743298
 10
87.58362899286104
 20
-145.7364962743298
 10
87.84804007135396
 20
-145.7364962743298
 10
87.90006101318124
 20
-145.4553764827334
 10
87.90006101318124
 20
-145.1084553673687
 10
87.90006101318124
 20
-144.7887505063375
 10
87.85940888645528
 20
-144.4800699508592
 10
87.58362899286104
 20
-144.4800699508592
 97
        0
 97
        0
 75
     2
 76
     1
 98
        0
  0
ENDBLK
  5
57
330
54
100
AcDbEntity
  8
0
100
AcDbBlockEnd
  0
BLOCK
  5
5F
330
5D
100
AcDbEntity
  8
0
100
AcDbBlockBegin
  2
block 3
 70
     0
 10
0.0
 20
0.0
 30
0.0
  3
block 3
  1

  0
SPLINE
  5
61
330
5D
100
AcDbEntity
  8
_U+30EC_U+30A4_U+30E4_U+30FC 1
370
     0
100
AcDbSpline
210
0.0
220
0.0
230
1.0
 70
    11
 71
     3
 72
    26
 73
    22
 74
     0
 42
0.0000000001
 43
0.0000000001
 12
1.0
 22
0.0
 32
0.0
 13
1.0
 23
0.0
 33
0.0
 40
0.0
 40
0.0
 40
0.0
 40
0.0
 40
1.0
 40
1.0
 40
1.0
 40
2.0
 40
2.0
 40
2.0
 40
3.0
 40
3.0
 40
3.0
 40
4.0
 40
4.0
 40
4.0
 40
5.0
 40
5.0
 40
5.0
 40
6.0
 40
6.0
 40
6.0
 40
7.0
 40
7.0
 40
7.0
 40
7.0
 10
75.27361380496632
 20
-145.8805012656132
 30
0.0
 10
75.27361380496632
 20
-145.8805012656132
 30
0.0
 10
75.27361380496632
 20
-144.7763481625906
 30
0.0
 10
75.27361380496632
 20
-144.7763481625906
 30
0.0
 10
75.27361380496632
 20
-144.7763481625906
 30
0.0
 10
74.92083602727674
 20
-144.7763481625906
 30
0.0
 10
74.92083602727674
 20
-144.7763481625906
 30
0.0
 10
74.92083602727674
 20
-144.7763481625906
 30
0.0
 10
74.92083602727674
 20
-144.6282090567249
 30
0.0
 10
74.92083602727674
 20
-144.6282090567249
 30
0.0
 10
75.27585311703173
 20
-144.6133951461383
 30
0.0
 10
75.3256347467936
 20
-144.450442129686
 30
0.0
 10
75.35732962525789
 20
-144.3360649595757
 30
0.0
 10
75.35732962525789
 20
-144.3360649595757
 30
0.0
 10
75.51322019596545
 20
-144.3360649595757
 30
0.0
 10
75.51322019596545
 20
-144.3360649595757
 30
0.0
 10
75.51322019596545
 20
-144.3360649595757
 30
0.0
 10
75.51322019596545
 20
-145.8805012656132
 30
0.0
 10
75.51322019596545
 20
-145.8805012656132
 30
0.0
 10
75.51322019596545
 20
-145.8805012656132
 30
0.0
 10
75.27361380496632
 20
-145.8805012656132
 30
0.0
 10
75.27361380496632
 20
-145.8805012656132
 30
0.0
  0
HATCH
  5
62
330
5D
100
AcDbEntity
  8
_U+30EC_U+30A4_U+30E4_U+30FC 1
 62
   179
420
  2234388
100
AcDbHatch
 10
0.0
 20
0.0
 30
0.0
210
0.0
220
0.0
230
1.0
  2
SOLID
 70
     1
 71
     0
 91
        1
 92
        1
 93
        1
 72
     4
 94
        3
 73
     0
 74
     1
 95
       26
 96
       22
 40
0.0
 40
0.0
 40
0.0
 40
0.0
 40
1.0
 40
1.0
 40
1.0
 40
2.0
 40
2.0
 40
2.0
 40
3.0
 40
3.0
 40
3.0
 40
4.0
 40
4.0
 40
4.0
 40
5.0
 40
5.0
 40
5.0
 40
6.0
 40
6.0
 40
6.0
 40
7.0
 40
7.0
 40
7.0
 40
7.0
 10
75.27361380496632
 20
-145.8805012656132
 10
75.27361380496632
 20
-145.8805012656132
 10
75.27361380496632
 20
-144.7763481625906
 10
75.27361380496632
 20
-144.7763481625906
 10
75.27361380496632
 20
-144.7763481625906
 10
74.92083602727674
 20
-144.7763481625906
 10
74.92083602727674
 20
-144.7763481625906
 10
74.92083602727674
 20
-144.7763481625906
 10
74.92083602727674
 20
-144.6282090567249
 10
74.92083602727674
 20
-144.6282090567249
 10
75.27585311703173
 20
-144.6133951461383
 10
75.3256347467936
 20
-144.450442129686
 10
75.35732962525789
 20
-144.3360649595757
 10
75.35732962525789
 20
-144.3360649595757
 10
75.51322019596545
 20
-144.3360649595757
 10
75.51322019596545
 20
-144.3360649595757
 10
75.51322019596545
 20
-144.3360649595757
 10
75.51322019596545
 20
-145.8805012656132
 10
75.51322019596545
 20
-145.8805012656132
 10
75.51322019596545
 20
-145.8805012656132
 10
75.27361380496632
 20
-145.8805012656132
 10
75.27361380496632
 20
-145.8805012656132
 97
        0
 97
        0
 75
     2
 76
     1
 98
        0
  0
SPLINE
  5
63
330
5D
100
AcDbEntity
  8
_U+30EC_U+30A4_U+30E4_U+30FC 1
370
     0
100
AcDbSpline
210
0.0
220
0.0
230
1.0
 70
    11
 71
     3
 72
    44
 73
    40
 74
     0
 42
0.0000000001
 43
0.0000000001
 12
1.0
 22
0.0
 32
0.0
 13
1.0
 23
0.0
 33
0.0
 40
0.0
 40
0.0
 40
0.0
 40
0.0
 40
1.0
 40
1.0
 40
1.0
 40
2.0
 40
2.0
 40
2.0
 40
3.0
 40
3.0
 40
3.0
 40
4.0
 40
4.0
 40
4.0
 40
5.0
 40
5.0
 40
5.0
 40
6.0
 40
6.0
 40
6.0
 40
7.0
 40
7.0
 40
7.0
 40
8.0
 40
8.0
 40
8.0
 40
9.0
 40
9.0
 40
9.0
 40
10.0
 40
10.0
 40
10.0
 40
11.0
 40
11.0
 40
11.0
 40
12.0
 40
12.0
 40
12.0
 40
13.0
 40
13.0
 40
13.0
 40
13.0
 10
76.68283011320777
 20
-145.2986246381545
 30
0.0
 10
76.44994165840488
 20
-145.4574435400245
 30
0.0
 10
76.35055065365542
 20
-145.5315130929574
 30
0.0
 10
76.29852971182815
 20
-145.6751735746923
 30
0.0
 10
76.29852971182815
 20
-145.6751735746923
 30
0.0
 10
77.13052027151599
 20
-145.6751735746923
 30
0.0
 10
77.13052027151599
 20
-145.6751735746923
 30
0.0
 10
77.13052027151599
 20
-145.6751735746923
 30
0.0
 10
77.13052027151599
 20
-145.8805012656132
 30
0.0
 10
77.13052027151599
 20
-145.8805012656132
 30
0.0
 10
77.13052027151599
 20
-145.8805012656132
 30
0.0
 10
76.03170706649554
 20
-145.8805012656132
 30
0.0
 10
76.03170706649554
 20
-145.8805012656132
 30
0.0
 10
76.06564125702526
 20
-145.5229003542443
 30
0.0
 10
76.13574895015009
 20
-145.4446966867291
 30
0.0
 10
76.54726560586319
 20
-145.1463514177065
 30
0.0
 10
76.82080618739202
 20
-144.9475694082076
 30
0.0
 10
76.89091388051686
 20
-144.8797010271481
 30
0.0
 10
76.89091388051686
 20
-144.7422417172867
 30
0.0
 10
76.89091388051686
 20
-144.6237304325941
 30
0.0
 10
76.81391599642153
 20
-144.4928168041546
 30
0.0
 10
76.60376517182128
 20
-144.4928168041546
 30
0.0
 10
76.32574596616162
 20
-144.4928168041546
 30
0.0
 10
76.31661646312571
 20
-144.7232936921178
 30
0.0
 10
76.31213783899489
 20
-144.8397379195193
 30
0.0
 10
76.31213783899489
 20
-144.8397379195193
 30
0.0
 10
76.07253144799576
 20
-144.8397379195193
 30
0.0
 10
76.07253144799576
 20
-144.8397379195193
 30
0.0
 10
76.08148869625741
 20
-144.7126138961135
 30
0.0
 10
76.09285751135873
 20
-144.6006482928429
 30
0.0
 10
76.17864038894146
 20
-144.4821370081503
 30
0.0
 10
76.29629039976274
 20
-144.3212510489891
 30
0.0
 10
76.49524466403591
 20
-144.2874891132337
 30
0.0
 10
76.61961261105343
 20
-144.2874891132337
 30
0.0
 10
76.91571856801066
 20
-144.2874891132337
 30
0.0
 10
77.13723820771222
 20
-144.471457212146
 30
0.0
 10
77.13723820771222
 20
-144.7443087745778
 30
0.0
 10
77.13723820771222
 20
-144.9730631147984
 30
0.0
 10
77.01304251546897
 20
-145.0722818647736
 30
0.0
 10
76.68283011320777
 20
-145.2986246381545
 30
0.0
  0
HATCH
  5
64
330
5D
100
AcDbEntity
  8
_U+30EC_U+30A4_U+30E4_U+30FC 1
 62
   179
420
  2234388
100
AcDbHatch
 10
0.0
 20
0.0
 30
0.0
210
0.0
220
0.0
230
1.0
  2
SOLID
 70
     1
 71
     0
 91
        1
 92
        1
 93
        1
 72
     4
 94
        3
 73
     0
 74
     1
 95
       44
 96
       40
 40
0.0
 40
0.0
 40
0.0
 40
0.0
 40
1.0
 40
1.0
 40
1.0
 40
2.0
 40
2.0
 40
2.0
 40
3.0
 40
3.0
 40
3.0
 40
4.0
 40
4.0
 40
4.0
 40
5.0
 40
5.0
 40
5.0
 40
6.0
 40
6.0
 40
6.0
 40
7.0
 40
7.0
 40
7.0
 40
8.0
 40
8.0
 40
8.0
 40
9.0
 40
9.0
 40
9.0
 40
10.0
 40
10.0
 40
10.0
 40
11.0
 40
11.0
 40
11.0
 40
12.0
 40
12.0
 40
12.0
 40
13.0
 40
13.0
 40
13.0
 40
13.0
 10
76.68283011320777
 20
-145.2986246381545
 10
76.44994165840488
 20
-145.4574435400245
 10
76.35055065365542
 20
-145.5315130929574
 10
76.29852971182815
 20
-145.6751735746923
 10
76.29852971182815
 20
-145.6751735746923
 10
77.13052027151599
 20
-145.6751735746923
 10
77.13052027151599
 20
-145.6751735746923
 10
77.13052027151599
 20
-145.6751735746923
 10
77.13052027151599
 20
-145.8805012656132
 10
77.13052027151599
 20
-145.8805012656132
 10
77.13052027151599
 20
-145.8805012656132
 10
76.03170706649554
 20
-145.8805012656132
 10
76.03170706649554
 20
-145.8805012656132
 10
76.06564125702526
 20
-145.5229003542443
 10
76.13574895015009
 20
-145.4446966867291
 10
76.54726560586319
 20
-145.1463514177065
 10
76.82080618739202
 20
-144.9475694082076
 10
76.89091388051686
 20
-144.8797010271481
 10
76.89091388051686
 20
-144.7422417172867
 10
76.89091388051686
 20
-144.6237304325941
 10
76.81391599642153
 20
-144.4928168041546
 10
76.60376517182128
 20
-144.4928168041546
 10
76.32574596616162
 20
-144.4928168041546
 10
76.31661646312571
 20
-144.7232936921178
 10
76.31213783899489
 20
-144.8397379195193
 10
76.31213783899489
 20
-144.8397379195193
 10
76.07253144799576
 20
-144.8397379195193
 10
76.07253144799576
 20
-144.8397379195193
 10
76.08148869625741
 20
-144.7126138961135
 10
76.09285751135873
 20
-144.6006482928429
 10
76.17864038894146
 20
-144.4821370081503
 10
76.29629039976274
 20
-144.3212510489891
 10
76.49524466403591
 20
-144.2874891132337
 10
76.61961261105343
 20
-144.2874891132337
 10
76.91571856801066
 20
-144.2874891132337
 10
77.13723820771222
 20
-144.471457212146
 10
77.13723820771222
 20
-144.7443087745778
 10
77.13723820771222
 20
-144.9730631147984
 10
77.01304251546897
 20
-145.0722818647736
 10
76.68283011320777
 20
-145.2986246381545
 97
        0
 97
        0
 75
     2
 76
     1
 98
        0
  0
ENDBLK
  5
60
330
5D
100
AcDbEntity
  8
0
100
AcDbBlockEnd
  0
BLOCK
  5
83
330
81
100
AcDbEntity
  8
0
100
AcDbBlockBegin
  2
block 4
 70
     0
 10
0.0
 20
0.0
 30
0.0
  3
block 4
  1

  0
POLYLINE
  5
85
330
81
100
AcDbEntity
  8
_U+30EC_U+30A4_U+30E4_U+30FC 1
370
     0
100
AcDb2dPolyline
 66
     1
 10
0.0
 20
0.0
 30
0.0
  0
VERTEX
  5
86
330
85
100
AcDbEntity
  8
_U+30EC_U+30A4_U+30E4_U+30FC 1
370
     0
100
AcDbVertex
100
AcDb2dVertex
 10
90.67215709538752
 20
-114.1091416815422
 30
0.0
  0
VERTEX
  5
87
330
85
100
AcDbEntity
  8
_U+30EC_U+30A4_U+30E4_U+30FC 1
370
     0
100
AcDbVertex
100
AcDb2dVertex
 10
90.67215709538752
 20
-114.4560627969068
 30
0.0
  0
VERTEX
  5
88
330
85
100
AcDbEntity
  8
_U+30EC_U+30A4_U+30E4_U+30FC 1
370
     0
100
AcDbVertex
100
AcDb2dVertex
 10
90.43926864058463
 20
-114.4560627969068
 30
0.0
  0
VERTEX
  5
89
330
85
100
AcDbEntity
  8
_U+30EC_U+30A4_U+30E4_U+30FC 1
370
     0
100
AcDbVertex
100
AcDb2dVertex
 10
90.43926864058463
 20
-114.1091416815422
 30
0.0
  0
VERTEX
  5
8A
330
85
100
AcDbEntity
  8
_U+30EC_U+30A4_U+30E4_U+30FC 1
370
     0
100
AcDbVertex
100
AcDb2dVertex
 10
89.73853621888482
 20
-114.1091416815422
 30
0.0
  0
VERTEX
  5
8B
330
85
100
AcDbEntity
  8
_U+30EC_U+30A4_U+30E4_U+30FC 1
370
     0
100
AcDbVertex
100
AcDb2dVertex
 10
89.73853621888482
 20
-113.8848659654524
 30
0.0
  0
VERTEX
  5
8C
330
85
100
AcDbEntity
  8
_U+30EC_U+30A4_U+30E4_U+30FC 1
370
     0
100
AcDbVertex
100
AcDb2dVertex
 10
90.4642455828527
 20
-112.9116264908693
 30
0.0
  0
VERTEX
  5
8D
330
85
100
AcDbEntity
  8
_U+30EC_U+30A4_U+30E4_U+30FC 1
370
     0
100
AcDbVertex
100
AcDb2dVertex
 10
90.67215709538752
 20
-112.9116264908693
 30
0.0
  0
VERTEX
  5
8E
330
85
100
AcDbEntity
  8
_U+30EC_U+30A4_U+30E4_U+30FC 1
370
     0
100
AcDbVertex
100
AcDb2dVertex
 10
90.67215709538752
 20
-113.9103596720432
 30
0.0
  0
VERTEX
  5
8F
330
85
100
AcDbEntity
  8
_U+30EC_U+30A4_U+30E4_U+30FC 1
370
     0
100
AcDbVertex
100
AcDb2dVertex
 10
90.89384898986334
 20
-113.9103596720432
 30
0.0
  0
VERTEX
  5
90
330
85
100
AcDbEntity
  8
_U+30EC_U+30A4_U+30E4_U+30FC 1
370
     0
100
AcDbVertex
100
AcDb2dVertex
 10
90.89384898986334
 20
-114.1091416815422
 30
0.0
  0
VERTEX
  5
91
330
85
100
AcDbEntity
  8
_U+30EC_U+30A4_U+30E4_U+30FC 1
370
     0
100
AcDbVertex
100
AcDb2dVertex
 10
90.67215709538752
 20
-114.1091416815422
 30
0.0
  0
SEQEND
  5
92
330
85
100
AcDbEntity
  8
_U+30EC_U+30A4_U+30E4_U+30FC 1
370
     0
  0
POLYLINE
  5
93
330
81
100
AcDbEntity
  8
_U+30EC_U+30A4_U+30E4_U+30FC 1
370
     0
100
AcDb2dPolyline
 66
     1
 10
0.0
 20
0.0
 30
0.0
  0
VERTEX
  5
94
330
93
100
AcDbEntity
  8
_U+30EC_U+30A4_U+30E4_U+30FC 1
370
     0
100
AcDbVertex
100
AcDb2dVertex
 10
90.43926864058463
 20
-113.2544134916517
 30
0.0
  0
VERTEX
  5
95
330
93
100
AcDbEntity
  8
_U+30EC_U+30A4_U+30E4_U+30FC 1
370
     0
100
AcDbVertex
100
AcDb2dVertex
 10
89.95109861032473
 20
-113.9103596720432
 30
0.0
  0
VERTEX
  5
96
330
93
100
AcDbEntity
  8
_U+30EC_U+30A4_U+30E4_U+30FC 1
370
     0
100
AcDbVertex
100
AcDb2dVertex
 10
90.43926864058463
 20
-113.9103596720432
 30
0.0
  0
VERTEX
  5
97
330
93
100
AcDbEntity
  8
_U+30EC_U+30A4_U+30E4_U+30FC 1
370
     0
100
AcDbVertex
100
AcDb2dVertex
 10
90.43926864058463
 20
-113.2544134916517
 30
0.0
  0
SEQEND
  5
98
330
93
100
AcDbEntity
  8
_U+30EC_U+30A4_U+30E4_U+30FC 1
370
     0
  0
HATCH
  5
99
330
81
100
AcDbEntity
  8
_U+30EC_U+30A4_U+30E4_U+30FC 1
 62
   179
420
  2234388
100
AcDbHatch
 10
0.0
 20
0.0
 30
0.0
210
0.0
220
0.0
230
1.0
  2
SOLID
 70
     1
 71
     0
 91
        2
 92
        1
 93
       11
 72
     1
 10
90.67215709538752
 20
-114.1091416815422
 11
90.67215709538752
 21
-114.4560627969068
 72
     1
 10
90.67215709538752
 20
-114.4560627969068
 11
90.43926864058463
 21
-114.4560627969068
 72
     1
 10
90.43926864058463
 20
-114.4560627969068
 11
90.43926864058463
 21
-114.1091416815422
 72
     1
 10
90.43926864058463
 20
-114.1091416815422
 11
89.73853621888482
 21
-114.1091416815422
 72
     1
 10
89.73853621888482
 20
-114.1091416815422
 11
89.73853621888482
 21
-113.8848659654524
 72
     1
 10
89.73853621888482
 20
-113.8848659654524
 11
90.4642455828527
 21
-112.9116264908693
 72
     1
 10
90.4642455828527
 20
-112.9116264908693
 11
90.67215709538752
 21
-112.9116264908693
 72
     1
 10
90.67215709538752
 20
-112.9116264908693
 11
90.67215709538752
 21
-113.9103596720432
 72
     1
 10
90.67215709538752
 20
-113.9103596720432
 11
90.89384898986334
 21
-113.9103596720432
 72
     1
 10
90.89384898986334
 20
-113.9103596720432
 11
90.89384898986334
 21
-114.1091416815422
 72
     1
 10
90.89384898986334
 20
-114.1091416815422
 11
90.67215709538752
 21
-114.1091416815422
 97
        0
 92
        1
 93
        3
 72
     1
 10
90.43926864058463
 20
-113.2544134916517
 11
89.95109861032473
 21
-113.9103596720432
 72
     1
 10
89.95109861032473
 20
-113.9103596720432
 11
90.43926864058463
 21
-113.9103596720432
 72
     1
 10
90.43926864058463
 20
-113.9103596720432
 11
90.43926864058463
 21
-113.2544134916517
 97
        0
 75
     2
 76
     1
 98
        0
  0
SPLINE
  5
9A
330
81
100
AcDbEntity
  8
_U+30EC_U+30A4_U+30E4_U+30FC 1
370
     0
100
AcDbSpline
210
0.0
220
0.0
230
1.0
 70
    11
 71
     3
 72
    44
 73
    40
 74
     0
 42
0.0000000001
 43
0.0000000001
 12
1.0
 22
0.0
 32
0.0
 13
1.0
 23
0.0
 33
0.0
 40
0.0
 40
0.0
 40
0.0
 40
0.0
 40
1.0
 40
1.0
 40
1.0
 40
2.0
 40
2.0
 40
2.0
 40
3.0
 40
3.0
 40
3.0
 40
4.0
 40
4.0
 40
4.0
 40
5.0
 40
5.0
 40
5.0
 40
6.0
 40
6.0
 40
6.0
 40
7.0
 40
7.0
 40
7.0
 40
8.0
 40
8.0
 40
8.0
 40
9.0
 40
9.0
 40
9.0
 40
10.0
 40
10.0
 40
10.0
 40
11.0
 40
11.0
 40
11.0
 40
12.0
 40
12.0
 40
12.0
 40
13.0
 40
13.0
 40
13.0
 40
13.0
 10
91.67467988159522
 20
-113.8741861694481
 30
0.0
 10
91.44179142679234
 20
-114.0330050713181
 30
0.0
 10
91.34222816726862
 20
-114.107074624251
 30
0.0
 10
91.29020722544134
 20
-114.2507351059859
 30
0.0
 10
91.29020722544134
 20
-114.2507351059859
 30
0.0
 10
92.12219778512917
 20
-114.2507351059859
 30
0.0
 10
92.12219778512917
 20
-114.2507351059859
 30
0.0
 10
92.12219778512917
 20
-114.2507351059859
 30
0.0
 10
92.12219778512917
 20
-114.4560627969068
 30
0.0
 10
92.12219778512917
 20
-114.4560627969068
 30
0.0
 10
92.12219778512917
 20
-114.4560627969068
 30
0.0
 10
91.02338458010874
 20
-114.4560627969068
 30
0.0
 10
91.02338458010874
 20
-114.4560627969068
 30
0.0
 10
91.05731877063845
 20
-114.0984618855379
 30
0.0
 10
91.12742646376329
 20
-114.0202582180227
 30
0.0
 10
91.53894311947639
 20
-113.7219129490001
 30
0.0
 10
91.81248370100522
 20
-113.5231309395012
 30
0.0
 10
91.88276364890432
 20
-113.4552625584417
 30
0.0
 10
91.88276364890432
 20
-113.3178032485803
 30
0.0
 10
91.88276364890432
 20
-113.1992919638877
 30
0.0
 10
91.80559351003471
 20
-113.0683783354482
 30
0.0
 10
91.59544268543448
 20
-113.0683783354482
 30
0.0
 10
91.31742347977482
 20
-113.0683783354482
 30
0.0
 10
91.30829397673891
 20
-113.2988552234114
 30
0.0
 10
91.30381535260808
 20
-113.4152994508129
 30
0.0
 10
91.30381535260808
 20
-113.4152994508129
 30
0.0
 10
91.06420896160895
 20
-113.4152994508129
 30
0.0
 10
91.06420896160895
 20
-113.4152994508129
 30
0.0
 10
91.0731662098706
 20
-113.2881754274071
 30
0.0
 10
91.08453502497193
 20
-113.1762098241365
 30
0.0
 10
91.17031790255464
 20
-113.0576985394439
 30
0.0
 10
91.28796791337592
 20
-112.8968125802827
 30
0.0
 10
91.4869221776491
 20
-112.8630506445273
 30
0.0
 10
91.61129012466662
 20
-112.8630506445273
 30
0.0
 10
91.90756833639811
 20
-112.8630506445273
 30
0.0
 10
92.12874346655116
 20
-113.0470187434396
 30
0.0
 10
92.12874346655116
 20
-113.3198703058714
 30
0.0
 10
92.12874346655116
 20
-113.548624646092
 30
0.0
 10
92.00472002908215
 20
-113.6478433960672
 30
0.0
 10
91.67467988159522
 20
-113.8741861694481
 30
0.0
  0
HATCH
  5
9B
330
81
100
AcDbEntity
  8
_U+30EC_U+30A4_U+30E4_U+30FC 1
 62
   179
420
  2234388
100
AcDbHatch
 10
0.0
 20
0.0
 30
0.0
210
0.0
220
0.0
230
1.0
  2
SOLID
 70
     1
 71
     0
 91
        1
 92
        1
 93
        1
 72
     4
 94
        3
 73
     0
 74
     1
 95
       44
 96
       40
 40
0.0
 40
0.0
 40
0.0
 40
0.0
 40
1.0
 40
1.0
 40
1.0
 40
2.0
 40
2.0
 40
2.0
 40
3.0
 40
3.0
 40
3.0
 40
4.0
 40
4.0
 40
4.0
 40
5.0
 40
5.0
 40
5.0
 40
6.0
 40
6.0
 40
6.0
 40
7.0
 40
7.0
 40
7.0
 40
8.0
 40
8.0
 40
8.0
 40
9.0
 40
9.0
 40
9.0
 40
10.0
 40
10.0
 40
10.0
 40
11.0
 40
11.0
 40
11.0
 40
12.0
 40
12.0
 40
12.0
 40
13.0
 40
13.0
 40
13.0
 40
13.0
 10
91.67467988159522
 20
-113.8741861694481
 10
91.44179142679234
 20
-114.0330050713181
 10
91.34222816726862
 20
-114.107074624251
 10
91.29020722544134
 20
-114.2507351059859
 10
91.29020722544134
 20
-114.2507351059859
 10
92.12219778512917
 20
-114.2507351059859
 10
92.12219778512917
 20
-114.2507351059859
 10
92.12219778512917
 20
-114.2507351059859
 10
92.12219778512917
 20
-114.4560627969068
 10
92.12219778512917
 20
-114.4560627969068
 10
92.12219778512917
 20
-114.4560627969068
 10
91.02338458010874
 20
-114.4560627969068
 10
91.02338458010874
 20
-114.4560627969068
 10
91.05731877063845
 20
-114.0984618855379
 10
91.12742646376329
 20
-114.0202582180227
 10
91.53894311947639
 20
-113.7219129490001
 10
91.81248370100522
 20
-113.5231309395012
 10
91.88276364890432
 20
-113.4552625584417
 10
91.88276364890432
 20
-113.3178032485803
 10
91.88276364890432
 20
-113.1992919638877
 10
91.80559351003471
 20
-113.0683783354482
 10
91.59544268543448
 20
-113.0683783354482
 10
91.31742347977482
 20
-113.0683783354482
 10
91.30829397673891
 20
-113.2988552234114
 10
91.30381535260808
 20
-113.4152994508129
 10
91.30381535260808
 20
-113.4152994508129
 10
91.06420896160895
 20
-113.4152994508129
 10
91.06420896160895
 20
-113.4152994508129
 10
91.0731662098706
 20
-113.2881754274071
 10
91.08453502497193
 20
-113.1762098241365
 10
91.17031790255464
 20
-113.0576985394439
 10
91.28796791337592
 20
-112.8968125802827
 10
91.4869221776491
 20
-112.8630506445273
 10
91.61129012466662
 20
-112.8630506445273
 10
91.90756833639811
 20
-112.8630506445273
 10
92.12874346655116
 20
-113.0470187434396
 10
92.12874346655116
 20
-113.3198703058714
 10
92.12874346655116
 20
-113.548624646092
 10
92.00472002908215
 20
-113.6478433960672
 10
91.67467988159522
 20
-113.8741861694481
 97
        0
 97
        0
 75
     2
 76
     1
 98
        0
  0
ENDBLK
  5
84
330
81
100
AcDbEntity
  8
0
100
AcDbBlockEnd
  0
BLOCK
  5
9E
330
9C
100
AcDbEntity
  8
0
100
AcDbBlockBegin
  2
block 5
 70
     0
 10
0.0
 20
0.0
 30
0.0
  3
block 5
  1

  0
SPLINE
  5
A0
330
9C
100
AcDbEntity
  8
_U+30EC_U+30A4_U+30E4_U+30FC 1
370
     0
100
AcDbSpline
210
0.0
220
0.0
230
1.0
 70
    11
 71
     3
 72
    62
 73
    58
 74
     0
 42
0.0000000001
 43
0.0000000001
 12
1.0
 22
0.0
 32
0.0
 13
1.0
 23
0.0
 33
0.0
 40
0.0
 40
0.0
 40
0.0
 40
0.0
 40
1.0
 40
1.0
 40
1.0
 40
2.0
 40
2.0
 40
2.0
 40
3.0
 40
3.0
 40
3.0
 40
4.0
 40
4.0
 40
4.0
 40
5.0
 40
5.0
 40
5.0
 40
6.0
 40
6.0
 40
6.0
 40
7.0
 40
7.0
 40
7.0
 40
8.0
 40
8.0
 40
8.0
 40
9.0
 40
9.0
 40
9.0
 40
10.0
 40
10.0
 40
10.0
 40
11.0
 40
11.0
 40
11.0
 40
12.0
 40
12.0
 40
12.0
 40
13.0
 40
13.0
 40
13.0
 40
14.0
 40
14.0
 40
14.0
 40
15.0
 40
15.0
 40
15.0
 40
16.0
 40
16.0
 40
16.0
 40
17.0
 40
17.0
 40
17.0
 40
18.0
 40
18.0
 40
18.0
 40
19.0
 40
19.0
 40
19.0
 40
19.0
 10
71.30365802253867
 20
-111.4639973679673
 30
0.0
 10
71.20202770572381
 20
-111.4639973679673
 30
0.0
 10
70.96913925092092
 20
-111.4429822855073
 30
0.0
 10
70.83564180086748
 20
-111.2569471293038
 30
0.0
 10
70.756576859481
 20
-111.1446370164847
 30
0.0
 10
70.75209823535018
 20
-111.0454182665095
 30
0.0
 10
70.74744735644508
 20
-110.9606689175723
 30
0.0
 10
70.74744735644508
 20
-110.9606689175723
 30
0.0
 10
70.98274737808765
 20
-110.9606689175723
 30
0.0
 10
70.98274737808765
 20
-110.9606689175723
 30
0.0
 10
70.98498669015306
 20
-111.0347384705052
 30
0.0
 10
70.99618325048013
 20
-111.2693494730507
 30
0.0
 10
71.29917939840784
 20
-111.2693494730507
 30
0.0
 10
71.44611272085375
 20
-111.2693494730507
 30
0.0
 10
71.60889348253181
 20
-111.1997585442487
 30
0.0
 10
71.60889348253181
 20
-110.9713487135766
 30
0.0
 10
71.60889348253181
 20
-110.8549044861752
 30
0.0
 10
71.56824135580585
 20
-110.8063286398331
 30
0.0
 10
71.53430716527615
 20
-110.7746337613688
 30
0.0
 10
71.45524222388967
 20
-110.700564208436
 30
0.0
 10
71.33087427687215
 20
-110.6878173551406
 30
0.0
 10
71.27213539884863
 20
-110.6878173551406
 30
0.0
 10
71.2516370807114
 20
-110.6878173551406
 30
0.0
 10
71.21322426605086
 20
-110.6898844124317
 30
0.0
 10
71.18394095442623
 20
-110.694018527014
 30
0.0
 10
71.18394095442623
 20
-110.694018527014
 30
0.0
 10
71.18394095442623
 20
-110.4993706320974
 30
0.0
 10
71.18394095442623
 20
-110.4993706320974
 30
0.0
 10
71.2245930811522
 20
-110.5059163135194
 30
0.0
 10
71.26972383200896
 20
-110.5079833708105
 30
0.0
 10
71.27661402297946
 20
-110.5079833708105
 30
0.0
 10
71.3467217161043
 20
-110.5079833708105
 30
0.0
 10
71.55911185276995
 20
-110.486623778802
 30
0.0
 10
71.55911185276995
 20
-110.2499457189653
 30
0.0
 10
71.55911185276995
 20
-110.0721787919264
 30
0.0
 10
71.41906872129454
 20
-110.0170572641624
 30
0.0
 10
71.30141871047326
 20
-110.0170572641624
 30
0.0
 10
71.01892088068277
 20
-110.0170572641624
 30
0.0
 10
71.00979137764686
 20
-110.2499457189653
 30
0.0
 10
71.00531275351604
 20
-110.3216037050585
 30
0.0
 10
71.00531275351604
 20
-110.3216037050585
 30
0.0
 10
70.7882717379453
 20
-110.3216037050585
 30
0.0
 10
70.7882717379453
 20
-110.3216037050585
 30
0.0
 10
70.79722898620695
 20
-110.1968912484924
 30
0.0
 10
70.82668455260583
 20
-109.8203423119546
 30
0.0
 10
71.31502683763999
 20
-109.8203423119546
 30
0.0
 10
71.55463322863912
 20
-109.8203423119546
 30
0.0
 10
71.8123263709358
 20
-109.9474663353604
 30
0.0
 10
71.8123263709358
 20
-110.2434000375433
 30
0.0
 10
71.8123263709358
 20
-110.4297797032953
 30
0.0
 10
71.71069605412094
 20
-110.5121174853928
 30
0.0
 10
71.60441485840099
 20
-110.5734401850303
 30
0.0
 10
71.67004392739499
 20
-110.6010009489123
 30
0.0
 10
71.86434731276309
 20
-110.6812716737186
 30
0.0
 10
71.86434731276309
 20
-110.9586018602812
 30
0.0
 10
71.86434731276309
 20
-111.2969102369327
 30
0.0
 10
71.59993623427016
 20
-111.4639973679673
 30
0.0
 10
71.30365802253867
 20
-111.4639973679673
 30
0.0
  0
HATCH
  5
A1
330
9C
100
AcDbEntity
  8
_U+30EC_U+30A4_U+30E4_U+30FC 1
 62
   179
420
  2234388
100
AcDbHatch
 10
0.0
 20
0.0
 30
0.0
210
0.0
220
0.0
230
1.0
  2
SOLID
 70
     1
 71
     0
 91
        1
 92
        1
 93
        1
 72
     4
 94
        3
 73
     0
 74
     1
 95
       62
 96
       58
 40
0.0
 40
0.0
 40
0.0
 40
0.0
 40
1.0
 40
1.0
 40
1.0
 40
2.0
 40
2.0
 40
2.0
 40
3.0
 40
3.0
 40
3.0
 40
4.0
 40
4.0
 40
4.0
 40
5.0
 40
5.0
 40
5.0
 40
6.0
 40
6.0
 40
6.0
 40
7.0
 40
7.0
 40
7.0
 40
8.0
 40
8.0
 40
8.0
 40
9.0
 40
9.0
 40
9.0
 40
10.0
 40
10.0
 40
10.0
 40
11.0
 40
11.0
 40
11.0
 40
12.0
 40
12.0
 40
12.0
 40
13.0
 40
13.0
 40
13.0
 40
14.0
 40
14.0
 40
14.0
 40
15.0
 40
15.0
 40
15.0
 40
16.0
 40
16.0
 40
16.0
 40
17.0
 40
17.0
 40
17.0
 40
18.0
 40
18.0
 40
18.0
 40
19.0
 40
19.0
 40
19.0
 40
19.0
 10
71.30365802253867
 20
-111.4639973679673
 10
71.20202770572381
 20
-111.4639973679673
 10
70.96913925092092
 20
-111.4429822855073
 10
70.83564180086748
 20
-111.2569471293038
 10
70.756576859481
 20
-111.1446370164847
 10
70.75209823535018
 20
-111.0454182665095
 10
70.74744735644508
 20
-110.9606689175723
 10
70.74744735644508
 20
-110.9606689175723
 10
70.98274737808765
 20
-110.9606689175723
 10
70.98274737808765
 20
-110.9606689175723
 10
70.98498669015306
 20
-111.0347384705052
 10
70.99618325048013
 20
-111.2693494730507
 10
71.29917939840784
 20
-111.2693494730507
 10
71.44611272085375
 20
-111.2693494730507
 10
71.60889348253181
 20
-111.1997585442487
 10
71.60889348253181
 20
-110.9713487135766
 10
71.60889348253181
 20
-110.8549044861752
 10
71.56824135580585
 20
-110.8063286398331
 10
71.53430716527615
 20
-110.7746337613688
 10
71.45524222388967
 20
-110.700564208436
 10
71.33087427687215
 20
-110.6878173551406
 10
71.27213539884863
 20
-110.6878173551406
 10
71.2516370807114
 20
-110.6878173551406
 10
71.21322426605086
 20
-110.6898844124317
 10
71.18394095442623
 20
-110.694018527014
 10
71.18394095442623
 20
-110.694018527014
 10
71.18394095442623
 20
-110.4993706320974
 10
71.18394095442623
 20
-110.4993706320974
 10
71.2245930811522
 20
-110.5059163135194
 10
71.26972383200896
 20
-110.5079833708105
 10
71.27661402297946
 20
-110.5079833708105
 10
71.3467217161043
 20
-110.5079833708105
 10
71.55911185276995
 20
-110.486623778802
 10
71.55911185276995
 20
-110.2499457189653
 10
71.55911185276995
 20
-110.0721787919264
 10
71.41906872129454
 20
-110.0170572641624
 10
71.30141871047326
 20
-110.0170572641624
 10
71.01892088068277
 20
-110.0170572641624
 10
71.00979137764686
 20
-110.2499457189653
 10
71.00531275351604
 20
-110.3216037050585
 10
71.00531275351604
 20
-110.3216037050585
 10
70.7882717379453
 20
-110.3216037050585
 10
70.7882717379453
 20
-110.3216037050585
 10
70.79722898620695
 20
-110.1968912484924
 10
70.82668455260583
 20
-109.8203423119546
 10
71.31502683763999
 20
-109.8203423119546
 10
71.55463322863912
 20
-109.8203423119546
 10
71.8123263709358
 20
-109.9474663353604
 10
71.8123263709358
 20
-110.2434000375433
 10
71.8123263709358
 20
-110.4297797032953
 10
71.71069605412094
 20
-110.5121174853928
 10
71.60441485840099
 20
-110.5734401850303
 10
71.67004392739499
 20
-110.6010009489123
 10
71.86434731276309
 20
-110.6812716737186
 10
71.86434731276309
 20
-110.9586018602812
 10
71.86434731276309
 20
-111.2969102369327
 10
71.59993623427016
 20
-111.4639973679673
 10
71.30365802253867
 20
-111.4639973679673
 97
        0
 97
        0
 75
     2
 76
     1
 98
        0
  0
ENDBLK
  5
9F
330
9C
100
AcDbEntity
  8
0
100
AcDbBlockEnd
  0
BLOCK
  5
B2
330
B0
100
AcDbEntity
  8
0
100
AcDbBlockBegin
  2
block 6
 70
     0
 10
0.0
 20
0.0
 30
0.0
  3
block 6
  1

  0
SPLINE
  5
B4
330
B0
100
AcDbEntity
  8
_U+30EC_U+30A4_U+30E4_U+30FC 1
370
     0
100
AcDbSpline
210
0.0
220
0.0
230
1.0
 70
    11
 71
     3
 72
    26
 73
    22
 74
     0
 42
0.0000000001
 43
0.0000000001
 12
1.0
 22
0.0
 32
0.0
 13
1.0
 23
0.0
 33
0.0
 40
0.0
 40
0.0
 40
0.0
 40
0.0
 40
1.0
 40
1.0
 40
1.0
 40
2.0
 40
2.0
 40
2.0
 40
3.0
 40
3.0
 40
3.0
 40
4.0
 40
4.0
 40
4.0
 40
5.0
 40
5.0
 40
5.0
 40
6.0
 40
6.0
 40
6.0
 40
7.0
 40
7.0
 40
7.0
 40
7.0
 10
64.88527287874396
 20
-125.2660834105238
 30
0.0
 10
64.88527287874396
 20
-125.2660834105238
 30
0.0
 10
63.78111977572139
 20
-125.2660834105238
 30
0.0
 10
63.78111977572139
 20
-125.2660834105238
 30
0.0
 10
63.78111977572139
 20
-125.2660834105238
 30
0.0
 10
63.78111977572139
 20
-125.6185166786648
 30
0.0
 10
63.78111977572139
 20
-125.6185166786648
 30
0.0
 10
63.78111977572139
 20
-125.6185166786648
 30
0.0
 10
63.63298066985565
 20
-125.6185166786648
 30
0.0
 10
63.63298066985565
 20
-125.6185166786648
 30
0.0
 10
63.61816675926907
 20
-125.2636718436841
 30
0.0
 10
63.45521374281675
 20
-125.2140624686965
 30
0.0
 10
63.34100882748072
 20
-125.1823675902322
 30
0.0
 10
63.34100882748072
 20
-125.1823675902322
 30
0.0
 10
63.34100882748072
 20
-125.0263047647504
 30
0.0
 10
63.34100882748072
 20
-125.0263047647504
 30
0.0
 10
63.34100882748072
 20
-125.0263047647504
 30
0.0
 10
64.88527287874396
 20
-125.0263047647504
 30
0.0
 10
64.88527287874396
 20
-125.0263047647504
 30
0.0
 10
64.88527287874396
 20
-125.0263047647504
 30
0.0
 10
64.88527287874396
 20
-125.2660834105238
 30
0.0
 10
64.88527287874396
 20
-125.2660834105238
 30
0.0
  0
HATCH
  5
B5
330
B0
100
AcDbEntity
  8
_U+30EC_U+30A4_U+30E4_U+30FC 1
 62
   179
420
  2234388
100
AcDbHatch
 10
0.0
 20
0.0
 30
0.0
210
0.0
220
0.0
230
1.0
  2
SOLID
 70
     1
 71
     0
 91
        1
 92
        1
 93
        1
 72
     4
 94
        3
 73
     0
 74
     1
 95
       26
 96
       22
 40
0.0
 40
0.0
 40
0.0
 40
0.0
 40
1.0
 40
1.0
 40
1.0
 40
2.0
 40
2.0
 40
2.0
 40
3.0
 40
3.0
 40
3.0
 40
4.0
 40
4.0
 40
4.0
 40
5.0
 40
5.0
 40
5.0
 40
6.0
 40
6.0
 40
6.0
 40
7.0
 40
7.0
 40
7.0
 40
7.0
 10
64.88527287874396
 20
-125.2660834105238
 10
64.88527287874396
 20
-125.2660834105238
 10
63.78111977572139
 20
-125.2660834105238
 10
63.78111977572139
 20
-125.2660834105238
 10
63.78111977572139
 20
-125.2660834105238
 10
63.78111977572139
 20
-125.6185166786648
 10
63.78111977572139
 20
-125.6185166786648
 10
63.78111977572139
 20
-125.6185166786648
 10
63.63298066985565
 20
-125.6185166786648
 10
63.63298066985565
 20
-125.6185166786648
 10
63.61816675926907
 20
-125.2636718436841
 10
63.45521374281675
 20
-125.2140624686965
 10
63.34100882748072
 20
-125.1823675902322
 10
63.34100882748072
 20
-125.1823675902322
 10
63.34100882748072
 20
-125.0263047647504
 10
63.34100882748072
 20
-125.0263047647504
 10
63.34100882748072
 20
-125.0263047647504
 10
64.88527287874396
 20
-125.0263047647504
 10
64.88527287874396
 20
-125.0263047647504
 10
64.88527287874396
 20
-125.0263047647504
 10
64.88527287874396
 20
-125.2660834105238
 10
64.88527287874396
 20
-125.2660834105238
 97
        0
 97
        0
 75
     2
 76
     1
 98
        0
  0
SPLINE
  5
B6
330
B0
100
AcDbEntity
  8
_U+30EC_U+30A4_U+30E4_U+30FC 1
370
     0
100
AcDbSpline
210
0.0
220
0.0
230
1.0
 70
    11
 71
     3
 72
    29
 73
    25
 74
     0
 42
0.0000000001
 43
0.0000000001
 12
1.0
 22
0.0
 32
0.0
 13
1.0
 23
0.0
 33
0.0
 40
0.0
 40
0.0
 40
0.0
 40
0.0
 40
1.0
 40
1.0
 40
1.0
 40
2.0
 40
2.0
 40
2.0
 40
3.0
 40
3.0
 40
3.0
 40
4.0
 40
4.0
 40
4.0
 40
5.0
 40
5.0
 40
5.0
 40
6.0
 40
6.0
 40
6.0
 40
7.0
 40
7.0
 40
7.0
 40
8.0
 40
8.0
 40
8.0
 40
8.0
 10
64.70750595170507
 20
-123.5311333241519
 30
0.0
 10
64.91696775720825
 20
-123.6465440229078
 30
0.0
 10
64.93591578237714
 20
-123.8318901600143
 30
0.0
 10
64.93591578237714
 20
-123.9562581070318
 30
0.0
 10
64.93591578237714
 20
-124.1278238621972
 30
0.0
 10
64.88940699332626
 20
-124.2794080635482
 30
0.0
 10
64.70750595170507
 20
-124.3810383803631
 30
0.0
 10
64.51285805678846
 20
-124.4919704549881
 30
0.0
 10
64.27583548740327
 20
-124.5122965183511
 30
0.0
 10
64.11322698049948
 20
-124.5122965183511
 30
0.0
 10
63.96922198921603
 20
-124.5122965183511
 30
0.0
 10
63.71755776401853
 20
-124.4943820218278
 30
0.0
 10
63.51860349974535
 20
-124.3810383803631
 30
0.0
 10
63.31551512088988
 20
-124.2659721911557
 30
0.0
 10
63.29226072636444
 20
-124.0940619264418
 30
0.0
 10
63.29226072636444
 20
-123.9562581070318
 30
0.0
 10
63.29226072636444
 20
-123.786414899609
 30
0.0
 10
63.33670245812416
 20
-123.6327636409668
 30
0.0
 10
63.51860349974535
 20
-123.5311333241519
 30
0.0
 10
63.71118433737082
 20
-123.4246798736577
 30
0.0
 10
63.93959416804288
 20
-123.3998751861639
 30
0.0
 10
64.11322698049948
 20
-123.3998751861639
 30
0.0
 10
64.2844482261164
 20
-123.3998751861639
 30
0.0
 10
64.5149251140796
 20
-123.4226128163666
 30
0.0
 10
64.70750595170507
 20
-123.5311333241519
 30
0.0
  0
SPLINE
  5
B7
330
B0
100
AcDbEntity
  8
_U+30EC_U+30A4_U+30E4_U+30FC 1
370
     0
100
AcDbSpline
210
0.0
220
0.0
230
1.0
 70
    11
 71
     3
 72
    17
 73
    13
 74
     0
 42
0.0000000001
 43
0.0000000001
 12
1.0
 22
0.0
 32
0.0
 13
1.0
 23
0.0
 33
0.0
 40
0.0
 40
0.0
 40
0.0
 40
0.0
 40
1.0
 40
1.0
 40
1.0
 40
2.0
 40
2.0
 40
2.0
 40
3.0
 40
3.0
 40
3.0
 40
4.0
 40
4.0
 40
4.0
 40
4.0
 10
63.4848415639899
 20
-123.9562581070318
 30
0.0
 10
63.4848415639899
 20
-124.2229084975901
 30
0.0
 10
63.76837292242597
 20
-124.2725178725777
 30
0.0
 10
64.11322698049948
 20
-124.2725178725777
 30
0.0
 10
64.43258733198213
 20
-124.2725178725777
 30
0.0
 10
64.74126788746052
 20
-124.2342773126914
 30
0.0
 10
64.74126788746052
 20
-123.9562581070318
 30
0.0
 10
64.74126788746052
 20
-123.6916747737646
 30
0.0
 10
64.46014809586413
 20
-123.6396538319373
 30
0.0
 10
64.11322698049948
 20
-123.6396538319373
 30
0.0
 10
63.79352211946829
 20
-123.6396538319373
 30
0.0
 10
63.4848415639899
 20
-123.6803059586633
 30
0.0
 10
63.4848415639899
 20
-123.9562581070318
 30
0.0
  0
HATCH
  5
B8
330
B0
100
AcDbEntity
  8
_U+30EC_U+30A4_U+30E4_U+30FC 1
 62
   179
420
  2234388
100
AcDbHatch
 10
0.0
 20
0.0
 30
0.0
210
0.0
220
0.0
230
1.0
  2
SOLID
 70
     1
 71
     0
 91
        2
 92
        1
 93
        1
 72
     4
 94
        3
 73
     0
 74
     1
 95
       29
 96
       25
 40
0.0
 40
0.0
 40
0.0
 40
0.0
 40
1.0
 40
1.0
 40
1.0
 40
2.0
 40
2.0
 40
2.0
 40
3.0
 40
3.0
 40
3.0
 40
4.0
 40
4.0
 40
4.0
 40
5.0
 40
5.0
 40
5.0
 40
6.0
 40
6.0
 40
6.0
 40
7.0
 40
7.0
 40
7.0
 40
8.0
 40
8.0
 40
8.0
 40
8.0
 10
64.70750595170507
 20
-123.5311333241519
 10
64.91696775720825
 20
-123.6465440229078
 10
64.93591578237714
 20
-123.8318901600143
 10
64.93591578237714
 20
-123.9562581070318
 10
64.93591578237714
 20
-124.1278238621972
 10
64.88940699332626
 20
-124.2794080635482
 10
64.70750595170507
 20
-124.3810383803631
 10
64.51285805678846
 20
-124.4919704549881
 10
64.27583548740327
 20
-124.5122965183511
 10
64.11322698049948
 20
-124.5122965183511
 10
63.96922198921603
 20
-124.5122965183511
 10
63.71755776401853
 20
-124.4943820218278
 10
63.51860349974535
 20
-124.3810383803631
 10
63.31551512088988
 20
-124.2659721911557
 10
63.29226072636444
 20
-124.0940619264418
 10
63.29226072636444
 20
-123.9562581070318
 10
63.29226072636444
 20
-123.786414899609
 10
63.33670245812416
 20
-123.6327636409668
 10
63.51860349974535
 20
-123.5311333241519
 10
63.71118433737082
 20
-123.4246798736577
 10
63.93959416804288
 20
-123.3998751861639
 10
64.11322698049948
 20
-123.3998751861639
 10
64.2844482261164
 20
-123.3998751861639
 10
64.5149251140796
 20
-123.4226128163666
 10
64.70750595170507
 20
-123.5311333241519
 97
        0
 97
        0
 92
        1
 93
        1
 72
     4
 94
        3
 73
     0
 74
     1
 95
       17
 96
       13
 40
0.0
 40
0.0
 40
0.0
 40
0.0
 40
1.0
 40
1.0
 40
1.0
 40
2.0
 40
2.0
 40
2.0
 40
3.0
 40
3.0
 40
3.0
 40
4.0
 40
4.0
 40
4.0
 40
4.0
 10
63.4848415639899
 20
-123.9562581070318
 10
63.4848415639899
 20
-124.2229084975901
 10
63.76837292242597
 20
-124.2725178725777
 10
64.11322698049948
 20
-124.2725178725777
 10
64.43258733198213
 20
-124.2725178725777
 10
64.74126788746052
 20
-124.2342773126914
 10
64.74126788746052
 20
-123.9562581070318
 10
64.74126788746052
 20
-123.6916747737646
 10
64.46014809586413
 20
-123.6396538319373
 10
64.11322698049948
 20
-123.6396538319373
 10
63.79352211946829
 20
-123.6396538319373
 10
63.4848415639899
 20
-123.6803059586633
 10
63.4848415639899
 20
-123.9562581070318
 97
        0
 97
        0
 75
     2
 76
     1
 98
        0
  0
ENDBLK
  5
B3
330
B0
100
AcDbEntity
  8
0
100
AcDbBlockEnd
  0
BLOCK
  5
E7
330
E5
100
AcDbEntity
  8
0
100
AcDbBlockBegin
  2
block 7
 70
     0
 10
0.0
 20
0.0
 30
0.0
  3
block 7
  1

  0
SPLINE
  5
E9
330
E5
100
AcDbEntity
  8
_U+30EC_U+30A4_U+30E4_U+30FC 1
370
     0
100
AcDbSpline
210
0.0
220
0.0
230
1.0
 70
    11
 71
     3
 72
    62
 73
    58
 74
     0
 42
0.0000000001
 43
0.0000000001
 12
1.0
 22
0.0
 32
0.0
 13
1.0
 23
0.0
 33
0.0
 40
0.0
 40
0.0
 40
0.0
 40
0.0
 40
1.0
 40
1.0
 40
1.0
 40
2.0
 40
2.0
 40
2.0
 40
3.0
 40
3.0
 40
3.0
 40
4.0
 40
4.0
 40
4.0
 40
5.0
 40
5.0
 40
5.0
 40
6.0
 40
6.0
 40
6.0
 40
7.0
 40
7.0
 40
7.0
 40
8.0
 40
8.0
 40
8.0
 40
9.0
 40
9.0
 40
9.0
 40
10.0
 40
10.0
 40
10.0
 40
11.0
 40
11.0
 40
11.0
 40
12.0
 40
12.0
 40
12.0
 40
13.0
 40
13.0
 40
13.0
 40
14.0
 40
14.0
 40
14.0
 40
15.0
 40
15.0
 40
15.0
 40
16.0
 40
16.0
 40
16.0
 40
17.0
 40
17.0
 40
17.0
 40
18.0
 40
18.0
 40
18.0
 40
19.0
 40
19.0
 40
19.0
 40
19.0
 10
118.463742374898
 20
-141.0508219048415
 30
0.0
 10
118.463742374898
 20
-141.1524522216563
 30
0.0
 10
118.4423827828894
 20
-141.3853406764592
 30
0.0
 10
118.2563476266859
 20
-141.5186658717384
 30
0.0
 10
118.1440375138668
 20
-141.5979030678992
 30
0.0
 10
118.0448187638916
 20
-141.60238169203
 30
0.0
 10
117.9600694149544
 20
-141.6068603161608
 30
0.0
 10
117.9600694149544
 20
-141.6068603161608
 30
0.0
 10
117.9600694149544
 20
-141.3719048040668
 30
0.0
 10
117.9600694149544
 20
-141.3719048040668
 30
0.0
 10
118.0344834774358
 20
-141.3694932372271
 30
0.0
 10
118.2687499704328
 20
-141.3581244221257
 30
0.0
 10
118.2687499704328
 20
-141.0553005289723
 30
0.0
 10
118.2687499704328
 20
-140.9081949517521
 30
0.0
 10
118.1991590416308
 20
-140.7455864448483
 30
0.0
 10
117.9710937205072
 20
-140.7455864448483
 30
0.0
 10
117.8546494931058
 20
-140.7455864448483
 30
0.0
 10
117.8057291372152
 20
-140.7862385715743
 30
0.0
 10
117.7740342587509
 20
-140.8203450168783
 30
0.0
 10
117.7003092153666
 20
-140.8992377034905
 30
0.0
 10
117.6872178525227
 20
-141.023605650508
 30
0.0
 10
117.6872178525227
 20
-141.0825167833058
 30
0.0
 10
117.6872178525227
 20
-141.1028428466688
 30
0.0
 10
117.6892849098138
 20
-141.141083406555
 30
0.0
 10
117.6934190243961
 20
-141.1707112277282
 30
0.0
 10
117.6934190243961
 20
-141.1707112277282
 30
0.0
 10
117.499115639028
 20
-141.1707112277282
 30
0.0
 10
117.499115639028
 20
-141.1707112277282
 30
0.0
 10
117.5053168109014
 20
-141.1300591010022
 30
0.0
 10
117.5073838681926
 20
-141.0845838405969
 30
0.0
 10
117.5073838681926
 20
-141.078038159175
 30
0.0
 10
117.5073838681926
 20
-141.0077582112758
 30
0.0
 10
117.4860242761841
 20
-140.7951958198359
 30
0.0
 10
117.2493462163474
 20
-140.7951958198359
 30
0.0
 10
117.071923798857
 20
-140.7951958198359
 30
0.0
 10
117.016802271093
 20
-140.9354112060856
 30
0.0
 10
117.016802271093
 20
-141.0528889621326
 30
0.0
 10
117.016802271093
 20
-141.3357313014716
 30
0.0
 10
117.2493462163474
 20
-141.3446885497333
 30
0.0
 10
117.3213487119891
 20
-141.3491671738641
 30
0.0
 10
117.3213487119891
 20
-141.3491671738641
 30
0.0
 10
117.3213487119891
 20
-141.5662081894348
 30
0.0
 10
117.3213487119891
 20
-141.5662081894348
 30
0.0
 10
117.1966362554231
 20
-141.5572509411732
 30
0.0
 10
116.8197428093367
 20
-141.5279676295486
 30
0.0
 10
116.8197428093367
 20
-141.0394530897401
 30
0.0
 10
116.8197428093367
 20
-140.7996744439668
 30
0.0
 10
116.9468668327425
 20
-140.5419813016701
 30
0.0
 10
117.2428005349254
 20
-140.5419813016701
 30
0.0
 10
117.429524710226
 20
-140.5419813016701
 30
0.0
 10
117.5115179827749
 20
-140.6439561280335
 30
0.0
 10
117.5728406824123
 20
-140.7500650689792
 30
0.0
 10
117.6004014462944
 20
-140.6846082547594
 30
0.0
 10
117.6810166806492
 20
-140.4899603598428
 30
0.0
 10
117.9580023576633
 20
-140.4899603598428
 30
0.0
 10
118.2963107343148
 20
-140.4899603598428
 30
0.0
 10
118.463742374898
 20
-140.75454369311
 30
0.0
 10
118.463742374898
 20
-141.0508219048415
 30
0.0
  0
HATCH
  5
EA
330
E5
100
AcDbEntity
  8
_U+30EC_U+30A4_U+30E4_U+30FC 1
 62
   179
420
  2234388
100
AcDbHatch
 10
0.0
 20
0.0
 30
0.0
210
0.0
220
0.0
230
1.0
  2
SOLID
 70
     1
 71
     0
 91
        1
 92
        1
 93
        1
 72
     4
 94
        3
 73
     0
 74
     1
 95
       62
 96
       58
 40
0.0
 40
0.0
 40
0.0
 40
0.0
 40
1.0
 40
1.0
 40
1.0
 40
2.0
 40
2.0
 40
2.0
 40
3.0
 40
3.0
 40
3.0
 40
4.0
 40
4.0
 40
4.0
 40
5.0
 40
5.0
 40
5.0
 40
6.0
 40
6.0
 40
6.0
 40
7.0
 40
7.0
 40
7.0
 40
8.0
 40
8.0
 40
8.0
 40
9.0
 40
9.0
 40
9.0
 40
10.0
 40
10.0
 40
10.0
 40
11.0
 40
11.0
 40
11.0
 40
12.0
 40
12.0
 40
12.0
 40
13.0
 40
13.0
 40
13.0
 40
14.0
 40
14.0
 40
14.0
 40
15.0
 40
15.0
 40
15.0
 40
16.0
 40
16.0
 40
16.0
 40
17.0
 40
17.0
 40
17.0
 40
18.0
 40
18.0
 40
18.0
 40
19.0
 40
19.0
 40
19.0
 40
19.0
 10
118.463742374898
 20
-141.0508219048415
 10
118.463742374898
 20
-141.1524522216563
 10
118.4423827828894
 20
-141.3853406764592
 10
118.2563476266859
 20
-141.5186658717384
 10
118.1440375138668
 20
-141.5979030678992
 10
118.0448187638916
 20
-141.60238169203
 10
117.9600694149544
 20
-141.6068603161608
 10
117.9600694149544
 20
-141.6068603161608
 10
117.9600694149544
 20
-141.3719048040668
 10
117.9600694149544
 20
-141.3719048040668
 10
118.0344834774358
 20
-141.3694932372271
 10
118.2687499704328
 20
-141.3581244221257
 10
118.2687499704328
 20
-141.0553005289723
 10
118.2687499704328
 20
-140.9081949517521
 10
118.1991590416308
 20
-140.7455864448483
 10
117.9710937205072
 20
-140.7455864448483
 10
117.8546494931058
 20
-140.7455864448483
 10
117.8057291372152
 20
-140.7862385715743
 10
117.7740342587509
 20
-140.8203450168783
 10
117.7003092153666
 20
-140.8992377034905
 10
117.6872178525227
 20
-141.023605650508
 10
117.6872178525227
 20
-141.0825167833058
 10
117.6872178525227
 20
-141.1028428466688
 10
117.6892849098138
 20
-141.141083406555
 10
117.6934190243961
 20
-141.1707112277282
 10
117.6934190243961
 20
-141.1707112277282
 10
117.499115639028
 20
-141.1707112277282
 10
117.499115639028
 20
-141.1707112277282
 10
117.5053168109014
 20
-141.1300591010022
 10
117.5073838681926
 20
-141.0845838405969
 10
117.5073838681926
 20
-141.078038159175
 10
117.5073838681926
 20
-141.0077582112758
 10
117.4860242761841
 20
-140.7951958198359
 10
117.2493462163474
 20
-140.7951958198359
 10
117.071923798857
 20
-140.7951958198359
 10
117.016802271093
 20
-140.9354112060856
 10
117.016802271093
 20
-141.0528889621326
 10
117.016802271093
 20
-141.3357313014716
 10
117.2493462163474
 20
-141.3446885497333
 10
117.3213487119891
 20
-141.3491671738641
 10
117.3213487119891
 20
-141.3491671738641
 10
117.3213487119891
 20
-141.5662081894348
 10
117.3213487119891
 20
-141.5662081894348
 10
117.1966362554231
 20
-141.5572509411732
 10
116.8197428093367
 20
-141.5279676295486
 10
116.8197428093367
 20
-141.0394530897401
 10
116.8197428093367
 20
-140.7996744439668
 10
116.9468668327425
 20
-140.5419813016701
 10
117.2428005349254
 20
-140.5419813016701
 10
117.429524710226
 20
-140.5419813016701
 10
117.5115179827749
 20
-140.6439561280335
 10
117.5728406824123
 20
-140.7500650689792
 10
117.6004014462944
 20
-140.6846082547594
 10
117.6810166806492
 20
-140.4899603598428
 10
117.9580023576633
 20
-140.4899603598428
 10
118.2963107343148
 20
-140.4899603598428
 10
118.463742374898
 20
-140.75454369311
 10
118.463742374898
 20
-141.0508219048415
 97
        0
 97
        0
 75
     2
 76
     1
 98
        0
  0
ENDBLK
  5
E8
330
E5
100
AcDbEntity
  8
0
100
AcDbBlockEnd
  0
BLOCK
  5
ED
330
EB
100
AcDbEntity
  8
0
100
AcDbBlockBegin
  2
block 8
 70
     0
 10
0.0
 20
0.0
 30
0.0
  3
block 8
  1

  0
SPLINE
  5
EF
330
EB
100
AcDbEntity
  8
_U+30EC_U+30A4_U+30E4_U+30FC 1
370
     0
100
AcDbSpline
210
0.0
220
0.0
230
1.0
 70
    11
 71
     3
 72
    26
 73
    22
 74
     0
 42
0.0000000001
 43
0.0000000001
 12
1.0
 22
0.0
 32
0.0
 13
1.0
 23
0.0
 33
0.0
 40
0.0
 40
0.0
 40
0.0
 40
0.0
 40
1.0
 40
1.0
 40
1.0
 40
2.0
 40
2.0
 40
2.0
 40
3.0
 40
3.0
 40
3.0
 40
4.0
 40
4.0
 40
4.0
 40
5.0
 40
5.0
 40
5.0
 40
6.0
 40
6.0
 40
6.0
 40
7.0
 40
7.0
 40
7.0
 40
7.0
 10
118.4127549617163
 20
-134.7245930652772
 30
0.0
 10
118.4127549617163
 20
-134.7245930652772
 30
0.0
 10
117.3089463682422
 20
-134.7245930652772
 30
0.0
 10
117.3089463682422
 20
-134.7245930652772
 30
0.0
 10
117.3089463682422
 20
-134.7245930652772
 30
0.0
 10
117.3089463682422
 20
-135.0770263334182
 30
0.0
 10
117.3089463682422
 20
-135.0770263334182
 30
0.0
 10
117.3089463682422
 20
-135.0770263334182
 30
0.0
 10
117.1608072623765
 20
-135.0770263334182
 30
0.0
 10
117.1608072623765
 20
-135.0770263334182
 30
0.0
 10
117.1456488422414
 20
-134.7221814984375
 30
0.0
 10
116.9830403353376
 20
-134.6725721234499
 30
0.0
 10
116.8686631652273
 20
-134.6408772449856
 30
0.0
 10
116.8686631652273
 20
-134.6408772449856
 30
0.0
 10
116.8686631652273
 20
-134.4848144195038
 30
0.0
 10
116.8686631652273
 20
-134.4848144195038
 30
0.0
 10
116.8686631652273
 20
-134.4848144195038
 30
0.0
 10
118.4127549617163
 20
-134.4848144195038
 30
0.0
 10
118.4127549617163
 20
-134.4848144195038
 30
0.0
 10
118.4127549617163
 20
-134.4848144195038
 30
0.0
 10
118.4127549617163
 20
-134.7245930652772
 30
0.0
 10
118.4127549617163
 20
-134.7245930652772
 30
0.0
  0
HATCH
  5
F0
330
EB
100
AcDbEntity
  8
_U+30EC_U+30A4_U+30E4_U+30FC 1
 62
   179
420
  2234388
100
AcDbHatch
 10
0.0
 20
0.0
 30
0.0
210
0.0
220
0.0
230
1.0
  2
SOLID
 70
     1
 71
     0
 91
        1
 92
        1
 93
        1
 72
     4
 94
        3
 73
     0
 74
     1
 95
       26
 96
       22
 40
0.0
 40
0.0
 40
0.0
 40
0.0
 40
1.0
 40
1.0
 40
1.0
 40
2.0
 40
2.0
 40
2.0
 40
3.0
 40
3.0
 40
3.0
 40
4.0
 40
4.0
 40
4.0
 40
5.0
 40
5.0
 40
5.0
 40
6.0
 40
6.0
 40
6.0
 40
7.0
 40
7.0
 40
7.0
 40
7.0
 10
118.4127549617163
 20
-134.7245930652772
 10
118.4127549617163
 20
-134.7245930652772
 10
117.3089463682422
 20
-134.7245930652772
 10
117.3089463682422
 20
-134.7245930652772
 10
117.3089463682422
 20
-134.7245930652772
 10
117.3089463682422
 20
-135.0770263334182
 10
117.3089463682422
 20
-135.0770263334182
 10
117.3089463682422
 20
-135.0770263334182
 10
117.1608072623765
 20
-135.0770263334182
 10
117.1608072623765
 20
-135.0770263334182
 10
117.1456488422414
 20
-134.7221814984375
 10
116.9830403353376
 20
-134.6725721234499
 10
116.8686631652273
 20
-134.6408772449856
 10
116.8686631652273
 20
-134.6408772449856
 10
116.8686631652273
 20
-134.4848144195038
 10
116.8686631652273
 20
-134.4848144195038
 10
116.8686631652273
 20
-134.4848144195038
 10
118.4127549617163
 20
-134.4848144195038
 10
118.4127549617163
 20
-134.4848144195038
 10
118.4127549617163
 20
-134.4848144195038
 10
118.4127549617163
 20
-134.7245930652772
 10
118.4127549617163
 20
-134.7245930652772
 97
        0
 97
        0
 75
     2
 76
     1
 98
        0
  0
SPLINE
  5
F1
330
EB
100
AcDbEntity
  8
_U+30EC_U+30A4_U+30E4_U+30FC 1
370
     0
100
AcDbSpline
210
0.0
220
0.0
230
1.0
 70
    11
 71
     3
 72
    29
 73
    25
 74
     0
 42
0.0000000001
 43
0.0000000001
 12
1.0
 22
0.0
 32
0.0
 13
1.0
 23
0.0
 33
0.0
 40
0.0
 40
0.0
 40
0.0
 40
0.0
 40
1.0
 40
1.0
 40
1.0
 40
2.0
 40
2.0
 40
2.0
 40
3.0
 40
3.0
 40
3.0
 40
4.0
 40
4.0
 40
4.0
 40
5.0
 40
5.0
 40
5.0
 40
6.0
 40
6.0
 40
6.0
 40
7.0
 40
7.0
 40
7.0
 40
8.0
 40
8.0
 40
8.0
 40
8.0
 10
118.2349880346774
 20
-132.9896429789054
 30
0.0
 10
118.4444498401806
 20
-133.1050536776612
 30
0.0
 10
118.463742374898
 20
-133.2903998147677
 30
0.0
 10
118.463742374898
 20
-133.4147677617852
 30
0.0
 10
118.463742374898
 20
-133.5863335169506
 30
0.0
 10
118.4168890762986
 20
-133.7379177183016
 30
0.0
 10
118.2349880346774
 20
-133.8395480351165
 30
0.0
 10
118.0406846493093
 20
-133.9504801097416
 30
0.0
 10
117.8036620799241
 20
-133.9708061731045
 30
0.0
 10
117.6410535730203
 20
-133.9708061731045
 30
0.0
 10
117.4970485817368
 20
-133.9708061731045
 30
0.0
 10
117.2452121017651
 20
-133.9528916765812
 30
0.0
 10
117.0464300922662
 20
-133.8395480351165
 30
0.0
 10
116.8431694586364
 20
-133.7244818459092
 30
0.0
 10
116.8197428093367
 20
-133.5525715811952
 30
0.0
 10
116.8197428093367
 20
-133.4147677617852
 30
0.0
 10
116.8197428093367
 20
-133.2449245543624
 30
0.0
 10
116.864529050645
 20
-133.0912732957202
 30
0.0
 10
117.0464300922662
 20
-132.9896429789054
 30
0.0
 10
117.2386664203431
 20
-132.8831895284112
 30
0.0
 10
117.4674207605637
 20
-132.8583848409174
 30
0.0
 10
117.6410535730203
 20
-132.8583848409174
 30
0.0
 10
117.8119303090887
 20
-132.8583848409174
 30
0.0
 10
118.0427517066004
 20
-132.88112247112
 30
0.0
 10
118.2349880346774
 20
-132.9896429789054
 30
0.0
  0
SPLINE
  5
F2
330
EB
100
AcDbEntity
  8
_U+30EC_U+30A4_U+30E4_U+30FC 1
370
     0
100
AcDbSpline
210
0.0
220
0.0
230
1.0
 70
    11
 71
     3
 72
    17
 73
    13
 74
     0
 42
0.0000000001
 43
0.0000000001
 12
1.0
 22
0.0
 32
0.0
 13
1.0
 23
0.0
 33
0.0
 40
0.0
 40
0.0
 40
0.0
 40
0.0
 40
1.0
 40
1.0
 40
1.0
 40
2.0
 40
2.0
 40
2.0
 40
3.0
 40
3.0
 40
3.0
 40
4.0
 40
4.0
 40
4.0
 40
4.0
 10
117.0126681565107
 20
-133.4147677617852
 30
0.0
 10
117.0126681565107
 20
-133.6814181523436
 30
0.0
 10
117.2958550053983
 20
-133.7310275273312
 30
0.0
 10
117.6410535730203
 20
-133.7310275273312
 30
0.0
 10
117.9600694149544
 20
-133.7310275273312
 30
0.0
 10
118.2687499704328
 20
-133.6927869674449
 30
0.0
 10
118.2687499704328
 20
-133.4147677617852
 30
0.0
 10
118.2687499704328
 20
-133.150184428518
 30
0.0
 10
117.9876301788364
 20
-133.0981634866907
 30
0.0
 10
117.6410535730203
 20
-133.0981634866907
 30
0.0
 10
117.3213487119891
 20
-133.0981634866907
 30
0.0
 10
117.0126681565107
 20
-133.1388156134167
 30
0.0
 10
117.0126681565107
 20
-133.4147677617852
 30
0.0
  0
HATCH
  5
F3
330
EB
100
AcDbEntity
  8
_U+30EC_U+30A4_U+30E4_U+30FC 1
 62
   179
420
  2234388
100
AcDbHatch
 10
0.0
 20
0.0
 30
0.0
210
0.0
220
0.0
230
1.0
  2
SOLID
 70
     1
 71
     0
 91
        2
 92
        1
 93
        1
 72
     4
 94
        3
 73
     0
 74
     1
 95
       29
 96
       25
 40
0.0
 40
0.0
 40
0.0
 40
0.0
 40
1.0
 40
1.0
 40
1.0
 40
2.0
 40
2.0
 40
2.0
 40
3.0
 40
3.0
 40
3.0
 40
4.0
 40
4.0
 40
4.0
 40
5.0
 40
5.0
 40
5.0
 40
6.0
 40
6.0
 40
6.0
 40
7.0
 40
7.0
 40
7.0
 40
8.0
 40
8.0
 40
8.0
 40
8.0
 10
118.2349880346774
 20
-132.9896429789054
 10
118.4444498401806
 20
-133.1050536776612
 10
118.463742374898
 20
-133.2903998147677
 10
118.463742374898
 20
-133.4147677617852
 10
118.463742374898
 20
-133.5863335169506
 10
118.4168890762986
 20
-133.7379177183016
 10
118.2349880346774
 20
-133.8395480351165
 10
118.0406846493093
 20
-133.9504801097416
 10
117.8036620799241
 20
-133.9708061731045
 10
117.6410535730203
 20
-133.9708061731045
 10
117.4970485817368
 20
-133.9708061731045
 10
117.2452121017651
 20
-133.9528916765812
 10
117.0464300922662
 20
-133.8395480351165
 10
116.8431694586364
 20
-133.7244818459092
 10
116.8197428093367
 20
-133.5525715811952
 10
116.8197428093367
 20
-133.4147677617852
 10
116.8197428093367
 20
-133.2449245543624
 10
116.864529050645
 20
-133.0912732957202
 10
117.0464300922662
 20
-132.9896429789054
 10
117.2386664203431
 20
-132.8831895284112
 10
117.4674207605637
 20
-132.8583848409174
 10
117.6410535730203
 20
-132.8583848409174
 10
117.8119303090887
 20
-132.8583848409174
 10
118.0427517066004
 20
-132.88112247112
 10
118.2349880346774
 20
-132.9896429789054
 97
        0
 97
        0
 92
        1
 93
        1
 72
     4
 94
        3
 73
     0
 74
     1
 95
       17
 96
       13
 40
0.0
 40
0.0
 40
0.0
 40
0.0
 40
1.0
 40
1.0
 40
1.0
 40
2.0
 40
2.0
 40
2.0
 40
3.0
 40
3.0
 40
3.0
 40
4.0
 40
4.0
 40
4.0
 40
4.0
 10
117.0126681565107
 20
-133.4147677617852
 10
117.0126681565107
 20
-133.6814181523436
 10
117.2958550053983
 20
-133.7310275273312
 10
117.6410535730203
 20
-133.7310275273312
 10
117.9600694149544
 20
-133.7310275273312
 10
118.2687499704328
 20
-133.6927869674449
 10
118.2687499704328
 20
-133.4147677617852
 10
118.2687499704328
 20
-133.150184428518
 10
117.9876301788364
 20
-133.0981634866907
 10
117.6410535730203
 20
-133.0981634866907
 10
117.3213487119891
 20
-133.0981634866907
 10
117.0126681565107
 20
-133.1388156134167
 10
117.0126681565107
 20
-133.4147677617852
 97
        0
 97
        0
 75
     2
 76
     1
 98
        0
  0
ENDBLK
  5
EE
330
EB
100
AcDbEntity
  8
0
100
AcDbBlockEnd
  0
BLOCK
  5
F6
330
F4
100
AcDbEntity
  8
0
100
AcDbBlockBegin
  2
block 9
 70
     0
 10
0.0
 20
0.0
 30
0.0
  3
block 9
  1

  0
SPLINE
  5
F8
330
F4
100
AcDbEntity
  8
_U+30EC_U+30A4_U+30E4_U+30FC 1
370
     0
100
AcDbSpline
210
0.0
220
0.0
230
1.0
 70
    11
 71
     3
 72
    26
 73
    22
 74
     0
 42
0.0000000001
 43
0.0000000001
 12
1.0
 22
0.0
 32
0.0
 13
1.0
 23
0.0
 33
0.0
 40
0.0
 40
0.0
 40
0.0
 40
0.0
 40
1.0
 40
1.0
 40
1.0
 40
2.0
 40
2.0
 40
2.0
 40
3.0
 40
3.0
 40
3.0
 40
4.0
 40
4.0
 40
4.0
 40
5.0
 40
5.0
 40
5.0
 40
6.0
 40
6.0
 40
6.0
 40
7.0
 40
7.0
 40
7.0
 40
7.0
 10
118.4127549617163
 20
-127.4929931321893
 30
0.0
 10
118.4127549617163
 20
-127.4929931321893
 30
0.0
 10
117.3089463682422
 20
-127.4929931321893
 30
0.0
 10
117.3089463682422
 20
-127.4929931321893
 30
0.0
 10
117.3089463682422
 20
-127.4929931321893
 30
0.0
 10
117.3089463682422
 20
-127.8454264003303
 30
0.0
 10
117.3089463682422
 20
-127.8454264003303
 30
0.0
 10
117.3089463682422
 20
-127.8454264003303
 30
0.0
 10
117.1608072623765
 20
-127.8454264003303
 30
0.0
 10
117.1608072623765
 20
-127.8454264003303
 30
0.0
 10
117.1456488422414
 20
-127.4905815653496
 30
0.0
 10
116.9830403353376
 20
-127.440972190362
 30
0.0
 10
116.8686631652273
 20
-127.4092773118977
 30
0.0
 10
116.8686631652273
 20
-127.4092773118977
 30
0.0
 10
116.8686631652273
 20
-127.2532144864159
 30
0.0
 10
116.8686631652273
 20
-127.2532144864159
 30
0.0
 10
116.8686631652273
 20
-127.2532144864159
 30
0.0
 10
118.4127549617163
 20
-127.2532144864159
 30
0.0
 10
118.4127549617163
 20
-127.2532144864159
 30
0.0
 10
118.4127549617163
 20
-127.2532144864159
 30
0.0
 10
118.4127549617163
 20
-127.4929931321893
 30
0.0
 10
118.4127549617163
 20
-127.4929931321893
 30
0.0
  0
HATCH
  5
F9
330
F4
100
AcDbEntity
  8
_U+30EC_U+30A4_U+30E4_U+30FC 1
 62
   179
420
  2234388
100
AcDbHatch
 10
0.0
 20
0.0
 30
0.0
210
0.0
220
0.0
230
1.0
  2
SOLID
 70
     1
 71
     0
 91
        1
 92
        1
 93
        1
 72
     4
 94
        3
 73
     0
 74
     1
 95
       26
 96
       22
 40
0.0
 40
0.0
 40
0.0
 40
0.0
 40
1.0
 40
1.0
 40
1.0
 40
2.0
 40
2.0
 40
2.0
 40
3.0
 40
3.0
 40
3.0
 40
4.0
 40
4.0
 40
4.0
 40
5.0
 40
5.0
 40
5.0
 40
6.0
 40
6.0
 40
6.0
 40
7.0
 40
7.0
 40
7.0
 40
7.0
 10
118.4127549617163
 20
-127.4929931321893
 10
118.4127549617163
 20
-127.4929931321893
 10
117.3089463682422
 20
-127.4929931321893
 10
117.3089463682422
 20
-127.4929931321893
 10
117.3089463682422
 20
-127.4929931321893
 10
117.3089463682422
 20
-127.8454264003303
 10
117.3089463682422
 20
-127.8454264003303
 10
117.3089463682422
 20
-127.8454264003303
 10
117.1608072623765
 20
-127.8454264003303
 10
117.1608072623765
 20
-127.8454264003303
 10
117.1456488422414
 20
-127.4905815653496
 10
116.9830403353376
 20
-127.440972190362
 10
116.8686631652273
 20
-127.4092773118977
 10
116.8686631652273
 20
-127.4092773118977
 10
116.8686631652273
 20
-127.2532144864159
 10
116.8686631652273
 20
-127.2532144864159
 10
116.8686631652273
 20
-127.2532144864159
 10
118.4127549617163
 20
-127.2532144864159
 10
118.4127549617163
 20
-127.2532144864159
 10
118.4127549617163
 20
-127.2532144864159
 10
118.4127549617163
 20
-127.4929931321893
 10
118.4127549617163
 20
-127.4929931321893
 97
        0
 97
        0
 75
     2
 76
     1
 98
        0
  0
ENDBLK
  5
F7
330
F4
100
AcDbEntity
  8
0
100
AcDbBlockEnd
  0
ENDSEC
  0
SECTION
  2
ENTITIES
  0
SPLINE
  5
41
330
1F
100
AcDbEntity
  8
_U+30EC_U+30A4_U+30E4_U+30FC 1
 62
   179
420
  2234388
370
     9
100
AcDbSpline
210
0.0
220
0.0
230
1.0
 70
    11
 71
     3
 72
    17
 73
    13
 74
     0
 42
0.0000000001
 43
0.0000000001
 12
1.0
 22
0.0
 32
0.0
 13
1.0
 23
0.0
 33
0.0
 40
0.0
 40
0.0
 40
0.0
 40
0.0
 40
1.0
 40
1.0
 40
1.0
 40
2.0
 40
2.0
 40
2.0
 40
3.0
 40
3.0
 40
3.0
 40
4.0
 40
4.0
 40
4.0
 40
4.0
 10
92.04607219921058
 20
-146.5633269078033
 30
0.0
 10
92.04607219921058
 20
-146.5081877411509
 30
0.0
 10
92.00126942144387
 20
-146.4634202411617
 30
0.0
 10
91.9461632098135
 20
-146.4634202411617
 30
0.0
 10
91.89102404455356
 20
-146.4634202411617
 30
0.0
 10
91.84625654569567
 20
-146.5081877411509
 30
0.0
 10
91.84625654569567
 20
-146.5633269078033
 30
0.0
 10
91.84625654569567
 20
-146.6184307966789
 30
0.0
 10
91.89102404455356
 20
-146.6632335744456
 30
0.0
 10
91.9461632098135
 20
-146.6632335744456
 30
0.0
 10
92.00126942144387
 20
-146.6632335744456
 30
0.0
 10
92.04607219921058
 20
-146.6184307966789
 30
0.0
 10
92.04607219921058
 20
-146.5633269078033
 30
0.0
  0
SPLINE
  5
42
330
1F
100
AcDbEntity
  8
_U+30EC_U+30A4_U+30E4_U+30FC 1
 62
   179
420
  2234388
370
     9
100
AcDbSpline
210
0.0
220
0.0
230
1.0
 70
    11
 71
     3
 72
    17
 73
    13
 74
     0
 42
0.0000000001
 43
0.0000000001
 12
1.0
 22
0.0
 32
0.0
 13
1.0
 23
0.0
 33
0.0
 40
0.0
 40
0.0
 40
0.0
 40
0.0
 40
1.0
 40
1.0
 40
1.0
 40
2.0
 40
2.0
 40
2.0
 40
3.0
 40
3.0
 40
3.0
 40
4.0
 40
4.0
 40
4.0
 40
4.0
 10
70.04635432407973
 20
-146.5633269078033
 30
0.0
 10
70.04635432407973
 20
-146.5081877411509
 30
0.0
 10
70.00158682522185
 20
-146.4634202411617
 30
0.0
 10
69.9464476599619
 20
-146.4634202411617
 30
0.0
 10
69.89134377247882
 20
-146.4634202411617
 30
0.0
 10
69.84654099584407
 20
-146.5081877411509
 30
0.0
 10
69.84654099584407
 20
-146.5633269078033
 30
0.0
 10
69.84654099584407
 20
-146.6184307966789
 30
0.0
 10
69.89134377247882
 20
-146.6632335744456
 30
0.0
 10
69.9464476599619
 20
-146.6632335744456
 30
0.0
 10
70.00158682522185
 20
-146.6632335744456
 30
0.0
 10
70.04635432407973
 20
-146.6184307966789
 30
0.0
 10
70.04635432407973
 20
-146.5633269078033
 30
0.0
  0
POLYLINE
  5
43
330
1F
100
AcDbEntity
  8
_U+30EC_U+30A4_U+30E4_U+30FC 1
 62
   179
420
  2234388
370
     9
100
AcDb2dPolyline
 66
     1
 10
0.0
 20
0.0
 30
0.0
  0
VERTEX
  5
44
330
43
100
AcDbEntity
  8
_U+30EC_U+30A4_U+30E4_U+30FC 1
 62
   179
420
  2234388
370
     9
100
AcDbVertex
100
AcDb2dVertex
 10
69.9464476599619
 20
-132.0849741336454
 30
0.0
  0
VERTEX
  5
45
330
43
100
AcDbEntity
  8
_U+30EC_U+30A4_U+30E4_U+30FC 1
 62
   179
420
  2234388
370
     9
100
AcDbVertex
100
AcDb2dVertex
 10
69.9464476599619
 20
-147.5630991297759
 30
0.0
  0
SEQEND
  5
46
330
43
100
AcDbEntity
  8
_U+30EC_U+30A4_U+30E4_U+30FC 1
 62
   179
420
  2234388
370
     9
  0
POLYLINE
  5
47
330
1F
100
AcDbEntity
  8
_U+30EC_U+30A4_U+30E4_U+30FC 1
 62
   179
420
  2234388
370
     9
100
AcDb2dPolyline
 66
     1
 10
0.0
 20
0.0
 30
0.0
  0
VERTEX
  5
48
330
47
100
AcDbEntity
  8
_U+30EC_U+30A4_U+30E4_U+30FC 1
 62
   179
420
  2234388
370
     9
100
AcDbVertex
100
AcDb2dVertex
 10
69.9464476599619
 20
-146.5633269078033
 30
0.0
  0
VERTEX
  5
49
330
47
100
AcDbEntity
  8
_U+30EC_U+30A4_U+30E4_U+30FC 1
 62
   179
420
  2234388
370
     9
100
AcDbVertex
100
AcDb2dVertex
 10
91.9461632098135
 20
-146.5633269078033
 30
0.0
  0
SEQEND
  5
4A
330
47
100
AcDbEntity
  8
_U+30EC_U+30A4_U+30E4_U+30FC 1
 62
   179
420
  2234388
370
     9
  0
POLYLINE
  5
4B
330
1F
100
AcDbEntity
  8
_U+30EC_U+30A4_U+30E4_U+30FC 1
 62
   179
420
  2234388
370
     9
100
AcDb2dPolyline
 66
     1
 10
0.0
 20
0.0
 30
0.0
  0
VERTEX
  5
4C
330
4B
100
AcDbEntity
  8
_U+30EC_U+30A4_U+30E4_U+30FC 1
 62
   179
420
  2234388
370
     9
100
AcDbVertex
100
AcDb2dVertex
 10
91.9461632098135
 20
-145.1032855192796
 30
0.0
  0
VERTEX
  5
4D
330
4B
100
AcDbEntity
  8
_U+30EC_U+30A4_U+30E4_U+30FC 1
 62
   179
420
  2234388
370
     9
100
AcDbVertex
100
AcDb2dVertex
 10
91.9461632098135
 20
-147.5630991297759
 30
0.0
  0
SEQEND
  5
4E
330
4B
100
AcDbEntity
  8
_U+30EC_U+30A4_U+30E4_U+30FC 1
 62
   179
420
  2234388
370
     9
  0
SPLINE
  5
4F
330
1F
100
AcDbEntity
  8
_U+30EC_U+30A4_U+30E4_U+30FC 1
 62
   179
420
  2234388
370
     9
100
AcDbSpline
210
0.0
220
0.0
230
1.0
 70
    11
 71
     3
 72
    17
 73
    13
 74
     0
 42
0.0000000001
 43
0.0000000001
 12
1.0
 22
0.0
 32
0.0
 13
1.0
 23
0.0
 33
0.0
 40
0.0
 40
0.0
 40
0.0
 40
0.0
 40
1.0
 40
1.0
 40
1.0
 40
2.0
 40
2.0
 40
2.0
 40
3.0
 40
3.0
 40
3.0
 40
4.0
 40
4.0
 40
4.0
 40
4.0
 10
82.04598429572144
 20
-146.5633269078033
 30
0.0
 10
82.04598429572144
 20
-146.5081877411509
 30
0.0
 10
82.00118151908669
 20
-146.4634202411617
 30
0.0
 10
81.94607763160361
 20
-146.4634202411617
 30
0.0
 10
81.89093846634366
 20
-146.4634202411617
 30
0.0
 10
81.84617096748578
 20
-146.5081877411509
 30
0.0
 10
81.84617096748578
 20
-146.5633269078033
 30
0.0
 10
81.84617096748578
 20
-146.6184307966789
 30
0.0
 10
81.89093846634366
 20
-146.6632335744456
 30
0.0
 10
81.94607763160361
 20
-146.6632335744456
 30
0.0
 10
82.00118151908669
 20
-146.6632335744456
 30
0.0
 10
82.04598429572144
 20
-146.6184307966789
 30
0.0
 10
82.04598429572144
 20
-146.5633269078033
 30
0.0
  0
POLYLINE
  5
50
330
1F
100
AcDbEntity
  8
_U+30EC_U+30A4_U+30E4_U+30FC 1
 62
   179
420
  2234388
370
     9
100
AcDb2dPolyline
 66
     1
 10
0.0
 20
0.0
 30
0.0
  0
VERTEX
  5
51
330
50
100
AcDbEntity
  8
_U+30EC_U+30A4_U+30E4_U+30FC 1
 62
   179
420
  2234388
370
     9
100
AcDbVertex
100
AcDb2dVertex
 10
81.94607763160361
 20
-145.1032855192796
 30
0.0
  0
VERTEX
  5
52
330
50
100
AcDbEntity
  8
_U+30EC_U+30A4_U+30E4_U+30FC 1
 62
   179
420
  2234388
370
     9
100
AcDbVertex
100
AcDb2dVertex
 10
81.94607763160361
 20
-147.5630991297759
 30
0.0
  0
SEQEND
  5
53
330
50
100
AcDbEntity
  8
_U+30EC_U+30A4_U+30E4_U+30FC 1
 62
   179
420
  2234388
370
     9
  0
INSERT
  5
55
330
1F
100
AcDbEntity
  8
_U+30EC_U+30A4_U+30E4_U+30FC 1
100
AcDbBlockReference
  2
block 2
 10
0.0
 20
0.0
 30
0.0
  0
INSERT
  5
5E
330
1F
100
AcDbEntity
  8
_U+30EC_U+30A4_U+30E4_U+30FC 1
100
AcDbBlockReference
  2
block 3
 10
0.0
 20
0.0
 30
0.0
  0
SPLINE
  5
65
330
1F
100
AcDbEntity
  8
_U+30EC_U+30A4_U+30E4_U+30FC 1
 62
   179
420
  2234388
370
     9
100
AcDbSpline
210
0.0
220
0.0
230
1.0
 70
    11
 71
     3
 72
    17
 73
    13
 74
     0
 42
0.0000000001
 43
0.0000000001
 12
1.0
 22
0.0
 32
0.0
 13
1.0
 23
0.0
 33
0.0
 40
0.0
 40
0.0
 40
0.0
 40
0.0
 40
1.0
 40
1.0
 40
1.0
 40
2.0
 40
2.0
 40
2.0
 40
3.0
 40
3.0
 40
3.0
 40
4.0
 40
4.0
 40
4.0
 40
4.0
 10
70.04635432407973
 20
-115.6249980266494
 30
0.0
 10
70.04635432407973
 20
-115.5698588599963
 30
0.0
 10
70.00158682522185
 20
-115.5250913600077
 30
0.0
 10
69.9464476599619
 20
-115.5250913600077
 30
0.0
 10
69.89134377247882
 20
-115.5250913600077
 30
0.0
 10
69.84654099584407
 20
-115.5698588599963
 30
0.0
 10
69.84654099584407
 20
-115.6249980266494
 30
0.0
 10
69.84654099584407
 20
-115.6801019155243
 30
0.0
 10
69.89134377247882
 20
-115.724904693291
 30
0.0
 10
69.9464476599619
 20
-115.724904693291
 30
0.0
 10
70.00158682522185
 20
-115.724904693291
 30
0.0
 10
70.04635432407973
 20
-115.6801019155243
 30
0.0
 10
70.04635432407973
 20
-115.6249980266494
 30
0.0
  0
SPLINE
  5
66
330
1F
100
AcDbEntity
  8
_U+30EC_U+30A4_U+30E4_U+30FC 1
 62
   179
420
  2234388
370
     9
100
AcDbSpline
210
0.0
220
0.0
230
1.0
 70
    11
 71
     3
 72
    17
 73
    13
 74
     0
 42
0.0000000001
 43
0.0000000001
 12
1.0
 22
0.0
 32
0.0
 13
1.0
 23
0.0
 33
0.0
 40
0.0
 40
0.0
 40
0.0
 40
0.0
 40
1.0
 40
1.0
 40
1.0
 40
2.0
 40
2.0
 40
2.0
 40
3.0
 40
3.0
 40
3.0
 40
4.0
 40
4.0
 40
4.0
 40
4.0
 10
112.0462057525743
 20
-115.6249980266494
 30
0.0
 10
112.0462057525743
 20
-115.5698588599963
 30
0.0
 10
112.0014382537164
 20
-115.5250913600077
 30
0.0
 10
111.9462990884564
 20
-115.5250913600077
 30
0.0
 10
111.8911952009733
 20
-115.5250913600077
 30
0.0
 10
111.8463924243386
 20
-115.5698588599963
 30
0.0
 10
111.8463924243386
 20
-115.6249980266494
 30
0.0
 10
111.8463924243386
 20
-115.6801019155243
 30
0.0
 10
111.8911952009733
 20
-115.724904693291
 30
0.0
 10
111.9462990884564
 20
-115.724904693291
 30
0.0
 10
112.0014382537164
 20
-115.724904693291
 30
0.0
 10
112.0462057525743
 20
-115.6801019155243
 30
0.0
 10
112.0462057525743
 20
-115.6249980266494
 30
0.0
  0
POLYLINE
  5
67
330
1F
100
AcDbEntity
  8
_U+30EC_U+30A4_U+30E4_U+30FC 1
 62
   179
420
  2234388
370
     9
100
AcDb2dPolyline
 66
     1
 10
0.0
 20
0.0
 30
0.0
  0
VERTEX
  5
68
330
67
100
AcDbEntity
  8
_U+30EC_U+30A4_U+30E4_U+30FC 1
 62
   179
420
  2234388
370
     9
100
AcDbVertex
100
AcDb2dVertex
 10
69.9464476599619
 20
-115.6249980266494
 30
0.0
  0
VERTEX
  5
69
330
67
100
AcDbEntity
  8
_U+30EC_U+30A4_U+30E4_U+30FC 1
 62
   179
420
  2234388
370
     9
100
AcDbVertex
100
AcDb2dVertex
 10
111.9462990884564
 20
-115.6249980266494
 30
0.0
  0
SEQEND
  5
6A
330
67
100
AcDbEntity
  8
_U+30EC_U+30A4_U+30E4_U+30FC 1
 62
   179
420
  2234388
370
     9
  0
POLYLINE
  5
6B
330
1F
100
AcDbEntity
  8
_U+30EC_U+30A4_U+30E4_U+30FC 1
 62
   179
420
  2234388
370
     9
100
AcDb2dPolyline
 66
     1
 10
0.0
 20
0.0
 30
0.0
  0
VERTEX
  5
6C
330
6B
100
AcDbEntity
  8
_U+30EC_U+30A4_U+30E4_U+30FC 1
 62
   179
420
  2234388
370
     9
100
AcDbVertex
100
AcDb2dVertex
 10
69.9464476599619
 20
-117.0850041373955
 30
0.0
  0
VERTEX
  5
6D
330
6B
100
AcDbEntity
  8
_U+30EC_U+30A4_U+30E4_U+30FC 1
 62
   179
420
  2234388
370
     9
100
AcDbVertex
100
AcDb2dVertex
 10
69.9464476599619
 20
-114.6252258046771
 30
0.0
  0
SEQEND
  5
6E
330
6B
100
AcDbEntity
  8
_U+30EC_U+30A4_U+30E4_U+30FC 1
 62
   179
420
  2234388
370
     9
  0
POLYLINE
  5
6F
330
1F
100
AcDbEntity
  8
_U+30EC_U+30A4_U+30E4_U+30FC 1
 62
   179
420
  2234388
370
     9
100
AcDb2dPolyline
 66
     1
 10
0.0
 20
0.0
 30
0.0
  0
VERTEX
  5
70
330
6F
100
AcDbEntity
  8
_U+30EC_U+30A4_U+30E4_U+30FC 1
 62
   179
420
  2234388
370
     9
100
AcDbVertex
100
AcDb2dVertex
 10
111.9462990884564
 20
-126.0850002462564
 30
0.0
  0
VERTEX
  5
71
330
6F
100
AcDbEntity
  8
_U+30EC_U+30A4_U+30E4_U+30FC 1
 62
   179
420
  2234388
370
     9
100
AcDbVertex
100
AcDb2dVertex
 10
111.9462990884564
 20
-114.6252258046771
 30
0.0
  0
SEQEND
  5
72
330
6F
100
AcDbEntity
  8
_U+30EC_U+30A4_U+30E4_U+30FC 1
 62
   179
420
  2234388
370
     9
  0
SPLINE
  5
73
330
1F
100
AcDbEntity
  8
_U+30EC_U+30A4_U+30E4_U+30FC 1
 62
   179
420
  2234388
370
     9
100
AcDbSpline
210
0.0
220
0.0
230
1.0
 70
    11
 71
     3
 72
    17
 73
    13
 74
     0
 42
0.0000000001
 43
0.0000000001
 12
1.0
 22
0.0
 32
0.0
 13
1.0
 23
0.0
 33
0.0
 40
0.0
 40
0.0
 40
0.0
 40
0.0
 40
1.0
 40
1.0
 40
1.0
 40
2.0
 40
2.0
 40
2.0
 40
3.0
 40
3.0
 40
3.0
 40
4.0
 40
4.0
 40
4.0
 40
4.0
 10
73.03533452560227
 20
-113.4304733049758
 30
0.0
 10
73.03533452560227
 20
-113.3746638605454
 30
0.0
 10
72.99053174896751
 20
-113.3298610827786
 30
0.0
 10
72.93542786148444
 20
-113.3298610827786
 30
0.0
 10
72.88028869622448
 20
-113.3298610827786
 30
0.0
 10
72.8355211973666
 20
-113.3746638605454
 30
0.0
 10
72.8355211973666
 20
-113.4304733049758
 30
0.0
 10
72.8355211973666
 20
-113.4855771938507
 30
0.0
 10
72.88028869622448
 20
-113.5303799716174
 30
0.0
 10
72.93542786148444
 20
-113.5303799716174
 30
0.0
 10
72.99053174896751
 20
-113.5303799716174
 30
0.0
 10
73.03533452560227
 20
-113.4855771938507
 30
0.0
 10
73.03533452560227
 20
-113.4304733049758
 30
0.0
  0
SPLINE
  5
74
330
1F
100
AcDbEntity
  8
_U+30EC_U+30A4_U+30E4_U+30FC 1
 62
   179
420
  2234388
370
     9
100
AcDbSpline
210
0.0
220
0.0
230
1.0
 70
    11
 71
     3
 72
    17
 73
    13
 74
     0
 42
0.0000000001
 43
0.0000000001
 12
1.0
 22
0.0
 32
0.0
 13
1.0
 23
0.0
 33
0.0
 40
0.0
 40
0.0
 40
0.0
 40
0.0
 40
1.0
 40
1.0
 40
1.0
 40
2.0
 40
2.0
 40
2.0
 40
3.0
 40
3.0
 40
3.0
 40
4.0
 40
4.0
 40
4.0
 40
4.0
 10
69.85962905106571
 20
-113.4304733049758
 30
0.0
 10
69.85962905106571
 20
-113.3746638605454
 30
0.0
 10
69.81486155220783
 20
-113.3298610827786
 30
0.0
 10
69.75972238694789
 20
-113.3298610827786
 30
0.0
 10
69.7046184994648
 20
-113.3298610827786
 30
0.0
 10
69.65981572283005
 20
-113.3746638605454
 30
0.0
 10
69.65981572283005
 20
-113.4304733049758
 30
0.0
 10
69.65981572283005
 20
-113.4855771938507
 30
0.0
 10
69.7046184994648
 20
-113.5303799716174
 30
0.0
 10
69.75972238694789
 20
-113.5303799716174
 30
0.0
 10
69.81486155220783
 20
-113.5303799716174
 30
0.0
 10
69.85962905106571
 20
-113.4855771938507
 30
0.0
 10
69.85962905106571
 20
-113.4304733049758
 30
0.0
  0
POLYLINE
  5
75
330
1F
100
AcDbEntity
  8
_U+30EC_U+30A4_U+30E4_U+30FC 1
 62
   179
420
  2234388
370
     9
100
AcDb2dPolyline
 66
     1
 10
0.0
 20
0.0
 30
0.0
  0
VERTEX
  5
76
330
75
100
AcDbEntity
  8
_U+30EC_U+30A4_U+30E4_U+30FC 1
 62
   179
420
  2234388
370
     9
100
AcDbVertex
100
AcDb2dVertex
 10
69.75972238694789
 20
-112.7249177495966
 30
0.0
  0
VERTEX
  5
77
330
75
100
AcDbEntity
  8
_U+30EC_U+30A4_U+30E4_U+30FC 1
 62
   179
420
  2234388
370
     9
100
AcDbVertex
100
AcDb2dVertex
 10
69.75972238694789
 20
-113.9596399715102
 30
0.0
  0
SEQEND
  5
78
330
75
100
AcDbEntity
  8
_U+30EC_U+30A4_U+30E4_U+30FC 1
 62
   179
420
  2234388
370
     9
  0
POLYLINE
  5
79
330
1F
100
AcDbEntity
  8
_U+30EC_U+30A4_U+30E4_U+30FC 1
 62
   179
420
  2234388
370
     9
100
AcDb2dPolyline
 66
     1
 10
0.0
 20
0.0
 30
0.0
  0
VERTEX
  5
7A
330
79
100
AcDbEntity
  8
_U+30EC_U+30A4_U+30E4_U+30FC 1
 62
   179
420
  2234388
370
     9
100
AcDbVertex
100
AcDb2dVertex
 10
72.93542786148444
 20
-112.7249177495966
 30
0.0
  0
VERTEX
  5
7B
330
79
100
AcDbEntity
  8
_U+30EC_U+30A4_U+30E4_U+30FC 1
 62
   179
420
  2234388
370
     9
100
AcDbVertex
100
AcDb2dVertex
 10
72.93542786148444
 20
-113.9596399715102
 30
0.0
  0
SEQEND
  5
7C
330
79
100
AcDbEntity
  8
_U+30EC_U+30A4_U+30E4_U+30FC 1
 62
   179
420
  2234388
370
     9
  0
POLYLINE
  5
7D
330
1F
100
AcDbEntity
  8
_U+30EC_U+30A4_U+30E4_U+30FC 1
 62
   179
420
  2234388
370
     9
100
AcDb2dPolyline
 66
     1
 10
0.0
 20
0.0
 30
0.0
  0
VERTEX
  5
7E
330
7D
100
AcDbEntity
  8
_U+30EC_U+30A4_U+30E4_U+30FC 1
 62
   179
420
  2234388
370
     9
100
AcDbVertex
100
AcDb2dVertex
 10
68.54704880677465
 20
-113.4304733049758
 30
0.0
  0
VERTEX
  5
7F
330
7D
100
AcDbEntity
  8
_U+30EC_U+30A4_U+30E4_U+30FC 1
 62
   179
420
  2234388
370
     9
100
AcDbVertex
100
AcDb2dVertex
 10
74.23629588385208
 20
-113.4304733049758
 30
0.0
  0
SEQEND
  5
80
330
7D
100
AcDbEntity
  8
_U+30EC_U+30A4_U+30E4_U+30FC 1
 62
   179
420
  2234388
370
     9
  0
INSERT
  5
82
330
1F
100
AcDbEntity
  8
_U+30EC_U+30A4_U+30E4_U+30FC 1
100
AcDbBlockReference
  2
block 4
 10
0.0
 20
0.0
 30
0.0
  0
INSERT
  5
9D
330
1F
100
AcDbEntity
  8
_U+30EC_U+30A4_U+30E4_U+30FC 1
100
AcDbBlockReference
  2
block 5
 10
0.0
 20
0.0
 30
0.0
  0
SPLINE
  5
A2
330
1F
100
AcDbEntity
  8
_U+30EC_U+30A4_U+30E4_U+30FC 1
 62
   179
420
  2234388
370
     9
100
AcDbSpline
210
0.0
220
0.0
230
1.0
 70
    11
 71
     3
 72
    17
 73
    13
 74
     0
 42
0.0000000001
 43
0.0000000001
 12
1.0
 22
0.0
 32
0.0
 13
1.0
 23
0.0
 33
0.0
 40
0.0
 40
0.0
 40
0.0
 40
0.0
 40
1.0
 40
1.0
 40
1.0
 40
2.0
 40
2.0
 40
2.0
 40
3.0
 40
3.0
 40
3.0
 40
4.0
 40
4.0
 40
4.0
 40
4.0
 10
66.04627775946352
 20
-129.5851908009373
 30
0.0
 10
66.04627775946352
 20
-129.5300869120617
 30
0.0
 10
66.00147498282875
 20
-129.4852841342956
 30
0.0
 10
65.94566553980813
 20
-129.4852841342956
 30
0.0
 10
65.89056165232506
 20
-129.4852841342956
 30
0.0
 10
65.8457588756903
 20
-129.5300869120617
 30
0.0
 10
65.8457588756903
 20
-129.5851908009373
 30
0.0
 10
65.8457588756903
 20
-129.6410002453677
 30
0.0
 10
65.89056165232506
 20
-129.6850974675789
 30
0.0
 10
65.94566553980813
 20
-129.6850974675789
 30
0.0
 10
66.00147498282875
 20
-129.6850974675789
 30
0.0
 10
66.04627775946352
 20
-129.6410002453677
 30
0.0
 10
66.04627775946352
 20
-129.5851908009373
 30
0.0
  0
SPLINE
  5
A3
330
1F
100
AcDbEntity
  8
_U+30EC_U+30A4_U+30E4_U+30FC 1
 62
   179
420
  2234388
370
     9
100
AcDbSpline
210
0.0
220
0.0
230
1.0
 70
    11
 71
     3
 72
    17
 73
    13
 74
     0
 42
0.0000000001
 43
0.0000000001
 12
1.0
 22
0.0
 32
0.0
 13
1.0
 23
0.0
 33
0.0
 40
0.0
 40
0.0
 40
0.0
 40
0.0
 40
1.0
 40
1.0
 40
1.0
 40
2.0
 40
2.0
 40
2.0
 40
3.0
 40
3.0
 40
3.0
 40
4.0
 40
4.0
 40
4.0
 40
4.0
 10
66.04627775946352
 20
-119.5854577478814
 30
0.0
 10
66.04627775946352
 20
-119.5303538590065
 30
0.0
 10
66.00147498282875
 20
-119.4855510812397
 30
0.0
 10
65.94566553980813
 20
-119.4855510812397
 30
0.0
 10
65.89056165232506
 20
-119.4855510812397
 30
0.0
 10
65.8457588756903
 20
-119.5303538590065
 30
0.0
 10
65.8457588756903
 20
-119.5854577478814
 30
0.0
 10
65.8457588756903
 20
-119.6405969145345
 30
0.0
 10
65.89056165232506
 20
-119.685364414523
 30
0.0
 10
65.94566553980813
 20
-119.685364414523
 30
0.0
 10
66.00147498282875
 20
-119.685364414523
 30
0.0
 10
66.04627775946352
 20
-119.6405969145345
 30
0.0
 10
66.04627775946352
 20
-119.5854577478814
 30
0.0
  0
POLYLINE
  5
A4
330
1F
100
AcDbEntity
  8
_U+30EC_U+30A4_U+30E4_U+30FC 1
 62
   179
420
  2234388
370
     9
100
AcDb2dPolyline
 66
     1
 10
0.0
 20
0.0
 30
0.0
  0
VERTEX
  5
A5
330
A4
100
AcDbEntity
  8
_U+30EC_U+30A4_U+30E4_U+30FC 1
 62
   179
420
  2234388
370
     9
100
AcDbVertex
100
AcDb2dVertex
 10
65.94566553980813
 20
-119.5854577478814
 30
0.0
  0
VERTEX
  5
A6
330
A4
100
AcDbEntity
  8
_U+30EC_U+30A4_U+30E4_U+30FC 1
 62
   179
420
  2234388
370
     9
100
AcDbVertex
100
AcDb2dVertex
 10
65.94566553980813
 20
-129.5851908009373
 30
0.0
  0
SEQEND
  5
A7
330
A4
100
AcDbEntity
  8
_U+30EC_U+30A4_U+30E4_U+30FC 1
 62
   179
420
  2234388
370
     9
  0
POLYLINE
  5
A8
330
1F
100
AcDbEntity
  8
_U+30EC_U+30A4_U+30E4_U+30FC 1
 62
   179
420
  2234388
370
     9
100
AcDb2dPolyline
 66
     1
 10
0.0
 20
0.0
 30
0.0
  0
VERTEX
  5
A9
330
A8
100
AcDbEntity
  8
_U+30EC_U+30A4_U+30E4_U+30FC 1
 62
   179
420
  2234388
370
     9
100
AcDbVertex
100
AcDb2dVertex
 10
67.40570689144826
 20
-119.5854577478814
 30
0.0
  0
VERTEX
  5
AA
330
A8
100
AcDbEntity
  8
_U+30EC_U+30A4_U+30E4_U+30FC 1
 62
   179
420
  2234388
370
     9
100
AcDbVertex
100
AcDb2dVertex
 10
64.94589334309222
 20
-119.5854577478814
 30
0.0
  0
SEQEND
  5
AB
330
A8
100
AcDbEntity
  8
_U+30EC_U+30A4_U+30E4_U+30FC 1
 62
   179
420
  2234388
370
     9
  0
POLYLINE
  5
AC
330
1F
100
AcDbEntity
  8
_U+30EC_U+30A4_U+30E4_U+30FC 1
 62
   179
420
  2234388
370
     9
100
AcDb2dPolyline
 66
     1
 10
0.0
 20
0.0
 30
0.0
  0
VERTEX
  5
AD
330
AC
100
AcDbEntity
  8
_U+30EC_U+30A4_U+30E4_U+30FC 1
 62
   179
420
  2234388
370
     9
100
AcDbVertex
100
AcDb2dVertex
 10
67.40570689144826
 20
-129.5851908009373
 30
0.0
  0
VERTEX
  5
AE
330
AC
100
AcDbEntity
  8
_U+30EC_U+30A4_U+30E4_U+30FC 1
 62
   179
420
  2234388
370
     9
100
AcDbVertex
100
AcDb2dVertex
 10
64.94589334309222
 20
-129.5851908009373
 30
0.0
  0
SEQEND
  5
AF
330
AC
100
AcDbEntity
  8
_U+30EC_U+30A4_U+30E4_U+30FC 1
 62
   179
420
  2234388
370
     9
  0
INSERT
  5
B1
330
1F
100
AcDbEntity
  8
_U+30EC_U+30A4_U+30E4_U+30FC 1
100
AcDbBlockReference
  2
block 6
 10
0.0
 20
0.0
 30
0.0
  0
SPLINE
  5
B9
330
1F
100
AcDbEntity
  8
_U+30EC_U+30A4_U+30E4_U+30FC 1
 62
   179
420
  2234388
370
     9
100
AcDbSpline
210
0.0
220
0.0
230
1.0
 70
    11
 71
     3
 72
    17
 73
    13
 74
     0
 42
0.0000000001
 43
0.0000000001
 12
1.0
 22
0.0
 32
0.0
 13
1.0
 23
0.0
 33
0.0
 40
0.0
 40
0.0
 40
0.0
 40
0.0
 40
1.0
 40
1.0
 40
1.0
 40
2.0
 40
2.0
 40
2.0
 40
3.0
 40
3.0
 40
3.0
 40
4.0
 40
4.0
 40
4.0
 40
4.0
 10
116.0063478737648
 20
-128.584748301187
 30
0.0
 10
116.0063478737648
 20
-128.5296091345343
 30
0.0
 10
115.9615833043426
 20
-128.4848416345454
 30
0.0
 10
115.906441209647
 20
-128.4848416345454
 30
0.0
 10
115.8513373221639
 20
-128.4848416345454
 30
0.0
 10
115.8065345455292
 20
-128.5296091345343
 30
0.0
 10
115.8065345455292
 20
-128.584748301187
 30
0.0
 10
115.8065345455292
 20
-128.6398521900623
 30
0.0
 10
115.8513373221639
 20
-128.684654967829
 30
0.0
 10
115.906441209647
 20
-128.684654967829
 30
0.0
 10
115.9615833043426
 20
-128.684654967829
 30
0.0
 10
116.0063478737648
 20
-128.6398521900623
 30
0.0
 10
116.0063478737648
 20
-128.584748301187
 30
0.0
  0
SPLINE
  5
BA
330
1F
100
AcDbEntity
  8
_U+30EC_U+30A4_U+30E4_U+30FC 1
 62
   179
420
  2234388
370
     9
100
AcDbSpline
210
0.0
220
0.0
230
1.0
 70
    11
 71
     3
 72
    17
 73
    13
 74
     0
 42
0.0000000001
 43
0.0000000001
 12
1.0
 22
0.0
 32
0.0
 13
1.0
 23
0.0
 33
0.0
 40
0.0
 40
0.0
 40
0.0
 40
0.0
 40
1.0
 40
1.0
 40
1.0
 40
2.0
 40
2.0
 40
2.0
 40
3.0
 40
3.0
 40
3.0
 40
4.0
 40
4.0
 40
4.0
 40
4.0
 10
116.0063478737648
 20
-129.5851908009373
 30
0.0
 10
116.0063478737648
 20
-129.5293813565068
 30
0.0
 10
115.9615833043426
 20
-129.4846138565176
 30
0.0
 10
115.906441209647
 20
-129.4846138565176
 30
0.0
 10
115.8513373221639
 20
-129.4846138565176
 30
0.0
 10
115.8065345455292
 20
-129.5293813565068
 30
0.0
 10
115.8065345455292
 20
-129.5851908009373
 30
0.0
 10
115.8065345455292
 20
-129.6403299675897
 30
0.0
 10
115.8513373221639
 20
-129.6850974675789
 30
0.0
 10
115.906441209647
 20
-129.6850974675789
 30
0.0
 10
115.9615833043426
 20
-129.6850974675789
 30
0.0
 10
116.0063478737648
 20
-129.6403299675897
 30
0.0
 10
116.0063478737648
 20
-129.5851908009373
 30
0.0
  0
SPLINE
  5
BB
330
1F
100
AcDbEntity
  8
_U+30EC_U+30A4_U+30E4_U+30FC 1
 62
   179
420
  2234388
370
     9
100
AcDbSpline
210
0.0
220
0.0
230
1.0
 70
    11
 71
     3
 72
    17
 73
    13
 74
     0
 42
0.0000000001
 43
0.0000000001
 12
1.0
 22
0.0
 32
0.0
 13
1.0
 23
0.0
 33
0.0
 40
0.0
 40
0.0
 40
0.0
 40
0.0
 40
1.0
 40
1.0
 40
1.0
 40
2.0
 40
2.0
 40
2.0
 40
3.0
 40
3.0
 40
3.0
 40
4.0
 40
4.0
 40
4.0
 40
4.0
 10
116.0063478737648
 20
-139.5849238539928
 30
0.0
 10
116.0063478737648
 20
-139.5298199651173
 30
0.0
 10
115.9615833043426
 20
-139.4850171873512
 30
0.0
 10
115.906441209647
 20
-139.4850171873512
 30
0.0
 10
115.8513373221639
 20
-139.4850171873512
 30
0.0
 10
115.8065345455292
 20
-139.5298199651173
 30
0.0
 10
115.8065345455292
 20
-139.5849238539928
 30
0.0
 10
115.8065345455292
 20
-139.6400630206453
 30
0.0
 10
115.8513373221639
 20
-139.6848305206345
 30
0.0
 10
115.906441209647
 20
-139.6848305206345
 30
0.0
 10
115.9615833043426
 20
-139.6848305206345
 30
0.0
 10
116.0063478737648
 20
-139.6400630206453
 30
0.0
 10
116.0063478737648
 20
-139.5849238539928
 30
0.0
  0
SPLINE
  5
BC
330
1F
100
AcDbEntity
  8
_U+30EC_U+30A4_U+30E4_U+30FC 1
 62
   179
420
  2234388
370
     9
100
AcDbSpline
210
0.0
220
0.0
230
1.0
 70
    11
 71
     3
 72
    17
 73
    13
 74
     0
 42
0.0000000001
 43
0.0000000001
 12
1.0
 22
0.0
 32
0.0
 13
1.0
 23
0.0
 33
0.0
 40
0.0
 40
0.0
 40
0.0
 40
0.0
 40
1.0
 40
1.0
 40
1.0
 40
2.0
 40
2.0
 40
2.0
 40
3.0
 40
3.0
 40
3.0
 40
4.0
 40
4.0
 40
4.0
 40
4.0
 10
116.0063478737648
 20
-142.5856163532427
 30
0.0
 10
116.0063478737648
 20
-142.5304771865896
 30
0.0
 10
115.9615833043426
 20
-142.4857096866011
 30
0.0
 10
115.906441209647
 20
-142.4857096866011
 30
0.0
 10
115.8513373221639
 20
-142.4857096866011
 30
0.0
 10
115.8065345455292
 20
-142.5304771865896
 30
0.0
 10
115.8065345455292
 20
-142.5856163532427
 30
0.0
 10
115.8065345455292
 20
-142.6407202421176
 30
0.0
 10
115.8513373221639
 20
-142.6855230198843
 30
0.0
 10
115.906441209647
 20
-142.6855230198843
 30
0.0
 10
115.9615833043426
 20
-142.6855230198843
 30
0.0
 10
116.0063478737648
 20
-142.6407202421176
 30
0.0
 10
116.0063478737648
 20
-142.5856163532427
 30
0.0
  0
POLYLINE
  5
BD
330
1F
100
AcDbEntity
  8
_U+30EC_U+30A4_U+30E4_U+30FC 1
 62
   179
420
  2234388
370
     9
100
AcDb2dPolyline
 66
     1
 10
0.0
 20
0.0
 30
0.0
  0
VERTEX
  5
BE
330
BD
100
AcDbEntity
  8
_U+30EC_U+30A4_U+30E4_U+30FC 1
 62
   179
420
  2234388
370
     9
100
AcDbVertex
100
AcDb2dVertex
 10
115.906441209647
 20
-128.584748301187
 30
0.0
  0
VERTEX
  5
BF
330
BD
100
AcDbEntity
  8
_U+30EC_U+30A4_U+30E4_U+30FC 1
 62
   179
420
  2234388
370
     9
100
AcDbVertex
100
AcDb2dVertex
 10
115.906441209647
 20
-124.8144358021296
 30
0.0
  0
SEQEND
  5
C0
330
BD
100
AcDbEntity
  8
_U+30EC_U+30A4_U+30E4_U+30FC 1
 62
   179
420
  2234388
370
     9
  0
POLYLINE
  5
C1
330
1F
100
AcDbEntity
  8
_U+30EC_U+30A4_U+30E4_U+30FC 1
 62
   179
420
  2234388
370
     9
100
AcDb2dPolyline
 66
     1
 10
0.0
 20
0.0
 30
0.0
  0
VERTEX
  5
C2
330
C1
100
AcDbEntity
  8
_U+30EC_U+30A4_U+30E4_U+30FC 1
 62
   179
420
  2234388
370
     9
100
AcDbVertex
100
AcDb2dVertex
 10
115.906441209647
 20
-128.584748301187
 30
0.0
  0
VERTEX
  5
C3
330
C1
100
AcDbEntity
  8
_U+30EC_U+30A4_U+30E4_U+30FC 1
 62
   179
420
  2234388
370
     9
100
AcDbVertex
100
AcDb2dVertex
 10
115.906441209647
 20
-129.5851908009373
 30
0.0
  0
SEQEND
  5
C4
330
C1
100
AcDbEntity
  8
_U+30EC_U+30A4_U+30E4_U+30FC 1
 62
   179
420
  2234388
370
     9
  0
POLYLINE
  5
C5
330
1F
100
AcDbEntity
  8
_U+30EC_U+30A4_U+30E4_U+30FC 1
 62
   179
420
  2234388
370
     9
100
AcDb2dPolyline
 66
     1
 10
0.0
 20
0.0
 30
0.0
  0
VERTEX
  5
C6
330
C5
100
AcDbEntity
  8
_U+30EC_U+30A4_U+30E4_U+30FC 1
 62
   179
420
  2234388
370
     9
100
AcDbVertex
100
AcDb2dVertex
 10
114.4464027491665
 20
-128.584748301187
 30
0.0
  0
VERTEX
  5
C7
330
C5
100
AcDbEntity
  8
_U+30EC_U+30A4_U+30E4_U+30FC 1
 62
   179
420
  2234388
370
     9
100
AcDbVertex
100
AcDb2dVertex
 10
116.9062134063629
 20
-128.584748301187
 30
0.0
  0
SEQEND
  5
C8
330
C5
100
AcDbEntity
  8
_U+30EC_U+30A4_U+30E4_U+30FC 1
 62
   179
420
  2234388
370
     9
  0
POLYLINE
  5
C9
330
1F
100
AcDbEntity
  8
_U+30EC_U+30A4_U+30E4_U+30FC 1
 62
   179
420
  2234388
370
     9
100
AcDb2dPolyline
 66
     1
 10
0.0
 20
0.0
 30
0.0
  0
VERTEX
  5
CA
330
C9
100
AcDbEntity
  8
_U+30EC_U+30A4_U+30E4_U+30FC 1
 62
   179
420
  2234388
370
     9
100
AcDbVertex
100
AcDb2dVertex
 10
114.4464027491665
 20
-129.5851908009373
 30
0.0
  0
VERTEX
  5
CB
330
C9
100
AcDbEntity
  8
_U+30EC_U+30A4_U+30E4_U+30FC 1
 62
   179
420
  2234388
370
     9
100
AcDbVertex
100
AcDb2dVertex
 10
116.9062134063629
 20
-129.5851908009373
 30
0.0
  0
SEQEND
  5
CC
330
C9
100
AcDbEntity
  8
_U+30EC_U+30A4_U+30E4_U+30FC 1
 62
   179
420
  2234388
370
     9
  0
POLYLINE
  5
CD
330
1F
100
AcDbEntity
  8
_U+30EC_U+30A4_U+30E4_U+30FC 1
 62
   179
420
  2234388
370
     9
100
AcDb2dPolyline
 66
     1
 10
0.0
 20
0.0
 30
0.0
  0
VERTEX
  5
CE
330
CD
100
AcDbEntity
  8
_U+30EC_U+30A4_U+30E4_U+30FC 1
 62
   179
420
  2234388
370
     9
100
AcDbVertex
100
AcDb2dVertex
 10
115.906441209647
 20
-142.5856163532427
 30
0.0
  0
VERTEX
  5
CF
330
CD
100
AcDbEntity
  8
_U+30EC_U+30A4_U+30E4_U+30FC 1
 62
   179
420
  2234388
370
     9
100
AcDbVertex
100
AcDb2dVertex
 10
115.906441209647
 20
-143.7431507973976
 30
0.0
  0
SEQEND
  5
D0
330
CD
100
AcDbEntity
  8
_U+30EC_U+30A4_U+30E4_U+30FC 1
 62
   179
420
  2234388
370
     9
  0
POLYLINE
  5
D1
330
1F
100
AcDbEntity
  8
_U+30EC_U+30A4_U+30E4_U+30FC 1
 62
   179
420
  2234388
370
     9
100
AcDb2dPolyline
 66
     1
 10
0.0
 20
0.0
 30
0.0
  0
VERTEX
  5
D2
330
D1
100
AcDbEntity
  8
_U+30EC_U+30A4_U+30E4_U+30FC 1
 62
   179
420
  2234388
370
     9
100
AcDbVertex
100
AcDb2dVertex
 10
115.906441209647
 20
-139.5849238539928
 30
0.0
  0
VERTEX
  5
D3
330
D1
100
AcDbEntity
  8
_U+30EC_U+30A4_U+30E4_U+30FC 1
 62
   179
420
  2234388
370
     9
100
AcDbVertex
100
AcDb2dVertex
 10
115.906441209647
 20
-142.5856163532427
 30
0.0
  0
SEQEND
  5
D4
330
D1
100
AcDbEntity
  8
_U+30EC_U+30A4_U+30E4_U+30FC 1
 62
   179
420
  2234388
370
     9
  0
POLYLINE
  5
D5
330
1F
100
AcDbEntity
  8
_U+30EC_U+30A4_U+30E4_U+30FC 1
 62
   179
420
  2234388
370
     9
100
AcDb2dPolyline
 66
     1
 10
0.0
 20
0.0
 30
0.0
  0
VERTEX
  5
D6
330
D5
100
AcDbEntity
  8
_U+30EC_U+30A4_U+30E4_U+30FC 1
 62
   179
420
  2234388
370
     9
100
AcDbVertex
100
AcDb2dVertex
 10
94.44626397936396
 20
-142.5856163532427
 30
0.0
  0
VERTEX
  5
D7
330
D5
100
AcDbEntity
  8
_U+30EC_U+30A4_U+30E4_U+30FC 1
 62
   179
420
  2234388
370
     9
100
AcDbVertex
100
AcDb2dVertex
 10
116.9062134063629
 20
-142.5856163532427
 30
0.0
  0
SEQEND
  5
D8
330
D5
100
AcDbEntity
  8
_U+30EC_U+30A4_U+30E4_U+30FC 1
 62
   179
420
  2234388
370
     9
  0
POLYLINE
  5
D9
330
1F
100
AcDbEntity
  8
_U+30EC_U+30A4_U+30E4_U+30FC 1
 62
   179
420
  2234388
370
     9
100
AcDb2dPolyline
 66
     1
 10
0.0
 20
0.0
 30
0.0
  0
VERTEX
  5
DA
330
D9
100
AcDbEntity
  8
_U+30EC_U+30A4_U+30E4_U+30FC 1
 62
   179
420
  2234388
370
     9
100
AcDbVertex
100
AcDb2dVertex
 10
115.906441209647
 20
-129.5851908009373
 30
0.0
  0
VERTEX
  5
DB
330
D9
100
AcDbEntity
  8
_U+30EC_U+30A4_U+30E4_U+30FC 1
 62
   179
420
  2234388
370
     9
100
AcDbVertex
100
AcDb2dVertex
 10
115.906441209647
 20
-139.5849238539928
 30
0.0
  0
SEQEND
  5
DC
330
D9
100
AcDbEntity
  8
_U+30EC_U+30A4_U+30E4_U+30FC 1
 62
   179
420
  2234388
370
     9
  0
POLYLINE
  5
DD
330
1F
100
AcDbEntity
  8
_U+30EC_U+30A4_U+30E4_U+30FC 1
 62
   179
420
  2234388
370
     9
100
AcDb2dPolyline
 66
     1
 10
0.0
 20
0.0
 30
0.0
  0
VERTEX
  5
DE
330
DD
100
AcDbEntity
  8
_U+30EC_U+30A4_U+30E4_U+30FC 1
 62
   179
420
  2234388
370
     9
100
AcDbVertex
100
AcDb2dVertex
 10
114.4464027491665
 20
-129.5851908009373
 30
0.0
  0
VERTEX
  5
DF
330
DD
100
AcDbEntity
  8
_U+30EC_U+30A4_U+30E4_U+30FC 1
 62
   179
420
  2234388
370
     9
100
AcDbVertex
100
AcDb2dVertex
 10
116.9062134063629
 20
-129.5851908009373
 30
0.0
  0
SEQEND
  5
E0
330
DD
100
AcDbEntity
  8
_U+30EC_U+30A4_U+30E4_U+30FC 1
 62
   179
420
  2234388
370
     9
  0
POLYLINE
  5
E1
330
1F
100
AcDbEntity
  8
_U+30EC_U+30A4_U+30E4_U+30FC 1
 62
   179
420
  2234388
370
     9
100
AcDb2dPolyline
 66
     1
 10
0.0
 20
0.0
 30
0.0
  0
VERTEX
  5
E2
330
E1
100
AcDbEntity
  8
_U+30EC_U+30A4_U+30E4_U+30FC 1
 62
   179
420
  2234388
370
     9
100
AcDbVertex
100
AcDb2dVertex
 10
94.44626397936396
 20
-139.5849238539928
 30
0.0
  0
VERTEX
  5
E3
330
E1
100
AcDbEntity
  8
_U+30EC_U+30A4_U+30E4_U+30FC 1
 62
   179
420
  2234388
370
     9
100
AcDbVertex
100
AcDb2dVertex
 10
116.9062134063629
 20
-139.5849238539928
 30
0.0
  0
SEQEND
  5
E4
330
E1
100
AcDbEntity
  8
_U+30EC_U+30A4_U+30E4_U+30FC 1
 62
   179
420
  2234388
370
     9
  0
INSERT
  5
E6
330
1F
100
AcDbEntity
  8
_U+30EC_U+30A4_U+30E4_U+30FC 1
100
AcDbBlockReference
  2
block 7
 10
0.0
 20
0.0
 30
0.0
  0
INSERT
  5
EC
330
1F
100
AcDbEntity
  8
_U+30EC_U+30A4_U+30E4_U+30FC 1
100
AcDbBlockReference
  2
block 8
 10
0.0
 20
0.0
 30
0.0
  0
INSERT
  5
F5
330
1F
100
AcDbEntity
  8
_U+30EC_U+30A4_U+30E4_U+30FC 1
100
AcDbBlockReference
  2
block 9
 10
0.0
 20
0.0
 30
0.0
  0
POLYLINE
  5
FA
330
1F
100
AcDbEntity
  8
_U+30EC_U+30A4_U+30E4_U+30FC 1
 62
     7
420
 16777215
370
    25
100
AcDb2dPolyline
 66
     1
 10
0.0
 20
0.0
 30
0.0
  0
VERTEX
  5
FB
330
FA
100
AcDbEntity
  8
_U+30EC_U+30A4_U+30E4_U+30FC 1
 62
     7
420
 16777215
370
    25
100
AcDbVertex
100
AcDb2dVertex
 10
111.9462990884564
 20
-129.5851908009373
 30
0.0
  0
VERTEX
  5
FC
330
FA
100
AcDbEntity
  8
_U+30EC_U+30A4_U+30E4_U+30FC 1
 62
     7
420
 16777215
370
    25
100
AcDbVertex
100
AcDb2dVertex
 10
111.9462990884564
 20
-128.584748301187
 30
0.0
  0
VERTEX
  5
FD
330
FA
100
AcDbEntity
  8
_U+30EC_U+30A4_U+30E4_U+30FC 1
 62
     7
420
 16777215
370
    25
100
AcDbVertex
100
AcDb2dVertex
 10
70.94586707890903
 20
-128.584748301187
 30
0.0
  0
VERTEX
  5
FE
330
FA
100
AcDbEntity
  8
_U+30EC_U+30A4_U+30E4_U+30FC 1
 62
     7
420
 16777215
370
    25
100
AcDbVertex
100
AcDb2dVertex
 10
70.94586707890903
 20
-120.5852299698536
 30
0.0
  0
VERTEX
  5
FF
330
FA
100
AcDbEntity
  8
_U+30EC_U+30A4_U+30E4_U+30FC 1
 62
     7
420
 16777215
370
    25
100
AcDbVertex
100
AcDb2dVertex
 10
72.9461170278784
 20
-120.5852299698536
 30
0.0
  0
VERTEX
  5
100
330
FA
100
AcDbEntity
  8
_U+30EC_U+30A4_U+30E4_U+30FC 1
 62
     7
420
 16777215
370
    25
100
AcDbVertex
100
AcDb2dVertex
 10
72.9461170278784
 20
-119.5854577478814
 30
0.0
  0
VERTEX
  5
101
330
FA
100
AcDbEntity
  8
_U+30EC_U+30A4_U+30E4_U+30FC 1
 62
     7
420
 16777215
370
    25
100
AcDbVertex
100
AcDb2dVertex
 10
69.94613015997
 20
-119.5854577478814
 30
0.0
  0
VERTEX
  5
102
330
FA
100
AcDbEntity
  8
_U+30EC_U+30A4_U+30E4_U+30FC 1
 62
     7
420
 16777215
370
    25
100
AcDbVertex
100
AcDb2dVertex
 10
69.94613015997
 20
-129.5851908009373
 30
0.0
  0
VERTEX
  5
103
330
FA
100
AcDbEntity
  8
_U+30EC_U+30A4_U+30E4_U+30FC 1
 62
     7
420
 16777215
370
    25
100
AcDbVertex
100
AcDb2dVertex
 10
81.94607763160361
 20
-129.5851908009373
 30
0.0
  0
VERTEX
  5
104
330
FA
100
AcDbEntity
  8
_U+30EC_U+30A4_U+30E4_U+30FC 1
 62
     7
420
 16777215
370
    25
100
AcDbVertex
100
AcDb2dVertex
 10
81.94607763160361
 20
-142.5849107976872
 30
0.0
  0
VERTEX
  5
105
330
FA
100
AcDbEntity
  8
_U+30EC_U+30A4_U+30E4_U+30FC 1
 62
     7
420
 16777215
370
    25
100
AcDbVertex
100
AcDb2dVertex
 10
91.9461632098135
 20
-142.5849107976872
 30
0.0
  0
VERTEX
  5
106
330
FA
100
AcDbEntity
  8
_U+30EC_U+30A4_U+30E4_U+30FC 1
 62
     7
420
 16777215
370
    25
100
AcDbVertex
100
AcDb2dVertex
 10
91.9461632098135
 20
-139.5849238539928
 30
0.0
  0
VERTEX
  5
107
330
FA
100
AcDbEntity
  8
_U+30EC_U+30A4_U+30E4_U+30FC 1
 62
     7
420
 16777215
370
    25
100
AcDbVertex
100
AcDb2dVertex
 10
86.94663194847328
 20
-139.5849238539928
 30
0.0
  0
VERTEX
  5
108
330
FA
100
AcDbEntity
  8
_U+30EC_U+30A4_U+30E4_U+30FC 1
 62
     7
420
 16777215
370
    25
100
AcDbVertex
100
AcDb2dVertex
 10
86.94663194847328
 20
-140.5854016315203
 30
0.0
  0
VERTEX
  5
109
330
FA
100
AcDbEntity
  8
_U+30EC_U+30A4_U+30E4_U+30FC 1
 62
     7
420
 16777215
370
    25
100
AcDbVertex
100
AcDb2dVertex
 10
90.9463910130976
 20
-140.5854016315203
 30
0.0
  0
VERTEX
  5
10A
330
FA
100
AcDbEntity
  8
_U+30EC_U+30A4_U+30E4_U+30FC 1
 62
     7
420
 16777215
370
    25
100
AcDbVertex
100
AcDb2dVertex
 10
90.9463910130976
 20
-141.5851738534928
 30
0.0
  0
VERTEX
  5
10B
330
FA
100
AcDbEntity
  8
_U+30EC_U+30A4_U+30E4_U+30FC 1
 62
     7
420
 16777215
370
    25
100
AcDbVertex
100
AcDb2dVertex
 10
82.94616942370776
 20
-141.5851738534928
 30
0.0
  0
VERTEX
  5
10C
330
FA
100
AcDbEntity
  8
_U+30EC_U+30A4_U+30E4_U+30FC 1
 62
     7
420
 16777215
370
    25
100
AcDbVertex
100
AcDb2dVertex
 10
82.94616942370776
 20
-129.5851908009373
 30
0.0
  0
VERTEX
  5
10D
330
FA
100
AcDbEntity
  8
_U+30EC_U+30A4_U+30E4_U+30FC 1
 62
     7
420
 16777215
370
    25
100
AcDbVertex
100
AcDb2dVertex
 10
111.9462990884564
 20
-129.5851908009373
 30
0.0
  0
SEQEND
  5
10E
330
FA
100
AcDbEntity
  8
_U+30EC_U+30A4_U+30E4_U+30FC 1
 62
     7
420
 16777215
370
    25
  0
ENDSEC
  0
SECTION
  2
OBJECTS
  0
DICTIONARY
  5
C
330
0
100
AcDbDictionary
281
     1
  3
ACAD_GROUP
350
D
  3
ACAD_LAYOUT
350
1A
  3
ACAD_MATERIAL
350
3B
  3
ACAD_MLEADERSTYLE
350
110
  3
ACAD_MLINESTYLE
350
17
  3
ACAD_PLOTSETTINGS
350
19
  3
ACAD_PLOTSTYLENAME
350
E
  3
ACAD_TABLESTYLE
350
10F
  3
ACAD_VISUALSTYLE
350
2A
  0
SUN
  5
3F
330
29
100
AcDbSun
 90
        1
290
     0
 63
     7
421
 16777215
 40
1.0
291
     1
 91
  2455826
 92
 54000000
292
     0
 70
     2
 71
   256
280
     1
  0
DICTIONARY
  5
D
102
{ACAD_REACTORS
330
C
102
}
330
C
100
AcDbDictionary
281
     1
  0
DICTIONARY
  5
1A
102
{ACAD_REACTORS
330
C
102
}
330
C
100
AcDbDictionary
281
     1
  3
Layout1
350
1E
  3
Layout2
350
26
  3
Model
350
22
  0
DICTIONARY
  5
3B
102
{ACAD_REACTORS
330
C
102
}
330
C
100
AcDbDictionary
281
     1
  3
ByBlock
350
3D
  3
ByLayer
350
3C
  3
Global
350
3E
  0
DICTIONARY
  5
110
102
{ACAD_REACTORS
330
C
102
}
330
C
100
AcDbDictionary
281
     1
  0
DICTIONARY
  5
17
102
{ACAD_REACTORS
330
C
102
}
330
C
100
AcDbDictionary
281
     1
  3
Standard
350
18
  0
DICTIONARY
  5
19
102
{ACAD_REACTORS
330
C
102
}
330
C
100
AcDbDictionary
281
     1
  0
ACDBDICTIONARYWDFLT
  5
E
102
{ACAD_REACTORS
330
C
102
}
330
C
100
AcDbDictionary
281
     1
  3
Normal
350
F
100
AcDbDictionaryWithDefault
340
F
  0
DICTIONARY
  5
10F
102
{ACAD_REACTORS
330
C
102
}
330
C
100
AcDbDictionary
281
     1
  0
DICTIONARY
  5
2A
102
{ACAD_REACTORS
330
C
102
}
330
C
100
AcDbDictionary
281
     1
  3
2dWireframe
350
2F
  3
3D Hidden
350
31
  3
3dWireframe
350
30
  3
Basic
350
32
  3
Brighten
350
36
  3
ColorChange
350
3A
  3
Conceptual
350
34
  3
Dim
350
35
  3
Facepattern
350
39
  3
Flat
350
2B
  3
FlatWithEdges
350
2C
  3
Gouraud
350
2D
  3
GouraudWithEdges
350
2E
  3
Linepattern
350
38
  3
Realistic
350
33
  3
Thicken
350
37
  0
LAYOUT
  5
1E
102
{ACAD_REACTORS
330
1A
102
}
330
1A
100
AcDbPlotSettings
  1

  2
none_device
  4

  6

 40
0.0
 41
0.0
 42
0.0
 43
0.0
 44
0.0
 45
0.0
 46
0.0
 47
0.0
 48
0.0
 49
0.0
140
0.0
141
0.0
142
1.0
143
1.0
 70
   688
 72
     0
 73
     0
 74
     5
  7

 75
    16
 76
     0
 77
     2
 78
   300
147
1.0
148
0.0
149
0.0
100
AcDbLayout
  1
Layout1
 70
     1
 71
     1
 10
0.0
 20
0.0
 11
12.0
 21
9.0
 12
0.0
 22
0.0
 32
0.0
 14
1.000000000000000E+20
 24
1.000000000000000E+20
 34
1.000000000000000E+20
 15
-1.000000000000000E+20
 25
-1.000000000000000E+20
 35
-1.000000000000000E+20
146
0.0
 13
0.0
 23
0.0
 33
0.0
 16
1.0
 26
0.0
 36
0.0
 17
0.0
 27
1.0
 37
0.0
 76
     0
330
1B
  0
LAYOUT
  5
26
102
{ACAD_REACTORS
330
1A
102
}
330
1A
100
AcDbPlotSettings
  1

  2
none_device
  4

  6

 40
0.0
 41
0.0
 42
0.0
 43
0.0
 44
0.0
 45
0.0
 46
0.0
 47
0.0
 48
0.0
 49
0.0
140
0.0
141
0.0
142
1.0
143
1.0
 70
   688
 72
     0
 73
     0
 74
     5
  7

 75
    16
 76
     0
 77
     2
 78
   300
147
1.0
148
0.0
149
0.0
100
AcDbLayout
  1
Layout2
 70
     1
 71
     2
 10
0.0
 20
0.0
 11
0.0
 21
0.0
 12
0.0
 22
0.0
 32
0.0
 14
0.0
 24
0.0
 34
0.0
 15
0.0
 25
0.0
 35
0.0
146
0.0
 13
0.0
 23
0.0
 33
0.0
 16
1.0
 26
0.0
 36
0.0
 17
0.0
 27
1.0
 37
0.0
 76
     0
330
23
  0
LAYOUT
  5
22
102
{ACAD_REACTORS
330
1A
102
}
330
1A
100
AcDbPlotSettings
  1

  2
none_device
  4

  6

 40
0.0
 41
0.0
 42
0.0
 43
0.0
 44
0.0
 45
0.0
 46
0.0
 47
0.0
 48
0.0
 49
0.0
140
0.0
141
0.0
142
1.0
143
1.0
 70
  1712
 72
     0
 73
     0
 74
     0
  7

 75
     0
 76
     0
 77
     2
 78
   300
147
1.0
148
0.0
149
0.0
100
AcDbLayout
  1
Model
 70
     1
 71
     0
 10
0.0
 20
0.0
 11
12.0
 21
9.0
 12
0.0
 22
0.0
 32
0.0
 14
1.000000000000000E+20
 24
1.000000000000000E+20
 34
1.000000000000000E+20
 15
-1.000000000000000E+20
 25
-1.000000000000000E+20
 35
-1.000000000000000E+20
146
0.0
 13
0.0
 23
0.0
 33
0.0
 16
1.0
 26
0.0
 36
0.0
 17
0.0
 27
1.0
 37
0.0
 76
     0
330
1F
331
29
  0
MATERIAL
  5
3D
102
{ACAD_REACTORS
330
3B
102
}
330
3B
100
AcDbMaterial
  1
ByBlock
 72
     1
 94
      127
  0
MATERIAL
  5
3C
102
{ACAD_REACTORS
330
3B
102
}
330
3B
100
AcDbMaterial
  1
ByLayer
 72
     1
 94
      127
  0
MATERIAL
  5
3E
102
{ACAD_REACTORS
330
3B
102
}
330
3B
100
AcDbMaterial
  1
Global
 72
     1
 94
      127
  0
MLINESTYLE
  5
18
102
{ACAD_REACTORS
330
17
102
}
330
17
100
AcDbMlineStyle
  2
Standard
 70
     0
  3

 62
   256
 51
90.0
 52
90.0
 71
     2
 49
0.5
 62
   256
  6
BYLAYER
 49
-0.5
 62
   256
  6
BYLAYER
  0
ACDBPLACEHOLDER
  5
F
102
{ACAD_REACTORS
330
E
102
}
330
E
  0
VISUALSTYLE
  5
2F
102
{ACAD_REACTORS
330
2A
102
}
330
2A
100
AcDbVisualStyle
  2
2dWireframe
 70
     4
177
     2
291
     0
 71
     0
176
     1
 72
     2
176
     1
 73
     0
176
     1
 90
        0
176
     1
 40
-0.6
176
     1
 41
-30.0
176
     1
 62
     5
 63
     7
421
 16777215
176
     1
 74
     1
176
     1
 91
        4
176
     1
 64
     7
176
     1
 65
   257
176
     1
 75
     1
176
     1
175
     1
176
     1
 42
1.0
176
     1
 92
        0
176
     1
 66
   257
176
     1
 43
1.0
176
     1
 76
     1
176
     1
 77
     6
176
     1
 78
     2
176
     1
 67
     7
176
     1
 79
     5
176
     1
170
     0
176
     1
171
     0
176
     1
290
     0
176
     1
 93
        1
176
     1
 44
0.0
176
     1
173
     0
176
     1
  0
VISUALSTYLE
  5
31
102
{ACAD_REACTORS
330
2A
102
}
330
2A
100
AcDbVisualStyle
  2
3D Hidden
 70
     6
177
     2
291
     0
 71
     1
176
     1
 72
     2
176
     1
 73
     2
176
     1
 90
        0
176
     1
 40
-0.6
176
     1
 41
-30.0
176
     1
 62
     5
 63
     7
421
 16777215
176
     1
 74
     2
176
     1
 91
        2
176
     1
 64
     7
176
     1
 65
   257
176
     1
 75
     2
176
     1
175
     1
176
     1
 42
40.0
176
     1
 92
        0
176
     1
 66
   257
176
     1
 43
1.0
176
     1
 76
     1
176
     1
 77
     6
176
     1
 78
     2
176
     1
 67
     7
176
     1
 79
     3
176
     1
170
     0
176
     1
171
     0
176
     1
290
     0
176
     1
 93
        1
176
     1
 44
0.0
176
     1
173
     0
176
     1
  0
VISUALSTYLE
  5
30
102
{ACAD_REACTORS
330
2A
102
}
330
2A
100
AcDbVisualStyle
  2
3dWireframe
 70
     5
177
     2
291
     0
 71
     0
176
     1
 72
     2
176
     1
 73
     0
176
     1
 90
        0
176
     1
 40
-0.6
176
     1
 41
-30.0
176
     1
 62
     5
 63
     7
421
 16777215
176
     1
 74
     1
176
     1
 91
        4
176
     1
 64
     7
176
     1
 65
   257
176
     1
 75
     1
176
     1
175
     1
176
     1
 42
1.0
176
     1
 92
        0
176
     1
 66
   257
176
     1
 43
1.0
176
     1
 76
     1
176
     1
 77
     6
176
     1
 78
     2
176
     1
 67
     7
176
     1
 79
     5
176
     1
170
     0
176
     1
171
     0
176
     1
290
     0
176
     1
 93
        1
176
     1
 44
0.0
176
     1
173
     0
176
     1
  0
VISUALSTYLE
  5
32
102
{ACAD_REACTORS
330
2A
102
}
330
2A
100
AcDbVisualStyle
  2
Basic
 70
     7
177
     2
291
     1
 71
     1
176
     1
 72
     0
176
     1
 73
     1
176
     1
 90
        0
176
     1
 40
-0.6
176
     1
 41
-30.0
176
     1
 62
     5
 63
     7
421
 16777215
176
     1
 74
     0
176
     1
 91
        4
176
     1
 64
     7
176
     1
 65
   257
176
     1
 75
     1
176
     1
175
     1
176
     1
 42
1.0
176
     1
 92
        8
176
     1
 66
     7
176
     1
 43
1.0
176
     1
 76
     1
176
     1
 77
     6
176
     1
 78
     2
176
     1
 67
     7
176
     1
 79
     5
176
     1
170
     0
176
     1
171
     0
176
     1
290
     0
176
     1
 93
        1
176
     1
 44
0.0
176
     1
173
     0
176
     1
  0
VISUALSTYLE
  5
36
102
{ACAD_REACTORS
330
2A
102
}
330
2A
100
AcDbVisualStyle
  2
Brighten
 70
    12
177
     2
291
     1
 71
     2
176
     1
 72
     2
176
     1
 73
     0
176
     1
 90
        0
176
     1
 40
-0.6
176
     1
 41
-30.0
176
     1
 62
     5
 63
     7
421
 16777215
176
     1
 74
     1
176
     1
 91
        4
176
     1
 64
     7
176
     1
 65
   257
176
     1
 75
     1
176
     1
175
     1
176
     1
 42
1.0
176
     1
 92
        8
176
     1
 66
     7
176
     1
 43
1.0
176
     1
 76
     1
176
     1
 77
     6
176
     1
 78
     2
176
     1
 67
     7
176
     1
 79
     5
176
     1
170
     0
176
     1
171
     0
176
     1
290
     0
176
     1
 93
        1
176
     1
 44
50.0
176
     1
173
     0
176
     1
  0
VISUALSTYLE
  5
3A
102
{ACAD_REACTORS
330
2A
102
}
330
2A
100
AcDbVisualStyle
  2
ColorChange
 70
    16
177
     2
291
     1
 71
     2
176
     1
 72
     2
176
     1
 73
     3
176
     1
 90
        0
176
     1
 40
-0.6
176
     1
 41
-30.0
176
     1
 62
     5
 63
     8
421
  8421504
176
     1
 74
     1
176
     1
 91
        4
176
     1
 64
     7
176
     1
 65
   257
176
     1
 75
     1
176
     1
175
     1
176
     1
 42
1.0
176
     1
 92
        8
176
     1
 66
     8
424
  8421504
176
     1
 43
1.0
176
     1
 76
     1
176
     1
 77
     6
176
     1
 78
     2
176
     1
 67
     7
176
     1
 79
     5
176
     1
170
     0
176
     1
171
     0
176
     1
290
     0
176
     1
 93
        1
176
     1
 44
0.0
176
     1
173
     0
176
     1
  0
VISUALSTYLE
  5
34
102
{ACAD_REACTORS
330
2A
102
}
330
2A
100
AcDbVisualStyle
  2
Conceptual
 70
     9
177
     2
291
     0
 71
     3
176
     1
 72
     2
176
     1
 73
     0
176
     1
 90
        0
176
     1
 40
-0.6
176
     1
 41
-30.0
176
     1
 62
     5
 63
     7
421
 16777215
176
     1
 74
     2
176
     1
 91
        2
176
     1
 64
     7
176
     1
 65
   257
176
     1
 75
     1
176
     1
175
     1
176
     1
 42
40.0
176
     1
 92
        8
176
     1
 66
     7
176
     1
 43
1.0
176
     1
 76
     1
176
     1
 77
     6
176
     1
 78
     2
176
     1
 67
     7
176
     1
 79
     3
176
     1
170
     0
176
     1
171
     0
176
     1
290
     0
176
     1
 93
        1
176
     1
 44
0.0
176
     1
173
     0
176
     1
  0
VISUALSTYLE
  5
35
102
{ACAD_REACTORS
330
2A
102
}
330
2A
100
AcDbVisualStyle
  2
Dim
 70
    11
177
     2
291
     1
 71
     2
176
     1
 72
     2
176
     1
 73
     0
176
     1
 90
        0
176
     1
 40
-0.6
176
     1
 41
-30.0
176
     1
 62
     5
 63
     7
421
 16777215
176
     1
 74
     1
176
     1
 91
        4
176
     1
 64
     7
176
     1
 65
   257
176
     1
 75
     1
176
     1
175
     1
176
     1
 42
1.0
176
     1
 92
        8
176
     1
 66
     7
176
     1
 43
1.0
176
     1
 76
     1
176
     1
 77
     6
176
     1
 78
     2
176
     1
 67
     7
176
     1
 79
     5
176
     1
170
     0
176
     1
171
     0
176
     1
290
     0
176
     1
 93
        1
176
     1
 44
-50.0
176
     1
173
     0
176
     1
  0
VISUALSTYLE
  5
39
102
{ACAD_REACTORS
330
2A
102
}
330
2A
100
AcDbVisualStyle
  2
Facepattern
 70
    15
177
     2
291
     1
 71
     2
176
     1
 72
     2
176
     1
 73
     0
176
     1
 90
        0
176
     1
 40
-0.6
176
     1
 41
-30.0
176
     1
 62
     5
 63
     7
421
 16777215
176
     1
 74
     1
176
     1
 91
        4
176
     1
 64
     7
176
     1
 65
   257
176
     1
 75
     1
176
     1
175
     1
176
     1
 42
1.0
176
     1
 92
        8
176
     1
 66
     7
176
     1
 43
1.0
176
     1
 76
     1
176
     1
 77
     6
176
     1
 78
     2
176
     1
 67
     7
176
     1
 79
     5
176
     1
170
     0
176
     1
171
     0
176
     1
290
     0
176
     1
 93
        1
176
     1
 44
0.0
176
     1
173
     0
176
     1
  0
VISUALSTYLE
  5
2B
102
{ACAD_REACTORS
330
2A
102
}
330
2A
100
AcDbVisualStyle
  2
Flat
 70
     0
177
     2
291
     1
 71
     2
176
     1
 72
     1
176
     1
 73
     1
176
     1
 90
        2
176
     1
 40
-0.6
176
     1
 41
30.0
176
     1
 62
     5
 63
     7
421
 16777215
176
     1
 74
     0
176
     1
 91
        4
176
     1
 64
     7
176
     1
 65
   257
176
     1
 75
     1
176
     1
175
     1
176
     1
 42
1.0
176
     1
 92
        8
176
     1
 66
     7
176
     1
 43
1.0
176
     1
 76
     1
176
     1
 77
     6
176
     1
 78
     2
176
     1
 67
     7
176
     1
 79
     5
176
     1
170
     0
176
     1
171
     0
176
     1
290
     0
176
     1
 93
       13
176
     1
 44
0.0
176
     1
173
     0
176
     1
  0
VISUALSTYLE
  5
2C
102
{ACAD_REACTORS
330
2A
102
}
330
2A
100
AcDbVisualStyle
  2
FlatWithEdges
 70
     1
177
     2
291
     1
 71
     2
176
     1
 72
     1
176
     1
 73
     1
176
     1
 90
        2
176
     1
 40
-0.6
176
     1
 41
30.0
176
     1
 62
     5
 63
     7
421
 16777215
176
     1
 74
     1
176
     1
 91
        4
176
     1
 64
     7
176
     1
 65
   257
176
     1
 75
     1
176
     1
175
     1
176
     1
 42
1.0
176
     1
 92
        0
176
     1
 66
   257
176
     1
 43
1.0
176
     1
 76
     1
176
     1
 77
     6
176
     1
 78
     2
176
     1
 67
     7
176
     1
 79
     5
176
     1
170
     0
176
     1
171
     0
176
     1
290
     0
176
     1
 93
       13
176
     1
 44
0.0
176
     1
173
     0
176
     1
  0
VISUALSTYLE
  5
2D
102
{ACAD_REACTORS
330
2A
102
}
330
2A
100
AcDbVisualStyle
  2
Gouraud
 70
     2
177
     2
291
     1
 71
     2
176
     1
 72
     2
176
     1
 73
     1
176
     1
 90
        2
176
     1
 40
-0.6
176
     1
 41
30.0
176
     1
 62
     5
 63
     7
421
 16777215
176
     1
 74
     0
176
     1
 91
        4
176
     1
 64
     7
176
     1
 65
   257
176
     1
 75
     1
176
     1
175
     1
176
     1
 42
1.0
176
     1
 92
        0
176
     1
 66
     7
176
     1
 43
1.0
176
     1
 76
     1
176
     1
 77
     6
176
     1
 78
     2
176
     1
 67
     7
176
     1
 79
     5
176
     1
170
     0
176
     1
171
     0
176
     1
290
     0
176
     1
 93
       13
176
     1
 44
0.0
176
     1
173
     0
176
     1
  0
VISUALSTYLE
  5
2E
102
{ACAD_REACTORS
330
2A
102
}
330
2A
100
AcDbVisualStyle
  2
GouraudWithEdges
 70
     3
177
     2
291
     1
 71
     2
176
     1
 72
     2
176
     1
 73
     1
176
     1
 90
        2
176
     1
 40
-0.6
176
     1
 41
30.0
176
     1
 62
     5
 63
     7
421
 16777215
176
     1
 74
     1
176
     1
 91
        4
176
     1
 64
     7
176
     1
 65
   257
176
     1
 75
     1
176
     1
175
     1
176
     1
 42
1.0
176
     1
 92
        0
176
     1
 66
   257
176
     1
 43
1.0
176
     1
 76
     1
176
     1
 77
     6
176
     1
 78
     2
176
     1
 67
     7
176
     1
 79
     5
176
     1
170
     0
176
     1
171
     0
176
     1
290
     0
176
     1
 93
       13
176
     1
 44
0.0
176
     1
173
     0
176
     1
  0
VISUALSTYLE
  5
38
102
{ACAD_REACTORS
330
2A
102
}
330
2A
100
AcDbVisualStyle
  2
Linepattern
 70
    14
177
     2
291
     1
 71
     2
176
     1
 72
     2
176
     1
 73
     0
176
     1
 90
        0
176
     1
 40
-0.6
176
     1
 41
-30.0
176
     1
 62
     5
 63
     7
421
 16777215
176
     1
 74
     1
176
     1
 91
        4
176
     1
 64
     7
176
     1
 65
   257
176
     1
 75
     7
176
     1
175
     7
176
     1
 42
1.0
176
     1
 92
        8
176
     1
 66
     7
176
     1
 43
1.0
176
     1
 76
     1
176
     1
 77
     6
176
     1
 78
     2
176
     1
 67
     7
176
     1
 79
     5
176
     1
170
     0
176
     1
171
     0
176
     1
290
     0
176
     1
 93
        1
176
     1
 44
0.0
176
     1
173
     0
176
     1
  0
VISUALSTYLE
  5
33
102
{ACAD_REACTORS
330
2A
102
}
330
2A
100
AcDbVisualStyle
  2
Realistic
 70
     8
177
     2
291
     0
 71
     2
176
     1
 72
     2
176
     1
 73
     0
176
     1
 90
        0
176
     1
 40
-0.6
176
     1
 41
-30.0
176
     1
 62
     5
 63
     7
421
 16777215
176
     1
 74
     1
176
     1
 91
        0
176
     1
 64
     7
176
     1
 65
   257
176
     1
 75
     1
176
     1
175
     1
176
     1
 42
1.0
176
     1
 92
        8
176
     1
 66
     8
424
  7895160
176
     1
 43
1.0
176
     1
 76
     1
176
     1
 77
     6
176
     1
 78
     2
176
     1
 67
     7
176
     1
 79
     5
176
     1
170
     0
176
     1
171
     0
176
     1
290
     0
176
     1
 93
       13
176
     1
 44
0.0
176
     1
173
     0
176
     1
  0
VISUALSTYLE
  5
37
102
{ACAD_REACTORS
330
2A
102
}
330
2A
100
AcDbVisualStyle
  2
Thicken
 70
    13
177
     2
291
     1
 71
     2
176
     1
 72
     2
176
     1
 73
     0
176
     1
 90
        0
176
     1
 40
-0.6
176
     1
 41
-30.0
176
     1
 62
     5
 63
     7
421
 16777215
176
     1
 74
     1
176
     1
 91
        4
176
     1
 64
     7
176
     1
 65
   257
176
     1
 75
     1
176
     1
175
     1
176
     1
 42
1.0
176
     1
 92
       12
176
     1
 66
     7
176
     1
 43
1.0
176
     1
 76
     1
176
     1
 77
     6
176
     1
 78
     2
176
     1
 67
     7
176
     1
 79
     5
176
     1
170
     0
176
     1
171
     0
176
     1
290
     0
176
     1
 93
        1
176
     1
 44
0.0
176
     1
173
     0
176
     1
  0
ENDSEC
  0
EOF
