  0
SECTION
  2
HEADER
  9
$ACADVER
  1
AC1024
  9
$ACADMAINTVER
 70
     6
  9
$DWGCODEPAGE
  3
UNDEFINED
  9
$INSBASE
 10
0.0
 20
0.0
 30
0.0
  9
$EXTMIN
 10
1.000000000000000E+20
 20
1.000000000000000E+20
 30
1.000000000000000E+20
  9
$EXTMAX
 10
-1.000000000000000E+20
 20
-1.000000000000000E+20
 30
-1.000000000000000E+20
  9
$LIMMIN
 10
0.0
 20
0.0
  9
$LIMMAX
 10
12.0
 20
9.0
  9
$ORTHOMODE
 70
     0
  9
$REGENMODE
 70
     1
  9
$FILLMODE
 70
     1
  9
$QTEXTMODE
 70
     0
  9
$MIRRTEXT
 70
     1
  9
$LTSCALE
 40
1.0
  9
$ATTMODE
 70
     1
  9
$TEXTSIZE
 40
0.2
  9
$TRACEWID
 40
0.05
  9
$TEXTSTYLE
  7
Standard
  9
$CLAYER
  8
0
  9
$CELTYPE
  6
ByLayer
  9
$CECOLOR
 62
   256
  9
$CELTSCALE
 40
1.0
  9
$DISPSILH
 70
     0
  9
$DIMSCALE
 40
1.0
  9
$DIMASZ
 40
0.18
  9
$DIMEXO
 40
0.0625
  9
$DIMDLI
 40
0.38
  9
$DIMRND
 40
0.0
  9
$DIMDLE
 40
0.0
  9
$DIMEXE
 40
0.18
  9
$DIMTP
 40
0.0
  9
$DIMTM
 40
0.0
  9
$DIMTXT
 40
0.18
  9
$DIMCEN
 40
0.09
  9
$DIMTSZ
 40
0.0
  9
$DIMTOL
 70
     0
  9
$DIMLIM
 70
     0
  9
$DIMTIH
 70
     1
  9
$DIMTOH
 70
     1
  9
$DIMSE1
 70
     0
  9
$DIMSE2
 70
     0
  9
$DIMTAD
 70
     0
  9
$DIMZIN
 70
     0
  9
$DIMBLK
  1

  9
$DIMASO
 70
     1
  9
$DIMSHO
 70
     1
  9
$DIMPOST
  1

  9
$DIMAPOST
  1

  9
$DIMALT
 70
     0
  9
$DIMALTD
 70
     2
  9
$DIMALTF
 40
25.4
  9
$DIMLFAC
 40
1.0
  9
$DIMTOFL
 70
     0
  9
$DIMTVP
 40
0.0
  9
$DIMTIX
 70
     0
  9
$DIMSOXD
 70
     0
  9
$DIMSAH
 70
     0
  9
$DIMBLK1
  1

  9
$DIMBLK2
  1

  9
$DIMSTYLE
  2
Standard
  9
$DIMCLRD
 70
     0
  9
$DIMCLRE
 70
     0
  9
$DIMCLRT
 70
     0
  9
$DIMTFAC
 40
1.0
  9
$DIMGAP
 40
0.09
  9
$DIMJUST
 70
     0
  9
$DIMSD1
 70
     0
  9
$DIMSD2
 70
     0
  9
$DIMTOLJ
 70
     1
  9
$DIMTZIN
 70
     0
  9
$DIMALTZ
 70
     0
  9
$DIMALTTZ
 70
     0
  9
$DIMUPT
 70
     0
  9
$DIMDEC
 70
     4
  9
$DIMTDEC
 70
     4
  9
$DIMALTU
 70
     2
  9
$DIMALTTD
 70
     2
  9
$DIMTXSTY
  7
Standard
  9
$DIMAUNIT
 70
     0
  9
$DIMADEC
 70
     0
  9
$DIMALTRND
 40
0.0
  9
$DIMAZIN
 70
     0
  9
$DIMDSEP
 70
    46
  9
$DIMATFIT
 70
     3
  9
$DIMFRAC
 70
     0
  9
$DIMLDRBLK
  1

  9
$DIMLUNIT
 70
     2
  9
$DIMLWD
 70
    -2
  9
$DIMLWE
 70
    -2
  9
$DIMTMOVE
 70
     0
  9
$DIMFXL
 40
1.0
  9
$DIMFXLON
 70
     0
  9
$DIMJOGANG
 40
0.7853981633974483
  9
$DIMTFILL
 70
     0
  9
$DIMTFILLCLR
 70
     0
  9
$DIMARCSYM
 70
     0
  9
$DIMLTYPE
  6

  9
$DIMLTEX1
  6

  9
$DIMLTEX2
  6

  9
$DIMTXTDIRECTION
 70
     0
  9
$LUNITS
 70
     2
  9
$LUPREC
 70
     4
  9
$SKETCHINC
 40
0.1
  9
$FILLETRAD
 40
0.5
  9
$AUNITS
 70
     0
  9
$AUPREC
 70
     0
  9
$MENU
  1
.
  9
$ELEVATION
 40
0.0
  9
$PELEVATION
 40
0.0
  9
$THICKNESS
 40
0.0
  9
$LIMCHECK
 70
     0
  9
$CHAMFERA
 40
0.5
  9
$CHAMFERB
 40
0.5
  9
$CHAMFERC
 40
1.0
  9
$CHAMFERD
 40
0.0
  9
$SKPOLY
 70
     0
  9
$TDCREATE
 40
2457917.591631933
  9
$TDUCREATE
 40
2457917.216631944
  9
$TDUPDATE
 40
2457917.591631933
  9
$TDUUPDATE
 40
2457917.216631944
  9
$TDINDWG
 40
0.0000000116
  9
$TDUSRTIMER
 40
0.0000000116
  9
$USRTIMER
 70
     1
  9
$ANGBASE
 50
0.0
  9
$ANGDIR
 70
     0
  9
$PDMODE
 70
     0
  9
$PDSIZE
 40
0.0
  9
$PLINEWID
 40
0.0
  9
$SPLFRAME
 70
     0
  9
$SPLINETYPE
 70
     6
  9
$SPLINESEGS
 70
     8
  9
$HANDSEED
  5
10E
  9
$SURFTAB1
 70
     6
  9
$SURFTAB2
 70
     6
  9
$SURFTYPE
 70
     6
  9
$SURFU
 70
     6
  9
$SURFV
 70
     6
  9
$UCSBASE
  2

  9
$UCSNAME
  2

  9
$UCSORG
 10
0.0
 20
0.0
 30
0.0
  9
$UCSXDIR
 10
1.0
 20
0.0
 30
0.0
  9
$UCSYDIR
 10
0.0
 20
1.0
 30
0.0
  9
$UCSORTHOREF
  2

  9
$UCSORTHOVIEW
 70
     0
  9
$UCSORGTOP
 10
0.0
 20
0.0
 30
0.0
  9
$UCSORGBOTTOM
 10
0.0
 20
0.0
 30
0.0
  9
$UCSORGLEFT
 10
0.0
 20
0.0
 30
0.0
  9
$UCSORGRIGHT
 10
0.0
 20
0.0
 30
0.0
  9
$UCSORGFRONT
 10
0.0
 20
0.0
 30
0.0
  9
$UCSORGBACK
 10
0.0
 20
0.0
 30
0.0
  9
$PUCSBASE
  2

  9
$PUCSNAME
  2

  9
$PUCSORG
 10
0.0
 20
0.0
 30
0.0
  9
$PUCSXDIR
 10
1.0
 20
0.0
 30
0.0
  9
$PUCSYDIR
 10
0.0
 20
1.0
 30
0.0
  9
$PUCSORTHOREF
  2

  9
$PUCSORTHOVIEW
 70
     0
  9
$PUCSORGTOP
 10
0.0
 20
0.0
 30
0.0
  9
$PUCSORGBOTTOM
 10
0.0
 20
0.0
 30
0.0
  9
$PUCSORGLEFT
 10
0.0
 20
0.0
 30
0.0
  9
$PUCSORGRIGHT
 10
0.0
 20
0.0
 30
0.0
  9
$PUCSORGFRONT
 10
0.0
 20
0.0
 30
0.0
  9
$PUCSORGBACK
 10
0.0
 20
0.0
 30
0.0
  9
$USERI1
 70
     0
  9
$USERI2
 70
     0
  9
$USERI3
 70
     0
  9
$USERI4
 70
     0
  9
$USERI5
 70
     0
  9
$USERR1
 40
0.0
  9
$USERR2
 40
0.0
  9
$USERR3
 40
0.0
  9
$USERR4
 40
0.0
  9
$USERR5
 40
0.0
  9
$WORLDVIEW
 70
     1
  9
$SHADEDGE
 70
     3
  9
$SHADEDIF
 70
    70
  9
$TILEMODE
 70
     1
  9
$MAXACTVP
 70
    64
  9
$PINSBASE
 10
0.0
 20
0.0
 30
0.0
  9
$PLIMCHECK
 70
     0
  9
$PEXTMIN
 10
1.000000000000000E+20
 20
1.000000000000000E+20
 30
1.000000000000000E+20
  9
$PEXTMAX
 10
-1.000000000000000E+20
 20
-1.000000000000000E+20
 30
-1.000000000000000E+20
  9
$PLIMMIN
 10
0.0
 20
0.0
  9
$PLIMMAX
 10
12.0
 20
9.0
  9
$UNITMODE
 70
     0
  9
$VISRETAIN
 70
     1
  9
$PLINEGEN
 70
     0
  9
$PSLTSCALE
 70
     1
  9
$TREEDEPTH
 70
  3020
  9
$CMLSTYLE
  2
Standard
  9
$CMLJUST
 70
     0
  9
$CMLSCALE
 40
1.0
  9
$PROXYGRAPHICS
 70
     1
  9
$MEASUREMENT
 70
     0
  9
$CELWEIGHT
370
    -1
  9
$ENDCAPS
280
     0
  9
$JOINSTYLE
280
     0
  9
$LWDISPLAY
290
     1
  9
$INSUNITS
 70
     1
  9
$HYPERLINKBASE
  1

  9
$STYLESHEET
  1

  9
$XEDIT
290
     1
  9
$CEPSNTYPE
380
     0
  9
$PSTYLEMODE
290
     1
  9
$FINGERPRINTGUID
  2
{92B4306E-3AEB-6001-DEA5-4E8F1B9EE6AE}
  9
$VERSIONGUID
  2
{FAEB1C32-E019-11D5-929B-00C0DF256EC4}
  9
$EXTNAMES
290
     1
  9
$PSVPSCALE
 40
0.0
  9
$OLESTARTUP
290
     0
  9
$SORTENTS
280
   127
  9
$INDEXCTL
280
     0
  9
$HIDETEXT
280
     1
  9
$XCLIPFRAME
280
     2
  9
$HALOGAP
280
     0
  9
$OBSCOLOR
 70
   257
  9
$OBSLTYPE
280
     0
  9
$INTERSECTIONDISPLAY
280
     0
  9
$INTERSECTIONCOLOR
 70
   257
  9
$DIMASSOC
280
     2
  9
$PROJECTNAME
  1

  9
$CAMERADISPLAY
290
     0
  9
$LENSLENGTH
 40
50.0
  9
$CAMERAHEIGHT
 40
0.0
  9
$STEPSPERSEC
 40
2.0
  9
$STEPSIZE
 40
6.0
  9
$3DDWFPREC
 40
2.0
  9
$PSOLWIDTH
 40
0.25
  9
$PSOLHEIGHT
 40
4.0
  9
$LOFTANG1
 40
1.570796326794897
  9
$LOFTANG2
 40
1.570796326794897
  9
$LOFTMAG1
 40
0.0
  9
$LOFTMAG2
 40
0.0
  9
$LOFTPARAM
 70
     7
  9
$LOFTNORMALS
280
     1
  9
$LATITUDE
 40
37.795
  9
$LONGITUDE
 40
-122.394
  9
$NORTHDIRECTION
 40
0.0
  9
$TIMEZONE
 70
 -8000
  9
$LIGHTGLYPHDISPLAY
280
     1
  9
$TILEMODELIGHTSYNCH
280
     1
  9
$CMATERIAL
347
3C
  9
$SOLIDHIST
280
     1
  9
$SHOWHIST
280
     1
  9
$DWFFRAME
280
     2
  9
$DGNFRAME
280
     2
  9
$REALWORLDSCALE
290
     1
  9
$INTERFERECOLOR
 62
   256
  9
$CSHADOW
280
     0
  9
$SHADOWPLANELOCATION
 40
0.0
  0
ENDSEC
  0
SECTION
  2
CLASSES
  0
CLASS
  1
ACDBDICTIONARYWDFLT
  2
AcDbDictionaryWithDefault
  3
ObjectDBX Classes
 90
        0
 91
        4
280
     0
281
     0
  0
CLASS
  1
VISUALSTYLE
  2
AcDbVisualStyle
  3
ObjectDBX Classes
 90
     4095
 91
        4
280
     0
281
     0
  0
CLASS
  1
MATERIAL
  2
AcDbMaterial
  3
ObjectDBX Classes
 90
     1153
 91
        4
280
     0
281
     0
  0
CLASS
  1
SUN
  2
AcDbSun
  3
SCENEOE
 90
     1024
 91
        4
280
     0
281
     0
  0
ENDSEC
  0
SECTION
  2
TABLES
  0
TABLE
  2
VPORT
  5
8
330
0
100
AcDbSymbolTable
 70
     1
  0
VPORT
  5
29
330
8
100
AcDbSymbolTableRecord
100
AcDbViewportTableRecord
  2
*Active
 70
     0
 10
0.0
 20
0.0
 11
1.0
 21
1.0
 12
0.0
 22
0.0
 13
0.0
 23
0.0
 14
0.5
 24
0.5
 15
0.5
 25
0.5
 16
0.0
 26
0.0
 36
1.0
 17
91.00082462281999
 27
-128.4993055234307
 37
0.0
 40
256.9986110468615
 41
0.7081814508812795
 42
50.0
 43
0.0
 44
0.0
 50
0.0
 51
0.0
 71
     0
 72
   100
 73
     1
 74
     3
 75
     0
 76
     0
 77
     0
 78
     0
281
     0
 65
     1
110
0.0
120
0.0
130
0.0
111
1.0
121
0.0
131
0.0
112
0.0
122
1.0
132
0.0
 79
     0
146
0.0
 60
     3
 61
     5
292
     1
282
     1
141
0.0
142
0.0
 63
   250
361
3F
  0
ENDTAB
  0
TABLE
  2
LTYPE
  5
5
330
0
100
AcDbSymbolTable
 70
     1
  0
LTYPE
  5
14
330
5
100
AcDbSymbolTableRecord
100
AcDbLinetypeTableRecord
  2
ByBlock
 70
     0
  3

 72
    65
 73
     0
 40
0.0
  0
LTYPE
  5
15
330
5
100
AcDbSymbolTableRecord
100
AcDbLinetypeTableRecord
  2
ByLayer
 70
     0
  3

 72
    65
 73
     0
 40
0.0
  0
LTYPE
  5
16
330
5
100
AcDbSymbolTableRecord
100
AcDbLinetypeTableRecord
  2
Continuous
 70
     0
  3
Solid line
 72
    65
 73
     0
 40
0.0
  0
ENDTAB
  0
TABLE
  2
LAYER
  5
2
330
0
100
AcDbSymbolTable
 70
     2
  0
LAYER
  5
10
330
2
100
AcDbSymbolTableRecord
100
AcDbLayerTableRecord
  2
0
 70
     0
 62
     7
  6
Continuous
370
    -3
390
F
347
3E
  0
LAYER
  5
40
330
2
100
AcDbSymbolTableRecord
100
AcDbLayerTableRecord
  2
_U+30EC_U+30A4_U+30E4_U+30FC 1
 70
     0
 62
     7
  6
Continuous
370
    -3
390
F
347
3E
  0
ENDTAB
  0
TABLE
  2
STYLE
  5
3
330
0
100
AcDbSymbolTable
 70
     1
  0
STYLE
  5
11
330
3
100
AcDbSymbolTableRecord
100
AcDbTextStyleTableRecord
  2
Standard
 70
     0
 40
0.0
 41
1.0
 50
0.0
 71
     0
 42
0.2
  3
txt
  4

  0
ENDTAB
  0
TABLE
  2
VIEW
  5
6
330
0
100
AcDbSymbolTable
 70
     0
  0
ENDTAB
  0
TABLE
  2
UCS
  5
7
330
0
100
AcDbSymbolTable
 70
     0
  0
ENDTAB
  0
TABLE
  2
APPID
  5
9
330
0
100
AcDbSymbolTable
 70
     1
  0
APPID
  5
12
330
9
100
AcDbSymbolTableRecord
100
AcDbRegAppTableRecord
  2
ACAD
 70
     0
  0
ENDTAB
  0
TABLE
  2
DIMSTYLE
  5
A
330
0
100
AcDbSymbolTable
 70
     1
100
AcDbDimStyleTable
  0
DIMSTYLE
105
27
330
A
100
AcDbSymbolTableRecord
100
AcDbDimStyleTableRecord
  2
Standard
 70
     0
178
     0
340
11
  0
ENDTAB
  0
TABLE
  2
BLOCK_RECORD
  5
1
330
0
100
AcDbSymbolTable
 70
     9
  0
BLOCK_RECORD
  5
1F
330
1
100
AcDbSymbolTableRecord
100
AcDbBlockTableRecord
  2
*Model_Space
340
22
 70
     0
280
     1
281
     0
  0
BLOCK_RECORD
  5
1B
330
1
100
AcDbSymbolTableRecord
100
AcDbBlockTableRecord
  2
*Paper_Space
340
1E
 70
     0
280
     1
281
     0
  0
BLOCK_RECORD
  5
23
330
1
100
AcDbSymbolTableRecord
100
AcDbBlockTableRecord
  2
*Paper_Space0
340
26
 70
     0
280
     1
281
     0
  0
BLOCK_RECORD
  5
54
330
1
100
AcDbSymbolTableRecord
100
AcDbBlockTableRecord
  2
block 2
340
0
102
{BLKREFS
331
55
102
}
 70
     0
280
     1
281
     0
  0
BLOCK_RECORD
  5
5D
330
1
100
AcDbSymbolTableRecord
100
AcDbBlockTableRecord
  2
block 3
340
0
102
{BLKREFS
331
5E
102
}
 70
     0
280
     1
281
     0
  0
BLOCK_RECORD
  5
81
330
1
100
AcDbSymbolTableRecord
100
AcDbBlockTableRecord
  2
block 4
340
0
102
{BLKREFS
331
82
102
}
 70
     0
280
     1
281
     0
  0
BLOCK_RECORD
  5
9C
330
1
100
AcDbSymbolTableRecord
100
AcDbBlockTableRecord
  2
block 5
340
0
102
{BLKREFS
331
9D
102
}
 70
     0
280
     1
281
     0
  0
BLOCK_RECORD
  5
B0
330
1
100
AcDbSymbolTableRecord
100
AcDbBlockTableRecord
  2
block 6
340
0
102
{BLKREFS
331
B1
102
}
 70
     0
280
     1
281
     0
  0
BLOCK_RECORD
  5
E5
330
1
100
AcDbSymbolTableRecord
100
AcDbBlockTableRecord
  2
block 7
340
0
102
{BLKREFS
331
E6
102
}
 70
     0
280
     1
281
     0
  0
BLOCK_RECORD
  5
EB
330
1
100
AcDbSymbolTableRecord
100
AcDbBlockTableRecord
  2
block 8
340
0
102
{BLKREFS
331
EC
102
}
 70
     0
280
     1
281
     0
  0
BLOCK_RECORD
  5
F1
330
1
100
AcDbSymbolTableRecord
100
AcDbBlockTableRecord
  2
block 9
340
0
102
{BLKREFS
331
F2
102
}
 70
     0
280
     1
281
     0
  0
ENDTAB
  0
ENDSEC
  0
SECTION
  2
BLOCKS
  0
BLOCK
  5
20
330
1F
100
AcDbEntity
  8
0
100
AcDbBlockBegin
  2
*Model_Space
 70
     0
 10
0.0
 20
0.0
 30
0.0
  3
*Model_Space
  1

  0
ENDBLK
  5
21
330
1F
100
AcDbEntity
  8
0
100
AcDbBlockEnd
  0
BLOCK
  5
1C
330
1B
100
AcDbEntity
 67
     1
  8
0
100
AcDbBlockBegin
  2
*Paper_Space
 70
     0
 10
0.0
 20
0.0
 30
0.0
  3
*Paper_Space
  1

  0
ENDBLK
  5
1D
330
1B
100
AcDbEntity
 67
     1
  8
0
100
AcDbBlockEnd
  0
BLOCK
  5
24
330
23
100
AcDbEntity
  8
0
100
AcDbBlockBegin
  2
*Paper_Space0
 70
     0
 10
0.0
 20
0.0
 30
0.0
  3
*Paper_Space0
  1

  0
ENDBLK
  5
25
330
23
100
AcDbEntity
  8
0
100
AcDbBlockEnd
  0
BLOCK
  5
56
330
54
100
AcDbEntity
  8
0
100
AcDbBlockBegin
  2
block 2
 70
     0
 10
0.0
 20
0.0
 30
0.0
  3
block 2
  1

  0
SPLINE
  5
58
330
54
100
AcDbEntity
  8
_U+30EC_U+30A4_U+30E4_U+30FC 1
370
     0
100
AcDbSpline
210
0.0
220
0.0
230
1.0
 70
    11
 71
     3
 72
    26
 73
    22
 74
     0
 42
0.0000000001
 43
0.0000000001
 12
1.0
 22
0.0
 32
0.0
 13
1.0
 23
0.0
 33
0.0
 40
0.0
 40
0.0
 40
0.0
 40
0.0
 40
1.0
 40
1.0
 40
1.0
 40
2.0
 40
2.0
 40
2.0
 40
3.0
 40
3.0
 40
3.0
 40
4.0
 40
4.0
 40
4.0
 40
5.0
 40
5.0
 40
5.0
 40
6.0
 40
6.0
 40
6.0
 40
7.0
 40
7.0
 40
7.0
 40
7.0
 10
86.4880886285516
 20
-144.4693901548549
 30
0.0
 10
86.4880886285516
 20
-144.4693901548549
 30
0.0
 10
86.4880886285516
 20
-143.3652370518323
 30
0.0
 10
86.4880886285516
 20
-143.3652370518323
 30
0.0
 10
86.4880886285516
 20
-143.3652370518323
 30
0.0
 10
86.13531085086201
 20
-143.3652370518323
 30
0.0
 10
86.13531085086201
 20
-143.3652370518323
 30
0.0
 10
86.13531085086201
 20
-143.3652370518323
 30
0.0
 10
86.13531085086201
 20
-143.2170979459666
 30
0.0
 10
86.13531085086201
 20
-143.2170979459666
 30
0.0
 10
86.49032794061701
 20
-143.20228403538
 30
0.0
 10
86.54010957037886
 20
-143.0393310189277
 30
0.0
 10
86.57180444884317
 20
-142.9249538488174
 30
0.0
 10
86.57180444884317
 20
-142.9249538488174
 30
0.0
 10
86.72769501955072
 20
-142.9249538488174
 30
0.0
 10
86.72769501955072
 20
-142.9249538488174
 30
0.0
 10
86.72769501955072
 20
-142.9249538488174
 30
0.0
 10
86.72769501955072
 20
-144.4693901548549
 30
0.0
 10
86.72769501955072
 20
-144.4693901548549
 30
0.0
 10
86.72769501955072
 20
-144.4693901548549
 30
0.0
 10
86.4880886285516
 20
-144.4693901548549
 30
0.0
 10
86.4880886285516
 20
-144.4693901548549
 30
0.0
  0
HATCH
  5
59
330
54
100
AcDbEntity
  8
_U+30EC_U+30A4_U+30E4_U+30FC 1
 62
   179
420
  2234388
100
AcDbHatch
 10
0.0
 20
0.0
 30
0.0
210
0.0
220
0.0
230
1.0
  2
SOLID
 70
     1
 71
     0
 91
        1
 92
        1
 93
        1
 72
     4
 94
        3
 73
     0
 74
     1
 95
       26
 96
       22
 40
0.0
 40
0.0
 40
0.0
 40
0.0
 40
1.0
 40
1.0
 40
1.0
 40
2.0
 40
2.0
 40
2.0
 40
3.0
 40
3.0
 40
3.0
 40
4.0
 40
4.0
 40
4.0
 40
5.0
 40
5.0
 40
5.0
 40
6.0
 40
6.0
 40
6.0
 40
7.0
 40
7.0
 40
7.0
 40
7.0
 10
86.4880886285516
 20
-144.4693901548549
 10
86.4880886285516
 20
-144.4693901548549
 10
86.4880886285516
 20
-143.3652370518323
 10
86.4880886285516
 20
-143.3652370518323
 10
86.4880886285516
 20
-143.3652370518323
 10
86.13531085086201
 20
-143.3652370518323
 10
86.13531085086201
 20
-143.3652370518323
 10
86.13531085086201
 20
-143.3652370518323
 10
86.13531085086201
 20
-143.2170979459666
 10
86.13531085086201
 20
-143.2170979459666
 10
86.49032794061701
 20
-143.20228403538
 10
86.54010957037886
 20
-143.0393310189277
 10
86.57180444884317
 20
-142.9249538488174
 10
86.57180444884317
 20
-142.9249538488174
 10
86.72769501955072
 20
-142.9249538488174
 10
86.72769501955072
 20
-142.9249538488174
 10
86.72769501955072
 20
-142.9249538488174
 10
86.72769501955072
 20
-144.4693901548549
 10
86.72769501955072
 20
-144.4693901548549
 10
86.72769501955072
 20
-144.4693901548549
 10
86.4880886285516
 20
-144.4693901548549
 10
86.4880886285516
 20
-144.4693901548549
 97
        0
 97
        0
 75
     2
 76
     1
 98
        0
  0
SPLINE
  5
5A
330
54
100
AcDbEntity
  8
_U+30EC_U+30A4_U+30E4_U+30FC 1
370
     0
100
AcDbSpline
210
0.0
220
0.0
230
1.0
 70
    11
 71
     3
 72
    29
 73
    25
 74
     0
 42
0.0000000001
 43
0.0000000001
 12
1.0
 22
0.0
 32
0.0
 13
1.0
 23
0.0
 33
0.0
 40
0.0
 40
0.0
 40
0.0
 40
0.0
 40
1.0
 40
1.0
 40
1.0
 40
2.0
 40
2.0
 40
2.0
 40
3.0
 40
3.0
 40
3.0
 40
4.0
 40
4.0
 40
4.0
 40
5.0
 40
5.0
 40
5.0
 40
6.0
 40
6.0
 40
6.0
 40
7.0
 40
7.0
 40
7.0
 40
8.0
 40
8.0
 40
8.0
 40
8.0
 10
88.22286646014915
 20
-144.291623227816
 30
0.0
 10
88.10762801616754
 20
-144.5010850333192
 30
0.0
 10
87.9222818790611
 20
-144.5200330584881
 30
0.0
 10
87.79791393204358
 20
-144.5200330584881
 30
0.0
 10
87.62600366732961
 20
-144.5200330584881
 30
0.0
 10
87.47459172075288
 20
-144.4735242694372
 30
0.0
 10
87.37278914916375
 20
-144.291623227816
 30
0.0
 10
87.26202932931297
 20
-144.0969753328994
 30
0.0
 10
87.24170326595
 20
-143.8599527635142
 30
0.0
 10
87.24170326595
 20
-143.6973442566104
 30
0.0
 10
87.24170326595
 20
-143.5533392653269
 30
0.0
 10
87.25979001724755
 20
-143.3015027853552
 30
0.0
 10
87.37278914916375
 20
-143.1027207758563
 30
0.0
 10
87.48819984791962
 20
-142.899804651775
 30
0.0
 10
87.65993785785932
 20
-142.8763780024753
 30
0.0
 10
87.79791393204358
 20
-142.8763780024753
 30
0.0
 10
87.96741262991787
 20
-142.8763780024753
 30
0.0
 10
88.12123614333427
 20
-142.9208197342351
 30
0.0
 10
88.22286646014915
 20
-143.1027207758563
 30
0.0
 10
88.32914765586911
 20
-143.2953016134817
 30
0.0
 10
88.3539523433629
 20
-143.5237114441538
 30
0.0
 10
88.3539523433629
 20
-143.6973442566104
 30
0.0
 10
88.3539523433629
 20
-143.8685655022273
 30
0.0
 10
88.33138696793452
 20
-144.0990423901905
 30
0.0
 10
88.22286646014915
 20
-144.291623227816
 30
0.0
  0
SPLINE
  5
5B
330
54
100
AcDbEntity
  8
_U+30EC_U+30A4_U+30E4_U+30FC 1
370
     0
100
AcDbSpline
210
0.0
220
0.0
230
1.0
 70
    11
 71
     3
 72
    17
 73
    13
 74
     0
 42
0.0000000001
 43
0.0000000001
 12
1.0
 22
0.0
 32
0.0
 13
1.0
 23
0.0
 33
0.0
 40
0.0
 40
0.0
 40
0.0
 40
0.0
 40
1.0
 40
1.0
 40
1.0
 40
2.0
 40
2.0
 40
2.0
 40
3.0
 40
3.0
 40
3.0
 40
4.0
 40
4.0
 40
4.0
 40
4.0
 10
87.79791393204358
 20
-143.0689588401008
 30
0.0
 10
87.53109128671097
 20
-143.0689588401008
 30
0.0
 10
87.48130965694912
 20
-143.3524901985369
 30
0.0
 10
87.48130965694912
 20
-143.6973442566104
 30
0.0
 10
87.48130965694912
 20
-144.0167046080931
 30
0.0
 10
87.51972247160965
 20
-144.3253851635714
 30
0.0
 10
87.79791393204358
 20
-144.3253851635714
 30
0.0
 10
88.06232501053651
 20
-144.3253851635714
 30
0.0
 10
88.11434595236378
 20
-144.0442653719751
 30
0.0
 10
88.11434595236378
 20
-143.6973442566104
 30
0.0
 10
88.11434595236378
 20
-143.3776393955792
 30
0.0
 10
88.07369382563783
 20
-143.0689588401008
 30
0.0
 10
87.79791393204358
 20
-143.0689588401008
 30
0.0
  0
HATCH
  5
5C
330
54
100
AcDbEntity
  8
_U+30EC_U+30A4_U+30E4_U+30FC 1
 62
   179
420
  2234388
100
AcDbHatch
 10
0.0
 20
0.0
 30
0.0
210
0.0
220
0.0
230
1.0
  2
SOLID
 70
     1
 71
     0
 91
        2
 92
        1
 93
        1
 72
     4
 94
        3
 73
     0
 74
     1
 95
       29
 96
       25
 40
0.0
 40
0.0
 40
0.0
 40
0.0
 40
1.0
 40
1.0
 40
1.0
 40
2.0
 40
2.0
 40
2.0
 40
3.0
 40
3.0
 40
3.0
 40
4.0
 40
4.0
 40
4.0
 40
5.0
 40
5.0
 40
5.0
 40
6.0
 40
6.0
 40
6.0
 40
7.0
 40
7.0
 40
7.0
 40
8.0
 40
8.0
 40
8.0
 40
8.0
 10
88.22286646014915
 20
-144.291623227816
 10
88.10762801616754
 20
-144.5010850333192
 10
87.9222818790611
 20
-144.5200330584881
 10
87.79791393204358
 20
-144.5200330584881
 10
87.62600366732961
 20
-144.5200330584881
 10
87.47459172075288
 20
-144.4735242694372
 10
87.37278914916375
 20
-144.291623227816
 10
87.26202932931297
 20
-144.0969753328994
 10
87.24170326595
 20
-143.8599527635142
 10
87.24170326595
 20
-143.6973442566104
 10
87.24170326595
 20
-143.5533392653269
 10
87.25979001724755
 20
-143.3015027853552
 10
87.37278914916375
 20
-143.1027207758563
 10
87.48819984791962
 20
-142.899804651775
 10
87.65993785785932
 20
-142.8763780024753
 10
87.79791393204358
 20
-142.8763780024753
 10
87.96741262991787
 20
-142.8763780024753
 10
88.12123614333427
 20
-142.9208197342351
 10
88.22286646014915
 20
-143.1027207758563
 10
88.32914765586911
 20
-143.2953016134817
 10
88.3539523433629
 20
-143.5237114441538
 10
88.3539523433629
 20
-143.6973442566104
 10
88.3539523433629
 20
-143.8685655022273
 10
88.33138696793452
 20
-144.0990423901905
 10
88.22286646014915
 20
-144.291623227816
 97
        0
 97
        0
 92
        1
 93
        1
 72
     4
 94
        3
 73
     0
 74
     1
 95
       17
 96
       13
 40
0.0
 40
0.0
 40
0.0
 40
0.0
 40
1.0
 40
1.0
 40
1.0
 40
2.0
 40
2.0
 40
2.0
 40
3.0
 40
3.0
 40
3.0
 40
4.0
 40
4.0
 40
4.0
 40
4.0
 10
87.79791393204358
 20
-143.0689588401008
 10
87.53109128671097
 20
-143.0689588401008
 10
87.48130965694912
 20
-143.3524901985369
 10
87.48130965694912
 20
-143.6973442566104
 10
87.48130965694912
 20
-144.0167046080931
 10
87.51972247160965
 20
-144.3253851635714
 10
87.79791393204358
 20
-144.3253851635714
 10
88.06232501053651
 20
-144.3253851635714
 10
88.11434595236378
 20
-144.0442653719751
 10
88.11434595236378
 20
-143.6973442566104
 10
88.11434595236378
 20
-143.3776393955792
 10
88.07369382563783
 20
-143.0689588401008
 10
87.79791393204358
 20
-143.0689588401008
 97
        0
 97
        0
 75
     2
 76
     1
 98
        0
  0
ENDBLK
  5
57
330
54
100
AcDbEntity
  8
0
100
AcDbBlockEnd
  0
BLOCK
  5
5F
330
5D
100
AcDbEntity
  8
0
100
AcDbBlockBegin
  2
block 3
 70
     0
 10
0.0
 20
0.0
 30
0.0
  3
block 3
  1

  0
SPLINE
  5
61
330
5D
100
AcDbEntity
  8
_U+30EC_U+30A4_U+30E4_U+30FC 1
370
     0
100
AcDbSpline
210
0.0
220
0.0
230
1.0
 70
    11
 71
     3
 72
    26
 73
    22
 74
     0
 42
0.0000000001
 43
0.0000000001
 12
1.0
 22
0.0
 32
0.0
 13
1.0
 23
0.0
 33
0.0
 40
0.0
 40
0.0
 40
0.0
 40
0.0
 40
1.0
 40
1.0
 40
1.0
 40
2.0
 40
2.0
 40
2.0
 40
3.0
 40
3.0
 40
3.0
 40
4.0
 40
4.0
 40
4.0
 40
5.0
 40
5.0
 40
5.0
 40
6.0
 40
6.0
 40
6.0
 40
7.0
 40
7.0
 40
7.0
 40
7.0
 10
75.48789874414886
 20
-144.4693901548549
 30
0.0
 10
75.48789874414886
 20
-144.4693901548549
 30
0.0
 10
75.48789874414886
 20
-143.3652370518323
 30
0.0
 10
75.48789874414886
 20
-143.3652370518323
 30
0.0
 10
75.48789874414886
 20
-143.3652370518323
 30
0.0
 10
75.13512096645928
 20
-143.3652370518323
 30
0.0
 10
75.13512096645928
 20
-143.3652370518323
 30
0.0
 10
75.13512096645928
 20
-143.3652370518323
 30
0.0
 10
75.13512096645928
 20
-143.2170979459666
 30
0.0
 10
75.13512096645928
 20
-143.2170979459666
 30
0.0
 10
75.49013805621428
 20
-143.20228403538
 30
0.0
 10
75.53991968597613
 20
-143.0393310189277
 30
0.0
 10
75.57161456444044
 20
-142.9249538488174
 30
0.0
 10
75.57161456444044
 20
-142.9249538488174
 30
0.0
 10
75.727505135148
 20
-142.9249538488174
 30
0.0
 10
75.727505135148
 20
-142.9249538488174
 30
0.0
 10
75.727505135148
 20
-142.9249538488174
 30
0.0
 10
75.727505135148
 20
-144.4693901548549
 30
0.0
 10
75.727505135148
 20
-144.4693901548549
 30
0.0
 10
75.727505135148
 20
-144.4693901548549
 30
0.0
 10
75.48789874414886
 20
-144.4693901548549
 30
0.0
 10
75.48789874414886
 20
-144.4693901548549
 30
0.0
  0
HATCH
  5
62
330
5D
100
AcDbEntity
  8
_U+30EC_U+30A4_U+30E4_U+30FC 1
 62
   179
420
  2234388
100
AcDbHatch
 10
0.0
 20
0.0
 30
0.0
210
0.0
220
0.0
230
1.0
  2
SOLID
 70
     1
 71
     0
 91
        1
 92
        1
 93
        1
 72
     4
 94
        3
 73
     0
 74
     1
 95
       26
 96
       22
 40
0.0
 40
0.0
 40
0.0
 40
0.0
 40
1.0
 40
1.0
 40
1.0
 40
2.0
 40
2.0
 40
2.0
 40
3.0
 40
3.0
 40
3.0
 40
4.0
 40
4.0
 40
4.0
 40
5.0
 40
5.0
 40
5.0
 40
6.0
 40
6.0
 40
6.0
 40
7.0
 40
7.0
 40
7.0
 40
7.0
 10
75.48789874414886
 20
-144.4693901548549
 10
75.48789874414886
 20
-144.4693901548549
 10
75.48789874414886
 20
-143.3652370518323
 10
75.48789874414886
 20
-143.3652370518323
 10
75.48789874414886
 20
-143.3652370518323
 10
75.13512096645928
 20
-143.3652370518323
 10
75.13512096645928
 20
-143.3652370518323
 10
75.13512096645928
 20
-143.3652370518323
 10
75.13512096645928
 20
-143.2170979459666
 10
75.13512096645928
 20
-143.2170979459666
 10
75.49013805621428
 20
-143.20228403538
 10
75.53991968597613
 20
-143.0393310189277
 10
75.57161456444044
 20
-142.9249538488174
 10
75.57161456444044
 20
-142.9249538488174
 10
75.727505135148
 20
-142.9249538488174
 10
75.727505135148
 20
-142.9249538488174
 10
75.727505135148
 20
-142.9249538488174
 10
75.727505135148
 20
-144.4693901548549
 10
75.727505135148
 20
-144.4693901548549
 10
75.727505135148
 20
-144.4693901548549
 10
75.48789874414886
 20
-144.4693901548549
 10
75.48789874414886
 20
-144.4693901548549
 97
        0
 97
        0
 75
     2
 76
     1
 98
        0
  0
SPLINE
  5
63
330
5D
100
AcDbEntity
  8
_U+30EC_U+30A4_U+30E4_U+30FC 1
370
     0
100
AcDbSpline
210
0.0
220
0.0
230
1.0
 70
    11
 71
     3
 72
    44
 73
    40
 74
     0
 42
0.0000000001
 43
0.0000000001
 12
1.0
 22
0.0
 32
0.0
 13
1.0
 23
0.0
 33
0.0
 40
0.0
 40
0.0
 40
0.0
 40
0.0
 40
1.0
 40
1.0
 40
1.0
 40
2.0
 40
2.0
 40
2.0
 40
3.0
 40
3.0
 40
3.0
 40
4.0
 40
4.0
 40
4.0
 40
5.0
 40
5.0
 40
5.0
 40
6.0
 40
6.0
 40
6.0
 40
7.0
 40
7.0
 40
7.0
 40
8.0
 40
8.0
 40
8.0
 40
9.0
 40
9.0
 40
9.0
 40
10.0
 40
10.0
 40
10.0
 40
11.0
 40
11.0
 40
11.0
 40
12.0
 40
12.0
 40
12.0
 40
13.0
 40
13.0
 40
13.0
 40
13.0
 10
76.8971150523903
 20
-143.8875135273962
 30
0.0
 10
76.66422659758742
 20
-144.0463324292662
 30
0.0
 10
76.56483559283797
 20
-144.1204019821991
 30
0.0
 10
76.51281465101069
 20
-144.264062463934
 30
0.0
 10
76.51281465101069
 20
-144.264062463934
 30
0.0
 10
77.34480521069852
 20
-144.264062463934
 30
0.0
 10
77.34480521069852
 20
-144.264062463934
 30
0.0
 10
77.34480521069852
 20
-144.264062463934
 30
0.0
 10
77.34480521069852
 20
-144.4693901548549
 30
0.0
 10
77.34480521069852
 20
-144.4693901548549
 30
0.0
 10
77.34480521069852
 20
-144.4693901548549
 30
0.0
 10
76.24599200567809
 20
-144.4693901548549
 30
0.0
 10
76.24599200567809
 20
-144.4693901548549
 30
0.0
 10
76.2799261962078
 20
-144.111789243486
 30
0.0
 10
76.35003388933264
 20
-144.0335855759708
 30
0.0
 10
76.76155054504572
 20
-143.7352403069481
 30
0.0
 10
77.03509112657457
 20
-143.5364582974492
 30
0.0
 10
77.1051988196994
 20
-143.4685899163898
 30
0.0
 10
77.1051988196994
 20
-143.3311306065283
 30
0.0
 10
77.1051988196994
 20
-143.2126193218357
 30
0.0
 10
77.02820093560406
 20
-143.0817056933963
 30
0.0
 10
76.81805011100383
 20
-143.0817056933963
 30
0.0
 10
76.54003090534417
 20
-143.0817056933963
 30
0.0
 10
76.53090140230825
 20
-143.3121825813595
 30
0.0
 10
76.52642277817742
 20
-143.4286268087609
 30
0.0
 10
76.52642277817742
 20
-143.4286268087609
 30
0.0
 10
76.2868163871783
 20
-143.4286268087609
 30
0.0
 10
76.2868163871783
 20
-143.4286268087609
 30
0.0
 10
76.29577363543994
 20
-143.3015027853552
 30
0.0
 10
76.30714245054128
 20
-143.1895371820846
 30
0.0
 10
76.392925328124
 20
-143.071025897392
 30
0.0
 10
76.51057533894527
 20
-142.9101399382308
 30
0.0
 10
76.70952960321846
 20
-142.8763780024753
 30
0.0
 10
76.83389755023597
 20
-142.8763780024753
 30
0.0
 10
77.1300035071932
 20
-142.8763780024753
 30
0.0
 10
77.35152314689476
 20
-143.0603461013877
 30
0.0
 10
77.35152314689476
 20
-143.3331976638195
 30
0.0
 10
77.35152314689476
 20
-143.5619520040401
 30
0.0
 10
77.2273274546515
 20
-143.6611707540153
 30
0.0
 10
76.8971150523903
 20
-143.8875135273962
 30
0.0
  0
HATCH
  5
64
330
5D
100
AcDbEntity
  8
_U+30EC_U+30A4_U+30E4_U+30FC 1
 62
   179
420
  2234388
100
AcDbHatch
 10
0.0
 20
0.0
 30
0.0
210
0.0
220
0.0
230
1.0
  2
SOLID
 70
     1
 71
     0
 91
        1
 92
        1
 93
        1
 72
     4
 94
        3
 73
     0
 74
     1
 95
       44
 96
       40
 40
0.0
 40
0.0
 40
0.0
 40
0.0
 40
1.0
 40
1.0
 40
1.0
 40
2.0
 40
2.0
 40
2.0
 40
3.0
 40
3.0
 40
3.0
 40
4.0
 40
4.0
 40
4.0
 40
5.0
 40
5.0
 40
5.0
 40
6.0
 40
6.0
 40
6.0
 40
7.0
 40
7.0
 40
7.0
 40
8.0
 40
8.0
 40
8.0
 40
9.0
 40
9.0
 40
9.0
 40
10.0
 40
10.0
 40
10.0
 40
11.0
 40
11.0
 40
11.0
 40
12.0
 40
12.0
 40
12.0
 40
13.0
 40
13.0
 40
13.0
 40
13.0
 10
76.8971150523903
 20
-143.8875135273962
 10
76.66422659758742
 20
-144.0463324292662
 10
76.56483559283797
 20
-144.1204019821991
 10
76.51281465101069
 20
-144.264062463934
 10
76.51281465101069
 20
-144.264062463934
 10
77.34480521069852
 20
-144.264062463934
 10
77.34480521069852
 20
-144.264062463934
 10
77.34480521069852
 20
-144.264062463934
 10
77.34480521069852
 20
-144.4693901548549
 10
77.34480521069852
 20
-144.4693901548549
 10
77.34480521069852
 20
-144.4693901548549
 10
76.24599200567809
 20
-144.4693901548549
 10
76.24599200567809
 20
-144.4693901548549
 10
76.2799261962078
 20
-144.111789243486
 10
76.35003388933264
 20
-144.0335855759708
 10
76.76155054504572
 20
-143.7352403069481
 10
77.03509112657457
 20
-143.5364582974492
 10
77.1051988196994
 20
-143.4685899163898
 10
77.1051988196994
 20
-143.3311306065283
 10
77.1051988196994
 20
-143.2126193218357
 10
77.02820093560406
 20
-143.0817056933963
 10
76.81805011100383
 20
-143.0817056933963
 10
76.54003090534417
 20
-143.0817056933963
 10
76.53090140230825
 20
-143.3121825813595
 10
76.52642277817742
 20
-143.4286268087609
 10
76.52642277817742
 20
-143.4286268087609
 10
76.2868163871783
 20
-143.4286268087609
 10
76.2868163871783
 20
-143.4286268087609
 10
76.29577363543994
 20
-143.3015027853552
 10
76.30714245054128
 20
-143.1895371820846
 10
76.392925328124
 20
-143.071025897392
 10
76.51057533894527
 20
-142.9101399382308
 10
76.70952960321846
 20
-142.8763780024753
 10
76.83389755023597
 20
-142.8763780024753
 10
77.1300035071932
 20
-142.8763780024753
 10
77.35152314689476
 20
-143.0603461013877
 10
77.35152314689476
 20
-143.3331976638195
 10
77.35152314689476
 20
-143.5619520040401
 10
77.2273274546515
 20
-143.6611707540153
 10
76.8971150523903
 20
-143.8875135273962
 97
        0
 97
        0
 75
     2
 76
     1
 98
        0
  0
ENDBLK
  5
60
330
5D
100
AcDbEntity
  8
0
100
AcDbBlockEnd
  0
BLOCK
  5
83
330
81
100
AcDbEntity
  8
0
100
AcDbBlockBegin
  2
block 4
 70
     0
 10
0.0
 20
0.0
 30
0.0
  3
block 4
  1

  0
POLYLINE
  5
85
330
81
100
AcDbEntity
  8
_U+30EC_U+30A4_U+30E4_U+30FC 1
370
     0
100
AcDb2dPolyline
 66
     1
 10
0.0
 20
0.0
 30
0.0
  0
VERTEX
  5
86
330
85
100
AcDbEntity
  8
_U+30EC_U+30A4_U+30E4_U+30FC 1
370
     0
100
AcDbVertex
100
AcDb2dVertex
 10
90.88609752502154
 20
-115.6756265986853
 30
0.0
  0
VERTEX
  5
87
330
85
100
AcDbEntity
  8
_U+30EC_U+30A4_U+30E4_U+30FC 1
370
     0
100
AcDbVertex
100
AcDb2dVertex
 10
90.88609752502154
 20
-116.0225477140499
 30
0.0
  0
VERTEX
  5
88
330
85
100
AcDbEntity
  8
_U+30EC_U+30A4_U+30E4_U+30FC 1
370
     0
100
AcDbVertex
100
AcDb2dVertex
 10
90.65320907021865
 20
-116.0225477140499
 30
0.0
  0
VERTEX
  5
89
330
85
100
AcDbEntity
  8
_U+30EC_U+30A4_U+30E4_U+30FC 1
370
     0
100
AcDbVertex
100
AcDb2dVertex
 10
90.65320907021865
 20
-115.6756265986853
 30
0.0
  0
VERTEX
  5
8A
330
85
100
AcDbEntity
  8
_U+30EC_U+30A4_U+30E4_U+30FC 1
370
     0
100
AcDbVertex
100
AcDb2dVertex
 10
89.95247664851883
 20
-115.6756265986853
 30
0.0
  0
VERTEX
  5
8B
330
85
100
AcDbEntity
  8
_U+30EC_U+30A4_U+30E4_U+30FC 1
370
     0
100
AcDbVertex
100
AcDb2dVertex
 10
89.95247664851883
 20
-115.4513508825955
 30
0.0
  0
VERTEX
  5
8C
330
85
100
AcDbEntity
  8
_U+30EC_U+30A4_U+30E4_U+30FC 1
370
     0
100
AcDbVertex
100
AcDb2dVertex
 10
90.6781860124867
 20
-114.4781114080124
 30
0.0
  0
VERTEX
  5
8D
330
85
100
AcDbEntity
  8
_U+30EC_U+30A4_U+30E4_U+30FC 1
370
     0
100
AcDbVertex
100
AcDb2dVertex
 10
90.88609752502154
 20
-114.4781114080124
 30
0.0
  0
VERTEX
  5
8E
330
85
100
AcDbEntity
  8
_U+30EC_U+30A4_U+30E4_U+30FC 1
370
     0
100
AcDbVertex
100
AcDb2dVertex
 10
90.88609752502154
 20
-115.4768445891864
 30
0.0
  0
VERTEX
  5
8F
330
85
100
AcDbEntity
  8
_U+30EC_U+30A4_U+30E4_U+30FC 1
370
     0
100
AcDbVertex
100
AcDb2dVertex
 10
91.10778941949737
 20
-115.4768445891864
 30
0.0
  0
VERTEX
  5
90
330
85
100
AcDbEntity
  8
_U+30EC_U+30A4_U+30E4_U+30FC 1
370
     0
100
AcDbVertex
100
AcDb2dVertex
 10
91.10778941949737
 20
-115.6756265986853
 30
0.0
  0
VERTEX
  5
91
330
85
100
AcDbEntity
  8
_U+30EC_U+30A4_U+30E4_U+30FC 1
370
     0
100
AcDbVertex
100
AcDb2dVertex
 10
90.88609752502154
 20
-115.6756265986853
 30
0.0
  0
SEQEND
  5
92
330
85
100
AcDbEntity
  8
_U+30EC_U+30A4_U+30E4_U+30FC 1
370
     0
  0
POLYLINE
  5
93
330
81
100
AcDbEntity
  8
_U+30EC_U+30A4_U+30E4_U+30FC 1
370
     0
100
AcDb2dPolyline
 66
     1
 10
0.0
 20
0.0
 30
0.0
  0
VERTEX
  5
94
330
93
100
AcDbEntity
  8
_U+30EC_U+30A4_U+30E4_U+30FC 1
370
     0
100
AcDbVertex
100
AcDb2dVertex
 10
90.65320907021865
 20
-114.8208984087948
 30
0.0
  0
VERTEX
  5
95
330
93
100
AcDbEntity
  8
_U+30EC_U+30A4_U+30E4_U+30FC 1
370
     0
100
AcDbVertex
100
AcDb2dVertex
 10
90.16503903995874
 20
-115.4768445891864
 30
0.0
  0
VERTEX
  5
96
330
93
100
AcDbEntity
  8
_U+30EC_U+30A4_U+30E4_U+30FC 1
370
     0
100
AcDbVertex
100
AcDb2dVertex
 10
90.65320907021865
 20
-115.4768445891864
 30
0.0
  0
VERTEX
  5
97
330
93
100
AcDbEntity
  8
_U+30EC_U+30A4_U+30E4_U+30FC 1
370
     0
100
AcDbVertex
100
AcDb2dVertex
 10
90.65320907021865
 20
-114.8208984087948
 30
0.0
  0
SEQEND
  5
98
330
93
100
AcDbEntity
  8
_U+30EC_U+30A4_U+30E4_U+30FC 1
370
     0
  0
HATCH
  5
99
330
81
100
AcDbEntity
  8
_U+30EC_U+30A4_U+30E4_U+30FC 1
 62
   179
420
  2234388
100
AcDbHatch
 10
0.0
 20
0.0
 30
0.0
210
0.0
220
0.0
230
1.0
  2
SOLID
 70
     1
 71
     0
 91
        2
 92
        1
 93
       11
 72
     1
 10
90.88609752502154
 20
-115.6756265986853
 11
90.88609752502154
 21
-116.0225477140499
 72
     1
 10
90.88609752502154
 20
-116.0225477140499
 11
90.65320907021865
 21
-116.0225477140499
 72
     1
 10
90.65320907021865
 20
-116.0225477140499
 11
90.65320907021865
 21
-115.6756265986853
 72
     1
 10
90.65320907021865
 20
-115.6756265986853
 11
89.95247664851883
 21
-115.6756265986853
 72
     1
 10
89.95247664851883
 20
-115.6756265986853
 11
89.95247664851883
 21
-115.4513508825955
 72
     1
 10
89.95247664851883
 20
-115.4513508825955
 11
90.6781860124867
 21
-114.4781114080124
 72
     1
 10
90.6781860124867
 20
-114.4781114080124
 11
90.88609752502154
 21
-114.4781114080124
 72
     1
 10
90.88609752502154
 20
-114.4781114080124
 11
90.88609752502154
 21
-115.4768445891864
 72
     1
 10
90.88609752502154
 20
-115.4768445891864
 11
91.10778941949737
 21
-115.4768445891864
 72
     1
 10
91.10778941949737
 20
-115.4768445891864
 11
91.10778941949737
 21
-115.6756265986853
 72
     1
 10
91.10778941949737
 20
-115.6756265986853
 11
90.88609752502154
 21
-115.6756265986853
 97
        0
 92
        1
 93
        3
 72
     1
 10
90.65320907021865
 20
-114.8208984087948
 11
90.16503903995874
 21
-115.4768445891864
 72
     1
 10
90.16503903995874
 20
-115.4768445891864
 11
90.65320907021865
 21
-115.4768445891864
 72
     1
 10
90.65320907021865
 20
-115.4768445891864
 11
90.65320907021865
 21
-114.8208984087948
 97
        0
 75
     2
 76
     1
 98
        0
  0
SPLINE
  5
9A
330
81
100
AcDbEntity
  8
_U+30EC_U+30A4_U+30E4_U+30FC 1
370
     0
100
AcDbSpline
210
0.0
220
0.0
230
1.0
 70
    11
 71
     3
 72
    44
 73
    40
 74
     0
 42
0.0000000001
 43
0.0000000001
 12
1.0
 22
0.0
 32
0.0
 13
1.0
 23
0.0
 33
0.0
 40
0.0
 40
0.0
 40
0.0
 40
0.0
 40
1.0
 40
1.0
 40
1.0
 40
2.0
 40
2.0
 40
2.0
 40
3.0
 40
3.0
 40
3.0
 40
4.0
 40
4.0
 40
4.0
 40
5.0
 40
5.0
 40
5.0
 40
6.0
 40
6.0
 40
6.0
 40
7.0
 40
7.0
 40
7.0
 40
8.0
 40
8.0
 40
8.0
 40
9.0
 40
9.0
 40
9.0
 40
10.0
 40
10.0
 40
10.0
 40
11.0
 40
11.0
 40
11.0
 40
12.0
 40
12.0
 40
12.0
 40
13.0
 40
13.0
 40
13.0
 40
13.0
 10
91.8882758016807
 20
-115.4406710865912
 30
0.0
 10
91.65538734687783
 20
-115.5994899884612
 30
0.0
 10
91.55616859690262
 20
-115.6735595413941
 30
0.0
 10
91.50414765507536
 20
-115.817220023129
 30
0.0
 10
91.50414765507536
 20
-115.817220023129
 30
0.0
 10
92.3361382147632
 20
-115.817220023129
 30
0.0
 10
92.3361382147632
 20
-115.817220023129
 30
0.0
 10
92.3361382147632
 20
-115.817220023129
 30
0.0
 10
92.3361382147632
 20
-116.0225477140499
 30
0.0
 10
92.3361382147632
 20
-116.0225477140499
 30
0.0
 10
92.3361382147632
 20
-116.0225477140499
 30
0.0
 10
91.23732500974276
 20
-116.0225477140499
 30
0.0
 10
91.23732500974276
 20
-116.0225477140499
 30
0.0
 10
91.27125920027247
 20
-115.664946802681
 30
0.0
 10
91.3413668933973
 20
-115.5867431351658
 30
0.0
 10
91.7528835491104
 20
-115.2883978661432
 30
0.0
 10
92.02642413063923
 20
-115.0896158566443
 30
0.0
 10
92.0963595689898
 20
-115.0217474755848
 30
0.0
 10
92.0963595689898
 20
-114.8842881657234
 30
0.0
 10
92.0963595689898
 20
-114.7657768810308
 30
0.0
 10
92.01953393966873
 20
-114.6348632525913
 30
0.0
 10
91.80938311506848
 20
-114.6348632525913
 30
0.0
 10
91.53136390940882
 20
-114.6348632525913
 30
0.0
 10
91.52240666114719
 20
-114.8653401405545
 30
0.0
 10
91.51758352746783
 20
-114.981784367956
 30
0.0
 10
91.51758352746783
 20
-114.981784367956
 30
0.0
 10
91.27814939124296
 20
-114.981784367956
 30
0.0
 10
91.27814939124296
 20
-114.981784367956
 30
0.0
 10
91.28710663950461
 20
-114.8546603445502
 30
0.0
 10
91.29847545460593
 20
-114.7426947412796
 30
0.0
 10
91.38425833218867
 20
-114.624183456587
 30
0.0
 10
91.50173608823569
 20
-114.4632974974258
 30
0.0
 10
91.70086260728313
 20
-114.4295355616704
 30
0.0
 10
91.82523055430065
 20
-114.4295355616704
 30
0.0
 10
92.1211642564836
 20
-114.4295355616704
 30
0.0
 10
92.34302840573369
 20
-114.6135036605827
 30
0.0
 10
92.34302840573369
 20
-114.8863552230145
 30
0.0
 10
92.34302840573369
 20
-115.1151095632351
 30
0.0
 10
92.21866045871617
 20
-115.2143283132103
 30
0.0
 10
91.8882758016807
 20
-115.4406710865912
 30
0.0
  0
HATCH
  5
9B
330
81
100
AcDbEntity
  8
_U+30EC_U+30A4_U+30E4_U+30FC 1
 62
   179
420
  2234388
100
AcDbHatch
 10
0.0
 20
0.0
 30
0.0
210
0.0
220
0.0
230
1.0
  2
SOLID
 70
     1
 71
     0
 91
        1
 92
        1
 93
        1
 72
     4
 94
        3
 73
     0
 74
     1
 95
       44
 96
       40
 40
0.0
 40
0.0
 40
0.0
 40
0.0
 40
1.0
 40
1.0
 40
1.0
 40
2.0
 40
2.0
 40
2.0
 40
3.0
 40
3.0
 40
3.0
 40
4.0
 40
4.0
 40
4.0
 40
5.0
 40
5.0
 40
5.0
 40
6.0
 40
6.0
 40
6.0
 40
7.0
 40
7.0
 40
7.0
 40
8.0
 40
8.0
 40
8.0
 40
9.0
 40
9.0
 40
9.0
 40
10.0
 40
10.0
 40
10.0
 40
11.0
 40
11.0
 40
11.0
 40
12.0
 40
12.0
 40
12.0
 40
13.0
 40
13.0
 40
13.0
 40
13.0
 10
91.8882758016807
 20
-115.4406710865912
 10
91.65538734687783
 20
-115.5994899884612
 10
91.55616859690262
 20
-115.6735595413941
 10
91.50414765507536
 20
-115.817220023129
 10
91.50414765507536
 20
-115.817220023129
 10
92.3361382147632
 20
-115.817220023129
 10
92.3361382147632
 20
-115.817220023129
 10
92.3361382147632
 20
-115.817220023129
 10
92.3361382147632
 20
-116.0225477140499
 10
92.3361382147632
 20
-116.0225477140499
 10
92.3361382147632
 20
-116.0225477140499
 10
91.23732500974276
 20
-116.0225477140499
 10
91.23732500974276
 20
-116.0225477140499
 10
91.27125920027247
 20
-115.664946802681
 10
91.3413668933973
 20
-115.5867431351658
 10
91.7528835491104
 20
-115.2883978661432
 10
92.02642413063923
 20
-115.0896158566443
 10
92.0963595689898
 20
-115.0217474755848
 10
92.0963595689898
 20
-114.8842881657234
 10
92.0963595689898
 20
-114.7657768810308
 10
92.01953393966873
 20
-114.6348632525913
 10
91.80938311506848
 20
-114.6348632525913
 10
91.53136390940882
 20
-114.6348632525913
 10
91.52240666114719
 20
-114.8653401405545
 10
91.51758352746783
 20
-114.981784367956
 10
91.51758352746783
 20
-114.981784367956
 10
91.27814939124296
 20
-114.981784367956
 10
91.27814939124296
 20
-114.981784367956
 10
91.28710663950461
 20
-114.8546603445502
 10
91.29847545460593
 20
-114.7426947412796
 10
91.38425833218867
 20
-114.624183456587
 10
91.50173608823569
 20
-114.4632974974258
 10
91.70086260728313
 20
-114.4295355616704
 10
91.82523055430065
 20
-114.4295355616704
 10
92.1211642564836
 20
-114.4295355616704
 10
92.34302840573369
 20
-114.6135036605827
 10
92.34302840573369
 20
-114.8863552230145
 10
92.34302840573369
 20
-115.1151095632351
 10
92.21866045871617
 20
-115.2143283132103
 10
91.8882758016807
 20
-115.4406710865912
 97
        0
 97
        0
 75
     2
 76
     1
 98
        0
  0
ENDBLK
  5
84
330
81
100
AcDbEntity
  8
0
100
AcDbBlockEnd
  0
BLOCK
  5
9E
330
9C
100
AcDbEntity
  8
0
100
AcDbBlockBegin
  2
block 5
 70
     0
 10
0.0
 20
0.0
 30
0.0
  3
block 5
  1

  0
SPLINE
  5
A0
330
9C
100
AcDbEntity
  8
_U+30EC_U+30A4_U+30E4_U+30FC 1
370
     0
100
AcDbSpline
210
0.0
220
0.0
230
1.0
 70
    11
 71
     3
 72
    62
 73
    58
 74
     0
 42
0.0000000001
 43
0.0000000001
 12
1.0
 22
0.0
 32
0.0
 13
1.0
 23
0.0
 33
0.0
 40
0.0
 40
0.0
 40
0.0
 40
0.0
 40
1.0
 40
1.0
 40
1.0
 40
2.0
 40
2.0
 40
2.0
 40
3.0
 40
3.0
 40
3.0
 40
4.0
 40
4.0
 40
4.0
 40
5.0
 40
5.0
 40
5.0
 40
6.0
 40
6.0
 40
6.0
 40
7.0
 40
7.0
 40
7.0
 40
8.0
 40
8.0
 40
8.0
 40
9.0
 40
9.0
 40
9.0
 40
10.0
 40
10.0
 40
10.0
 40
11.0
 40
11.0
 40
11.0
 40
12.0
 40
12.0
 40
12.0
 40
13.0
 40
13.0
 40
13.0
 40
14.0
 40
14.0
 40
14.0
 40
15.0
 40
15.0
 40
15.0
 40
16.0
 40
16.0
 40
16.0
 40
17.0
 40
17.0
 40
17.0
 40
18.0
 40
18.0
 40
18.0
 40
19.0
 40
19.0
 40
19.0
 40
19.0
 10
71.51794296172122
 20
-113.0304822851104
 30
0.0
 10
71.41631264490634
 20
-113.0304822851104
 30
0.0
 10
71.18342419010345
 20
-113.0094672026504
 30
0.0
 10
71.04992674005003
 20
-112.8234320464469
 30
0.0
 10
70.97086179866353
 20
-112.7111219336278
 30
0.0
 10
70.96638317453271
 20
-112.6119031836526
 30
0.0
 10
70.96173229562763
 20
-112.5271538347154
 30
0.0
 10
70.96173229562763
 20
-112.5271538347154
 30
0.0
 10
71.19703231727019
 20
-112.5271538347154
 30
0.0
 10
71.19703231727019
 20
-112.5271538347154
 30
0.0
 10
71.1992716293356
 20
-112.6012233876483
 30
0.0
 10
71.21046818966266
 20
-112.8358343901938
 30
0.0
 10
71.51346433759039
 20
-112.8358343901938
 30
0.0
 10
71.6603976600363
 20
-112.8358343901938
 30
0.0
 10
71.82317842171435
 20
-112.7662434613918
 30
0.0
 10
71.82317842171435
 20
-112.5378336307197
 30
0.0
 10
71.82317842171435
 20
-112.4213894033183
 30
0.0
 10
71.7825262949884
 20
-112.3728135569762
 30
0.0
 10
71.7485921044587
 20
-112.3411186785119
 30
0.0
 10
71.6695271630722
 20
-112.2670491255791
 30
0.0
 10
71.54515921605469
 20
-112.2543022722837
 30
0.0
 10
71.48642033803118
 20
-112.2543022722837
 30
0.0
 10
71.46592201989394
 20
-112.2543022722837
 30
0.0
 10
71.4275092052334
 20
-112.2563693295748
 30
0.0
 10
71.39822589360878
 20
-112.2605034441571
 30
0.0
 10
71.39822589360878
 20
-112.2605034441571
 30
0.0
 10
71.39822589360878
 20
-112.0658555492405
 30
0.0
 10
71.39822589360878
 20
-112.0658555492405
 30
0.0
 10
71.43887802033473
 20
-112.0724012306625
 30
0.0
 10
71.4840087711915
 20
-112.0744682879536
 30
0.0
 10
71.490898962162
 20
-112.0744682879536
 30
0.0
 10
71.56100665528683
 20
-112.0744682879536
 30
0.0
 10
71.77339679195249
 20
-112.0531086959451
 30
0.0
 10
71.77339679195249
 20
-111.8164306361084
 30
0.0
 10
71.77339679195249
 20
-111.6386637090695
 30
0.0
 10
71.63335366047708
 20
-111.5835421813055
 30
0.0
 10
71.5157036496558
 20
-111.5835421813055
 30
0.0
 10
71.23320581986532
 20
-111.5835421813055
 30
0.0
 10
71.2240763168294
 20
-111.8164306361084
 30
0.0
 10
71.21959769269857
 20
-111.8880886222016
 30
0.0
 10
71.21959769269857
 20
-111.8880886222016
 30
0.0
 10
71.00255667712784
 20
-111.8880886222016
 30
0.0
 10
71.00255667712784
 20
-111.8880886222016
 30
0.0
 10
71.01151392538948
 20
-111.7633761656355
 30
0.0
 10
71.04096949178837
 20
-111.3868272290977
 30
0.0
 10
71.52931177682254
 20
-111.3868272290977
 30
0.0
 10
71.76891816782167
 20
-111.3868272290977
 30
0.0
 10
72.02661131011835
 20
-111.5139512525035
 30
0.0
 10
72.02661131011835
 20
-111.8098849546864
 30
0.0
 10
72.02661131011835
 20
-111.9962646204384
 30
0.0
 10
71.92498099330348
 20
-112.0786024025359
 30
0.0
 10
71.81869979758352
 20
-112.1399251021734
 30
0.0
 10
71.88432886657753
 20
-112.1674858660554
 30
0.0
 10
72.07863225194562
 20
-112.2477565908617
 30
0.0
 10
72.07863225194562
 20
-112.5250867774243
 30
0.0
 10
72.07863225194562
 20
-112.8633951540758
 30
0.0
 10
71.8142211734527
 20
-113.0304822851104
 30
0.0
 10
71.51794296172122
 20
-113.0304822851104
 30
0.0
  0
HATCH
  5
A1
330
9C
100
AcDbEntity
  8
_U+30EC_U+30A4_U+30E4_U+30FC 1
 62
   179
420
  2234388
100
AcDbHatch
 10
0.0
 20
0.0
 30
0.0
210
0.0
220
0.0
230
1.0
  2
SOLID
 70
     1
 71
     0
 91
        1
 92
        1
 93
        1
 72
     4
 94
        3
 73
     0
 74
     1
 95
       62
 96
       58
 40
0.0
 40
0.0
 40
0.0
 40
0.0
 40
1.0
 40
1.0
 40
1.0
 40
2.0
 40
2.0
 40
2.0
 40
3.0
 40
3.0
 40
3.0
 40
4.0
 40
4.0
 40
4.0
 40
5.0
 40
5.0
 40
5.0
 40
6.0
 40
6.0
 40
6.0
 40
7.0
 40
7.0
 40
7.0
 40
8.0
 40
8.0
 40
8.0
 40
9.0
 40
9.0
 40
9.0
 40
10.0
 40
10.0
 40
10.0
 40
11.0
 40
11.0
 40
11.0
 40
12.0
 40
12.0
 40
12.0
 40
13.0
 40
13.0
 40
13.0
 40
14.0
 40
14.0
 40
14.0
 40
15.0
 40
15.0
 40
15.0
 40
16.0
 40
16.0
 40
16.0
 40
17.0
 40
17.0
 40
17.0
 40
18.0
 40
18.0
 40
18.0
 40
19.0
 40
19.0
 40
19.0
 40
19.0
 10
71.51794296172122
 20
-113.0304822851104
 10
71.41631264490634
 20
-113.0304822851104
 10
71.18342419010345
 20
-113.0094672026504
 10
71.04992674005003
 20
-112.8234320464469
 10
70.97086179866353
 20
-112.7111219336278
 10
70.96638317453271
 20
-112.6119031836526
 10
70.96173229562763
 20
-112.5271538347154
 10
70.96173229562763
 20
-112.5271538347154
 10
71.19703231727019
 20
-112.5271538347154
 10
71.19703231727019
 20
-112.5271538347154
 10
71.1992716293356
 20
-112.6012233876483
 10
71.21046818966266
 20
-112.8358343901938
 10
71.51346433759039
 20
-112.8358343901938
 10
71.6603976600363
 20
-112.8358343901938
 10
71.82317842171435
 20
-112.7662434613918
 10
71.82317842171435
 20
-112.5378336307197
 10
71.82317842171435
 20
-112.4213894033183
 10
71.7825262949884
 20
-112.3728135569762
 10
71.7485921044587
 20
-112.3411186785119
 10
71.6695271630722
 20
-112.2670491255791
 10
71.54515921605469
 20
-112.2543022722837
 10
71.48642033803118
 20
-112.2543022722837
 10
71.46592201989394
 20
-112.2543022722837
 10
71.4275092052334
 20
-112.2563693295748
 10
71.39822589360878
 20
-112.2605034441571
 10
71.39822589360878
 20
-112.2605034441571
 10
71.39822589360878
 20
-112.0658555492405
 10
71.39822589360878
 20
-112.0658555492405
 10
71.43887802033473
 20
-112.0724012306625
 10
71.4840087711915
 20
-112.0744682879536
 10
71.490898962162
 20
-112.0744682879536
 10
71.56100665528683
 20
-112.0744682879536
 10
71.77339679195249
 20
-112.0531086959451
 10
71.77339679195249
 20
-111.8164306361084
 10
71.77339679195249
 20
-111.6386637090695
 10
71.63335366047708
 20
-111.5835421813055
 10
71.5157036496558
 20
-111.5835421813055
 10
71.23320581986532
 20
-111.5835421813055
 10
71.2240763168294
 20
-111.8164306361084
 10
71.21959769269857
 20
-111.8880886222016
 10
71.21959769269857
 20
-111.8880886222016
 10
71.00255667712784
 20
-111.8880886222016
 10
71.00255667712784
 20
-111.8880886222016
 10
71.01151392538948
 20
-111.7633761656355
 10
71.04096949178837
 20
-111.3868272290977
 10
71.52931177682254
 20
-111.3868272290977
 10
71.76891816782167
 20
-111.3868272290977
 10
72.02661131011835
 20
-111.5139512525035
 10
72.02661131011835
 20
-111.8098849546864
 10
72.02661131011835
 20
-111.9962646204384
 10
71.92498099330348
 20
-112.0786024025359
 10
71.81869979758352
 20
-112.1399251021734
 10
71.88432886657753
 20
-112.1674858660554
 10
72.07863225194562
 20
-112.2477565908617
 10
72.07863225194562
 20
-112.5250867774243
 10
72.07863225194562
 20
-112.8633951540758
 10
71.8142211734527
 20
-113.0304822851104
 10
71.51794296172122
 20
-113.0304822851104
 97
        0
 97
        0
 75
     2
 76
     1
 98
        0
  0
ENDBLK
  5
9F
330
9C
100
AcDbEntity
  8
0
100
AcDbBlockEnd
  0
BLOCK
  5
B2
330
B0
100
AcDbEntity
  8
0
100
AcDbBlockBegin
  2
block 6
 70
     0
 10
0.0
 20
0.0
 30
0.0
  3
block 6
  1

  0
SPLINE
  5
B4
330
B0
100
AcDbEntity
  8
_U+30EC_U+30A4_U+30E4_U+30FC 1
370
     0
100
AcDbSpline
210
0.0
220
0.0
230
1.0
 70
    11
 71
     3
 72
    26
 73
    22
 74
     0
 42
0.0000000001
 43
0.0000000001
 12
1.0
 22
0.0
 32
0.0
 13
1.0
 23
0.0
 33
0.0
 40
0.0
 40
0.0
 40
0.0
 40
0.0
 40
1.0
 40
1.0
 40
1.0
 40
2.0
 40
2.0
 40
2.0
 40
3.0
 40
3.0
 40
3.0
 40
4.0
 40
4.0
 40
4.0
 40
5.0
 40
5.0
 40
5.0
 40
6.0
 40
6.0
 40
6.0
 40
7.0
 40
7.0
 40
7.0
 40
7.0
 10
64.95245224070634
 20
-126.8329128372154
 30
0.0
 10
64.95245224070634
 20
-126.8329128372154
 30
0.0
 10
63.84829913768376
 20
-126.8329128372154
 30
0.0
 10
63.84829913768376
 20
-126.8329128372154
 30
0.0
 10
63.84829913768376
 20
-126.8329128372154
 30
0.0
 10
63.84829913768376
 20
-127.1853461053564
 30
0.0
 10
63.84829913768376
 20
-127.1853461053564
 30
0.0
 10
63.84829913768376
 20
-127.1853461053564
 30
0.0
 10
63.70016003181802
 20
-127.1853461053564
 30
0.0
 10
63.70016003181802
 20
-127.1853461053564
 30
0.0
 10
63.68534612123145
 20
-126.8305012703757
 30
0.0
 10
63.52239310477913
 20
-126.7808918953881
 30
0.0
 10
63.40818818944309
 20
-126.7491970169238
 30
0.0
 10
63.40818818944309
 20
-126.7491970169238
 30
0.0
 10
63.40818818944309
 20
-126.593134191442
 30
0.0
 10
63.40818818944309
 20
-126.593134191442
 30
0.0
 10
63.40818818944309
 20
-126.593134191442
 30
0.0
 10
64.95245224070634
 20
-126.593134191442
 30
0.0
 10
64.95245224070634
 20
-126.593134191442
 30
0.0
 10
64.95245224070634
 20
-126.593134191442
 30
0.0
 10
64.95245224070634
 20
-126.8329128372154
 30
0.0
 10
64.95245224070634
 20
-126.8329128372154
 30
0.0
  0
HATCH
  5
B5
330
B0
100
AcDbEntity
  8
_U+30EC_U+30A4_U+30E4_U+30FC 1
 62
   179
420
  2234388
100
AcDbHatch
 10
0.0
 20
0.0
 30
0.0
210
0.0
220
0.0
230
1.0
  2
SOLID
 70
     1
 71
     0
 91
        1
 92
        1
 93
        1
 72
     4
 94
        3
 73
     0
 74
     1
 95
       26
 96
       22
 40
0.0
 40
0.0
 40
0.0
 40
0.0
 40
1.0
 40
1.0
 40
1.0
 40
2.0
 40
2.0
 40
2.0
 40
3.0
 40
3.0
 40
3.0
 40
4.0
 40
4.0
 40
4.0
 40
5.0
 40
5.0
 40
5.0
 40
6.0
 40
6.0
 40
6.0
 40
7.0
 40
7.0
 40
7.0
 40
7.0
 10
64.95245224070634
 20
-126.8329128372154
 10
64.95245224070634
 20
-126.8329128372154
 10
63.84829913768376
 20
-126.8329128372154
 10
63.84829913768376
 20
-126.8329128372154
 10
63.84829913768376
 20
-126.8329128372154
 10
63.84829913768376
 20
-127.1853461053564
 10
63.84829913768376
 20
-127.1853461053564
 10
63.84829913768376
 20
-127.1853461053564
 10
63.70016003181802
 20
-127.1853461053564
 10
63.70016003181802
 20
-127.1853461053564
 10
63.68534612123145
 20
-126.8305012703757
 10
63.52239310477913
 20
-126.7808918953881
 10
63.40818818944309
 20
-126.7491970169238
 10
63.40818818944309
 20
-126.7491970169238
 10
63.40818818944309
 20
-126.593134191442
 10
63.40818818944309
 20
-126.593134191442
 10
63.40818818944309
 20
-126.593134191442
 10
64.95245224070634
 20
-126.593134191442
 10
64.95245224070634
 20
-126.593134191442
 10
64.95245224070634
 20
-126.593134191442
 10
64.95245224070634
 20
-126.8329128372154
 10
64.95245224070634
 20
-126.8329128372154
 97
        0
 97
        0
 75
     2
 76
     1
 98
        0
  0
SPLINE
  5
B6
330
B0
100
AcDbEntity
  8
_U+30EC_U+30A4_U+30E4_U+30FC 1
370
     0
100
AcDbSpline
210
0.0
220
0.0
230
1.0
 70
    11
 71
     3
 72
    29
 73
    25
 74
     0
 42
0.0000000001
 43
0.0000000001
 12
1.0
 22
0.0
 32
0.0
 13
1.0
 23
0.0
 33
0.0
 40
0.0
 40
0.0
 40
0.0
 40
0.0
 40
1.0
 40
1.0
 40
1.0
 40
2.0
 40
2.0
 40
2.0
 40
3.0
 40
3.0
 40
3.0
 40
4.0
 40
4.0
 40
4.0
 40
5.0
 40
5.0
 40
5.0
 40
6.0
 40
6.0
 40
6.0
 40
7.0
 40
7.0
 40
7.0
 40
8.0
 40
8.0
 40
8.0
 40
8.0
 10
64.77468531366745
 20
-125.0979627508436
 30
0.0
 10
64.98414711917063
 20
-125.2133734495994
 30
0.0
 10
65.00309514433951
 20
-125.3987195867059
 30
0.0
 10
65.00309514433951
 20
-125.5230875337234
 30
0.0
 10
65.00309514433951
 20
-125.6946532888888
 30
0.0
 10
64.95658635528864
 20
-125.8462374902398
 30
0.0
 10
64.77468531366745
 20
-125.9478678070547
 30
0.0
 10
64.58003741875083
 20
-126.0587998816797
 30
0.0
 10
64.34301484936564
 20
-126.0791259450427
 30
0.0
 10
64.18040634246185
 20
-126.0791259450427
 30
0.0
 10
64.0364013511784
 20
-126.0791259450427
 30
0.0
 10
63.7847371259809
 20
-126.0612114485194
 30
0.0
 10
63.58578286170772
 20
-125.9478678070547
 30
0.0
 10
63.38269448285224
 20
-125.8328016178474
 30
0.0
 10
63.35944008832681
 20
-125.6608913531334
 30
0.0
 10
63.35944008832681
 20
-125.5230875337234
 30
0.0
 10
63.35944008832681
 20
-125.3532443263006
 30
0.0
 10
63.40388182008653
 20
-125.1995930676584
 30
0.0
 10
63.58578286170772
 20
-125.0979627508436
 30
0.0
 10
63.77836369933319
 20
-124.9915093003493
 30
0.0
 10
64.00677353000525
 20
-124.9667046128556
 30
0.0
 10
64.18040634246185
 20
-124.9667046128556
 30
0.0
 10
64.35162758807876
 20
-124.9667046128556
 30
0.0
 10
64.58210447604198
 20
-124.9894422430582
 30
0.0
 10
64.77468531366745
 20
-125.0979627508436
 30
0.0
  0
SPLINE
  5
B7
330
B0
100
AcDbEntity
  8
_U+30EC_U+30A4_U+30E4_U+30FC 1
370
     0
100
AcDbSpline
210
0.0
220
0.0
230
1.0
 70
    11
 71
     3
 72
    17
 73
    13
 74
     0
 42
0.0000000001
 43
0.0000000001
 12
1.0
 22
0.0
 32
0.0
 13
1.0
 23
0.0
 33
0.0
 40
0.0
 40
0.0
 40
0.0
 40
0.0
 40
1.0
 40
1.0
 40
1.0
 40
2.0
 40
2.0
 40
2.0
 40
3.0
 40
3.0
 40
3.0
 40
4.0
 40
4.0
 40
4.0
 40
4.0
 10
63.55202092595228
 20
-125.5230875337234
 30
0.0
 10
63.55202092595228
 20
-125.7897379242817
 30
0.0
 10
63.83555228438833
 20
-125.8393472992693
 30
0.0
 10
64.18040634246185
 20
-125.8393472992693
 30
0.0
 10
64.49976669394451
 20
-125.8393472992693
 30
0.0
 10
64.8084472494229
 20
-125.8011067393831
 30
0.0
 10
64.8084472494229
 20
-125.5230875337234
 30
0.0
 10
64.8084472494229
 20
-125.2585042004562
 30
0.0
 10
64.5273274578265
 20
-125.2064832586289
 30
0.0
 10
64.18040634246185
 20
-125.2064832586289
 30
0.0
 10
63.86070148143066
 20
-125.2064832586289
 30
0.0
 10
63.55202092595228
 20
-125.2471353853549
 30
0.0
 10
63.55202092595228
 20
-125.5230875337234
 30
0.0
  0
HATCH
  5
B8
330
B0
100
AcDbEntity
  8
_U+30EC_U+30A4_U+30E4_U+30FC 1
 62
   179
420
  2234388
100
AcDbHatch
 10
0.0
 20
0.0
 30
0.0
210
0.0
220
0.0
230
1.0
  2
SOLID
 70
     1
 71
     0
 91
        2
 92
        1
 93
        1
 72
     4
 94
        3
 73
     0
 74
     1
 95
       29
 96
       25
 40
0.0
 40
0.0
 40
0.0
 40
0.0
 40
1.0
 40
1.0
 40
1.0
 40
2.0
 40
2.0
 40
2.0
 40
3.0
 40
3.0
 40
3.0
 40
4.0
 40
4.0
 40
4.0
 40
5.0
 40
5.0
 40
5.0
 40
6.0
 40
6.0
 40
6.0
 40
7.0
 40
7.0
 40
7.0
 40
8.0
 40
8.0
 40
8.0
 40
8.0
 10
64.77468531366745
 20
-125.0979627508436
 10
64.98414711917063
 20
-125.2133734495994
 10
65.00309514433951
 20
-125.3987195867059
 10
65.00309514433951
 20
-125.5230875337234
 10
65.00309514433951
 20
-125.6946532888888
 10
64.95658635528864
 20
-125.8462374902398
 10
64.77468531366745
 20
-125.9478678070547
 10
64.58003741875083
 20
-126.0587998816797
 10
64.34301484936564
 20
-126.0791259450427
 10
64.18040634246185
 20
-126.0791259450427
 10
64.0364013511784
 20
-126.0791259450427
 10
63.7847371259809
 20
-126.0612114485194
 10
63.58578286170772
 20
-125.9478678070547
 10
63.38269448285224
 20
-125.8328016178474
 10
63.35944008832681
 20
-125.6608913531334
 10
63.35944008832681
 20
-125.5230875337234
 10
63.35944008832681
 20
-125.3532443263006
 10
63.40388182008653
 20
-125.1995930676584
 10
63.58578286170772
 20
-125.0979627508436
 10
63.77836369933319
 20
-124.9915093003493
 10
64.00677353000525
 20
-124.9667046128556
 10
64.18040634246185
 20
-124.9667046128556
 10
64.35162758807876
 20
-124.9667046128556
 10
64.58210447604198
 20
-124.9894422430582
 10
64.77468531366745
 20
-125.0979627508436
 97
        0
 97
        0
 92
        1
 93
        1
 72
     4
 94
        3
 73
     0
 74
     1
 95
       17
 96
       13
 40
0.0
 40
0.0
 40
0.0
 40
0.0
 40
1.0
 40
1.0
 40
1.0
 40
2.0
 40
2.0
 40
2.0
 40
3.0
 40
3.0
 40
3.0
 40
4.0
 40
4.0
 40
4.0
 40
4.0
 10
63.55202092595228
 20
-125.5230875337234
 10
63.55202092595228
 20
-125.7897379242817
 10
63.83555228438833
 20
-125.8393472992693
 10
64.18040634246185
 20
-125.8393472992693
 10
64.49976669394451
 20
-125.8393472992693
 10
64.8084472494229
 20
-125.8011067393831
 10
64.8084472494229
 20
-125.5230875337234
 10
64.8084472494229
 20
-125.2585042004562
 10
64.5273274578265
 20
-125.2064832586289
 10
64.18040634246185
 20
-125.2064832586289
 10
63.86070148143066
 20
-125.2064832586289
 10
63.55202092595228
 20
-125.2471353853549
 10
63.55202092595228
 20
-125.5230875337234
 97
        0
 97
        0
 75
     2
 76
     1
 98
        0
  0
ENDBLK
  5
B3
330
B0
100
AcDbEntity
  8
0
100
AcDbBlockEnd
  0
BLOCK
  5
E7
330
E5
100
AcDbEntity
  8
0
100
AcDbBlockBegin
  2
block 7
 70
     0
 10
0.0
 20
0.0
 30
0.0
  3
block 7
  1

  0
SPLINE
  5
E9
330
E5
100
AcDbEntity
  8
_U+30EC_U+30A4_U+30E4_U+30FC 1
370
     0
100
AcDbSpline
210
0.0
220
0.0
230
1.0
 70
    11
 71
     3
 72
    62
 73
    58
 74
     0
 42
0.0000000001
 43
0.0000000001
 12
1.0
 22
0.0
 32
0.0
 13
1.0
 23
0.0
 33
0.0
 40
0.0
 40
0.0
 40
0.0
 40
0.0
 40
1.0
 40
1.0
 40
1.0
 40
2.0
 40
2.0
 40
2.0
 40
3.0
 40
3.0
 40
3.0
 40
4.0
 40
4.0
 40
4.0
 40
5.0
 40
5.0
 40
5.0
 40
6.0
 40
6.0
 40
6.0
 40
7.0
 40
7.0
 40
7.0
 40
8.0
 40
8.0
 40
8.0
 40
9.0
 40
9.0
 40
9.0
 40
10.0
 40
10.0
 40
10.0
 40
11.0
 40
11.0
 40
11.0
 40
12.0
 40
12.0
 40
12.0
 40
13.0
 40
13.0
 40
13.0
 40
14.0
 40
14.0
 40
14.0
 40
15.0
 40
15.0
 40
15.0
 40
16.0
 40
16.0
 40
16.0
 40
17.0
 40
17.0
 40
17.0
 40
18.0
 40
18.0
 40
18.0
 40
19.0
 40
19.0
 40
19.0
 40
19.0
 10
118.6780273140805
 20
-139.6479790232477
 30
0.0
 10
118.6780273140805
 20
-139.7496093400626
 30
0.0
 10
118.6566677220719
 20
-139.9824977948655
 30
0.0
 10
118.4706325658685
 20
-140.1158229901447
 30
0.0
 10
118.3583224530493
 20
-140.1950601863054
 30
0.0
 10
118.2591037030741
 20
-140.1995388104362
 30
0.0
 10
118.174354354137
 20
-140.204017434567
 30
0.0
 10
118.174354354137
 20
-140.204017434567
 30
0.0
 10
118.174354354137
 20
-139.969061922473
 30
0.0
 10
118.174354354137
 20
-139.969061922473
 30
0.0
 10
118.2487684166184
 20
-139.9666503556333
 30
0.0
 10
118.4830349096154
 20
-139.955281540532
 30
0.0
 10
118.4830349096154
 20
-139.6524576473786
 30
0.0
 10
118.4830349096154
 20
-139.5053520701584
 30
0.0
 10
118.4134439808133
 20
-139.3427435632546
 30
0.0
 10
118.1853786596898
 20
-139.3427435632546
 30
0.0
 10
118.0689344322883
 20
-139.3427435632546
 30
0.0
 10
118.0200140763978
 20
-139.3833956899805
 30
0.0
 10
117.9883191979335
 20
-139.4175021352845
 30
0.0
 10
117.9145941545491
 20
-139.4963948218967
 30
0.0
 10
117.9015027917052
 20
-139.6207627689143
 30
0.0
 10
117.9015027917052
 20
-139.679673901712
 30
0.0
 10
117.9015027917052
 20
-139.699999965075
 30
0.0
 10
117.9035698489963
 20
-139.7382405249613
 30
0.0
 10
117.9077039635786
 20
-139.7678683461344
 30
0.0
 10
117.9077039635786
 20
-139.7678683461344
 30
0.0
 10
117.7134005782105
 20
-139.7678683461344
 30
0.0
 10
117.7134005782105
 20
-139.7678683461344
 30
0.0
 10
117.719601750084
 20
-139.7272162194085
 30
0.0
 10
117.7216688073751
 20
-139.6817409590032
 30
0.0
 10
117.7216688073751
 20
-139.6751952775812
 30
0.0
 10
117.7216688073751
 20
-139.6049153296821
 30
0.0
 10
117.7003092153666
 20
-139.3923529382422
 30
0.0
 10
117.4636311555299
 20
-139.3923529382422
 30
0.0
 10
117.2862087380396
 20
-139.3923529382422
 30
0.0
 10
117.2310872102756
 20
-139.5325683244919
 30
0.0
 10
117.2310872102756
 20
-139.6500460805389
 30
0.0
 10
117.2310872102756
 20
-139.9328884198779
 30
0.0
 10
117.4636311555299
 20
-139.9418456681395
 30
0.0
 10
117.5356336511717
 20
-139.9463242922704
 30
0.0
 10
117.5356336511717
 20
-139.9463242922704
 30
0.0
 10
117.5356336511717
 20
-140.1633653078411
 30
0.0
 10
117.5356336511717
 20
-140.1633653078411
 30
0.0
 10
117.4109211946056
 20
-140.1544080595795
 30
0.0
 10
117.0340277485193
 20
-140.1251247479548
 30
0.0
 10
117.0340277485193
 20
-139.6366102081464
 30
0.0
 10
117.0340277485193
 20
-139.396831562373
 30
0.0
 10
117.161151771925
 20
-139.1391384200763
 30
0.0
 10
117.457085474108
 20
-139.1391384200763
 30
0.0
 10
117.6438096494085
 20
-139.1391384200763
 30
0.0
 10
117.7258029219574
 20
-139.2411132464397
 30
0.0
 10
117.7871256215949
 20
-139.3472221873854
 30
0.0
 10
117.8146863854769
 20
-139.2817653731657
 30
0.0
 10
117.8953016198317
 20
-139.0871174782491
 30
0.0
 10
118.1722872968458
 20
-139.0871174782491
 30
0.0
 10
118.5105956734974
 20
-139.0871174782491
 30
0.0
 10
118.6780273140805
 20
-139.3517008115163
 30
0.0
 10
118.6780273140805
 20
-139.6479790232477
 30
0.0
  0
HATCH
  5
EA
330
E5
100
AcDbEntity
  8
_U+30EC_U+30A4_U+30E4_U+30FC 1
 62
   179
420
  2234388
100
AcDbHatch
 10
0.0
 20
0.0
 30
0.0
210
0.0
220
0.0
230
1.0
  2
SOLID
 70
     1
 71
     0
 91
        1
 92
        1
 93
        1
 72
     4
 94
        3
 73
     0
 74
     1
 95
       62
 96
       58
 40
0.0
 40
0.0
 40
0.0
 40
0.0
 40
1.0
 40
1.0
 40
1.0
 40
2.0
 40
2.0
 40
2.0
 40
3.0
 40
3.0
 40
3.0
 40
4.0
 40
4.0
 40
4.0
 40
5.0
 40
5.0
 40
5.0
 40
6.0
 40
6.0
 40
6.0
 40
7.0
 40
7.0
 40
7.0
 40
8.0
 40
8.0
 40
8.0
 40
9.0
 40
9.0
 40
9.0
 40
10.0
 40
10.0
 40
10.0
 40
11.0
 40
11.0
 40
11.0
 40
12.0
 40
12.0
 40
12.0
 40
13.0
 40
13.0
 40
13.0
 40
14.0
 40
14.0
 40
14.0
 40
15.0
 40
15.0
 40
15.0
 40
16.0
 40
16.0
 40
16.0
 40
17.0
 40
17.0
 40
17.0
 40
18.0
 40
18.0
 40
18.0
 40
19.0
 40
19.0
 40
19.0
 40
19.0
 10
118.6780273140805
 20
-139.6479790232477
 10
118.6780273140805
 20
-139.7496093400626
 10
118.6566677220719
 20
-139.9824977948655
 10
118.4706325658685
 20
-140.1158229901447
 10
118.3583224530493
 20
-140.1950601863054
 10
118.2591037030741
 20
-140.1995388104362
 10
118.174354354137
 20
-140.204017434567
 10
118.174354354137
 20
-140.204017434567
 10
118.174354354137
 20
-139.969061922473
 10
118.174354354137
 20
-139.969061922473
 10
118.2487684166184
 20
-139.9666503556333
 10
118.4830349096154
 20
-139.955281540532
 10
118.4830349096154
 20
-139.6524576473786
 10
118.4830349096154
 20
-139.5053520701584
 10
118.4134439808133
 20
-139.3427435632546
 10
118.1853786596898
 20
-139.3427435632546
 10
118.0689344322883
 20
-139.3427435632546
 10
118.0200140763978
 20
-139.3833956899805
 10
117.9883191979335
 20
-139.4175021352845
 10
117.9145941545491
 20
-139.4963948218967
 10
117.9015027917052
 20
-139.6207627689143
 10
117.9015027917052
 20
-139.679673901712
 10
117.9015027917052
 20
-139.699999965075
 10
117.9035698489963
 20
-139.7382405249613
 10
117.9077039635786
 20
-139.7678683461344
 10
117.9077039635786
 20
-139.7678683461344
 10
117.7134005782105
 20
-139.7678683461344
 10
117.7134005782105
 20
-139.7678683461344
 10
117.719601750084
 20
-139.7272162194085
 10
117.7216688073751
 20
-139.6817409590032
 10
117.7216688073751
 20
-139.6751952775812
 10
117.7216688073751
 20
-139.6049153296821
 10
117.7003092153666
 20
-139.3923529382422
 10
117.4636311555299
 20
-139.3923529382422
 10
117.2862087380396
 20
-139.3923529382422
 10
117.2310872102756
 20
-139.5325683244919
 10
117.2310872102756
 20
-139.6500460805389
 10
117.2310872102756
 20
-139.9328884198779
 10
117.4636311555299
 20
-139.9418456681395
 10
117.5356336511717
 20
-139.9463242922704
 10
117.5356336511717
 20
-139.9463242922704
 10
117.5356336511717
 20
-140.1633653078411
 10
117.5356336511717
 20
-140.1633653078411
 10
117.4109211946056
 20
-140.1544080595795
 10
117.0340277485193
 20
-140.1251247479548
 10
117.0340277485193
 20
-139.6366102081464
 10
117.0340277485193
 20
-139.396831562373
 10
117.161151771925
 20
-139.1391384200763
 10
117.457085474108
 20
-139.1391384200763
 10
117.6438096494085
 20
-139.1391384200763
 10
117.7258029219574
 20
-139.2411132464397
 10
117.7871256215949
 20
-139.3472221873854
 10
117.8146863854769
 20
-139.2817653731657
 10
117.8953016198317
 20
-139.0871174782491
 10
118.1722872968458
 20
-139.0871174782491
 10
118.5105956734974
 20
-139.0871174782491
 10
118.6780273140805
 20
-139.3517008115163
 10
118.6780273140805
 20
-139.6479790232477
 97
        0
 97
        0
 75
     2
 76
     1
 98
        0
  0
ENDBLK
  5
E8
330
E5
100
AcDbEntity
  8
0
100
AcDbBlockEnd
  0
BLOCK
  5
ED
330
EB
100
AcDbEntity
  8
0
100
AcDbBlockBegin
  2
block 8
 70
     0
 10
0.0
 20
0.0
 30
0.0
  3
block 8
  1

  0
SPLINE
  5
EF
330
EB
100
AcDbEntity
  8
_U+30EC_U+30A4_U+30E4_U+30FC 1
370
     0
100
AcDbSpline
210
0.0
220
0.0
230
1.0
 70
    11
 71
     3
 72
    26
 73
    22
 74
     0
 42
0.0000000001
 43
0.0000000001
 12
1.0
 22
0.0
 32
0.0
 13
1.0
 23
0.0
 33
0.0
 40
0.0
 40
0.0
 40
0.0
 40
0.0
 40
1.0
 40
1.0
 40
1.0
 40
2.0
 40
2.0
 40
2.0
 40
3.0
 40
3.0
 40
3.0
 40
4.0
 40
4.0
 40
4.0
 40
5.0
 40
5.0
 40
5.0
 40
6.0
 40
6.0
 40
6.0
 40
7.0
 40
7.0
 40
7.0
 40
7.0
 10
118.6270399008988
 20
-134.2174750098484
 30
0.0
 10
118.6270399008988
 20
-134.2174750098484
 30
0.0
 10
118.6270399008988
 20
-134.4706895280143
 30
0.0
 10
118.6270399008988
 20
-134.4706895280143
 30
0.0
 10
118.3183593454204
 20
-134.4434732736808
 30
0.0
 10
117.8002169844388
 20
-134.2378010732114
 30
0.0
 10
117.2944769672042
 20
-133.8037190420699
 30
0.0
 10
117.2944769672042
 20
-133.8037190420699
 30
0.0
 10
117.2944769672042
 20
-134.6990993586863
 30
0.0
 10
117.2944769672042
 20
-134.6990993586863
 30
0.0
 10
117.2944769672042
 20
-134.6990993586863
 30
0.0
 10
117.0829481044098
 20
-134.6990993586863
 30
0.0
 10
117.0829481044098
 20
-134.6990993586863
 30
0.0
 10
117.0829481044098
 20
-134.6990993586863
 30
0.0
 10
117.0829481044098
 20
-133.550504523904
 30
0.0
 10
117.0829481044098
 20
-133.550504523904
 30
0.0
 10
117.0829481044098
 20
-133.550504523904
 30
0.0
 10
117.2944769672042
 20
-133.550504523904
 30
0.0
 10
117.2944769672042
 20
-133.550504523904
 30
0.0
 10
117.5845540070622
 20
-133.8963921106231
 30
0.0
 10
118.1764214114281
 20
-134.1813015072533
 30
0.0
 10
118.6270399008988
 20
-134.2174750098484
 30
0.0
  0
HATCH
  5
F0
330
EB
100
AcDbEntity
  8
_U+30EC_U+30A4_U+30E4_U+30FC 1
 62
   179
420
  2234388
100
AcDbHatch
 10
0.0
 20
0.0
 30
0.0
210
0.0
220
0.0
230
1.0
  2
SOLID
 70
     1
 71
     0
 91
        1
 92
        1
 93
        1
 72
     4
 94
        3
 73
     0
 74
     1
 95
       26
 96
       22
 40
0.0
 40
0.0
 40
0.0
 40
0.0
 40
1.0
 40
1.0
 40
1.0
 40
2.0
 40
2.0
 40
2.0
 40
3.0
 40
3.0
 40
3.0
 40
4.0
 40
4.0
 40
4.0
 40
5.0
 40
5.0
 40
5.0
 40
6.0
 40
6.0
 40
6.0
 40
7.0
 40
7.0
 40
7.0
 40
7.0
 10
118.6270399008988
 20
-134.2174750098484
 10
118.6270399008988
 20
-134.2174750098484
 10
118.6270399008988
 20
-134.4706895280143
 10
118.6270399008988
 20
-134.4706895280143
 10
118.3183593454204
 20
-134.4434732736808
 10
117.8002169844388
 20
-134.2378010732114
 10
117.2944769672042
 20
-133.8037190420699
 10
117.2944769672042
 20
-133.8037190420699
 10
117.2944769672042
 20
-134.6990993586863
 10
117.2944769672042
 20
-134.6990993586863
 10
117.2944769672042
 20
-134.6990993586863
 10
117.0829481044098
 20
-134.6990993586863
 10
117.0829481044098
 20
-134.6990993586863
 10
117.0829481044098
 20
-134.6990993586863
 10
117.0829481044098
 20
-133.550504523904
 10
117.0829481044098
 20
-133.550504523904
 10
117.0829481044098
 20
-133.550504523904
 10
117.2944769672042
 20
-133.550504523904
 10
117.2944769672042
 20
-133.550504523904
 10
117.5845540070622
 20
-133.8963921106231
 10
118.1764214114281
 20
-134.1813015072533
 10
118.6270399008988
 20
-134.2174750098484
 97
        0
 97
        0
 75
     2
 76
     1
 98
        0
  0
ENDBLK
  5
EE
330
EB
100
AcDbEntity
  8
0
100
AcDbBlockEnd
  0
BLOCK
  5
F3
330
F1
100
AcDbEntity
  8
0
100
AcDbBlockBegin
  2
block 9
 70
     0
 10
0.0
 20
0.0
 30
0.0
  3
block 9
  1

  0
SPLINE
  5
F5
330
F1
100
AcDbEntity
  8
_U+30EC_U+30A4_U+30E4_U+30FC 1
370
     0
100
AcDbSpline
210
0.0
220
0.0
230
1.0
 70
    11
 71
     3
 72
    26
 73
    22
 74
     0
 42
0.0000000001
 43
0.0000000001
 12
1.0
 22
0.0
 32
0.0
 13
1.0
 23
0.0
 33
0.0
 40
0.0
 40
0.0
 40
0.0
 40
0.0
 40
1.0
 40
1.0
 40
1.0
 40
2.0
 40
2.0
 40
2.0
 40
3.0
 40
3.0
 40
3.0
 40
4.0
 40
4.0
 40
4.0
 40
5.0
 40
5.0
 40
5.0
 40
6.0
 40
6.0
 40
6.0
 40
7.0
 40
7.0
 40
7.0
 40
7.0
 10
118.6270399008988
 20
-129.0608560875264
 30
0.0
 10
118.6270399008988
 20
-129.0608560875264
 30
0.0
 10
117.5232313074248
 20
-129.0608560875264
 30
0.0
 10
117.5232313074248
 20
-129.0608560875264
 30
0.0
 10
117.5232313074248
 20
-129.0608560875264
 30
0.0
 10
117.5232313074248
 20
-129.4132893556675
 30
0.0
 10
117.5232313074248
 20
-129.4132893556675
 30
0.0
 10
117.5232313074248
 20
-129.4132893556675
 30
0.0
 10
117.375092201559
 20
-129.4132893556675
 30
0.0
 10
117.375092201559
 20
-129.4132893556675
 30
0.0
 10
117.3599337814239
 20
-129.0584445206868
 30
0.0
 10
117.1973252745201
 20
-129.0088351456992
 30
0.0
 10
117.0829481044098
 20
-128.9771402672349
 30
0.0
 10
117.0829481044098
 20
-128.9771402672349
 30
0.0
 10
117.0829481044098
 20
-128.8210774417531
 30
0.0
 10
117.0829481044098
 20
-128.8210774417531
 30
0.0
 10
117.0829481044098
 20
-128.8210774417531
 30
0.0
 10
118.6270399008988
 20
-128.8210774417531
 30
0.0
 10
118.6270399008988
 20
-128.8210774417531
 30
0.0
 10
118.6270399008988
 20
-128.8210774417531
 30
0.0
 10
118.6270399008988
 20
-129.0608560875264
 30
0.0
 10
118.6270399008988
 20
-129.0608560875264
 30
0.0
  0
HATCH
  5
F6
330
F1
100
AcDbEntity
  8
_U+30EC_U+30A4_U+30E4_U+30FC 1
 62
   179
420
  2234388
100
AcDbHatch
 10
0.0
 20
0.0
 30
0.0
210
0.0
220
0.0
230
1.0
  2
SOLID
 70
     1
 71
     0
 91
        1
 92
        1
 93
        1
 72
     4
 94
        3
 73
     0
 74
     1
 95
       26
 96
       22
 40
0.0
 40
0.0
 40
0.0
 40
0.0
 40
1.0
 40
1.0
 40
1.0
 40
2.0
 40
2.0
 40
2.0
 40
3.0
 40
3.0
 40
3.0
 40
4.0
 40
4.0
 40
4.0
 40
5.0
 40
5.0
 40
5.0
 40
6.0
 40
6.0
 40
6.0
 40
7.0
 40
7.0
 40
7.0
 40
7.0
 10
118.6270399008988
 20
-129.0608560875264
 10
118.6270399008988
 20
-129.0608560875264
 10
117.5232313074248
 20
-129.0608560875264
 10
117.5232313074248
 20
-129.0608560875264
 10
117.5232313074248
 20
-129.0608560875264
 10
117.5232313074248
 20
-129.4132893556675
 10
117.5232313074248
 20
-129.4132893556675
 10
117.5232313074248
 20
-129.4132893556675
 10
117.375092201559
 20
-129.4132893556675
 10
117.375092201559
 20
-129.4132893556675
 10
117.3599337814239
 20
-129.0584445206868
 10
117.1973252745201
 20
-129.0088351456992
 10
117.0829481044098
 20
-128.9771402672349
 10
117.0829481044098
 20
-128.9771402672349
 10
117.0829481044098
 20
-128.8210774417531
 10
117.0829481044098
 20
-128.8210774417531
 10
117.0829481044098
 20
-128.8210774417531
 10
118.6270399008988
 20
-128.8210774417531
 10
118.6270399008988
 20
-128.8210774417531
 10
118.6270399008988
 20
-128.8210774417531
 10
118.6270399008988
 20
-129.0608560875264
 10
118.6270399008988
 20
-129.0608560875264
 97
        0
 97
        0
 75
     2
 76
     1
 98
        0
  0
ENDBLK
  5
F4
330
F1
100
AcDbEntity
  8
0
100
AcDbBlockEnd
  0
ENDSEC
  0
SECTION
  2
ENTITIES
  0
SPLINE
  5
41
330
1F
100
AcDbEntity
  8
_U+30EC_U+30A4_U+30E4_U+30FC 1
 62
   179
420
  2234388
370
     9
100
AcDbSpline
210
0.0
220
0.0
230
1.0
 70
    11
 71
     3
 72
    17
 73
    13
 74
     0
 42
0.0000000001
 43
0.0000000001
 12
1.0
 22
0.0
 32
0.0
 13
1.0
 23
0.0
 33
0.0
 40
0.0
 40
0.0
 40
0.0
 40
0.0
 40
1.0
 40
1.0
 40
1.0
 40
2.0
 40
2.0
 40
2.0
 40
3.0
 40
3.0
 40
3.0
 40
4.0
 40
4.0
 40
4.0
 40
4.0
 10
92.26034709068689
 20
-145.152215797045
 30
0.0
 10
92.26034709068689
 20
-145.0970766303926
 30
0.0
 10
92.21554431405214
 20
-145.0523091304034
 30
0.0
 10
92.16044042656907
 20
-145.0523091304034
 30
0.0
 10
92.10530126130911
 20
-145.0523091304034
 30
0.0
 10
92.06053608809624
 20
-145.0970766303926
 30
0.0
 10
92.06053608809624
 20
-145.152215797045
 30
0.0
 10
92.06053608809624
 20
-145.2073196859206
 30
0.0
 10
92.10530126130911
 20
-145.2521224636873
 30
0.0
 10
92.16044042656907
 20
-145.2521224636873
 30
0.0
 10
92.21554431405214
 20
-145.2521224636873
 30
0.0
 10
92.26034709068689
 20
-145.2073196859206
 30
0.0
 10
92.26034709068689
 20
-145.152215797045
 30
0.0
  0
SPLINE
  5
42
330
1F
100
AcDbEntity
  8
_U+30EC_U+30A4_U+30E4_U+30FC 1
 62
   179
420
  2234388
370
     9
100
AcDbSpline
210
0.0
220
0.0
230
1.0
 70
    11
 71
     3
 72
    17
 73
    13
 74
     0
 42
0.0000000001
 43
0.0000000001
 12
1.0
 22
0.0
 32
0.0
 13
1.0
 23
0.0
 33
0.0
 40
0.0
 40
0.0
 40
0.0
 40
0.0
 40
1.0
 40
1.0
 40
1.0
 40
2.0
 40
2.0
 40
2.0
 40
3.0
 40
3.0
 40
3.0
 40
4.0
 40
4.0
 40
4.0
 40
4.0
 10
70.26066681861217
 20
-145.152215797045
 30
0.0
 10
70.26066681861217
 20
-145.0970766303926
 30
0.0
 10
70.2158640419774
 20
-145.0523091304034
 30
0.0
 10
70.16076015449433
 20
-145.0523091304034
 30
0.0
 10
70.10562098923438
 20
-145.0523091304034
 30
0.0
 10
70.0608534903765
 20
-145.0970766303926
 30
0.0
 10
70.0608534903765
 20
-145.152215797045
 30
0.0
 10
70.0608534903765
 20
-145.2073196859206
 30
0.0
 10
70.10562098923438
 20
-145.2521224636873
 30
0.0
 10
70.16076015449433
 20
-145.2521224636873
 30
0.0
 10
70.2158640419774
 20
-145.2521224636873
 30
0.0
 10
70.26066681861217
 20
-145.2073196859206
 30
0.0
 10
70.26066681861217
 20
-145.152215797045
 30
0.0
  0
POLYLINE
  5
43
330
1F
100
AcDbEntity
  8
_U+30EC_U+30A4_U+30E4_U+30FC 1
 62
   179
420
  2234388
370
     9
100
AcDb2dPolyline
 66
     1
 10
0.0
 20
0.0
 30
0.0
  0
VERTEX
  5
44
330
43
100
AcDbEntity
  8
_U+30EC_U+30A4_U+30E4_U+30FC 1
 62
   179
420
  2234388
370
     9
100
AcDbVertex
100
AcDb2dVertex
 10
70.16076015449433
 20
-133.6518013554758
 30
0.0
  0
VERTEX
  5
45
330
43
100
AcDbEntity
  8
_U+30EC_U+30A4_U+30E4_U+30FC 1
 62
   179
420
  2234388
370
     9
100
AcDbVertex
100
AcDb2dVertex
 10
70.16076015449433
 20
-146.1519880190176
 30
0.0
  0
SEQEND
  5
46
330
43
100
AcDbEntity
  8
_U+30EC_U+30A4_U+30E4_U+30FC 1
 62
   179
420
  2234388
370
     9
  0
POLYLINE
  5
47
330
1F
100
AcDbEntity
  8
_U+30EC_U+30A4_U+30E4_U+30FC 1
 62
   179
420
  2234388
370
     9
100
AcDb2dPolyline
 66
     1
 10
0.0
 20
0.0
 30
0.0
  0
VERTEX
  5
48
330
47
100
AcDbEntity
  8
_U+30EC_U+30A4_U+30E4_U+30FC 1
 62
   179
420
  2234388
370
     9
100
AcDbVertex
100
AcDb2dVertex
 10
70.16076015449433
 20
-145.152215797045
 30
0.0
  0
VERTEX
  5
49
330
47
100
AcDbEntity
  8
_U+30EC_U+30A4_U+30E4_U+30FC 1
 62
   179
420
  2234388
370
     9
100
AcDbVertex
100
AcDb2dVertex
 10
92.16044042656907
 20
-145.152215797045
 30
0.0
  0
SEQEND
  5
4A
330
47
100
AcDbEntity
  8
_U+30EC_U+30A4_U+30E4_U+30FC 1
 62
   179
420
  2234388
370
     9
  0
POLYLINE
  5
4B
330
1F
100
AcDbEntity
  8
_U+30EC_U+30A4_U+30E4_U+30FC 1
 62
   179
420
  2234388
370
     9
100
AcDb2dPolyline
 66
     1
 10
0.0
 20
0.0
 30
0.0
  0
VERTEX
  5
4C
330
4B
100
AcDbEntity
  8
_U+30EC_U+30A4_U+30E4_U+30FC 1
 62
   179
420
  2234388
370
     9
100
AcDbVertex
100
AcDb2dVertex
 10
92.16044042656907
 20
-143.6921744085213
 30
0.0
  0
VERTEX
  5
4D
330
4B
100
AcDbEntity
  8
_U+30EC_U+30A4_U+30E4_U+30FC 1
 62
   179
420
  2234388
370
     9
100
AcDbVertex
100
AcDb2dVertex
 10
92.16044042656907
 20
-146.1519880190176
 30
0.0
  0
SEQEND
  5
4E
330
4B
100
AcDbEntity
  8
_U+30EC_U+30A4_U+30E4_U+30FC 1
 62
   179
420
  2234388
370
     9
  0
SPLINE
  5
4F
330
1F
100
AcDbEntity
  8
_U+30EC_U+30A4_U+30E4_U+30FC 1
 62
   179
420
  2234388
370
     9
100
AcDbSpline
210
0.0
220
0.0
230
1.0
 70
    11
 71
     3
 72
    17
 73
    13
 74
     0
 42
0.0000000001
 43
0.0000000001
 12
1.0
 22
0.0
 32
0.0
 13
1.0
 23
0.0
 33
0.0
 40
0.0
 40
0.0
 40
0.0
 40
0.0
 40
1.0
 40
1.0
 40
1.0
 40
2.0
 40
2.0
 40
2.0
 40
3.0
 40
3.0
 40
3.0
 40
4.0
 40
4.0
 40
4.0
 40
4.0
 10
82.260261512477
 20
-145.152215797045
 30
0.0
 10
82.260261512477
 20
-145.0970766303926
 30
0.0
 10
82.21549401361912
 20
-145.0523091304034
 30
0.0
 10
82.16035484835916
 20
-145.0523091304034
 30
0.0
 10
82.10525096087609
 20
-145.0523091304034
 30
0.0
 10
82.06044818424132
 20
-145.0970766303926
 30
0.0
 10
82.06044818424132
 20
-145.152215797045
 30
0.0
 10
82.06044818424132
 20
-145.2073196859206
 30
0.0
 10
82.10525096087609
 20
-145.2521224636873
 30
0.0
 10
82.16035484835916
 20
-145.2521224636873
 30
0.0
 10
82.21549401361912
 20
-145.2521224636873
 30
0.0
 10
82.260261512477
 20
-145.2073196859206
 30
0.0
 10
82.260261512477
 20
-145.152215797045
 30
0.0
  0
POLYLINE
  5
50
330
1F
100
AcDbEntity
  8
_U+30EC_U+30A4_U+30E4_U+30FC 1
 62
   179
420
  2234388
370
     9
100
AcDb2dPolyline
 66
     1
 10
0.0
 20
0.0
 30
0.0
  0
VERTEX
  5
51
330
50
100
AcDbEntity
  8
_U+30EC_U+30A4_U+30E4_U+30FC 1
 62
   179
420
  2234388
370
     9
100
AcDbVertex
100
AcDb2dVertex
 10
82.16035484835916
 20
-143.6921744085213
 30
0.0
  0
VERTEX
  5
52
330
50
100
AcDbEntity
  8
_U+30EC_U+30A4_U+30E4_U+30FC 1
 62
   179
420
  2234388
370
     9
100
AcDbVertex
100
AcDb2dVertex
 10
82.16035484835916
 20
-146.1519880190176
 30
0.0
  0
SEQEND
  5
53
330
50
100
AcDbEntity
  8
_U+30EC_U+30A4_U+30E4_U+30FC 1
 62
   179
420
  2234388
370
     9
  0
INSERT
  5
55
330
1F
100
AcDbEntity
  8
_U+30EC_U+30A4_U+30E4_U+30FC 1
100
AcDbBlockReference
  2
block 2
 10
0.0
 20
0.0
 30
0.0
  0
INSERT
  5
5E
330
1F
100
AcDbEntity
  8
_U+30EC_U+30A4_U+30E4_U+30FC 1
100
AcDbBlockReference
  2
block 3
 10
0.0
 20
0.0
 30
0.0
  0
SPLINE
  5
65
330
1F
100
AcDbEntity
  8
_U+30EC_U+30A4_U+30E4_U+30FC 1
 62
   179
420
  2234388
370
     9
100
AcDbSpline
210
0.0
220
0.0
230
1.0
 70
    11
 71
     3
 72
    17
 73
    13
 74
     0
 42
0.0000000001
 43
0.0000000001
 12
1.0
 22
0.0
 32
0.0
 13
1.0
 23
0.0
 33
0.0
 40
0.0
 40
0.0
 40
0.0
 40
0.0
 40
1.0
 40
1.0
 40
1.0
 40
2.0
 40
2.0
 40
2.0
 40
3.0
 40
3.0
 40
3.0
 40
4.0
 40
4.0
 40
4.0
 40
4.0
 10
70.26066681861217
 20
-117.1918252484798
 30
0.0
 10
70.26066681861217
 20
-117.136686081827
 30
0.0
 10
70.2158640419774
 20
-117.0919185818381
 30
0.0
 10
70.16076015449433
 20
-117.0919185818381
 30
0.0
 10
70.10562098923438
 20
-117.0919185818381
 30
0.0
 10
70.0608534903765
 20
-117.136686081827
 30
0.0
 10
70.0608534903765
 20
-117.1918252484798
 30
0.0
 10
70.0608534903765
 20
-117.246929137355
 30
0.0
 10
70.10562098923438
 20
-117.2917319151214
 30
0.0
 10
70.16076015449433
 20
-117.2917319151214
 30
0.0
 10
70.2158640419774
 20
-117.2917319151214
 30
0.0
 10
70.26066681861217
 20
-117.246929137355
 30
0.0
 10
70.26066681861217
 20
-117.1918252484798
 30
0.0
  0
SPLINE
  5
66
330
1F
100
AcDbEntity
  8
_U+30EC_U+30A4_U+30E4_U+30FC 1
 62
   179
420
  2234388
370
     9
100
AcDbSpline
210
0.0
220
0.0
230
1.0
 70
    11
 71
     3
 72
    17
 73
    13
 74
     0
 42
0.0000000001
 43
0.0000000001
 12
1.0
 22
0.0
 32
0.0
 13
1.0
 23
0.0
 33
0.0
 40
0.0
 40
0.0
 40
0.0
 40
0.0
 40
1.0
 40
1.0
 40
1.0
 40
2.0
 40
2.0
 40
2.0
 40
3.0
 40
3.0
 40
3.0
 40
4.0
 40
4.0
 40
4.0
 40
4.0
 10
112.2605182471067
 20
-117.1918252484798
 30
0.0
 10
112.2605182471067
 20
-117.136686081827
 30
0.0
 10
112.2157154704719
 20
-117.0919185818381
 30
0.0
 10
112.160576305212
 20
-117.0919185818381
 30
0.0
 10
112.1054724177289
 20
-117.0919185818381
 30
0.0
 10
112.0606696410941
 20
-117.136686081827
 30
0.0
 10
112.0606696410941
 20
-117.1918252484798
 30
0.0
 10
112.0606696410941
 20
-117.246929137355
 30
0.0
 10
112.1054724177289
 20
-117.2917319151214
 30
0.0
 10
112.160576305212
 20
-117.2917319151214
 30
0.0
 10
112.2157154704719
 20
-117.2917319151214
 30
0.0
 10
112.2605182471067
 20
-117.246929137355
 30
0.0
 10
112.2605182471067
 20
-117.1918252484798
 30
0.0
  0
POLYLINE
  5
67
330
1F
100
AcDbEntity
  8
_U+30EC_U+30A4_U+30E4_U+30FC 1
 62
   179
420
  2234388
370
     9
100
AcDb2dPolyline
 66
     1
 10
0.0
 20
0.0
 30
0.0
  0
VERTEX
  5
68
330
67
100
AcDbEntity
  8
_U+30EC_U+30A4_U+30E4_U+30FC 1
 62
   179
420
  2234388
370
     9
100
AcDbVertex
100
AcDb2dVertex
 10
70.16076015449433
 20
-117.1918252484798
 30
0.0
  0
VERTEX
  5
69
330
67
100
AcDbEntity
  8
_U+30EC_U+30A4_U+30E4_U+30FC 1
 62
   179
420
  2234388
370
     9
100
AcDbVertex
100
AcDb2dVertex
 10
112.160576305212
 20
-117.1918252484798
 30
0.0
  0
SEQEND
  5
6A
330
67
100
AcDbEntity
  8
_U+30EC_U+30A4_U+30E4_U+30FC 1
 62
   179
420
  2234388
370
     9
  0
POLYLINE
  5
6B
330
1F
100
AcDbEntity
  8
_U+30EC_U+30A4_U+30E4_U+30FC 1
 62
   179
420
  2234388
370
     9
100
AcDb2dPolyline
 66
     1
 10
0.0
 20
0.0
 30
0.0
  0
VERTEX
  5
6C
330
6B
100
AcDbEntity
  8
_U+30EC_U+30A4_U+30E4_U+30FC 1
 62
   179
420
  2234388
370
     9
100
AcDbVertex
100
AcDb2dVertex
 10
70.16076015449433
 20
-118.651831359226
 30
0.0
  0
VERTEX
  5
6D
330
6B
100
AcDbEntity
  8
_U+30EC_U+30A4_U+30E4_U+30FC 1
 62
   179
420
  2234388
370
     9
100
AcDbVertex
100
AcDb2dVertex
 10
70.16076015449433
 20
-116.1920530265075
 30
0.0
  0
SEQEND
  5
6E
330
6B
100
AcDbEntity
  8
_U+30EC_U+30A4_U+30E4_U+30FC 1
 62
   179
420
  2234388
370
     9
  0
POLYLINE
  5
6F
330
1F
100
AcDbEntity
  8
_U+30EC_U+30A4_U+30E4_U+30FC 1
 62
   179
420
  2234388
370
     9
100
AcDb2dPolyline
 66
     1
 10
0.0
 20
0.0
 30
0.0
  0
VERTEX
  5
70
330
6F
100
AcDbEntity
  8
_U+30EC_U+30A4_U+30E4_U+30FC 1
 62
   179
420
  2234388
370
     9
100
AcDbVertex
100
AcDb2dVertex
 10
112.160576305212
 20
-127.6511219125316
 30
0.0
  0
VERTEX
  5
71
330
6F
100
AcDbEntity
  8
_U+30EC_U+30A4_U+30E4_U+30FC 1
 62
   179
420
  2234388
370
     9
100
AcDbVertex
100
AcDb2dVertex
 10
112.160576305212
 20
-116.1920530265075
 30
0.0
  0
SEQEND
  5
72
330
6F
100
AcDbEntity
  8
_U+30EC_U+30A4_U+30E4_U+30FC 1
 62
   179
420
  2234388
370
     9
  0
SPLINE
  5
73
330
1F
100
AcDbEntity
  8
_U+30EC_U+30A4_U+30E4_U+30FC 1
 62
   179
420
  2234388
370
     9
100
AcDbSpline
210
0.0
220
0.0
230
1.0
 70
    11
 71
     3
 72
    17
 73
    13
 74
     0
 42
0.0000000001
 43
0.0000000001
 12
1.0
 22
0.0
 32
0.0
 13
1.0
 23
0.0
 33
0.0
 40
0.0
 40
0.0
 40
0.0
 40
0.0
 40
1.0
 40
1.0
 40
1.0
 40
2.0
 40
2.0
 40
2.0
 40
3.0
 40
3.0
 40
3.0
 40
4.0
 40
4.0
 40
4.0
 40
4.0
 10
73.24961174235783
 20
-114.9973005268062
 30
0.0
 10
73.24961174235783
 20
-114.9414910823758
 30
0.0
 10
73.20484424349995
 20
-114.8966883046091
 30
0.0
 10
73.14970507823999
 20
-114.8966883046091
 30
0.0
 10
73.09460119075692
 20
-114.8966883046091
 30
0.0
 10
73.04979841412215
 20
-114.9414910823758
 30
0.0
 10
73.04979841412215
 20
-114.9973005268062
 30
0.0
 10
73.04979841412215
 20
-115.0524044156815
 30
0.0
 10
73.09460119075692
 20
-115.0972071934479
 30
0.0
 10
73.14970507823999
 20
-115.0972071934479
 30
0.0
 10
73.20484424349995
 20
-115.0972071934479
 30
0.0
 10
73.24961174235783
 20
-115.0524044156815
 30
0.0
 10
73.24961174235783
 20
-114.9973005268062
 30
0.0
  0
SPLINE
  5
74
330
1F
100
AcDbEntity
  8
_U+30EC_U+30A4_U+30E4_U+30FC 1
 62
   179
420
  2234388
370
     9
100
AcDbSpline
210
0.0
220
0.0
230
1.0
 70
    11
 71
     3
 72
    17
 73
    13
 74
     0
 42
0.0000000001
 43
0.0000000001
 12
1.0
 22
0.0
 32
0.0
 13
1.0
 23
0.0
 33
0.0
 40
0.0
 40
0.0
 40
0.0
 40
0.0
 40
1.0
 40
1.0
 40
1.0
 40
2.0
 40
2.0
 40
2.0
 40
3.0
 40
3.0
 40
3.0
 40
4.0
 40
4.0
 40
4.0
 40
4.0
 10
70.07394154559815
 20
-114.9973005268062
 30
0.0
 10
70.07394154559815
 20
-114.9414910823758
 30
0.0
 10
70.02913876896338
 20
-114.8966883046091
 30
0.0
 10
69.9740348814803
 20
-114.8966883046091
 30
0.0
 10
69.91889571622036
 20
-114.8966883046091
 30
0.0
 10
69.87412821736248
 20
-114.9414910823758
 30
0.0
 10
69.87412821736248
 20
-114.9973005268062
 30
0.0
 10
69.87412821736248
 20
-115.0524044156815
 30
0.0
 10
69.91889571622036
 20
-115.0972071934479
 30
0.0
 10
69.9740348814803
 20
-115.0972071934479
 30
0.0
 10
70.02913876896338
 20
-115.0972071934479
 30
0.0
 10
70.07394154559815
 20
-115.0524044156815
 30
0.0
 10
70.07394154559815
 20
-114.9973005268062
 30
0.0
  0
POLYLINE
  5
75
330
1F
100
AcDbEntity
  8
_U+30EC_U+30A4_U+30E4_U+30FC 1
 62
   179
420
  2234388
370
     9
100
AcDb2dPolyline
 66
     1
 10
0.0
 20
0.0
 30
0.0
  0
VERTEX
  5
76
330
75
100
AcDbEntity
  8
_U+30EC_U+30A4_U+30E4_U+30FC 1
 62
   179
420
  2234388
370
     9
100
AcDbVertex
100
AcDb2dVertex
 10
69.9740348814803
 20
-114.2917449714271
 30
0.0
  0
VERTEX
  5
77
330
75
100
AcDbEntity
  8
_U+30EC_U+30A4_U+30E4_U+30FC 1
 62
   179
420
  2234388
370
     9
100
AcDbVertex
100
AcDb2dVertex
 10
69.9740348814803
 20
-115.5264671933406
 30
0.0
  0
SEQEND
  5
78
330
75
100
AcDbEntity
  8
_U+30EC_U+30A4_U+30E4_U+30FC 1
 62
   179
420
  2234388
370
     9
  0
POLYLINE
  5
79
330
1F
100
AcDbEntity
  8
_U+30EC_U+30A4_U+30E4_U+30FC 1
 62
   179
420
  2234388
370
     9
100
AcDb2dPolyline
 66
     1
 10
0.0
 20
0.0
 30
0.0
  0
VERTEX
  5
7A
330
79
100
AcDbEntity
  8
_U+30EC_U+30A4_U+30E4_U+30FC 1
 62
   179
420
  2234388
370
     9
100
AcDbVertex
100
AcDb2dVertex
 10
73.14970507823999
 20
-114.2917449714271
 30
0.0
  0
VERTEX
  5
7B
330
79
100
AcDbEntity
  8
_U+30EC_U+30A4_U+30E4_U+30FC 1
 62
   179
420
  2234388
370
     9
100
AcDbVertex
100
AcDb2dVertex
 10
73.14970507823999
 20
-115.5264671933406
 30
0.0
  0
SEQEND
  5
7C
330
79
100
AcDbEntity
  8
_U+30EC_U+30A4_U+30E4_U+30FC 1
 62
   179
420
  2234388
370
     9
  0
POLYLINE
  5
7D
330
1F
100
AcDbEntity
  8
_U+30EC_U+30A4_U+30E4_U+30FC 1
 62
   179
420
  2234388
370
     9
100
AcDb2dPolyline
 66
     1
 10
0.0
 20
0.0
 30
0.0
  0
VERTEX
  5
7E
330
7D
100
AcDbEntity
  8
_U+30EC_U+30A4_U+30E4_U+30FC 1
 62
   179
420
  2234388
370
     9
100
AcDbVertex
100
AcDb2dVertex
 10
68.76136130130708
 20
-114.9973005268062
 30
0.0
  0
VERTEX
  5
7F
330
7D
100
AcDbEntity
  8
_U+30EC_U+30A4_U+30E4_U+30FC 1
 62
   179
420
  2234388
370
     9
100
AcDbVertex
100
AcDb2dVertex
 10
74.45057498138742
 20
-114.9973005268062
 30
0.0
  0
SEQEND
  5
80
330
7D
100
AcDbEntity
  8
_U+30EC_U+30A4_U+30E4_U+30FC 1
 62
   179
420
  2234388
370
     9
  0
INSERT
  5
82
330
1F
100
AcDbEntity
  8
_U+30EC_U+30A4_U+30E4_U+30FC 1
100
AcDbBlockReference
  2
block 4
 10
0.0
 20
0.0
 30
0.0
  0
INSERT
  5
9D
330
1F
100
AcDbEntity
  8
_U+30EC_U+30A4_U+30E4_U+30FC 1
100
AcDbBlockReference
  2
block 5
 10
0.0
 20
0.0
 30
0.0
  0
SPLINE
  5
A2
330
1F
100
AcDbEntity
  8
_U+30EC_U+30A4_U+30E4_U+30FC 1
 62
   179
420
  2234388
370
     9
100
AcDbSpline
210
0.0
220
0.0
230
1.0
 70
    11
 71
     3
 72
    17
 73
    13
 74
     0
 42
0.0000000001
 43
0.0000000001
 12
1.0
 22
0.0
 32
0.0
 13
1.0
 23
0.0
 33
0.0
 40
0.0
 40
0.0
 40
0.0
 40
0.0
 40
1.0
 40
1.0
 40
1.0
 40
2.0
 40
2.0
 40
2.0
 40
3.0
 40
3.0
 40
3.0
 40
4.0
 40
4.0
 40
4.0
 40
4.0
 10
66.26090775398785
 20
-131.1520180227677
 30
0.0
 10
66.26090775398785
 20
-131.0969141338928
 30
0.0
 10
66.2161049773531
 20
-131.052111356126
 30
0.0
 10
66.16100276123741
 20
-131.052111356126
 30
0.0
 10
66.10519164684939
 20
-131.052111356126
 30
0.0
 10
66.06109442575219
 20
-131.0969141338928
 30
0.0
 10
66.06109442575219
 20
-131.1520180227677
 30
0.0
 10
66.06109442575219
 20
-131.2071571894207
 30
0.0
 10
66.10519164684939
 20
-131.2519246894093
 30
0.0
 10
66.16100276123741
 20
-131.2519246894093
 30
0.0
 10
66.2161049773531
 20
-131.2519246894093
 30
0.0
 10
66.26090775398785
 20
-131.2071571894207
 30
0.0
 10
66.26090775398785
 20
-131.1520180227677
 30
0.0
  0
SPLINE
  5
A3
330
1F
100
AcDbEntity
  8
_U+30EC_U+30A4_U+30E4_U+30FC 1
 62
   179
420
  2234388
370
     9
100
AcDbSpline
210
0.0
220
0.0
230
1.0
 70
    11
 71
     3
 72
    17
 73
    13
 74
     0
 42
0.0000000001
 43
0.0000000001
 12
1.0
 22
0.0
 32
0.0
 13
1.0
 23
0.0
 33
0.0
 40
0.0
 40
0.0
 40
0.0
 40
0.0
 40
1.0
 40
1.0
 40
1.0
 40
2.0
 40
2.0
 40
2.0
 40
3.0
 40
3.0
 40
3.0
 40
4.0
 40
4.0
 40
4.0
 40
4.0
 10
66.26090775398785
 20
-121.1516146919344
 30
0.0
 10
66.26090775398785
 20
-121.0964755252813
 30
0.0
 10
66.2161049773531
 20
-121.0517080252928
 30
0.0
 10
66.16100276123741
 20
-121.0517080252928
 30
0.0
 10
66.10519164684939
 20
-121.0517080252928
 30
0.0
 10
66.06109442575219
 20
-121.0964755252813
 30
0.0
 10
66.06109442575219
 20
-121.1516146919344
 30
0.0
 10
66.06109442575219
 20
-121.2074241363649
 30
0.0
 10
66.10519164684939
 20
-121.2521916363537
 30
0.0
 10
66.16100276123741
 20
-121.2521916363537
 30
0.0
 10
66.2161049773531
 20
-121.2521916363537
 30
0.0
 10
66.26090775398785
 20
-121.2074241363649
 30
0.0
 10
66.26090775398785
 20
-121.1516146919344
 30
0.0
  0
POLYLINE
  5
A4
330
1F
100
AcDbEntity
  8
_U+30EC_U+30A4_U+30E4_U+30FC 1
 62
   179
420
  2234388
370
     9
100
AcDb2dPolyline
 66
     1
 10
0.0
 20
0.0
 30
0.0
  0
VERTEX
  5
A5
330
A4
100
AcDbEntity
  8
_U+30EC_U+30A4_U+30E4_U+30FC 1
 62
   179
420
  2234388
370
     9
100
AcDbVertex
100
AcDb2dVertex
 10
66.16100276123741
 20
-121.1516146919344
 30
0.0
  0
VERTEX
  5
A6
330
A4
100
AcDbEntity
  8
_U+30EC_U+30A4_U+30E4_U+30FC 1
 62
   179
420
  2234388
370
     9
100
AcDbVertex
100
AcDb2dVertex
 10
66.16100276123741
 20
-131.1520180227677
 30
0.0
  0
SEQEND
  5
A7
330
A4
100
AcDbEntity
  8
_U+30EC_U+30A4_U+30E4_U+30FC 1
 62
   179
420
  2234388
370
     9
  0
POLYLINE
  5
A8
330
1F
100
AcDbEntity
  8
_U+30EC_U+30A4_U+30E4_U+30FC 1
 62
   179
420
  2234388
370
     9
100
AcDb2dPolyline
 66
     1
 10
0.0
 20
0.0
 30
0.0
  0
VERTEX
  5
A9
330
A8
100
AcDbEntity
  8
_U+30EC_U+30A4_U+30E4_U+30FC 1
 62
   179
420
  2234388
370
     9
100
AcDbVertex
100
AcDb2dVertex
 10
67.62100716373327
 20
-121.1516146919344
 30
0.0
  0
VERTEX
  5
AA
330
A8
100
AcDbEntity
  8
_U+30EC_U+30A4_U+30E4_U+30FC 1
 62
   179
420
  2234388
370
     9
100
AcDbVertex
100
AcDb2dVertex
 10
65.16052498370999
 20
-121.1516146919344
 30
0.0
  0
SEQEND
  5
AB
330
A8
100
AcDbEntity
  8
_U+30EC_U+30A4_U+30E4_U+30FC 1
 62
   179
420
  2234388
370
     9
  0
POLYLINE
  5
AC
330
1F
100
AcDbEntity
  8
_U+30EC_U+30A4_U+30E4_U+30FC 1
 62
   179
420
  2234388
370
     9
100
AcDb2dPolyline
 66
     1
 10
0.0
 20
0.0
 30
0.0
  0
VERTEX
  5
AD
330
AC
100
AcDbEntity
  8
_U+30EC_U+30A4_U+30E4_U+30FC 1
 62
   179
420
  2234388
370
     9
100
AcDbVertex
100
AcDb2dVertex
 10
67.62100716373327
 20
-131.1520180227677
 30
0.0
  0
VERTEX
  5
AE
330
AC
100
AcDbEntity
  8
_U+30EC_U+30A4_U+30E4_U+30FC 1
 62
   179
420
  2234388
370
     9
100
AcDbVertex
100
AcDb2dVertex
 10
65.16052498370999
 20
-131.1520180227677
 30
0.0
  0
SEQEND
  5
AF
330
AC
100
AcDbEntity
  8
_U+30EC_U+30A4_U+30E4_U+30FC 1
 62
   179
420
  2234388
370
     9
  0
INSERT
  5
B1
330
1F
100
AcDbEntity
  8
_U+30EC_U+30A4_U+30E4_U+30FC 1
100
AcDbBlockReference
  2
block 6
 10
0.0
 20
0.0
 30
0.0
  0
SPLINE
  5
B9
330
1F
100
AcDbEntity
  8
_U+30EC_U+30A4_U+30E4_U+30FC 1
 62
   179
420
  2234388
370
     9
100
AcDbSpline
210
0.0
220
0.0
230
1.0
 70
    11
 71
     3
 72
    17
 73
    13
 74
     0
 42
0.0000000001
 43
0.0000000001
 12
1.0
 22
0.0
 32
0.0
 13
1.0
 23
0.0
 33
0.0
 40
0.0
 40
0.0
 40
0.0
 40
0.0
 40
1.0
 40
1.0
 40
1.0
 40
2.0
 40
2.0
 40
2.0
 40
3.0
 40
3.0
 40
3.0
 40
4.0
 40
4.0
 40
4.0
 40
4.0
 10
116.2203075905285
 20
-130.1515755230178
 30
0.0
 10
116.2203075905285
 20
-130.0964363563647
 30
0.0
 10
116.1755048138937
 20
-130.0516688563761
 30
0.0
 10
116.1204009264107
 20
-130.0516688563761
 30
0.0
 10
116.0652617611507
 20
-130.0516688563761
 30
0.0
 10
116.0204971932173
 20
-130.0964363563647
 30
0.0
 10
116.0204971932173
 20
-130.1515755230178
 30
0.0
 10
116.0204971932173
 20
-130.2066794118927
 30
0.0
 10
116.0652617611507
 20
-130.2514821896594
 30
0.0
 10
116.1204009264107
 20
-130.2514821896594
 30
0.0
 10
116.1755048138937
 20
-130.2514821896594
 30
0.0
 10
116.2203075905285
 20
-130.2066794118927
 30
0.0
 10
116.2203075905285
 20
-130.1515755230178
 30
0.0
  0
SPLINE
  5
BA
330
1F
100
AcDbEntity
  8
_U+30EC_U+30A4_U+30E4_U+30FC 1
 62
   179
420
  2234388
370
     9
100
AcDbSpline
210
0.0
220
0.0
230
1.0
 70
    11
 71
     3
 72
    17
 73
    13
 74
     0
 42
0.0000000001
 43
0.0000000001
 12
1.0
 22
0.0
 32
0.0
 13
1.0
 23
0.0
 33
0.0
 40
0.0
 40
0.0
 40
0.0
 40
0.0
 40
1.0
 40
1.0
 40
1.0
 40
2.0
 40
2.0
 40
2.0
 40
3.0
 40
3.0
 40
3.0
 40
4.0
 40
4.0
 40
4.0
 40
4.0
 10
116.2203075905285
 20
-131.1520180227677
 30
0.0
 10
116.2203075905285
 20
-131.0962085783372
 30
0.0
 10
116.1755048138937
 20
-131.051441078348
 30
0.0
 10
116.1204009264107
 20
-131.051441078348
 30
0.0
 10
116.0652617611507
 20
-131.051441078348
 30
0.0
 10
116.0204971932173
 20
-131.0962085783372
 30
0.0
 10
116.0204971932173
 20
-131.1520180227677
 30
0.0
 10
116.0204971932173
 20
-131.2071571894207
 30
0.0
 10
116.0652617611507
 20
-131.2519246894093
 30
0.0
 10
116.1204009264107
 20
-131.2519246894093
 30
0.0
 10
116.1755048138937
 20
-131.2519246894093
 30
0.0
 10
116.2203075905285
 20
-131.2071571894207
 30
0.0
 10
116.2203075905285
 20
-131.1520180227677
 30
0.0
  0
SPLINE
  5
BB
330
1F
100
AcDbEntity
  8
_U+30EC_U+30A4_U+30E4_U+30FC 1
 62
   179
420
  2234388
370
     9
100
AcDbSpline
210
0.0
220
0.0
230
1.0
 70
    11
 71
     3
 72
    17
 73
    13
 74
     0
 42
0.0000000001
 43
0.0000000001
 12
1.0
 22
0.0
 32
0.0
 13
1.0
 23
0.0
 33
0.0
 40
0.0
 40
0.0
 40
0.0
 40
0.0
 40
1.0
 40
1.0
 40
1.0
 40
2.0
 40
2.0
 40
2.0
 40
3.0
 40
3.0
 40
3.0
 40
4.0
 40
4.0
 40
4.0
 40
4.0
 10
116.2203075905285
 20
-138.1517641321289
 30
0.0
 10
116.2203075905285
 20
-138.0966602432534
 30
0.0
 10
116.1755048138937
 20
-138.0518574654873
 30
0.0
 10
116.1204009264107
 20
-138.0518574654873
 30
0.0
 10
116.0652617611507
 20
-138.0518574654873
 30
0.0
 10
116.0204971932173
 20
-138.0966602432534
 30
0.0
 10
116.0204971932173
 20
-138.1517641321289
 30
0.0
 10
116.0204971932173
 20
-138.2069032987813
 30
0.0
 10
116.0652617611507
 20
-138.2516707987705
 30
0.0
 10
116.1204009264107
 20
-138.2516707987705
 30
0.0
 10
116.1755048138937
 20
-138.2516707987705
 30
0.0
 10
116.2203075905285
 20
-138.2069032987813
 30
0.0
 10
116.2203075905285
 20
-138.1517641321289
 30
0.0
  0
SPLINE
  5
BC
330
1F
100
AcDbEntity
  8
_U+30EC_U+30A4_U+30E4_U+30FC 1
 62
   179
420
  2234388
370
     9
100
AcDbSpline
210
0.0
220
0.0
230
1.0
 70
    11
 71
     3
 72
    17
 73
    13
 74
     0
 42
0.0000000001
 43
0.0000000001
 12
1.0
 22
0.0
 32
0.0
 13
1.0
 23
0.0
 33
0.0
 40
0.0
 40
0.0
 40
0.0
 40
0.0
 40
1.0
 40
1.0
 40
1.0
 40
2.0
 40
2.0
 40
2.0
 40
3.0
 40
3.0
 40
3.0
 40
4.0
 40
4.0
 40
4.0
 40
4.0
 10
116.2203075905285
 20
-141.1517510758233
 30
0.0
 10
116.2203075905285
 20
-141.0966471869483
 30
0.0
 10
116.1755048138937
 20
-141.0518444091816
 30
0.0
 10
116.1204009264107
 20
-141.0518444091816
 30
0.0
 10
116.0652617611507
 20
-141.0518444091816
 30
0.0
 10
116.0204971932173
 20
-141.0966471869483
 30
0.0
 10
116.0204971932173
 20
-141.1517510758233
 30
0.0
 10
116.0204971932173
 20
-141.2068902424763
 30
0.0
 10
116.0652617611507
 20
-141.2516577424649
 30
0.0
 10
116.1204009264107
 20
-141.2516577424649
 30
0.0
 10
116.1755048138937
 20
-141.2516577424649
 30
0.0
 10
116.2203075905285
 20
-141.2068902424763
 30
0.0
 10
116.2203075905285
 20
-141.1517510758233
 30
0.0
  0
POLYLINE
  5
BD
330
1F
100
AcDbEntity
  8
_U+30EC_U+30A4_U+30E4_U+30FC 1
 62
   179
420
  2234388
370
     9
100
AcDb2dPolyline
 66
     1
 10
0.0
 20
0.0
 30
0.0
  0
VERTEX
  5
BE
330
BD
100
AcDbEntity
  8
_U+30EC_U+30A4_U+30E4_U+30FC 1
 62
   179
420
  2234388
370
     9
100
AcDbVertex
100
AcDb2dVertex
 10
116.1204009264107
 20
-130.1515755230178
 30
0.0
  0
VERTEX
  5
BF
330
BD
100
AcDbEntity
  8
_U+30EC_U+30A4_U+30E4_U+30FC 1
 62
   179
420
  2234388
370
     9
100
AcDbVertex
100
AcDb2dVertex
 10
116.1204009264107
 20
-126.3812630239603
 30
0.0
  0
SEQEND
  5
C0
330
BD
100
AcDbEntity
  8
_U+30EC_U+30A4_U+30E4_U+30FC 1
 62
   179
420
  2234388
370
     9
  0
POLYLINE
  5
C1
330
1F
100
AcDbEntity
  8
_U+30EC_U+30A4_U+30E4_U+30FC 1
 62
   179
420
  2234388
370
     9
100
AcDb2dPolyline
 66
     1
 10
0.0
 20
0.0
 30
0.0
  0
VERTEX
  5
C2
330
C1
100
AcDbEntity
  8
_U+30EC_U+30A4_U+30E4_U+30FC 1
 62
   179
420
  2234388
370
     9
100
AcDbVertex
100
AcDb2dVertex
 10
116.1204009264107
 20
-130.1515755230178
 30
0.0
  0
VERTEX
  5
C3
330
C1
100
AcDbEntity
  8
_U+30EC_U+30A4_U+30E4_U+30FC 1
 62
   179
420
  2234388
370
     9
100
AcDbVertex
100
AcDb2dVertex
 10
116.1204009264107
 20
-131.1520180227677
 30
0.0
  0
SEQEND
  5
C4
330
C1
100
AcDbEntity
  8
_U+30EC_U+30A4_U+30E4_U+30FC 1
 62
   179
420
  2234388
370
     9
  0
POLYLINE
  5
C5
330
1F
100
AcDbEntity
  8
_U+30EC_U+30A4_U+30E4_U+30FC 1
 62
   179
420
  2234388
370
     9
100
AcDb2dPolyline
 66
     1
 10
0.0
 20
0.0
 30
0.0
  0
VERTEX
  5
C6
330
C5
100
AcDbEntity
  8
_U+30EC_U+30A4_U+30E4_U+30FC 1
 62
   179
420
  2234388
370
     9
100
AcDbVertex
100
AcDb2dVertex
 10
114.6603595747705
 20
-130.1515755230178
 30
0.0
  0
VERTEX
  5
C7
330
C5
100
AcDbEntity
  8
_U+30EC_U+30A4_U+30E4_U+30FC 1
 62
   179
420
  2234388
370
     9
100
AcDbVertex
100
AcDb2dVertex
 10
117.1201378453497
 20
-130.1515755230178
 30
0.0
  0
SEQEND
  5
C8
330
C5
100
AcDbEntity
  8
_U+30EC_U+30A4_U+30E4_U+30FC 1
 62
   179
420
  2234388
370
     9
  0
POLYLINE
  5
C9
330
1F
100
AcDbEntity
  8
_U+30EC_U+30A4_U+30E4_U+30FC 1
 62
   179
420
  2234388
370
     9
100
AcDb2dPolyline
 66
     1
 10
0.0
 20
0.0
 30
0.0
  0
VERTEX
  5
CA
330
C9
100
AcDbEntity
  8
_U+30EC_U+30A4_U+30E4_U+30FC 1
 62
   179
420
  2234388
370
     9
100
AcDbVertex
100
AcDb2dVertex
 10
114.6603595747705
 20
-131.1520180227677
 30
0.0
  0
VERTEX
  5
CB
330
C9
100
AcDbEntity
  8
_U+30EC_U+30A4_U+30E4_U+30FC 1
 62
   179
420
  2234388
370
     9
100
AcDbVertex
100
AcDb2dVertex
 10
117.1201378453497
 20
-131.1520180227677
 30
0.0
  0
SEQEND
  5
CC
330
C9
100
AcDbEntity
  8
_U+30EC_U+30A4_U+30E4_U+30FC 1
 62
   179
420
  2234388
370
     9
  0
POLYLINE
  5
CD
330
1F
100
AcDbEntity
  8
_U+30EC_U+30A4_U+30E4_U+30FC 1
 62
   179
420
  2234388
370
     9
100
AcDb2dPolyline
 66
     1
 10
0.0
 20
0.0
 30
0.0
  0
VERTEX
  5
CE
330
CD
100
AcDbEntity
  8
_U+30EC_U+30A4_U+30E4_U+30FC 1
 62
   179
420
  2234388
370
     9
100
AcDbVertex
100
AcDb2dVertex
 10
116.1204009264107
 20
-141.1517510758233
 30
0.0
  0
VERTEX
  5
CF
330
CD
100
AcDbEntity
  8
_U+30EC_U+30A4_U+30E4_U+30FC 1
 62
   179
420
  2234388
370
     9
100
AcDbVertex
100
AcDb2dVertex
 10
116.1204009264107
 20
-142.3169055199762
 30
0.0
  0
SEQEND
  5
D0
330
CD
100
AcDbEntity
  8
_U+30EC_U+30A4_U+30E4_U+30FC 1
 62
   179
420
  2234388
370
     9
  0
POLYLINE
  5
D1
330
1F
100
AcDbEntity
  8
_U+30EC_U+30A4_U+30E4_U+30FC 1
 62
   179
420
  2234388
370
     9
100
AcDb2dPolyline
 66
     1
 10
0.0
 20
0.0
 30
0.0
  0
VERTEX
  5
D2
330
D1
100
AcDbEntity
  8
_U+30EC_U+30A4_U+30E4_U+30FC 1
 62
   179
420
  2234388
370
     9
100
AcDbVertex
100
AcDb2dVertex
 10
116.1204009264107
 20
-138.1517641321289
 30
0.0
  0
VERTEX
  5
D3
330
D1
100
AcDbEntity
  8
_U+30EC_U+30A4_U+30E4_U+30FC 1
 62
   179
420
  2234388
370
     9
100
AcDbVertex
100
AcDb2dVertex
 10
116.1204009264107
 20
-141.1517510758233
 30
0.0
  0
SEQEND
  5
D4
330
D1
100
AcDbEntity
  8
_U+30EC_U+30A4_U+30E4_U+30FC 1
 62
   179
420
  2234388
370
     9
  0
POLYLINE
  5
D5
330
1F
100
AcDbEntity
  8
_U+30EC_U+30A4_U+30E4_U+30FC 1
 62
   179
420
  2234388
370
     9
100
AcDb2dPolyline
 66
     1
 10
0.0
 20
0.0
 30
0.0
  0
VERTEX
  5
D6
330
D5
100
AcDbEntity
  8
_U+30EC_U+30A4_U+30E4_U+30FC 1
 62
   179
420
  2234388
370
     9
100
AcDbVertex
100
AcDb2dVertex
 10
94.66018841835073
 20
-141.1517510758233
 30
0.0
  0
VERTEX
  5
D7
330
D5
100
AcDbEntity
  8
_U+30EC_U+30A4_U+30E4_U+30FC 1
 62
   179
420
  2234388
370
     9
100
AcDbVertex
100
AcDb2dVertex
 10
117.1201378453497
 20
-141.1517510758233
 30
0.0
  0
SEQEND
  5
D8
330
D5
100
AcDbEntity
  8
_U+30EC_U+30A4_U+30E4_U+30FC 1
 62
   179
420
  2234388
370
     9
  0
POLYLINE
  5
D9
330
1F
100
AcDbEntity
  8
_U+30EC_U+30A4_U+30E4_U+30FC 1
 62
   179
420
  2234388
370
     9
100
AcDb2dPolyline
 66
     1
 10
0.0
 20
0.0
 30
0.0
  0
VERTEX
  5
DA
330
D9
100
AcDbEntity
  8
_U+30EC_U+30A4_U+30E4_U+30FC 1
 62
   179
420
  2234388
370
     9
100
AcDbVertex
100
AcDb2dVertex
 10
116.1204009264107
 20
-131.1520180227677
 30
0.0
  0
VERTEX
  5
DB
330
D9
100
AcDbEntity
  8
_U+30EC_U+30A4_U+30E4_U+30FC 1
 62
   179
420
  2234388
370
     9
100
AcDbVertex
100
AcDb2dVertex
 10
116.1204009264107
 20
-138.1517641321289
 30
0.0
  0
SEQEND
  5
DC
330
D9
100
AcDbEntity
  8
_U+30EC_U+30A4_U+30E4_U+30FC 1
 62
   179
420
  2234388
370
     9
  0
POLYLINE
  5
DD
330
1F
100
AcDbEntity
  8
_U+30EC_U+30A4_U+30E4_U+30FC 1
 62
   179
420
  2234388
370
     9
100
AcDb2dPolyline
 66
     1
 10
0.0
 20
0.0
 30
0.0
  0
VERTEX
  5
DE
330
DD
100
AcDbEntity
  8
_U+30EC_U+30A4_U+30E4_U+30FC 1
 62
   179
420
  2234388
370
     9
100
AcDbVertex
100
AcDb2dVertex
 10
114.6603595747705
 20
-131.1520180227677
 30
0.0
  0
VERTEX
  5
DF
330
DD
100
AcDbEntity
  8
_U+30EC_U+30A4_U+30E4_U+30FC 1
 62
   179
420
  2234388
370
     9
100
AcDbVertex
100
AcDb2dVertex
 10
117.1201378453497
 20
-131.1520180227677
 30
0.0
  0
SEQEND
  5
E0
330
DD
100
AcDbEntity
  8
_U+30EC_U+30A4_U+30E4_U+30FC 1
 62
   179
420
  2234388
370
     9
  0
POLYLINE
  5
E1
330
1F
100
AcDbEntity
  8
_U+30EC_U+30A4_U+30E4_U+30FC 1
 62
   179
420
  2234388
370
     9
100
AcDb2dPolyline
 66
     1
 10
0.0
 20
0.0
 30
0.0
  0
VERTEX
  5
E2
330
E1
100
AcDbEntity
  8
_U+30EC_U+30A4_U+30E4_U+30FC 1
 62
   179
420
  2234388
370
     9
100
AcDbVertex
100
AcDb2dVertex
 10
94.66018841835073
 20
-138.1517641321289
 30
0.0
  0
VERTEX
  5
E3
330
E1
100
AcDbEntity
  8
_U+30EC_U+30A4_U+30E4_U+30FC 1
 62
   179
420
  2234388
370
     9
100
AcDbVertex
100
AcDb2dVertex
 10
117.1201378453497
 20
-138.1517641321289
 30
0.0
  0
SEQEND
  5
E4
330
E1
100
AcDbEntity
  8
_U+30EC_U+30A4_U+30E4_U+30FC 1
 62
   179
420
  2234388
370
     9
  0
INSERT
  5
E6
330
1F
100
AcDbEntity
  8
_U+30EC_U+30A4_U+30E4_U+30FC 1
100
AcDbBlockReference
  2
block 7
 10
0.0
 20
0.0
 30
0.0
  0
INSERT
  5
EC
330
1F
100
AcDbEntity
  8
_U+30EC_U+30A4_U+30E4_U+30FC 1
100
AcDbBlockReference
  2
block 8
 10
0.0
 20
0.0
 30
0.0
  0
INSERT
  5
F2
330
1F
100
AcDbEntity
  8
_U+30EC_U+30A4_U+30E4_U+30FC 1
100
AcDbBlockReference
  2
block 9
 10
0.0
 20
0.0
 30
0.0
  0
POLYLINE
  5
F7
330
1F
100
AcDbEntity
  8
_U+30EC_U+30A4_U+30E4_U+30FC 1
 62
     7
420
 16777215
370
    25
100
AcDb2dPolyline
 66
     1
 10
0.0
 20
0.0
 30
0.0
  0
VERTEX
  5
F8
330
F7
100
AcDbEntity
  8
_U+30EC_U+30A4_U+30E4_U+30FC 1
 62
     7
420
 16777215
370
    25
100
AcDbVertex
100
AcDb2dVertex
 10
112.160576305212
 20
-131.1513477449897
 30
0.0
  0
VERTEX
  5
F9
330
F7
100
AcDbEntity
  8
_U+30EC_U+30A4_U+30E4_U+30FC 1
 62
     7
420
 16777215
370
    25
100
AcDbVertex
100
AcDb2dVertex
 10
112.160576305212
 20
-130.1515755230178
 30
0.0
  0
VERTEX
  5
FA
330
F7
100
AcDbEntity
  8
_U+30EC_U+30A4_U+30E4_U+30FC 1
 62
     7
420
 16777215
370
    25
100
AcDbVertex
100
AcDb2dVertex
 10
71.16049707343336
 20
-130.1515755230178
 30
0.0
  0
VERTEX
  5
FB
330
F7
100
AcDbEntity
  8
_U+30EC_U+30A4_U+30E4_U+30FC 1
 62
     7
420
 16777215
370
    25
100
AcDbVertex
100
AcDb2dVertex
 10
71.16049707343336
 20
-122.1513869139066
 30
0.0
  0
VERTEX
  5
FC
330
F7
100
AcDbEntity
  8
_U+30EC_U+30A4_U+30E4_U+30FC 1
 62
     7
420
 16777215
370
    25
100
AcDbVertex
100
AcDb2dVertex
 10
73.16074702240273
 20
-122.1513869139066
 30
0.0
  0
VERTEX
  5
FD
330
F7
100
AcDbEntity
  8
_U+30EC_U+30A4_U+30E4_U+30FC 1
 62
     7
420
 16777215
370
    25
100
AcDbVertex
100
AcDb2dVertex
 10
73.16074702240273
 20
-121.1516146919344
 30
0.0
  0
VERTEX
  5
FE
330
F7
100
AcDbEntity
  8
_U+30EC_U+30A4_U+30E4_U+30FC 1
 62
     7
420
 16777215
370
    25
100
AcDbVertex
100
AcDb2dVertex
 10
70.16076015449433
 20
-121.1516146919344
 30
0.0
  0
VERTEX
  5
FF
330
F7
100
AcDbEntity
  8
_U+30EC_U+30A4_U+30E4_U+30FC 1
 62
     7
420
 16777215
370
    25
100
AcDbVertex
100
AcDb2dVertex
 10
70.16076015449433
 20
-131.1513477449897
 30
0.0
  0
VERTEX
  5
100
330
F7
100
AcDbEntity
  8
_U+30EC_U+30A4_U+30E4_U+30FC 1
 62
     7
420
 16777215
370
    25
100
AcDbVertex
100
AcDb2dVertex
 10
82.16070762612794
 20
-131.1513477449897
 30
0.0
  0
VERTEX
  5
101
330
F7
100
AcDbEntity
  8
_U+30EC_U+30A4_U+30E4_U+30FC 1
 62
     7
420
 16777215
370
    25
100
AcDbVertex
100
AcDb2dVertex
 10
82.16070762612794
 20
-141.1517510758233
 30
0.0
  0
VERTEX
  5
102
330
F7
100
AcDbEntity
  8
_U+30EC_U+30A4_U+30E4_U+30FC 1
 62
     7
420
 16777215
370
    25
100
AcDbVertex
100
AcDb2dVertex
 10
92.16079320433784
 20
-141.1517510758233
 30
0.0
  0
VERTEX
  5
103
330
F7
100
AcDbEntity
  8
_U+30EC_U+30A4_U+30E4_U+30FC 1
 62
     7
420
 16777215
370
    25
100
AcDbVertex
100
AcDb2dVertex
 10
92.16079320433784
 20
-138.1517641321289
 30
0.0
  0
VERTEX
  5
104
330
F7
100
AcDbEntity
  8
_U+30EC_U+30A4_U+30E4_U+30FC 1
 62
     7
420
 16777215
370
    25
100
AcDbVertex
100
AcDb2dVertex
 10
87.16090916522884
 20
-138.1517641321289
 30
0.0
  0
VERTEX
  5
105
330
F7
100
AcDbEntity
  8
_U+30EC_U+30A4_U+30E4_U+30FC 1
 62
     7
420
 16777215
370
    25
100
AcDbVertex
100
AcDb2dVertex
 10
87.16090916522884
 20
-139.1515363541008
 30
0.0
  0
VERTEX
  5
106
330
F7
100
AcDbEntity
  8
_U+30EC_U+30A4_U+30E4_U+30FC 1
 62
     7
420
 16777215
370
    25
100
AcDbVertex
100
AcDb2dVertex
 10
91.16066822985316
 20
-139.1515363541008
 30
0.0
  0
VERTEX
  5
107
330
F7
100
AcDbEntity
  8
_U+30EC_U+30A4_U+30E4_U+30FC 1
 62
     7
420
 16777215
370
    25
100
AcDbVertex
100
AcDb2dVertex
 10
91.16066822985316
 20
-140.1513085760733
 30
0.0
  0
VERTEX
  5
108
330
F7
100
AcDbEntity
  8
_U+30EC_U+30A4_U+30E4_U+30FC 1
 62
     7
420
 16777215
370
    25
100
AcDbVertex
100
AcDb2dVertex
 10
83.16079732283575
 20
-140.1513085760733
 30
0.0
  0
VERTEX
  5
109
330
F7
100
AcDbEntity
  8
_U+30EC_U+30A4_U+30E4_U+30FC 1
 62
     7
420
 16777215
370
    25
100
AcDbVertex
100
AcDb2dVertex
 10
83.16079732283575
 20
-131.1513477449897
 30
0.0
  0
VERTEX
  5
10A
330
F7
100
AcDbEntity
  8
_U+30EC_U+30A4_U+30E4_U+30FC 1
 62
     7
420
 16777215
370
    25
100
AcDbVertex
100
AcDb2dVertex
 10
112.160576305212
 20
-131.1513477449897
 30
0.0
  0
SEQEND
  5
10B
330
F7
100
AcDbEntity
  8
_U+30EC_U+30A4_U+30E4_U+30FC 1
 62
     7
420
 16777215
370
    25
  0
ENDSEC
  0
SECTION
  2
OBJECTS
  0
DICTIONARY
  5
C
330
0
100
AcDbDictionary
281
     1
  3
ACAD_GROUP
350
D
  3
ACAD_LAYOUT
350
1A
  3
ACAD_MATERIAL
350
3B
  3
ACAD_MLEADERSTYLE
350
10D
  3
ACAD_MLINESTYLE
350
17
  3
ACAD_PLOTSETTINGS
350
19
  3
ACAD_PLOTSTYLENAME
350
E
  3
ACAD_TABLESTYLE
350
10C
  3
ACAD_VISUALSTYLE
350
2A
  0
SUN
  5
3F
330
29
100
AcDbSun
 90
        1
290
     0
 63
     7
421
 16777215
 40
1.0
291
     1
 91
  2455826
 92
 54000000
292
     0
 70
     2
 71
   256
280
     1
  0
DICTIONARY
  5
D
102
{ACAD_REACTORS
330
C
102
}
330
C
100
AcDbDictionary
281
     1
  0
DICTIONARY
  5
1A
102
{ACAD_REACTORS
330
C
102
}
330
C
100
AcDbDictionary
281
     1
  3
Layout1
350
1E
  3
Layout2
350
26
  3
Model
350
22
  0
DICTIONARY
  5
3B
102
{ACAD_REACTORS
330
C
102
}
330
C
100
AcDbDictionary
281
     1
  3
ByBlock
350
3D
  3
ByLayer
350
3C
  3
Global
350
3E
  0
DICTIONARY
  5
10D
102
{ACAD_REACTORS
330
C
102
}
330
C
100
AcDbDictionary
281
     1
  0
DICTIONARY
  5
17
102
{ACAD_REACTORS
330
C
102
}
330
C
100
AcDbDictionary
281
     1
  3
Standard
350
18
  0
DICTIONARY
  5
19
102
{ACAD_REACTORS
330
C
102
}
330
C
100
AcDbDictionary
281
     1
  0
ACDBDICTIONARYWDFLT
  5
E
102
{ACAD_REACTORS
330
C
102
}
330
C
100
AcDbDictionary
281
     1
  3
Normal
350
F
100
AcDbDictionaryWithDefault
340
F
  0
DICTIONARY
  5
10C
102
{ACAD_REACTORS
330
C
102
}
330
C
100
AcDbDictionary
281
     1
  0
DICTIONARY
  5
2A
102
{ACAD_REACTORS
330
C
102
}
330
C
100
AcDbDictionary
281
     1
  3
2dWireframe
350
2F
  3
3D Hidden
350
31
  3
3dWireframe
350
30
  3
Basic
350
32
  3
Brighten
350
36
  3
ColorChange
350
3A
  3
Conceptual
350
34
  3
Dim
350
35
  3
Facepattern
350
39
  3
Flat
350
2B
  3
FlatWithEdges
350
2C
  3
Gouraud
350
2D
  3
GouraudWithEdges
350
2E
  3
Linepattern
350
38
  3
Realistic
350
33
  3
Thicken
350
37
  0
LAYOUT
  5
1E
102
{ACAD_REACTORS
330
1A
102
}
330
1A
100
AcDbPlotSettings
  1

  2
none_device
  4

  6

 40
0.0
 41
0.0
 42
0.0
 43
0.0
 44
0.0
 45
0.0
 46
0.0
 47
0.0
 48
0.0
 49
0.0
140
0.0
141
0.0
142
1.0
143
1.0
 70
   688
 72
     0
 73
     0
 74
     5
  7

 75
    16
 76
     0
 77
     2
 78
   300
147
1.0
148
0.0
149
0.0
100
AcDbLayout
  1
Layout1
 70
     1
 71
     1
 10
0.0
 20
0.0
 11
12.0
 21
9.0
 12
0.0
 22
0.0
 32
0.0
 14
1.000000000000000E+20
 24
1.000000000000000E+20
 34
1.000000000000000E+20
 15
-1.000000000000000E+20
 25
-1.000000000000000E+20
 35
-1.000000000000000E+20
146
0.0
 13
0.0
 23
0.0
 33
0.0
 16
1.0
 26
0.0
 36
0.0
 17
0.0
 27
1.0
 37
0.0
 76
     0
330
1B
  0
LAYOUT
  5
26
102
{ACAD_REACTORS
330
1A
102
}
330
1A
100
AcDbPlotSettings
  1

  2
none_device
  4

  6

 40
0.0
 41
0.0
 42
0.0
 43
0.0
 44
0.0
 45
0.0
 46
0.0
 47
0.0
 48
0.0
 49
0.0
140
0.0
141
0.0
142
1.0
143
1.0
 70
   688
 72
     0
 73
     0
 74
     5
  7

 75
    16
 76
     0
 77
     2
 78
   300
147
1.0
148
0.0
149
0.0
100
AcDbLayout
  1
Layout2
 70
     1
 71
     2
 10
0.0
 20
0.0
 11
0.0
 21
0.0
 12
0.0
 22
0.0
 32
0.0
 14
0.0
 24
0.0
 34
0.0
 15
0.0
 25
0.0
 35
0.0
146
0.0
 13
0.0
 23
0.0
 33
0.0
 16
1.0
 26
0.0
 36
0.0
 17
0.0
 27
1.0
 37
0.0
 76
     0
330
23
  0
LAYOUT
  5
22
102
{ACAD_REACTORS
330
1A
102
}
330
1A
100
AcDbPlotSettings
  1

  2
none_device
  4

  6

 40
0.0
 41
0.0
 42
0.0
 43
0.0
 44
0.0
 45
0.0
 46
0.0
 47
0.0
 48
0.0
 49
0.0
140
0.0
141
0.0
142
1.0
143
1.0
 70
  1712
 72
     0
 73
     0
 74
     0
  7

 75
     0
 76
     0
 77
     2
 78
   300
147
1.0
148
0.0
149
0.0
100
AcDbLayout
  1
Model
 70
     1
 71
     0
 10
0.0
 20
0.0
 11
12.0
 21
9.0
 12
0.0
 22
0.0
 32
0.0
 14
1.000000000000000E+20
 24
1.000000000000000E+20
 34
1.000000000000000E+20
 15
-1.000000000000000E+20
 25
-1.000000000000000E+20
 35
-1.000000000000000E+20
146
0.0
 13
0.0
 23
0.0
 33
0.0
 16
1.0
 26
0.0
 36
0.0
 17
0.0
 27
1.0
 37
0.0
 76
     0
330
1F
331
29
  0
MATERIAL
  5
3D
102
{ACAD_REACTORS
330
3B
102
}
330
3B
100
AcDbMaterial
  1
ByBlock
 72
     1
 94
      127
  0
MATERIAL
  5
3C
102
{ACAD_REACTORS
330
3B
102
}
330
3B
100
AcDbMaterial
  1
ByLayer
 72
     1
 94
      127
  0
MATERIAL
  5
3E
102
{ACAD_REACTORS
330
3B
102
}
330
3B
100
AcDbMaterial
  1
Global
 72
     1
 94
      127
  0
MLINESTYLE
  5
18
102
{ACAD_REACTORS
330
17
102
}
330
17
100
AcDbMlineStyle
  2
Standard
 70
     0
  3

 62
   256
 51
90.0
 52
90.0
 71
     2
 49
0.5
 62
   256
  6
BYLAYER
 49
-0.5
 62
   256
  6
BYLAYER
  0
ACDBPLACEHOLDER
  5
F
102
{ACAD_REACTORS
330
E
102
}
330
E
  0
VISUALSTYLE
  5
2F
102
{ACAD_REACTORS
330
2A
102
}
330
2A
100
AcDbVisualStyle
  2
2dWireframe
 70
     4
177
     2
291
     0
 71
     0
176
     1
 72
     2
176
     1
 73
     0
176
     1
 90
        0
176
     1
 40
-0.6
176
     1
 41
-30.0
176
     1
 62
     5
 63
     7
421
 16777215
176
     1
 74
     1
176
     1
 91
        4
176
     1
 64
     7
176
     1
 65
   257
176
     1
 75
     1
176
     1
175
     1
176
     1
 42
1.0
176
     1
 92
        0
176
     1
 66
   257
176
     1
 43
1.0
176
     1
 76
     1
176
     1
 77
     6
176
     1
 78
     2
176
     1
 67
     7
176
     1
 79
     5
176
     1
170
     0
176
     1
171
     0
176
     1
290
     0
176
     1
 93
        1
176
     1
 44
0.0
176
     1
173
     0
176
     1
  0
VISUALSTYLE
  5
31
102
{ACAD_REACTORS
330
2A
102
}
330
2A
100
AcDbVisualStyle
  2
3D Hidden
 70
     6
177
     2
291
     0
 71
     1
176
     1
 72
     2
176
     1
 73
     2
176
     1
 90
        0
176
     1
 40
-0.6
176
     1
 41
-30.0
176
     1
 62
     5
 63
     7
421
 16777215
176
     1
 74
     2
176
     1
 91
        2
176
     1
 64
     7
176
     1
 65
   257
176
     1
 75
     2
176
     1
175
     1
176
     1
 42
40.0
176
     1
 92
        0
176
     1
 66
   257
176
     1
 43
1.0
176
     1
 76
     1
176
     1
 77
     6
176
     1
 78
     2
176
     1
 67
     7
176
     1
 79
     3
176
     1
170
     0
176
     1
171
     0
176
     1
290
     0
176
     1
 93
        1
176
     1
 44
0.0
176
     1
173
     0
176
     1
  0
VISUALSTYLE
  5
30
102
{ACAD_REACTORS
330
2A
102
}
330
2A
100
AcDbVisualStyle
  2
3dWireframe
 70
     5
177
     2
291
     0
 71
     0
176
     1
 72
     2
176
     1
 73
     0
176
     1
 90
        0
176
     1
 40
-0.6
176
     1
 41
-30.0
176
     1
 62
     5
 63
     7
421
 16777215
176
     1
 74
     1
176
     1
 91
        4
176
     1
 64
     7
176
     1
 65
   257
176
     1
 75
     1
176
     1
175
     1
176
     1
 42
1.0
176
     1
 92
        0
176
     1
 66
   257
176
     1
 43
1.0
176
     1
 76
     1
176
     1
 77
     6
176
     1
 78
     2
176
     1
 67
     7
176
     1
 79
     5
176
     1
170
     0
176
     1
171
     0
176
     1
290
     0
176
     1
 93
        1
176
     1
 44
0.0
176
     1
173
     0
176
     1
  0
VISUALSTYLE
  5
32
102
{ACAD_REACTORS
330
2A
102
}
330
2A
100
AcDbVisualStyle
  2
Basic
 70
     7
177
     2
291
     1
 71
     1
176
     1
 72
     0
176
     1
 73
     1
176
     1
 90
        0
176
     1
 40
-0.6
176
     1
 41
-30.0
176
     1
 62
     5
 63
     7
421
 16777215
176
     1
 74
     0
176
     1
 91
        4
176
     1
 64
     7
176
     1
 65
   257
176
     1
 75
     1
176
     1
175
     1
176
     1
 42
1.0
176
     1
 92
        8
176
     1
 66
     7
176
     1
 43
1.0
176
     1
 76
     1
176
     1
 77
     6
176
     1
 78
     2
176
     1
 67
     7
176
     1
 79
     5
176
     1
170
     0
176
     1
171
     0
176
     1
290
     0
176
     1
 93
        1
176
     1
 44
0.0
176
     1
173
     0
176
     1
  0
VISUALSTYLE
  5
36
102
{ACAD_REACTORS
330
2A
102
}
330
2A
100
AcDbVisualStyle
  2
Brighten
 70
    12
177
     2
291
     1
 71
     2
176
     1
 72
     2
176
     1
 73
     0
176
     1
 90
        0
176
     1
 40
-0.6
176
     1
 41
-30.0
176
     1
 62
     5
 63
     7
421
 16777215
176
     1
 74
     1
176
     1
 91
        4
176
     1
 64
     7
176
     1
 65
   257
176
     1
 75
     1
176
     1
175
     1
176
     1
 42
1.0
176
     1
 92
        8
176
     1
 66
     7
176
     1
 43
1.0
176
     1
 76
     1
176
     1
 77
     6
176
     1
 78
     2
176
     1
 67
     7
176
     1
 79
     5
176
     1
170
     0
176
     1
171
     0
176
     1
290
     0
176
     1
 93
        1
176
     1
 44
50.0
176
     1
173
     0
176
     1
  0
VISUALSTYLE
  5
3A
102
{ACAD_REACTORS
330
2A
102
}
330
2A
100
AcDbVisualStyle
  2
ColorChange
 70
    16
177
     2
291
     1
 71
     2
176
     1
 72
     2
176
     1
 73
     3
176
     1
 90
        0
176
     1
 40
-0.6
176
     1
 41
-30.0
176
     1
 62
     5
 63
     8
421
  8421504
176
     1
 74
     1
176
     1
 91
        4
176
     1
 64
     7
176
     1
 65
   257
176
     1
 75
     1
176
     1
175
     1
176
     1
 42
1.0
176
     1
 92
        8
176
     1
 66
     8
424
  8421504
176
     1
 43
1.0
176
     1
 76
     1
176
     1
 77
     6
176
     1
 78
     2
176
     1
 67
     7
176
     1
 79
     5
176
     1
170
     0
176
     1
171
     0
176
     1
290
     0
176
     1
 93
        1
176
     1
 44
0.0
176
     1
173
     0
176
     1
  0
VISUALSTYLE
  5
34
102
{ACAD_REACTORS
330
2A
102
}
330
2A
100
AcDbVisualStyle
  2
Conceptual
 70
     9
177
     2
291
     0
 71
     3
176
     1
 72
     2
176
     1
 73
     0
176
     1
 90
        0
176
     1
 40
-0.6
176
     1
 41
-30.0
176
     1
 62
     5
 63
     7
421
 16777215
176
     1
 74
     2
176
     1
 91
        2
176
     1
 64
     7
176
     1
 65
   257
176
     1
 75
     1
176
     1
175
     1
176
     1
 42
40.0
176
     1
 92
        8
176
     1
 66
     7
176
     1
 43
1.0
176
     1
 76
     1
176
     1
 77
     6
176
     1
 78
     2
176
     1
 67
     7
176
     1
 79
     3
176
     1
170
     0
176
     1
171
     0
176
     1
290
     0
176
     1
 93
        1
176
     1
 44
0.0
176
     1
173
     0
176
     1
  0
VISUALSTYLE
  5
35
102
{ACAD_REACTORS
330
2A
102
}
330
2A
100
AcDbVisualStyle
  2
Dim
 70
    11
177
     2
291
     1
 71
     2
176
     1
 72
     2
176
     1
 73
     0
176
     1
 90
        0
176
     1
 40
-0.6
176
     1
 41
-30.0
176
     1
 62
     5
 63
     7
421
 16777215
176
     1
 74
     1
176
     1
 91
        4
176
     1
 64
     7
176
     1
 65
   257
176
     1
 75
     1
176
     1
175
     1
176
     1
 42
1.0
176
     1
 92
        8
176
     1
 66
     7
176
     1
 43
1.0
176
     1
 76
     1
176
     1
 77
     6
176
     1
 78
     2
176
     1
 67
     7
176
     1
 79
     5
176
     1
170
     0
176
     1
171
     0
176
     1
290
     0
176
     1
 93
        1
176
     1
 44
-50.0
176
     1
173
     0
176
     1
  0
VISUALSTYLE
  5
39
102
{ACAD_REACTORS
330
2A
102
}
330
2A
100
AcDbVisualStyle
  2
Facepattern
 70
    15
177
     2
291
     1
 71
     2
176
     1
 72
     2
176
     1
 73
     0
176
     1
 90
        0
176
     1
 40
-0.6
176
     1
 41
-30.0
176
     1
 62
     5
 63
     7
421
 16777215
176
     1
 74
     1
176
     1
 91
        4
176
     1
 64
     7
176
     1
 65
   257
176
     1
 75
     1
176
     1
175
     1
176
     1
 42
1.0
176
     1
 92
        8
176
     1
 66
     7
176
     1
 43
1.0
176
     1
 76
     1
176
     1
 77
     6
176
     1
 78
     2
176
     1
 67
     7
176
     1
 79
     5
176
     1
170
     0
176
     1
171
     0
176
     1
290
     0
176
     1
 93
        1
176
     1
 44
0.0
176
     1
173
     0
176
     1
  0
VISUALSTYLE
  5
2B
102
{ACAD_REACTORS
330
2A
102
}
330
2A
100
AcDbVisualStyle
  2
Flat
 70
     0
177
     2
291
     1
 71
     2
176
     1
 72
     1
176
     1
 73
     1
176
     1
 90
        2
176
     1
 40
-0.6
176
     1
 41
30.0
176
     1
 62
     5
 63
     7
421
 16777215
176
     1
 74
     0
176
     1
 91
        4
176
     1
 64
     7
176
     1
 65
   257
176
     1
 75
     1
176
     1
175
     1
176
     1
 42
1.0
176
     1
 92
        8
176
     1
 66
     7
176
     1
 43
1.0
176
     1
 76
     1
176
     1
 77
     6
176
     1
 78
     2
176
     1
 67
     7
176
     1
 79
     5
176
     1
170
     0
176
     1
171
     0
176
     1
290
     0
176
     1
 93
       13
176
     1
 44
0.0
176
     1
173
     0
176
     1
  0
VISUALSTYLE
  5
2C
102
{ACAD_REACTORS
330
2A
102
}
330
2A
100
AcDbVisualStyle
  2
FlatWithEdges
 70
     1
177
     2
291
     1
 71
     2
176
     1
 72
     1
176
     1
 73
     1
176
     1
 90
        2
176
     1
 40
-0.6
176
     1
 41
30.0
176
     1
 62
     5
 63
     7
421
 16777215
176
     1
 74
     1
176
     1
 91
        4
176
     1
 64
     7
176
     1
 65
   257
176
     1
 75
     1
176
     1
175
     1
176
     1
 42
1.0
176
     1
 92
        0
176
     1
 66
   257
176
     1
 43
1.0
176
     1
 76
     1
176
     1
 77
     6
176
     1
 78
     2
176
     1
 67
     7
176
     1
 79
     5
176
     1
170
     0
176
     1
171
     0
176
     1
290
     0
176
     1
 93
       13
176
     1
 44
0.0
176
     1
173
     0
176
     1
  0
VISUALSTYLE
  5
2D
102
{ACAD_REACTORS
330
2A
102
}
330
2A
100
AcDbVisualStyle
  2
Gouraud
 70
     2
177
     2
291
     1
 71
     2
176
     1
 72
     2
176
     1
 73
     1
176
     1
 90
        2
176
     1
 40
-0.6
176
     1
 41
30.0
176
     1
 62
     5
 63
     7
421
 16777215
176
     1
 74
     0
176
     1
 91
        4
176
     1
 64
     7
176
     1
 65
   257
176
     1
 75
     1
176
     1
175
     1
176
     1
 42
1.0
176
     1
 92
        0
176
     1
 66
     7
176
     1
 43
1.0
176
     1
 76
     1
176
     1
 77
     6
176
     1
 78
     2
176
     1
 67
     7
176
     1
 79
     5
176
     1
170
     0
176
     1
171
     0
176
     1
290
     0
176
     1
 93
       13
176
     1
 44
0.0
176
     1
173
     0
176
     1
  0
VISUALSTYLE
  5
2E
102
{ACAD_REACTORS
330
2A
102
}
330
2A
100
AcDbVisualStyle
  2
GouraudWithEdges
 70
     3
177
     2
291
     1
 71
     2
176
     1
 72
     2
176
     1
 73
     1
176
     1
 90
        2
176
     1
 40
-0.6
176
     1
 41
30.0
176
     1
 62
     5
 63
     7
421
 16777215
176
     1
 74
     1
176
     1
 91
        4
176
     1
 64
     7
176
     1
 65
   257
176
     1
 75
     1
176
     1
175
     1
176
     1
 42
1.0
176
     1
 92
        0
176
     1
 66
   257
176
     1
 43
1.0
176
     1
 76
     1
176
     1
 77
     6
176
     1
 78
     2
176
     1
 67
     7
176
     1
 79
     5
176
     1
170
     0
176
     1
171
     0
176
     1
290
     0
176
     1
 93
       13
176
     1
 44
0.0
176
     1
173
     0
176
     1
  0
VISUALSTYLE
  5
38
102
{ACAD_REACTORS
330
2A
102
}
330
2A
100
AcDbVisualStyle
  2
Linepattern
 70
    14
177
     2
291
     1
 71
     2
176
     1
 72
     2
176
     1
 73
     0
176
     1
 90
        0
176
     1
 40
-0.6
176
     1
 41
-30.0
176
     1
 62
     5
 63
     7
421
 16777215
176
     1
 74
     1
176
     1
 91
        4
176
     1
 64
     7
176
     1
 65
   257
176
     1
 75
     7
176
     1
175
     7
176
     1
 42
1.0
176
     1
 92
        8
176
     1
 66
     7
176
     1
 43
1.0
176
     1
 76
     1
176
     1
 77
     6
176
     1
 78
     2
176
     1
 67
     7
176
     1
 79
     5
176
     1
170
     0
176
     1
171
     0
176
     1
290
     0
176
     1
 93
        1
176
     1
 44
0.0
176
     1
173
     0
176
     1
  0
VISUALSTYLE
  5
33
102
{ACAD_REACTORS
330
2A
102
}
330
2A
100
AcDbVisualStyle
  2
Realistic
 70
     8
177
     2
291
     0
 71
     2
176
     1
 72
     2
176
     1
 73
     0
176
     1
 90
        0
176
     1
 40
-0.6
176
     1
 41
-30.0
176
     1
 62
     5
 63
     7
421
 16777215
176
     1
 74
     1
176
     1
 91
        0
176
     1
 64
     7
176
     1
 65
   257
176
     1
 75
     1
176
     1
175
     1
176
     1
 42
1.0
176
     1
 92
        8
176
     1
 66
     8
424
  7895160
176
     1
 43
1.0
176
     1
 76
     1
176
     1
 77
     6
176
     1
 78
     2
176
     1
 67
     7
176
     1
 79
     5
176
     1
170
     0
176
     1
171
     0
176
     1
290
     0
176
     1
 93
       13
176
     1
 44
0.0
176
     1
173
     0
176
     1
  0
VISUALSTYLE
  5
37
102
{ACAD_REACTORS
330
2A
102
}
330
2A
100
AcDbVisualStyle
  2
Thicken
 70
    13
177
     2
291
     1
 71
     2
176
     1
 72
     2
176
     1
 73
     0
176
     1
 90
        0
176
     1
 40
-0.6
176
     1
 41
-30.0
176
     1
 62
     5
 63
     7
421
 16777215
176
     1
 74
     1
176
     1
 91
        4
176
     1
 64
     7
176
     1
 65
   257
176
     1
 75
     1
176
     1
175
     1
176
     1
 42
1.0
176
     1
 92
       12
176
     1
 66
     7
176
     1
 43
1.0
176
     1
 76
     1
176
     1
 77
     6
176
     1
 78
     2
176
     1
 67
     7
176
     1
 79
     5
176
     1
170
     0
176
     1
171
     0
176
     1
290
     0
176
     1
 93
        1
176
     1
 44
0.0
176
     1
173
     0
176
     1
  0
ENDSEC
  0
EOF
