  0
SECTION
  2
HEADER
  9
$ACADVER
  1
AC1024
  9
$ACADMAINTVER
 70
     6
  9
$DWGCODEPAGE
  3
UNDEFINED
  9
$INSBASE
 10
0.0
 20
0.0
 30
0.0
  9
$EXTMIN
 10
1.000000000000000E+20
 20
1.000000000000000E+20
 30
1.000000000000000E+20
  9
$EXTMAX
 10
-1.000000000000000E+20
 20
-1.000000000000000E+20
 30
-1.000000000000000E+20
  9
$LIMMIN
 10
0.0
 20
0.0
  9
$LIMMAX
 10
12.0
 20
9.0
  9
$ORTHOMODE
 70
     0
  9
$REGENMODE
 70
     1
  9
$FILLMODE
 70
     1
  9
$QTEXTMODE
 70
     0
  9
$MIRRTEXT
 70
     1
  9
$LTSCALE
 40
1.0
  9
$ATTMODE
 70
     1
  9
$TEXTSIZE
 40
0.2
  9
$TRACEWID
 40
0.05
  9
$TEXTSTYLE
  7
Standard
  9
$CLAYER
  8
0
  9
$CELTYPE
  6
ByLayer
  9
$CECOLOR
 62
   256
  9
$CELTSCALE
 40
1.0
  9
$DISPSILH
 70
     0
  9
$DIMSCALE
 40
1.0
  9
$DIMASZ
 40
0.18
  9
$DIMEXO
 40
0.0625
  9
$DIMDLI
 40
0.38
  9
$DIMRND
 40
0.0
  9
$DIMDLE
 40
0.0
  9
$DIMEXE
 40
0.18
  9
$DIMTP
 40
0.0
  9
$DIMTM
 40
0.0
  9
$DIMTXT
 40
0.18
  9
$DIMCEN
 40
0.09
  9
$DIMTSZ
 40
0.0
  9
$DIMTOL
 70
     0
  9
$DIMLIM
 70
     0
  9
$DIMTIH
 70
     1
  9
$DIMTOH
 70
     1
  9
$DIMSE1
 70
     0
  9
$DIMSE2
 70
     0
  9
$DIMTAD
 70
     0
  9
$DIMZIN
 70
     0
  9
$DIMBLK
  1

  9
$DIMASO
 70
     1
  9
$DIMSHO
 70
     1
  9
$DIMPOST
  1

  9
$DIMAPOST
  1

  9
$DIMALT
 70
     0
  9
$DIMALTD
 70
     2
  9
$DIMALTF
 40
25.4
  9
$DIMLFAC
 40
1.0
  9
$DIMTOFL
 70
     0
  9
$DIMTVP
 40
0.0
  9
$DIMTIX
 70
     0
  9
$DIMSOXD
 70
     0
  9
$DIMSAH
 70
     0
  9
$DIMBLK1
  1

  9
$DIMBLK2
  1

  9
$DIMSTYLE
  2
Standard
  9
$DIMCLRD
 70
     0
  9
$DIMCLRE
 70
     0
  9
$DIMCLRT
 70
     0
  9
$DIMTFAC
 40
1.0
  9
$DIMGAP
 40
0.09
  9
$DIMJUST
 70
     0
  9
$DIMSD1
 70
     0
  9
$DIMSD2
 70
     0
  9
$DIMTOLJ
 70
     1
  9
$DIMTZIN
 70
     0
  9
$DIMALTZ
 70
     0
  9
$DIMALTTZ
 70
     0
  9
$DIMUPT
 70
     0
  9
$DIMDEC
 70
     4
  9
$DIMTDEC
 70
     4
  9
$DIMALTU
 70
     2
  9
$DIMALTTD
 70
     2
  9
$DIMTXSTY
  7
Standard
  9
$DIMAUNIT
 70
     0
  9
$DIMADEC
 70
     0
  9
$DIMALTRND
 40
0.0
  9
$DIMAZIN
 70
     0
  9
$DIMDSEP
 70
    46
  9
$DIMATFIT
 70
     3
  9
$DIMFRAC
 70
     0
  9
$DIMLDRBLK
  1

  9
$DIMLUNIT
 70
     2
  9
$DIMLWD
 70
    -2
  9
$DIMLWE
 70
    -2
  9
$DIMTMOVE
 70
     0
  9
$DIMFXL
 40
1.0
  9
$DIMFXLON
 70
     0
  9
$DIMJOGANG
 40
0.7853981633974483
  9
$DIMTFILL
 70
     0
  9
$DIMTFILLCLR
 70
     0
  9
$DIMARCSYM
 70
     0
  9
$DIMLTYPE
  6

  9
$DIMLTEX1
  6

  9
$DIMLTEX2
  6

  9
$DIMTXTDIRECTION
 70
     0
  9
$LUNITS
 70
     2
  9
$LUPREC
 70
     4
  9
$SKETCHINC
 40
0.1
  9
$FILLETRAD
 40
0.5
  9
$AUNITS
 70
     0
  9
$AUPREC
 70
     0
  9
$MENU
  1
.
  9
$ELEVATION
 40
0.0
  9
$PELEVATION
 40
0.0
  9
$THICKNESS
 40
0.0
  9
$LIMCHECK
 70
     0
  9
$CHAMFERA
 40
0.5
  9
$CHAMFERB
 40
0.5
  9
$CHAMFERC
 40
1.0
  9
$CHAMFERD
 40
0.0
  9
$SKPOLY
 70
     0
  9
$TDCREATE
 40
2457917.591597222
  9
$TDUCREATE
 40
2457917.216597222
  9
$TDUPDATE
 40
2457917.591597222
  9
$TDUUPDATE
 40
2457917.216597222
  9
$TDINDWG
 40
0.0000000116
  9
$TDUSRTIMER
 40
0.0000000116
  9
$USRTIMER
 70
     1
  9
$ANGBASE
 50
0.0
  9
$ANGDIR
 70
     0
  9
$PDMODE
 70
     0
  9
$PDSIZE
 40
0.0
  9
$PLINEWID
 40
0.0
  9
$SPLFRAME
 70
     0
  9
$SPLINETYPE
 70
     6
  9
$SPLINESEGS
 70
     8
  9
$HANDSEED
  5
168
  9
$SURFTAB1
 70
     6
  9
$SURFTAB2
 70
     6
  9
$SURFTYPE
 70
     6
  9
$SURFU
 70
     6
  9
$SURFV
 70
     6
  9
$UCSBASE
  2

  9
$UCSNAME
  2

  9
$UCSORG
 10
0.0
 20
0.0
 30
0.0
  9
$UCSXDIR
 10
1.0
 20
0.0
 30
0.0
  9
$UCSYDIR
 10
0.0
 20
1.0
 30
0.0
  9
$UCSORTHOREF
  2

  9
$UCSORTHOVIEW
 70
     0
  9
$UCSORGTOP
 10
0.0
 20
0.0
 30
0.0
  9
$UCSORGBOTTOM
 10
0.0
 20
0.0
 30
0.0
  9
$UCSORGLEFT
 10
0.0
 20
0.0
 30
0.0
  9
$UCSORGRIGHT
 10
0.0
 20
0.0
 30
0.0
  9
$UCSORGFRONT
 10
0.0
 20
0.0
 30
0.0
  9
$UCSORGBACK
 10
0.0
 20
0.0
 30
0.0
  9
$PUCSBASE
  2

  9
$PUCSNAME
  2

  9
$PUCSORG
 10
0.0
 20
0.0
 30
0.0
  9
$PUCSXDIR
 10
1.0
 20
0.0
 30
0.0
  9
$PUCSYDIR
 10
0.0
 20
1.0
 30
0.0
  9
$PUCSORTHOREF
  2

  9
$PUCSORTHOVIEW
 70
     0
  9
$PUCSORGTOP
 10
0.0
 20
0.0
 30
0.0
  9
$PUCSORGBOTTOM
 10
0.0
 20
0.0
 30
0.0
  9
$PUCSORGLEFT
 10
0.0
 20
0.0
 30
0.0
  9
$PUCSORGRIGHT
 10
0.0
 20
0.0
 30
0.0
  9
$PUCSORGFRONT
 10
0.0
 20
0.0
 30
0.0
  9
$PUCSORGBACK
 10
0.0
 20
0.0
 30
0.0
  9
$USERI1
 70
     0
  9
$USERI2
 70
     0
  9
$USERI3
 70
     0
  9
$USERI4
 70
     0
  9
$USERI5
 70
     0
  9
$USERR1
 40
0.0
  9
$USERR2
 40
0.0
  9
$USERR3
 40
0.0
  9
$USERR4
 40
0.0
  9
$USERR5
 40
0.0
  9
$WORLDVIEW
 70
     1
  9
$SHADEDGE
 70
     3
  9
$SHADEDIF
 70
    70
  9
$TILEMODE
 70
     1
  9
$MAXACTVP
 70
    64
  9
$PINSBASE
 10
0.0
 20
0.0
 30
0.0
  9
$PLIMCHECK
 70
     0
  9
$PEXTMIN
 10
1.000000000000000E+20
 20
1.000000000000000E+20
 30
1.000000000000000E+20
  9
$PEXTMAX
 10
-1.000000000000000E+20
 20
-1.000000000000000E+20
 30
-1.000000000000000E+20
  9
$PLIMMIN
 10
0.0
 20
0.0
  9
$PLIMMAX
 10
12.0
 20
9.0
  9
$UNITMODE
 70
     0
  9
$VISRETAIN
 70
     1
  9
$PLINEGEN
 70
     0
  9
$PSLTSCALE
 70
     1
  9
$TREEDEPTH
 70
  3020
  9
$CMLSTYLE
  2
Standard
  9
$CMLJUST
 70
     0
  9
$CMLSCALE
 40
1.0
  9
$PROXYGRAPHICS
 70
     1
  9
$MEASUREMENT
 70
     0
  9
$CELWEIGHT
370
    -1
  9
$ENDCAPS
280
     0
  9
$JOINSTYLE
280
     0
  9
$LWDISPLAY
290
     1
  9
$INSUNITS
 70
     1
  9
$HYPERLINKBASE
  1

  9
$STYLESHEET
  1

  9
$XEDIT
290
     1
  9
$CEPSNTYPE
380
     0
  9
$PSTYLEMODE
290
     1
  9
$FINGERPRINTGUID
  2
{4D5B6DF9-FDCB-762A-2713-B47BBAE28C1C}
  9
$VERSIONGUID
  2
{FAEB1C32-E019-11D5-929B-00C0DF256EC4}
  9
$EXTNAMES
290
     1
  9
$PSVPSCALE
 40
0.0
  9
$OLESTARTUP
290
     0
  9
$SORTENTS
280
   127
  9
$INDEXCTL
280
     0
  9
$HIDETEXT
280
     1
  9
$XCLIPFRAME
280
     2
  9
$HALOGAP
280
     0
  9
$OBSCOLOR
 70
   257
  9
$OBSLTYPE
280
     0
  9
$INTERSECTIONDISPLAY
280
     0
  9
$INTERSECTIONCOLOR
 70
   257
  9
$DIMASSOC
280
     2
  9
$PROJECTNAME
  1

  9
$CAMERADISPLAY
290
     0
  9
$LENSLENGTH
 40
50.0
  9
$CAMERAHEIGHT
 40
0.0
  9
$STEPSPERSEC
 40
2.0
  9
$STEPSIZE
 40
6.0
  9
$3DDWFPREC
 40
2.0
  9
$PSOLWIDTH
 40
0.25
  9
$PSOLHEIGHT
 40
4.0
  9
$LOFTANG1
 40
1.570796326794897
  9
$LOFTANG2
 40
1.570796326794897
  9
$LOFTMAG1
 40
0.0
  9
$LOFTMAG2
 40
0.0
  9
$LOFTPARAM
 70
     7
  9
$LOFTNORMALS
280
     1
  9
$LATITUDE
 40
37.795
  9
$LONGITUDE
 40
-122.394
  9
$NORTHDIRECTION
 40
0.0
  9
$TIMEZONE
 70
 -8000
  9
$LIGHTGLYPHDISPLAY
280
     1
  9
$TILEMODELIGHTSYNCH
280
     1
  9
$CMATERIAL
347
3C
  9
$SOLIDHIST
280
     1
  9
$SHOWHIST
280
     1
  9
$DWFFRAME
280
     2
  9
$DGNFRAME
280
     2
  9
$REALWORLDSCALE
290
     1
  9
$INTERFERECOLOR
 62
   256
  9
$CSHADOW
280
     0
  9
$SHADOWPLANELOCATION
 40
0.0
  0
ENDSEC
  0
SECTION
  2
CLASSES
  0
CLASS
  1
ACDBDICTIONARYWDFLT
  2
AcDbDictionaryWithDefault
  3
ObjectDBX Classes
 90
        0
 91
        4
280
     0
281
     0
  0
CLASS
  1
VISUALSTYLE
  2
AcDbVisualStyle
  3
ObjectDBX Classes
 90
     4095
 91
        4
280
     0
281
     0
  0
CLASS
  1
MATERIAL
  2
AcDbMaterial
  3
ObjectDBX Classes
 90
     1153
 91
        4
280
     0
281
     0
  0
CLASS
  1
SUN
  2
AcDbSun
  3
SCENEOE
 90
     1024
 91
        4
280
     0
281
     0
  0
ENDSEC
  0
SECTION
  2
TABLES
  0
TABLE
  2
VPORT
  5
8
330
0
100
AcDbSymbolTable
 70
     1
  0
VPORT
  5
29
330
8
100
AcDbSymbolTableRecord
100
AcDbViewportTableRecord
  2
*Active
 70
     0
 10
0.0
 20
0.0
 11
1.0
 21
1.0
 12
0.0
 22
0.0
 13
0.0
 23
0.0
 14
0.5
 24
0.5
 15
0.5
 25
0.5
 16
0.0
 26
0.0
 36
1.0
 17
91.00082462281999
 27
-128.4993055234307
 37
0.0
 40
256.9986110468615
 41
0.7081814508812795
 42
50.0
 43
0.0
 44
0.0
 50
0.0
 51
0.0
 71
     0
 72
   100
 73
     1
 74
     3
 75
     0
 76
     0
 77
     0
 78
     0
281
     0
 65
     1
110
0.0
120
0.0
130
0.0
111
1.0
121
0.0
131
0.0
112
0.0
122
1.0
132
0.0
 79
     0
146
0.0
 60
     3
 61
     5
292
     1
282
     1
141
0.0
142
0.0
 63
   250
361
3F
  0
ENDTAB
  0
TABLE
  2
LTYPE
  5
5
330
0
100
AcDbSymbolTable
 70
     1
  0
LTYPE
  5
14
330
5
100
AcDbSymbolTableRecord
100
AcDbLinetypeTableRecord
  2
ByBlock
 70
     0
  3

 72
    65
 73
     0
 40
0.0
  0
LTYPE
  5
15
330
5
100
AcDbSymbolTableRecord
100
AcDbLinetypeTableRecord
  2
ByLayer
 70
     0
  3

 72
    65
 73
     0
 40
0.0
  0
LTYPE
  5
16
330
5
100
AcDbSymbolTableRecord
100
AcDbLinetypeTableRecord
  2
Continuous
 70
     0
  3
Solid line
 72
    65
 73
     0
 40
0.0
  0
ENDTAB
  0
TABLE
  2
LAYER
  5
2
330
0
100
AcDbSymbolTable
 70
     2
  0
LAYER
  5
10
330
2
100
AcDbSymbolTableRecord
100
AcDbLayerTableRecord
  2
0
 70
     0
 62
     7
  6
Continuous
370
    -3
390
F
347
3E
  0
LAYER
  5
40
330
2
100
AcDbSymbolTableRecord
100
AcDbLayerTableRecord
  2
_U+30EC_U+30A4_U+30E4_U+30FC 1
 70
     0
 62
     7
  6
Continuous
370
    -3
390
F
347
3E
  0
ENDTAB
  0
TABLE
  2
STYLE
  5
3
330
0
100
AcDbSymbolTable
 70
     1
  0
STYLE
  5
11
330
3
100
AcDbSymbolTableRecord
100
AcDbTextStyleTableRecord
  2
Standard
 70
     0
 40
0.0
 41
1.0
 50
0.0
 71
     0
 42
0.2
  3
txt
  4

  0
ENDTAB
  0
TABLE
  2
VIEW
  5
6
330
0
100
AcDbSymbolTable
 70
     0
  0
ENDTAB
  0
TABLE
  2
UCS
  5
7
330
0
100
AcDbSymbolTable
 70
     0
  0
ENDTAB
  0
TABLE
  2
APPID
  5
9
330
0
100
AcDbSymbolTable
 70
     1
  0
APPID
  5
12
330
9
100
AcDbSymbolTableRecord
100
AcDbRegAppTableRecord
  2
ACAD
 70
     0
  0
ENDTAB
  0
TABLE
  2
DIMSTYLE
  5
A
330
0
100
AcDbSymbolTable
 70
     1
100
AcDbDimStyleTable
  0
DIMSTYLE
105
27
330
A
100
AcDbSymbolTableRecord
100
AcDbDimStyleTableRecord
  2
Standard
 70
     0
178
     0
340
11
  0
ENDTAB
  0
TABLE
  2
BLOCK_RECORD
  5
1
330
0
100
AcDbSymbolTable
 70
     9
  0
BLOCK_RECORD
  5
1F
330
1
100
AcDbSymbolTableRecord
100
AcDbBlockTableRecord
  2
*Model_Space
340
22
 70
     0
280
     1
281
     0
  0
BLOCK_RECORD
  5
1B
330
1
100
AcDbSymbolTableRecord
100
AcDbBlockTableRecord
  2
*Paper_Space
340
1E
 70
     0
280
     1
281
     0
  0
BLOCK_RECORD
  5
23
330
1
100
AcDbSymbolTableRecord
100
AcDbBlockTableRecord
  2
*Paper_Space0
340
26
 70
     0
280
     1
281
     0
  0
BLOCK_RECORD
  5
A1
330
1
100
AcDbSymbolTableRecord
100
AcDbBlockTableRecord
  2
block 2
340
0
102
{BLKREFS
331
A2
102
}
 70
     0
280
     1
281
     0
  0
BLOCK_RECORD
  5
AF
330
1
100
AcDbSymbolTableRecord
100
AcDbBlockTableRecord
  2
block 3
340
0
102
{BLKREFS
331
B0
102
}
 70
     0
280
     1
281
     0
  0
BLOCK_RECORD
  5
C5
330
1
100
AcDbSymbolTableRecord
100
AcDbBlockTableRecord
  2
block 4
340
0
102
{BLKREFS
331
C6
102
}
 70
     0
280
     1
281
     0
  0
BLOCK_RECORD
  5
D7
330
1
100
AcDbSymbolTableRecord
100
AcDbBlockTableRecord
  2
block 5
340
0
102
{BLKREFS
331
D8
102
}
 70
     0
280
     1
281
     0
  0
BLOCK_RECORD
  5
EB
330
1
100
AcDbSymbolTableRecord
100
AcDbBlockTableRecord
  2
block 6
340
0
102
{BLKREFS
331
EC
102
}
 70
     0
280
     1
281
     0
  0
BLOCK_RECORD
  5
100
330
1
100
AcDbSymbolTableRecord
100
AcDbBlockTableRecord
  2
block 7
340
0
102
{BLKREFS
331
101
102
}
 70
     0
280
     1
281
     0
  0
BLOCK_RECORD
  5
109
330
1
100
AcDbSymbolTableRecord
100
AcDbBlockTableRecord
  2
block 8
340
0
102
{BLKREFS
331
10A
102
}
 70
     0
280
     1
281
     0
  0
BLOCK_RECORD
  5
144
330
1
100
AcDbSymbolTableRecord
100
AcDbBlockTableRecord
  2
block 9
340
0
102
{BLKREFS
331
145
102
}
 70
     0
280
     1
281
     0
  0
ENDTAB
  0
ENDSEC
  0
SECTION
  2
BLOCKS
  0
BLOCK
  5
20
330
1F
100
AcDbEntity
  8
0
100
AcDbBlockBegin
  2
*Model_Space
 70
     0
 10
0.0
 20
0.0
 30
0.0
  3
*Model_Space
  1

  0
ENDBLK
  5
21
330
1F
100
AcDbEntity
  8
0
100
AcDbBlockEnd
  0
BLOCK
  5
1C
330
1B
100
AcDbEntity
 67
     1
  8
0
100
AcDbBlockBegin
  2
*Paper_Space
 70
     0
 10
0.0
 20
0.0
 30
0.0
  3
*Paper_Space
  1

  0
ENDBLK
  5
1D
330
1B
100
AcDbEntity
 67
     1
  8
0
100
AcDbBlockEnd
  0
BLOCK
  5
24
330
23
100
AcDbEntity
  8
0
100
AcDbBlockBegin
  2
*Paper_Space0
 70
     0
 10
0.0
 20
0.0
 30
0.0
  3
*Paper_Space0
  1

  0
ENDBLK
  5
25
330
23
100
AcDbEntity
  8
0
100
AcDbBlockEnd
  0
BLOCK
  5
A3
330
A1
100
AcDbEntity
  8
0
100
AcDbBlockBegin
  2
block 2
 70
     0
 10
0.0
 20
0.0
 30
0.0
  3
block 2
  1

  0
SPLINE
  5
A5
330
A1
100
AcDbEntity
  8
_U+30EC_U+30A4_U+30E4_U+30FC 1
370
     0
100
AcDbSpline
210
0.0
220
0.0
230
1.0
 70
    11
 71
     3
 72
    26
 73
    22
 74
     0
 42
0.0000000001
 43
0.0000000001
 12
1.0
 22
0.0
 32
0.0
 13
1.0
 23
0.0
 33
0.0
 40
0.0
 40
0.0
 40
0.0
 40
0.0
 40
1.0
 40
1.0
 40
1.0
 40
2.0
 40
2.0
 40
2.0
 40
3.0
 40
3.0
 40
3.0
 40
4.0
 40
4.0
 40
4.0
 40
5.0
 40
5.0
 40
5.0
 40
6.0
 40
6.0
 40
6.0
 40
7.0
 40
7.0
 40
7.0
 40
7.0
 10
103.0848361287427
 20
-120.6897908226921
 30
0.0
 10
103.0848361287427
 20
-120.6897908226921
 30
0.0
 10
101.9806830257201
 20
-120.6908243513377
 30
0.0
 10
101.9806830257201
 20
-120.6908243513377
 30
0.0
 10
101.9806830257201
 20
-120.6908243513377
 30
0.0
 10
101.9810275352686
 20
-121.0208644988247
 30
0.0
 10
101.9810275352686
 20
-121.0208644988247
 30
0.0
 10
101.9810275352686
 20
-121.0208644988247
 30
0.0
 10
101.8328884294029
 20
-121.0208644988247
 30
0.0
 10
101.8328884294029
 20
-121.0208644988247
 30
0.0
 10
101.8177300092678
 20
-120.6887572940466
 30
0.0
 10
101.6547769928155
 20
-120.64242075977
 30
0.0
 10
101.5407443322537
 20
-120.6129651933711
 30
0.0
 10
101.5407443322537
 20
-120.6129651933711
 30
0.0
 10
101.5403998227052
 20
-120.4668931447965
 30
0.0
 10
101.5403998227052
 20
-120.4668931447965
 30
0.0
 10
101.5403998227052
 20
-120.4668931447965
 30
0.0
 10
103.0848361287427
 20
-120.4655151066024
 30
0.0
 10
103.0848361287427
 20
-120.4655151066024
 30
0.0
 10
103.0848361287427
 20
-120.4655151066024
 30
0.0
 10
103.0848361287427
 20
-120.6897908226921
 30
0.0
 10
103.0848361287427
 20
-120.6897908226921
 30
0.0
  0
HATCH
  5
A6
330
A1
100
AcDbEntity
  8
_U+30EC_U+30A4_U+30E4_U+30FC 1
 62
   179
420
  2234388
100
AcDbHatch
 10
0.0
 20
0.0
 30
0.0
210
0.0
220
0.0
230
1.0
  2
SOLID
 70
     1
 71
     0
 91
        1
 92
        1
 93
        1
 72
     4
 94
        3
 73
     0
 74
     1
 95
       26
 96
       22
 40
0.0
 40
0.0
 40
0.0
 40
0.0
 40
1.0
 40
1.0
 40
1.0
 40
2.0
 40
2.0
 40
2.0
 40
3.0
 40
3.0
 40
3.0
 40
4.0
 40
4.0
 40
4.0
 40
5.0
 40
5.0
 40
5.0
 40
6.0
 40
6.0
 40
6.0
 40
7.0
 40
7.0
 40
7.0
 40
7.0
 10
103.0848361287427
 20
-120.6897908226921
 10
103.0848361287427
 20
-120.6897908226921
 10
101.9806830257201
 20
-120.6908243513377
 10
101.9806830257201
 20
-120.6908243513377
 10
101.9806830257201
 20
-120.6908243513377
 10
101.9810275352686
 20
-121.0208644988247
 10
101.9810275352686
 20
-121.0208644988247
 10
101.9810275352686
 20
-121.0208644988247
 10
101.8328884294029
 20
-121.0208644988247
 10
101.8328884294029
 20
-121.0208644988247
 10
101.8177300092678
 20
-120.6887572940466
 10
101.6547769928155
 20
-120.64242075977
 10
101.5407443322537
 20
-120.6129651933711
 10
101.5407443322537
 20
-120.6129651933711
 10
101.5403998227052
 20
-120.4668931447965
 10
101.5403998227052
 20
-120.4668931447965
 10
101.5403998227052
 20
-120.4668931447965
 10
103.0848361287427
 20
-120.4655151066024
 10
103.0848361287427
 20
-120.4655151066024
 10
103.0848361287427
 20
-120.4655151066024
 10
103.0848361287427
 20
-120.6897908226921
 10
103.0848361287427
 20
-120.6897908226921
 97
        0
 97
        0
 75
     2
 76
     1
 98
        0
  0
ENDBLK
  5
A4
330
A1
100
AcDbEntity
  8
0
100
AcDbBlockEnd
  0
BLOCK
  5
B1
330
AF
100
AcDbEntity
  8
0
100
AcDbBlockBegin
  2
block 3
 70
     0
 10
0.0
 20
0.0
 30
0.0
  3
block 3
  1

  0
SPLINE
  5
B3
330
AF
100
AcDbEntity
  8
_U+30EC_U+30A4_U+30E4_U+30FC 1
370
     0
100
AcDbSpline
210
0.0
220
0.0
230
1.0
 70
    11
 71
     3
 72
    62
 73
    58
 74
     0
 42
0.0000000001
 43
0.0000000001
 12
1.0
 22
0.0
 32
0.0
 13
1.0
 23
0.0
 33
0.0
 40
0.0
 40
0.0
 40
0.0
 40
0.0
 40
1.0
 40
1.0
 40
1.0
 40
2.0
 40
2.0
 40
2.0
 40
3.0
 40
3.0
 40
3.0
 40
4.0
 40
4.0
 40
4.0
 40
5.0
 40
5.0
 40
5.0
 40
6.0
 40
6.0
 40
6.0
 40
7.0
 40
7.0
 40
7.0
 40
8.0
 40
8.0
 40
8.0
 40
9.0
 40
9.0
 40
9.0
 40
10.0
 40
10.0
 40
10.0
 40
11.0
 40
11.0
 40
11.0
 40
12.0
 40
12.0
 40
12.0
 40
13.0
 40
13.0
 40
13.0
 40
14.0
 40
14.0
 40
14.0
 40
15.0
 40
15.0
 40
15.0
 40
16.0
 40
16.0
 40
16.0
 40
17.0
 40
17.0
 40
17.0
 40
18.0
 40
18.0
 40
18.0
 40
19.0
 40
19.0
 40
19.0
 40
19.0
 10
103.1509819620595
 20
-136.149829067525
 30
0.0
 10
103.1509819620595
 20
-136.244913702918
 30
0.0
 10
103.1299668795995
 20
-136.4626437375857
 30
0.0
 10
102.943931723396
 20
-136.5877007037003
 30
0.0
 10
102.8319661201253
 20
-136.6617702566332
 30
0.0
 10
102.7324028606016
 20
-136.666248880764
 30
0.0
 10
102.647998021213
 20
-136.6707275048948
 30
0.0
 10
102.647998021213
 20
-136.6707275048948
 30
0.0
 10
102.6476535116645
 20
-136.4505859033873
 30
0.0
 10
102.6476535116645
 20
-136.4505859033873
 30
0.0
 10
102.7217230645974
 20
-136.4485188460962
 30
0.0
 10
102.9566785766914
 20
-136.4374945405434
 30
0.0
 10
102.9563340671429
 20
-136.1539631821074
 30
0.0
 10
102.9559895575943
 20
-136.0165038722459
 30
0.0
 10
102.8860541192438
 20
-135.8642306517978
 30
0.0
 10
102.6576442885717
 20
-135.8645751613464
 30
0.0
 10
102.5415445707188
 20
-135.8645751613464
 30
0.0
 10
102.4926242148282
 20
-135.9028157212326
 30
0.0
 10
102.4609293363639
 20
-135.9345105996969
 30
0.0
 10
102.3872042929796
 20
-136.0085801526298
 30
0.0
 10
102.3744574396842
 20
-136.1250243800312
 30
0.0
 10
102.3744574396842
 20
-136.1801459077952
 30
0.0
 10
102.3744574396842
 20
-136.1990939329641
 30
0.0
 10
102.3768690065238
 20
-136.2349229260107
 30
0.0
 10
102.3810031211061
 20
-136.2624836898927
 30
0.0
 10
102.3810031211061
 20
-136.2624836898927
 30
0.0
 10
102.1863552261895
 20
-136.2628281994412
 30
0.0
 10
102.1863552261895
 20
-136.2628281994412
 30
0.0
 10
102.192556398063
 20
-136.224587639555
 30
0.0
 10
102.1946234553541
 20
-136.1822129650864
 30
0.0
 10
102.1946234553541
 20
-136.176011793213
 30
0.0
 10
102.1946234553541
 20
-136.1102104694447
 30
0.0
 10
102.1732638633456
 20
-135.9114284599458
 30
0.0
 10
101.9362412939604
 20
-135.9117729694943
 30
0.0
 10
101.75881887647
 20
-135.9117729694943
 30
0.0
 10
101.703697348706
 20
-136.0430311074823
 30
0.0
 10
101.7040418582546
 20
-136.1532741630103
 30
0.0
 10
101.7040418582546
 20
-136.417512986729
 30
0.0
 10
101.9369303130574
 20
-136.4257812158936
 30
0.0
 10
102.0089328086992
 20
-136.4299153304759
 30
0.0
 10
102.0089328086992
 20
-136.4299153304759
 30
0.0
 10
102.0089328086992
 20
-136.6331759641056
 30
0.0
 10
102.0089328086992
 20
-136.6331759641056
 30
0.0
 10
101.8842203521331
 20
-136.6245632253925
 30
0.0
 10
101.5076714155953
 20
-136.5976914806075
 30
0.0
 10
101.5073269060468
 20
-136.1405273097149
 30
0.0
 10
101.5069823964983
 20
-135.9162515936251
 30
0.0
 10
101.6337619103555
 20
-135.6750949096576
 30
0.0
 10
101.9296956125384
 20
-135.6747504001091
 30
0.0
 10
102.1160752782904
 20
-135.6747504001091
 30
0.0
 10
102.1984130603879
 20
-135.769835035502
 30
0.0
 10
102.2600802695739
 20
-135.8690537854772
 30
0.0
 10
102.2872965239073
 20
-135.8077310858397
 30
0.0
 10
102.3675672487137
 20
-135.6258300442186
 30
0.0
 10
102.6448974352763
 20
-135.62548553467
 30
0.0
 10
102.9832058119278
 20
-135.6251410251215
 30
0.0
 10
103.150637452511
 20
-135.8724988809624
 30
0.0
 10
103.1509819620595
 20
-136.149829067525
 30
0.0
  0
HATCH
  5
B4
330
AF
100
AcDbEntity
  8
_U+30EC_U+30A4_U+30E4_U+30FC 1
 62
   179
420
  2234388
100
AcDbHatch
 10
0.0
 20
0.0
 30
0.0
210
0.0
220
0.0
230
1.0
  2
SOLID
 70
     1
 71
     0
 91
        1
 92
        1
 93
        1
 72
     4
 94
        3
 73
     0
 74
     1
 95
       62
 96
       58
 40
0.0
 40
0.0
 40
0.0
 40
0.0
 40
1.0
 40
1.0
 40
1.0
 40
2.0
 40
2.0
 40
2.0
 40
3.0
 40
3.0
 40
3.0
 40
4.0
 40
4.0
 40
4.0
 40
5.0
 40
5.0
 40
5.0
 40
6.0
 40
6.0
 40
6.0
 40
7.0
 40
7.0
 40
7.0
 40
8.0
 40
8.0
 40
8.0
 40
9.0
 40
9.0
 40
9.0
 40
10.0
 40
10.0
 40
10.0
 40
11.0
 40
11.0
 40
11.0
 40
12.0
 40
12.0
 40
12.0
 40
13.0
 40
13.0
 40
13.0
 40
14.0
 40
14.0
 40
14.0
 40
15.0
 40
15.0
 40
15.0
 40
16.0
 40
16.0
 40
16.0
 40
17.0
 40
17.0
 40
17.0
 40
18.0
 40
18.0
 40
18.0
 40
19.0
 40
19.0
 40
19.0
 40
19.0
 10
103.1509819620595
 20
-136.149829067525
 10
103.1509819620595
 20
-136.244913702918
 10
103.1299668795995
 20
-136.4626437375857
 10
102.943931723396
 20
-136.5877007037003
 10
102.8319661201253
 20
-136.6617702566332
 10
102.7324028606016
 20
-136.666248880764
 10
102.647998021213
 20
-136.6707275048948
 10
102.647998021213
 20
-136.6707275048948
 10
102.6476535116645
 20
-136.4505859033873
 10
102.6476535116645
 20
-136.4505859033873
 10
102.7217230645974
 20
-136.4485188460962
 10
102.9566785766914
 20
-136.4374945405434
 10
102.9563340671429
 20
-136.1539631821074
 10
102.9559895575943
 20
-136.0165038722459
 10
102.8860541192438
 20
-135.8642306517978
 10
102.6576442885717
 20
-135.8645751613464
 10
102.5415445707188
 20
-135.8645751613464
 10
102.4926242148282
 20
-135.9028157212326
 10
102.4609293363639
 20
-135.9345105996969
 10
102.3872042929796
 20
-136.0085801526298
 10
102.3744574396842
 20
-136.1250243800312
 10
102.3744574396842
 20
-136.1801459077952
 10
102.3744574396842
 20
-136.1990939329641
 10
102.3768690065238
 20
-136.2349229260107
 10
102.3810031211061
 20
-136.2624836898927
 10
102.3810031211061
 20
-136.2624836898927
 10
102.1863552261895
 20
-136.2628281994412
 10
102.1863552261895
 20
-136.2628281994412
 10
102.192556398063
 20
-136.224587639555
 10
102.1946234553541
 20
-136.1822129650864
 10
102.1946234553541
 20
-136.176011793213
 10
102.1946234553541
 20
-136.1102104694447
 10
102.1732638633456
 20
-135.9114284599458
 10
101.9362412939604
 20
-135.9117729694943
 10
101.75881887647
 20
-135.9117729694943
 10
101.703697348706
 20
-136.0430311074823
 10
101.7040418582546
 20
-136.1532741630103
 10
101.7040418582546
 20
-136.417512986729
 10
101.9369303130574
 20
-136.4257812158936
 10
102.0089328086992
 20
-136.4299153304759
 10
102.0089328086992
 20
-136.4299153304759
 10
102.0089328086992
 20
-136.6331759641056
 10
102.0089328086992
 20
-136.6331759641056
 10
101.8842203521331
 20
-136.6245632253925
 10
101.5076714155953
 20
-136.5976914806075
 10
101.5073269060468
 20
-136.1405273097149
 10
101.5069823964983
 20
-135.9162515936251
 10
101.6337619103555
 20
-135.6750949096576
 10
101.9296956125384
 20
-135.6747504001091
 10
102.1160752782904
 20
-135.6747504001091
 10
102.1984130603879
 20
-135.769835035502
 10
102.2600802695739
 20
-135.8690537854772
 10
102.2872965239073
 20
-135.8077310858397
 10
102.3675672487137
 20
-135.6258300442186
 10
102.6448974352763
 20
-135.62548553467
 10
102.9832058119278
 20
-135.6251410251215
 10
103.150637452511
 20
-135.8724988809624
 10
103.1509819620595
 20
-136.149829067525
 97
        0
 97
        0
 75
     2
 76
     1
 98
        0
  0
ENDBLK
  5
B2
330
AF
100
AcDbEntity
  8
0
100
AcDbBlockEnd
  0
BLOCK
  5
C7
330
C5
100
AcDbEntity
  8
0
100
AcDbBlockBegin
  2
block 4
 70
     0
 10
0.0
 20
0.0
 30
0.0
  3
block 4
  1

  0
SPLINE
  5
C9
330
C5
100
AcDbEntity
  8
_U+30EC_U+30A4_U+30E4_U+30FC 1
370
     0
100
AcDbSpline
210
0.0
220
0.0
230
1.0
 70
    11
 71
     3
 72
    44
 73
    40
 74
     0
 42
0.0000000001
 43
0.0000000001
 12
1.0
 22
0.0
 32
0.0
 13
1.0
 23
0.0
 33
0.0
 40
0.0
 40
0.0
 40
0.0
 40
0.0
 40
1.0
 40
1.0
 40
1.0
 40
2.0
 40
2.0
 40
2.0
 40
3.0
 40
3.0
 40
3.0
 40
4.0
 40
4.0
 40
4.0
 40
5.0
 40
5.0
 40
5.0
 40
6.0
 40
6.0
 40
6.0
 40
7.0
 40
7.0
 40
7.0
 40
8.0
 40
8.0
 40
8.0
 40
9.0
 40
9.0
 40
9.0
 40
10.0
 40
10.0
 40
10.0
 40
11.0
 40
11.0
 40
11.0
 40
12.0
 40
12.0
 40
12.0
 40
13.0
 40
13.0
 40
13.0
 40
13.0
 10
83.77369789572325
 20
-118.4835516739382
 30
0.0
 10
83.55596786105545
 20
-118.6423705758082
 30
0.0
 10
83.46295028295371
 20
-118.7166123835153
 30
0.0
 10
83.4143744366117
 20
-118.8604451200245
 30
0.0
 10
83.4143744366117
 20
-118.8604451200245
 30
0.0
 10
84.19296601627815
 20
-118.8597561009274
 30
0.0
 10
84.19296601627815
 20
-118.8597561009274
 30
0.0
 10
84.19296601627815
 20
-118.8597561009274
 30
0.0
 10
84.19313827105242
 20
-119.0649115370741
 30
0.0
 10
84.19313827105242
 20
-119.0649115370741
 30
0.0
 10
84.19313827105242
 20
-119.0649115370741
 30
0.0
 10
83.1649495234796
 20
-119.0659450657196
 30
0.0
 10
83.1649495234796
 20
-119.0659450657196
 30
0.0
 10
83.19629989239537
 20
-118.7083441543507
 30
0.0
 10
83.26192896138939
 20
-118.6299682320613
 30
0.0
 10
83.64657387231753
 20
-118.3312784534901
 30
0.0
 10
83.90237221209733
 20
-118.1323241892169
 30
0.0
 10
83.96800128109133
 20
-118.0644558081575
 30
0.0
 10
83.96782902631708
 20
-117.926996498296
 30
0.0
 10
83.9676567715428
 20
-117.8084852136034
 30
0.0
 10
83.8956542759011
 20
-117.6773993303897
 30
0.0
 10
83.69893932369332
 20
-117.6775715851639
 30
0.0
 10
83.4386623597827
 20
-117.6779160947125
 30
0.0
 10
83.4303941306181
 20
-117.9083929826757
 30
0.0
 10
83.4262600160358
 20
-118.0248372100771
 30
0.0
 10
83.4262600160358
 20
-118.0248372100771
 30
0.0
 10
83.2021565547203
 20
-118.0250094648514
 30
0.0
 10
83.2021565547203
 20
-118.0250094648514
 30
0.0
 10
83.2104247838849
 20
-117.8980576962199
 30
0.0
 10
83.22093232511492
 20
-117.785919838175
 30
0.0
 10
83.30120304992123
 20
-117.6674085534825
 30
0.0
 10
83.4111015959007
 20
-117.5065225943213
 30
0.0
 10
83.59713675210419
 20
-117.4724161490173
 30
0.0
 10
83.71358097950564
 20
-117.4724161490173
 30
0.0
 10
83.99056665651972
 20
-117.4720716394688
 30
0.0
 10
84.19813365950603
 20
-117.6560397383811
 30
0.0
 10
84.19830591428028
 20
-117.9288913008129
 30
0.0
 10
84.19865042382881
 20
-118.157301131485
 30
0.0
 10
84.08237845120163
 20
-118.2568643910087
 30
0.0
 10
83.77369789572325
 20
-118.4835516739382
 30
0.0
  0
HATCH
  5
CA
330
C5
100
AcDbEntity
  8
_U+30EC_U+30A4_U+30E4_U+30FC 1
 62
   179
420
  2234388
100
AcDbHatch
 10
0.0
 20
0.0
 30
0.0
210
0.0
220
0.0
230
1.0
  2
SOLID
 70
     1
 71
     0
 91
        1
 92
        1
 93
        1
 72
     4
 94
        3
 73
     0
 74
     1
 95
       44
 96
       40
 40
0.0
 40
0.0
 40
0.0
 40
0.0
 40
1.0
 40
1.0
 40
1.0
 40
2.0
 40
2.0
 40
2.0
 40
3.0
 40
3.0
 40
3.0
 40
4.0
 40
4.0
 40
4.0
 40
5.0
 40
5.0
 40
5.0
 40
6.0
 40
6.0
 40
6.0
 40
7.0
 40
7.0
 40
7.0
 40
8.0
 40
8.0
 40
8.0
 40
9.0
 40
9.0
 40
9.0
 40
10.0
 40
10.0
 40
10.0
 40
11.0
 40
11.0
 40
11.0
 40
12.0
 40
12.0
 40
12.0
 40
13.0
 40
13.0
 40
13.0
 40
13.0
 10
83.77369789572325
 20
-118.4835516739382
 10
83.55596786105545
 20
-118.6423705758082
 10
83.46295028295371
 20
-118.7166123835153
 10
83.4143744366117
 20
-118.8604451200245
 10
83.4143744366117
 20
-118.8604451200245
 10
84.19296601627815
 20
-118.8597561009274
 10
84.19296601627815
 20
-118.8597561009274
 10
84.19296601627815
 20
-118.8597561009274
 10
84.19313827105242
 20
-119.0649115370741
 10
84.19313827105242
 20
-119.0649115370741
 10
84.19313827105242
 20
-119.0649115370741
 10
83.1649495234796
 20
-119.0659450657196
 10
83.1649495234796
 20
-119.0659450657196
 10
83.19629989239537
 20
-118.7083441543507
 10
83.26192896138939
 20
-118.6299682320613
 10
83.64657387231753
 20
-118.3312784534901
 10
83.90237221209733
 20
-118.1323241892169
 10
83.96800128109133
 20
-118.0644558081575
 10
83.96782902631708
 20
-117.926996498296
 10
83.9676567715428
 20
-117.8084852136034
 10
83.8956542759011
 20
-117.6773993303897
 10
83.69893932369332
 20
-117.6775715851639
 10
83.4386623597827
 20
-117.6779160947125
 10
83.4303941306181
 20
-117.9083929826757
 10
83.4262600160358
 20
-118.0248372100771
 10
83.4262600160358
 20
-118.0248372100771
 10
83.2021565547203
 20
-118.0250094648514
 10
83.2021565547203
 20
-118.0250094648514
 10
83.2104247838849
 20
-117.8980576962199
 10
83.22093232511492
 20
-117.785919838175
 10
83.30120304992123
 20
-117.6674085534825
 10
83.4111015959007
 20
-117.5065225943213
 10
83.59713675210419
 20
-117.4724161490173
 10
83.71358097950564
 20
-117.4724161490173
 10
83.99056665651972
 20
-117.4720716394688
 10
84.19813365950603
 20
-117.6560397383811
 10
84.19830591428028
 20
-117.9288913008129
 10
84.19865042382881
 20
-118.157301131485
 10
84.08237845120163
 20
-118.2568643910087
 10
83.77369789572325
 20
-118.4835516739382
 97
        0
 97
        0
 75
     2
 76
     1
 98
        0
  0
ENDBLK
  5
C8
330
C5
100
AcDbEntity
  8
0
100
AcDbBlockEnd
  0
BLOCK
  5
D9
330
D7
100
AcDbEntity
  8
0
100
AcDbBlockBegin
  2
block 5
 70
     0
 10
0.0
 20
0.0
 30
0.0
  3
block 5
  1

  0
SPLINE
  5
DB
330
D7
100
AcDbEntity
  8
_U+30EC_U+30A4_U+30E4_U+30FC 1
370
     0
100
AcDbSpline
210
0.0
220
0.0
230
1.0
 70
    11
 71
     3
 72
    44
 73
    40
 74
     0
 42
0.0000000001
 43
0.0000000001
 12
1.0
 22
0.0
 32
0.0
 13
1.0
 23
0.0
 33
0.0
 40
0.0
 40
0.0
 40
0.0
 40
0.0
 40
1.0
 40
1.0
 40
1.0
 40
2.0
 40
2.0
 40
2.0
 40
3.0
 40
3.0
 40
3.0
 40
4.0
 40
4.0
 40
4.0
 40
5.0
 40
5.0
 40
5.0
 40
6.0
 40
6.0
 40
6.0
 40
7.0
 40
7.0
 40
7.0
 40
8.0
 40
8.0
 40
8.0
 40
9.0
 40
9.0
 40
9.0
 40
10.0
 40
10.0
 40
10.0
 40
11.0
 40
11.0
 40
11.0
 40
12.0
 40
12.0
 40
12.0
 40
13.0
 40
13.0
 40
13.0
 40
13.0
 10
88.68071965013885
 20
-114.4646755356199
 30
0.0
 10
88.46298961547106
 20
-114.62349443749
 30
0.0
 10
88.36997203736932
 20
-114.6975639904228
 30
0.0
 10
88.32139619102729
 20
-114.841396726932
 30
0.0
 10
88.32139619102729
 20
-114.841396726932
 30
0.0
 10
89.09998777069376
 20
-114.840707707835
 30
0.0
 10
89.09998777069376
 20
-114.840707707835
 30
0.0
 10
89.09998777069376
 20
-114.840707707835
 30
0.0
 10
89.09998777069376
 20
-115.0458631439816
 30
0.0
 10
89.09998777069376
 20
-115.0458631439816
 30
0.0
 10
89.09998777069376
 20
-115.0458631439816
 30
0.0
 10
88.0719712778952
 20
-115.0468966726272
 30
0.0
 10
88.0719712778952
 20
-115.0468966726272
 30
0.0
 10
88.10332164681098
 20
-114.6892957612582
 30
0.0
 10
88.16877846103073
 20
-114.6109198389688
 30
0.0
 10
88.55359562673313
 20
-114.3122300603976
 30
0.0
 10
88.8095662212872
 20
-114.1132757961245
 30
0.0
 10
88.87467852595842
 20
-114.045407415065
 30
0.0
 10
88.87467852595842
 20
-113.9079481052036
 30
0.0
 10
88.87467852595842
 20
-113.789436820511
 30
0.0
 10
88.80233152076818
 20
-113.6583509372972
 30
0.0
 10
88.60561656856041
 20
-113.6585231920715
 30
0.0
 10
88.34551185942404
 20
-113.6586954468458
 30
0.0
 10
88.33758813980796
 20
-113.8893445895832
 30
0.0
 10
88.33310951567714
 20
-114.0057888169847
 30
0.0
 10
88.33310951567714
 20
-114.0057888169847
 30
0.0
 10
88.10883379958737
 20
-114.0061333265332
 30
0.0
 10
88.10883379958737
 20
-114.0061333265332
 30
0.0
 10
88.1174465383005
 20
-113.8791815579017
 30
0.0
 10
88.12812633430478
 20
-113.7668714450826
 30
0.0
 10
88.20805254956258
 20
-113.64836016039
 30
0.0
 10
88.31795109554204
 20
-113.4874742012288
 30
0.0
 10
88.50433076129406
 20
-113.4533677559249
 30
0.0
 10
88.62043047914698
 20
-113.4533677559249
 30
0.0
 10
88.8977606657096
 20
-113.4530232463763
 30
0.0
 10
89.10515541392164
 20
-113.6369913452887
 30
0.0
 10
89.10549992347016
 20
-113.9098429077205
 30
0.0
 10
89.10584443301869
 20
-114.1382527383925
 30
0.0
 10
88.98940020561724
 20
-114.2379882526905
 30
0.0
 10
88.68071965013885
 20
-114.4646755356199
 30
0.0
  0
HATCH
  5
DC
330
D7
100
AcDbEntity
  8
_U+30EC_U+30A4_U+30E4_U+30FC 1
 62
   179
420
  2234388
100
AcDbHatch
 10
0.0
 20
0.0
 30
0.0
210
0.0
220
0.0
230
1.0
  2
SOLID
 70
     1
 71
     0
 91
        1
 92
        1
 93
        1
 72
     4
 94
        3
 73
     0
 74
     1
 95
       44
 96
       40
 40
0.0
 40
0.0
 40
0.0
 40
0.0
 40
1.0
 40
1.0
 40
1.0
 40
2.0
 40
2.0
 40
2.0
 40
3.0
 40
3.0
 40
3.0
 40
4.0
 40
4.0
 40
4.0
 40
5.0
 40
5.0
 40
5.0
 40
6.0
 40
6.0
 40
6.0
 40
7.0
 40
7.0
 40
7.0
 40
8.0
 40
8.0
 40
8.0
 40
9.0
 40
9.0
 40
9.0
 40
10.0
 40
10.0
 40
10.0
 40
11.0
 40
11.0
 40
11.0
 40
12.0
 40
12.0
 40
12.0
 40
13.0
 40
13.0
 40
13.0
 40
13.0
 10
88.68071965013885
 20
-114.4646755356199
 10
88.46298961547106
 20
-114.62349443749
 10
88.36997203736932
 20
-114.6975639904228
 10
88.32139619102729
 20
-114.841396726932
 10
88.32139619102729
 20
-114.841396726932
 10
89.09998777069376
 20
-114.840707707835
 10
89.09998777069376
 20
-114.840707707835
 10
89.09998777069376
 20
-114.840707707835
 10
89.09998777069376
 20
-115.0458631439816
 10
89.09998777069376
 20
-115.0458631439816
 10
89.09998777069376
 20
-115.0458631439816
 10
88.0719712778952
 20
-115.0468966726272
 10
88.0719712778952
 20
-115.0468966726272
 10
88.10332164681098
 20
-114.6892957612582
 10
88.16877846103073
 20
-114.6109198389688
 10
88.55359562673313
 20
-114.3122300603976
 10
88.8095662212872
 20
-114.1132757961245
 10
88.87467852595842
 20
-114.045407415065
 10
88.87467852595842
 20
-113.9079481052036
 10
88.87467852595842
 20
-113.789436820511
 10
88.80233152076818
 20
-113.6583509372972
 10
88.60561656856041
 20
-113.6585231920715
 10
88.34551185942404
 20
-113.6586954468458
 10
88.33758813980796
 20
-113.8893445895832
 10
88.33310951567714
 20
-114.0057888169847
 10
88.33310951567714
 20
-114.0057888169847
 10
88.10883379958737
 20
-114.0061333265332
 10
88.10883379958737
 20
-114.0061333265332
 10
88.1174465383005
 20
-113.8791815579017
 10
88.12812633430478
 20
-113.7668714450826
 10
88.20805254956258
 20
-113.64836016039
 10
88.31795109554204
 20
-113.4874742012288
 10
88.50433076129406
 20
-113.4533677559249
 10
88.62043047914698
 20
-113.4533677559249
 10
88.8977606657096
 20
-113.4530232463763
 10
89.10515541392164
 20
-113.6369913452887
 10
89.10549992347016
 20
-113.9098429077205
 10
89.10584443301869
 20
-114.1382527383925
 10
88.98940020561724
 20
-114.2379882526905
 10
88.68071965013885
 20
-114.4646755356199
 97
        0
 97
        0
 75
     2
 76
     1
 98
        0
  0
SPLINE
  5
DD
330
D7
100
AcDbEntity
  8
_U+30EC_U+30A4_U+30E4_U+30FC 1
370
     0
100
AcDbSpline
210
0.0
220
0.0
230
1.0
 70
    11
 71
     3
 72
    26
 73
    22
 74
     0
 42
0.0000000001
 43
0.0000000001
 12
1.0
 22
0.0
 32
0.0
 13
1.0
 23
0.0
 33
0.0
 40
0.0
 40
0.0
 40
0.0
 40
0.0
 40
1.0
 40
1.0
 40
1.0
 40
2.0
 40
2.0
 40
2.0
 40
3.0
 40
3.0
 40
3.0
 40
4.0
 40
4.0
 40
4.0
 40
5.0
 40
5.0
 40
5.0
 40
6.0
 40
6.0
 40
6.0
 40
7.0
 40
7.0
 40
7.0
 40
7.0
 10
89.71631535300496
 20
-115.0453463796588
 30
0.0
 10
89.71631535300496
 20
-115.0453463796588
 30
0.0
 10
89.71528182435938
 20
-113.941021021862
 30
0.0
 10
89.71528182435938
 20
-113.941021021862
 30
0.0
 10
89.71528182435938
 20
-113.941021021862
 30
0.0
 10
89.38524167687244
 20
-113.9413655314105
 30
0.0
 10
89.38524167687244
 20
-113.9413655314105
 30
0.0
 10
89.38524167687244
 20
-113.9413655314105
 30
0.0
 10
89.38524167687244
 20
-113.7932264255448
 30
0.0
 10
89.38524167687244
 20
-113.7932264255448
 30
0.0
 10
89.71734888165052
 20
-113.7782402601839
 30
0.0
 10
89.76351316115287
 20
-113.6152872437316
 30
0.0
 10
89.79314098232602
 20
-113.5010823283956
 30
0.0
 10
89.79314098232602
 20
-113.5010823283956
 30
0.0
 10
89.93921303090062
 20
-113.5009100736213
 30
0.0
 10
89.93921303090062
 20
-113.5009100736213
 30
0.0
 10
89.93921303090062
 20
-113.5009100736213
 30
0.0
 10
89.94059106909472
 20
-115.0451741248845
 30
0.0
 10
89.94059106909472
 20
-115.0451741248845
 30
0.0
 10
89.94059106909472
 20
-115.0451741248845
 30
0.0
 10
89.71631535300496
 20
-115.0453463796588
 30
0.0
 10
89.71631535300496
 20
-115.0453463796588
 30
0.0
  0
HATCH
  5
DE
330
D7
100
AcDbEntity
  8
_U+30EC_U+30A4_U+30E4_U+30FC 1
 62
   179
420
  2234388
100
AcDbHatch
 10
0.0
 20
0.0
 30
0.0
210
0.0
220
0.0
230
1.0
  2
SOLID
 70
     1
 71
     0
 91
        1
 92
        1
 93
        1
 72
     4
 94
        3
 73
     0
 74
     1
 95
       26
 96
       22
 40
0.0
 40
0.0
 40
0.0
 40
0.0
 40
1.0
 40
1.0
 40
1.0
 40
2.0
 40
2.0
 40
2.0
 40
3.0
 40
3.0
 40
3.0
 40
4.0
 40
4.0
 40
4.0
 40
5.0
 40
5.0
 40
5.0
 40
6.0
 40
6.0
 40
6.0
 40
7.0
 40
7.0
 40
7.0
 40
7.0
 10
89.71631535300496
 20
-115.0453463796588
 10
89.71631535300496
 20
-115.0453463796588
 10
89.71528182435938
 20
-113.941021021862
 10
89.71528182435938
 20
-113.941021021862
 10
89.71528182435938
 20
-113.941021021862
 10
89.38524167687244
 20
-113.9413655314105
 10
89.38524167687244
 20
-113.9413655314105
 10
89.38524167687244
 20
-113.9413655314105
 10
89.38524167687244
 20
-113.7932264255448
 10
89.38524167687244
 20
-113.7932264255448
 10
89.71734888165052
 20
-113.7782402601839
 10
89.76351316115287
 20
-113.6152872437316
 10
89.79314098232602
 20
-113.5010823283956
 10
89.79314098232602
 20
-113.5010823283956
 10
89.93921303090062
 20
-113.5009100736213
 10
89.93921303090062
 20
-113.5009100736213
 10
89.93921303090062
 20
-113.5009100736213
 10
89.94059106909472
 20
-115.0451741248845
 10
89.94059106909472
 20
-115.0451741248845
 10
89.94059106909472
 20
-115.0451741248845
 10
89.71631535300496
 20
-115.0453463796588
 10
89.71631535300496
 20
-115.0453463796588
 97
        0
 97
        0
 75
     2
 76
     1
 98
        0
  0
ENDBLK
  5
DA
330
D7
100
AcDbEntity
  8
0
100
AcDbBlockEnd
  0
BLOCK
  5
ED
330
EB
100
AcDbEntity
  8
0
100
AcDbBlockBegin
  2
block 6
 70
     0
 10
0.0
 20
0.0
 30
0.0
  3
block 6
  1

  0
SPLINE
  5
EF
330
EB
100
AcDbEntity
  8
_U+30EC_U+30A4_U+30E4_U+30FC 1
370
     0
100
AcDbSpline
210
0.0
220
0.0
230
1.0
 70
    11
 71
     3
 72
    26
 73
    22
 74
     0
 42
0.0000000001
 43
0.0000000001
 12
1.0
 22
0.0
 32
0.0
 13
1.0
 23
0.0
 33
0.0
 40
0.0
 40
0.0
 40
0.0
 40
0.0
 40
1.0
 40
1.0
 40
1.0
 40
2.0
 40
2.0
 40
2.0
 40
3.0
 40
3.0
 40
3.0
 40
4.0
 40
4.0
 40
4.0
 40
5.0
 40
5.0
 40
5.0
 40
6.0
 40
6.0
 40
6.0
 40
7.0
 40
7.0
 40
7.0
 40
7.0
 10
82.94859752700592
 20
-142.0502441051125
 30
0.0
 10
82.94859752700592
 20
-142.0502441051125
 30
0.0
 10
82.94756399836034
 20
-140.9460910020899
 30
0.0
 10
82.94756399836034
 20
-140.9460910020899
 30
0.0
 10
82.94756399836034
 20
-140.9460910020899
 30
0.0
 10
82.6175238508734
 20
-140.9464355116384
 30
0.0
 10
82.6175238508734
 20
-140.9464355116384
 30
0.0
 10
82.6175238508734
 20
-140.9464355116384
 30
0.0
 10
82.6175238508734
 20
-140.7982964057726
 30
0.0
 10
82.6175238508734
 20
-140.7982964057726
 30
0.0
 10
82.94963105565148
 20
-140.7831379856376
 30
0.0
 10
82.99579533515383
 20
-140.6201849691852
 30
0.0
 10
83.02542315632698
 20
-140.5058077990749
 30
0.0
 10
83.02542315632698
 20
-140.5058077990749
 30
0.0
 10
83.17149520490157
 20
-140.5054632895264
 30
0.0
 10
83.17149520490157
 20
-140.5054632895264
 30
0.0
 10
83.17149520490157
 20
-140.5054632895264
 30
0.0
 10
83.17287324309568
 20
-142.0498995955639
 30
0.0
 10
83.17287324309568
 20
-142.0498995955639
 30
0.0
 10
83.17287324309568
 20
-142.0498995955639
 30
0.0
 10
82.94859752700592
 20
-142.0502441051125
 30
0.0
 10
82.94859752700592
 20
-142.0502441051125
 30
0.0
  0
HATCH
  5
F0
330
EB
100
AcDbEntity
  8
_U+30EC_U+30A4_U+30E4_U+30FC 1
 62
   179
420
  2234388
100
AcDbHatch
 10
0.0
 20
0.0
 30
0.0
210
0.0
220
0.0
230
1.0
  2
SOLID
 70
     1
 71
     0
 91
        1
 92
        1
 93
        1
 72
     4
 94
        3
 73
     0
 74
     1
 95
       26
 96
       22
 40
0.0
 40
0.0
 40
0.0
 40
0.0
 40
1.0
 40
1.0
 40
1.0
 40
2.0
 40
2.0
 40
2.0
 40
3.0
 40
3.0
 40
3.0
 40
4.0
 40
4.0
 40
4.0
 40
5.0
 40
5.0
 40
5.0
 40
6.0
 40
6.0
 40
6.0
 40
7.0
 40
7.0
 40
7.0
 40
7.0
 10
82.94859752700592
 20
-142.0502441051125
 10
82.94859752700592
 20
-142.0502441051125
 10
82.94756399836034
 20
-140.9460910020899
 10
82.94756399836034
 20
-140.9460910020899
 10
82.94756399836034
 20
-140.9460910020899
 10
82.6175238508734
 20
-140.9464355116384
 10
82.6175238508734
 20
-140.9464355116384
 10
82.6175238508734
 20
-140.9464355116384
 10
82.6175238508734
 20
-140.7982964057726
 10
82.6175238508734
 20
-140.7982964057726
 10
82.94963105565148
 20
-140.7831379856376
 10
82.99579533515383
 20
-140.6201849691852
 10
83.02542315632698
 20
-140.5058077990749
 10
83.02542315632698
 20
-140.5058077990749
 10
83.17149520490157
 20
-140.5054632895264
 10
83.17149520490157
 20
-140.5054632895264
 10
83.17149520490157
 20
-140.5054632895264
 10
83.17287324309568
 20
-142.0498995955639
 10
83.17287324309568
 20
-142.0498995955639
 10
83.17287324309568
 20
-142.0498995955639
 10
82.94859752700592
 20
-142.0502441051125
 10
82.94859752700592
 20
-142.0502441051125
 97
        0
 97
        0
 75
     2
 76
     1
 98
        0
  0
SPLINE
  5
F1
330
EB
100
AcDbEntity
  8
_U+30EC_U+30A4_U+30E4_U+30FC 1
370
     0
100
AcDbSpline
210
0.0
220
0.0
230
1.0
 70
    11
 71
     3
 72
    29
 73
    25
 74
     0
 42
0.0000000001
 43
0.0000000001
 12
1.0
 22
0.0
 32
0.0
 13
1.0
 23
0.0
 33
0.0
 40
0.0
 40
0.0
 40
0.0
 40
0.0
 40
1.0
 40
1.0
 40
1.0
 40
2.0
 40
2.0
 40
2.0
 40
3.0
 40
3.0
 40
3.0
 40
4.0
 40
4.0
 40
4.0
 40
5.0
 40
5.0
 40
5.0
 40
6.0
 40
6.0
 40
6.0
 40
7.0
 40
7.0
 40
7.0
 40
8.0
 40
8.0
 40
8.0
 40
8.0
 10
84.57158201010711
 20
-141.8707546303309
 30
0.0
 10
84.46375052141879
 20
-142.0805609453826
 30
0.0
 10
84.29046221851073
 20
-142.0995089705515
 30
0.0
 10
84.17401799110928
 20
-142.0998534801001
 30
0.0
 10
84.0131320319481
 20
-142.0998534801001
 30
0.0
 10
83.87153860750435
 20
-142.0533446910492
 30
0.0
 10
83.77610946256291
 20
-141.8717881589765
 30
0.0
 10
83.6724120884569
 20
-141.6771402640599
 30
0.0
 10
83.65277504419097
 20
-141.4404622042232
 30
0.0
 10
83.65277504419097
 20
-141.2775091877709
 30
0.0
 10
83.65243053464245
 20
-141.1335041964875
 30
0.0
 10
83.6696560120687
 20
-140.8816677165157
 30
0.0
 10
83.77507593391735
 20
-140.6828857070168
 30
0.0
 10
83.88290742260567
 20
-140.479625073387
 30
0.0
 10
84.04379338176683
 20
-140.4561984240873
 30
0.0
 10
84.17263995291518
 20
-140.4561984240873
 30
0.0
 10
84.3314588547852
 20
-140.4558539145388
 30
0.0
 10
84.47511933652011
 20
-140.5002956462986
 30
0.0
 10
84.57054848146153
 20
-140.6818521783712
 30
0.0
 10
84.67011174098525
 20
-140.8744330159967
 30
0.0
 10
84.69353839028496
 20
-141.1028428466688
 30
0.0
 10
84.69388289983348
 20
-141.2764756591253
 30
0.0
 10
84.69388289983348
 20
-141.4476969047423
 30
0.0
 10
84.67286781737346
 20
-141.6781737927055
 30
0.0
 10
84.57158201010711
 20
-141.8707546303309
 30
0.0
  0
SPLINE
  5
F2
330
EB
100
AcDbEntity
  8
_U+30EC_U+30A4_U+30E4_U+30FC 1
370
     0
100
AcDbSpline
210
0.0
220
0.0
230
1.0
 70
    11
 71
     3
 72
    17
 73
    13
 74
     0
 42
0.0000000001
 43
0.0000000001
 12
1.0
 22
0.0
 32
0.0
 13
1.0
 23
0.0
 33
0.0
 40
0.0
 40
0.0
 40
0.0
 40
0.0
 40
1.0
 40
1.0
 40
1.0
 40
2.0
 40
2.0
 40
2.0
 40
3.0
 40
3.0
 40
3.0
 40
4.0
 40
4.0
 40
4.0
 40
4.0
 10
84.17263995291518
 20
-140.6487792617128
 30
0.0
 10
83.92287053023456
 20
-140.6487792617128
 30
0.0
 10
83.87670625073221
 20
-140.9323106201489
 30
0.0
 10
83.87705076028074
 20
-141.2771646782224
 30
0.0
 10
83.87739526982926
 20
-141.596525029705
 30
0.0
 10
83.91391328197291
 20
-141.9052055851834
 30
0.0
 10
84.17401799110928
 20
-141.9052055851834
 30
0.0
 10
84.42172035649874
 20
-141.9048610756349
 30
0.0
 10
84.46995169329224
 20
-141.6237412840385
 30
0.0
 10
84.46960718374372
 20
-141.2768201686739
 30
0.0
 10
84.46926267419519
 20
-140.9571153076427
 30
0.0
 10
84.43067760476039
 20
-140.6484347521643
 30
0.0
 10
84.17263995291518
 20
-140.6487792617128
 30
0.0
  0
HATCH
  5
F3
330
EB
100
AcDbEntity
  8
_U+30EC_U+30A4_U+30E4_U+30FC 1
 62
   179
420
  2234388
100
AcDbHatch
 10
0.0
 20
0.0
 30
0.0
210
0.0
220
0.0
230
1.0
  2
SOLID
 70
     1
 71
     0
 91
        2
 92
        1
 93
        1
 72
     4
 94
        3
 73
     0
 74
     1
 95
       29
 96
       25
 40
0.0
 40
0.0
 40
0.0
 40
0.0
 40
1.0
 40
1.0
 40
1.0
 40
2.0
 40
2.0
 40
2.0
 40
3.0
 40
3.0
 40
3.0
 40
4.0
 40
4.0
 40
4.0
 40
5.0
 40
5.0
 40
5.0
 40
6.0
 40
6.0
 40
6.0
 40
7.0
 40
7.0
 40
7.0
 40
8.0
 40
8.0
 40
8.0
 40
8.0
 10
84.57158201010711
 20
-141.8707546303309
 10
84.46375052141879
 20
-142.0805609453826
 10
84.29046221851073
 20
-142.0995089705515
 10
84.17401799110928
 20
-142.0998534801001
 10
84.0131320319481
 20
-142.0998534801001
 10
83.87153860750435
 20
-142.0533446910492
 10
83.77610946256291
 20
-141.8717881589765
 10
83.6724120884569
 20
-141.6771402640599
 10
83.65277504419097
 20
-141.4404622042232
 10
83.65277504419097
 20
-141.2775091877709
 10
83.65243053464245
 20
-141.1335041964875
 10
83.6696560120687
 20
-140.8816677165157
 10
83.77507593391735
 20
-140.6828857070168
 10
83.88290742260567
 20
-140.479625073387
 10
84.04379338176683
 20
-140.4561984240873
 10
84.17263995291518
 20
-140.4561984240873
 10
84.3314588547852
 20
-140.4558539145388
 10
84.47511933652011
 20
-140.5002956462986
 10
84.57054848146153
 20
-140.6818521783712
 10
84.67011174098525
 20
-140.8744330159967
 10
84.69353839028496
 20
-141.1028428466688
 10
84.69388289983348
 20
-141.2764756591253
 10
84.69388289983348
 20
-141.4476969047423
 10
84.67286781737346
 20
-141.6781737927055
 10
84.57158201010711
 20
-141.8707546303309
 97
        0
 97
        0
 92
        1
 93
        1
 72
     4
 94
        3
 73
     0
 74
     1
 95
       17
 96
       13
 40
0.0
 40
0.0
 40
0.0
 40
0.0
 40
1.0
 40
1.0
 40
1.0
 40
2.0
 40
2.0
 40
2.0
 40
3.0
 40
3.0
 40
3.0
 40
4.0
 40
4.0
 40
4.0
 40
4.0
 10
84.17263995291518
 20
-140.6487792617128
 10
83.92287053023456
 20
-140.6487792617128
 10
83.87670625073221
 20
-140.9323106201489
 10
83.87705076028074
 20
-141.2771646782224
 10
83.87739526982926
 20
-141.596525029705
 10
83.91391328197291
 20
-141.9052055851834
 10
84.17401799110928
 20
-141.9052055851834
 10
84.42172035649874
 20
-141.9048610756349
 10
84.46995169329224
 20
-141.6237412840385
 10
84.46960718374372
 20
-141.2768201686739
 10
84.46926267419519
 20
-140.9571153076427
 10
84.43067760476039
 20
-140.6484347521643
 10
84.17263995291518
 20
-140.6487792617128
 97
        0
 97
        0
 75
     2
 76
     1
 98
        0
  0
ENDBLK
  5
EE
330
EB
100
AcDbEntity
  8
0
100
AcDbBlockEnd
  0
BLOCK
  5
102
330
100
100
AcDbEntity
  8
0
100
AcDbBlockBegin
  2
block 7
 70
     0
 10
0.0
 20
0.0
 30
0.0
  3
block 7
  1

  0
SPLINE
  5
104
330
100
100
AcDbEntity
  8
_U+30EC_U+30A4_U+30E4_U+30FC 1
370
     0
100
AcDbSpline
210
0.0
220
0.0
230
1.0
 70
    11
 71
     3
 72
    26
 73
    22
 74
     0
 42
0.0000000001
 43
0.0000000001
 12
1.0
 22
0.0
 32
0.0
 13
1.0
 23
0.0
 33
0.0
 40
0.0
 40
0.0
 40
0.0
 40
0.0
 40
1.0
 40
1.0
 40
1.0
 40
2.0
 40
2.0
 40
2.0
 40
3.0
 40
3.0
 40
3.0
 40
4.0
 40
4.0
 40
4.0
 40
5.0
 40
5.0
 40
5.0
 40
6.0
 40
6.0
 40
6.0
 40
7.0
 40
7.0
 40
7.0
 40
7.0
 10
103.054174778924
 20
-130.3413980793938
 30
0.0
 10
103.054174778924
 20
-130.3413980793938
 30
0.0
 10
101.9500216759014
 20
-130.3420870984909
 30
0.0
 10
101.9500216759014
 20
-130.3420870984909
 30
0.0
 10
101.9500216759014
 20
-130.3420870984909
 30
0.0
 10
101.9503661854499
 20
-130.6721272459778
 30
0.0
 10
101.9503661854499
 20
-130.6721272459778
 30
0.0
 10
101.9503661854499
 20
-130.6721272459778
 30
0.0
 10
101.8022270795842
 20
-130.6724717555263
 30
0.0
 10
101.8022270795842
 20
-130.6724717555263
 30
0.0
 10
101.7870686594491
 20
-130.3403645507483
 30
0.0
 10
101.6241156429968
 20
-130.2938557616974
 30
0.0
 10
101.5097384728865
 20
-130.2645724500728
 30
0.0
 10
101.5097384728865
 20
-130.2645724500728
 30
0.0
 10
101.5097384728865
 20
-130.1185004014982
 30
0.0
 10
101.5097384728865
 20
-130.1185004014982
 30
0.0
 10
101.5097384728865
 20
-130.1185004014982
 30
0.0
 10
103.054174778924
 20
-130.117122363304
 30
0.0
 10
103.054174778924
 20
-130.117122363304
 30
0.0
 10
103.054174778924
 20
-130.117122363304
 30
0.0
 10
103.054174778924
 20
-130.3413980793938
 30
0.0
 10
103.054174778924
 20
-130.3413980793938
 30
0.0
  0
HATCH
  5
105
330
100
100
AcDbEntity
  8
_U+30EC_U+30A4_U+30E4_U+30FC 1
 62
   179
420
  2234388
100
AcDbHatch
 10
0.0
 20
0.0
 30
0.0
210
0.0
220
0.0
230
1.0
  2
SOLID
 70
     1
 71
     0
 91
        1
 92
        1
 93
        1
 72
     4
 94
        3
 73
     0
 74
     1
 95
       26
 96
       22
 40
0.0
 40
0.0
 40
0.0
 40
0.0
 40
1.0
 40
1.0
 40
1.0
 40
2.0
 40
2.0
 40
2.0
 40
3.0
 40
3.0
 40
3.0
 40
4.0
 40
4.0
 40
4.0
 40
5.0
 40
5.0
 40
5.0
 40
6.0
 40
6.0
 40
6.0
 40
7.0
 40
7.0
 40
7.0
 40
7.0
 10
103.054174778924
 20
-130.3413980793938
 10
103.054174778924
 20
-130.3413980793938
 10
101.9500216759014
 20
-130.3420870984909
 10
101.9500216759014
 20
-130.3420870984909
 10
101.9500216759014
 20
-130.3420870984909
 10
101.9503661854499
 20
-130.6721272459778
 10
101.9503661854499
 20
-130.6721272459778
 10
101.9503661854499
 20
-130.6721272459778
 10
101.8022270795842
 20
-130.6724717555263
 10
101.8022270795842
 20
-130.6724717555263
 10
101.7870686594491
 20
-130.3403645507483
 10
101.6241156429968
 20
-130.2938557616974
 10
101.5097384728865
 20
-130.2645724500728
 10
101.5097384728865
 20
-130.2645724500728
 10
101.5097384728865
 20
-130.1185004014982
 10
101.5097384728865
 20
-130.1185004014982
 10
101.5097384728865
 20
-130.1185004014982
 10
103.054174778924
 20
-130.117122363304
 10
103.054174778924
 20
-130.117122363304
 10
103.054174778924
 20
-130.117122363304
 10
103.054174778924
 20
-130.3413980793938
 10
103.054174778924
 20
-130.3413980793938
 97
        0
 97
        0
 75
     2
 76
     1
 98
        0
  0
SPLINE
  5
106
330
100
100
AcDbEntity
  8
_U+30EC_U+30A4_U+30E4_U+30FC 1
370
     0
100
AcDbSpline
210
0.0
220
0.0
230
1.0
 70
    11
 71
     3
 72
    29
 73
    25
 74
     0
 42
0.0000000001
 43
0.0000000001
 12
1.0
 22
0.0
 32
0.0
 13
1.0
 23
0.0
 33
0.0
 40
0.0
 40
0.0
 40
0.0
 40
0.0
 40
1.0
 40
1.0
 40
1.0
 40
2.0
 40
2.0
 40
2.0
 40
3.0
 40
3.0
 40
3.0
 40
4.0
 40
4.0
 40
4.0
 40
5.0
 40
5.0
 40
5.0
 40
6.0
 40
6.0
 40
6.0
 40
7.0
 40
7.0
 40
7.0
 40
8.0
 40
8.0
 40
8.0
 40
8.0
 10
102.875029813691
 20
-128.7180690867441
 30
0.0
 10
103.0844916191942
 20
-128.8259005754324
 30
0.0
 10
103.1037841539116
 20
-128.9991888783405
 30
0.0
 10
103.1037841539116
 20
-129.1156331057419
 30
0.0
 10
103.1041286634601
 20
-129.2765190649031
 30
0.0
 10
103.0576198744092
 20
-129.4181124893469
 30
0.0
 10
102.875718832788
 20
-129.5135416342883
 30
0.0
 10
102.6810709378714
 20
-129.6175835179428
 30
0.0
 10
102.4440483684862
 20
-129.6368760526602
 30
0.0
 10
102.2814398615824
 20
-129.6372205622088
 30
0.0
 10
102.137434870299
 20
-129.6372205622088
 30
0.0
 10
101.8855983903272
 20
-129.620339594331
 30
0.0
 10
101.6868163808283
 20
-129.5145751629339
 30
0.0
 10
101.4839002567471
 20
-129.4070881837941
 30
0.0
 10
101.4601290978989
 20
-129.2462022246329
 30
0.0
 10
101.4601290978989
 20
-129.1173556534846
 30
0.0
 10
101.4601290978989
 20
-128.9585367516145
 30
0.0
 10
101.5042263201101
 20
-128.8148762698796
 30
0.0
 10
101.6861273617313
 20
-128.7191026153897
 30
0.0
 10
101.8787081993567
 20
-128.6198838654145
 30
0.0
 10
102.1071180300288
 20
-128.5961127065663
 30
0.0
 10
102.2807508424854
 20
-128.5961127065663
 30
0.0
 10
102.4519720881023
 20
-128.5957681970177
 30
0.0
 10
102.6824489760655
 20
-128.6171277890263
 30
0.0
 10
102.875029813691
 20
-128.7180690867441
 30
0.0
  0
SPLINE
  5
107
330
100
100
AcDbEntity
  8
_U+30EC_U+30A4_U+30E4_U+30FC 1
370
     0
100
AcDbSpline
210
0.0
220
0.0
230
1.0
 70
    11
 71
     3
 72
    17
 73
    13
 74
     0
 42
0.0000000001
 43
0.0000000001
 12
1.0
 22
0.0
 32
0.0
 13
1.0
 23
0.0
 33
0.0
 40
0.0
 40
0.0
 40
0.0
 40
0.0
 40
1.0
 40
1.0
 40
1.0
 40
2.0
 40
2.0
 40
2.0
 40
3.0
 40
3.0
 40
3.0
 40
4.0
 40
4.0
 40
4.0
 40
4.0
 10
101.6527099355243
 20
-129.117011143936
 30
0.0
 10
101.6530544450729
 20
-129.3667805666167
 30
0.0
 10
101.9365858035089
 20
-129.4132893556675
 30
0.0
 10
102.2814398615824
 20
-129.412944846119
 30
0.0
 10
102.6008002130651
 20
-129.4126003365705
 30
0.0
 10
102.9094807685435
 20
-129.3760823244268
 30
0.0
 10
102.9091362589949
 20
-129.1159776152905
 30
0.0
 10
102.9087917494464
 20
-128.868275249901
 30
0.0
 10
102.62767195785
 20
-128.8200439131075
 30
0.0
 10
102.2807508424854
 20
-128.820388422656
 30
0.0
 10
101.9610459814542
 20
-128.820388422656
 30
0.0
 10
101.6523654259758
 20
-128.8589734920908
 30
0.0
 10
101.6527099355243
 20
-129.117011143936
 30
0.0
  0
HATCH
  5
108
330
100
100
AcDbEntity
  8
_U+30EC_U+30A4_U+30E4_U+30FC 1
 62
   179
420
  2234388
100
AcDbHatch
 10
0.0
 20
0.0
 30
0.0
210
0.0
220
0.0
230
1.0
  2
SOLID
 70
     1
 71
     0
 91
        2
 92
        1
 93
        1
 72
     4
 94
        3
 73
     0
 74
     1
 95
       29
 96
       25
 40
0.0
 40
0.0
 40
0.0
 40
0.0
 40
1.0
 40
1.0
 40
1.0
 40
2.0
 40
2.0
 40
2.0
 40
3.0
 40
3.0
 40
3.0
 40
4.0
 40
4.0
 40
4.0
 40
5.0
 40
5.0
 40
5.0
 40
6.0
 40
6.0
 40
6.0
 40
7.0
 40
7.0
 40
7.0
 40
8.0
 40
8.0
 40
8.0
 40
8.0
 10
102.875029813691
 20
-128.7180690867441
 10
103.0844916191942
 20
-128.8259005754324
 10
103.1037841539116
 20
-128.9991888783405
 10
103.1037841539116
 20
-129.1156331057419
 10
103.1041286634601
 20
-129.2765190649031
 10
103.0576198744092
 20
-129.4181124893469
 10
102.875718832788
 20
-129.5135416342883
 10
102.6810709378714
 20
-129.6175835179428
 10
102.4440483684862
 20
-129.6368760526602
 10
102.2814398615824
 20
-129.6372205622088
 10
102.137434870299
 20
-129.6372205622088
 10
101.8855983903272
 20
-129.620339594331
 10
101.6868163808283
 20
-129.5145751629339
 10
101.4839002567471
 20
-129.4070881837941
 10
101.4601290978989
 20
-129.2462022246329
 10
101.4601290978989
 20
-129.1173556534846
 10
101.4601290978989
 20
-128.9585367516145
 10
101.5042263201101
 20
-128.8148762698796
 10
101.6861273617313
 20
-128.7191026153897
 10
101.8787081993567
 20
-128.6198838654145
 10
102.1071180300288
 20
-128.5961127065663
 10
102.2807508424854
 20
-128.5961127065663
 10
102.4519720881023
 20
-128.5957681970177
 10
102.6824489760655
 20
-128.6171277890263
 10
102.875029813691
 20
-128.7180690867441
 97
        0
 97
        0
 92
        1
 93
        1
 72
     4
 94
        3
 73
     0
 74
     1
 95
       17
 96
       13
 40
0.0
 40
0.0
 40
0.0
 40
0.0
 40
1.0
 40
1.0
 40
1.0
 40
2.0
 40
2.0
 40
2.0
 40
3.0
 40
3.0
 40
3.0
 40
4.0
 40
4.0
 40
4.0
 40
4.0
 10
101.6527099355243
 20
-129.117011143936
 10
101.6530544450729
 20
-129.3667805666167
 10
101.9365858035089
 20
-129.4132893556675
 10
102.2814398615824
 20
-129.412944846119
 10
102.6008002130651
 20
-129.4126003365705
 10
102.9094807685435
 20
-129.3760823244268
 10
102.9091362589949
 20
-129.1159776152905
 10
102.9087917494464
 20
-128.868275249901
 10
102.62767195785
 20
-128.8200439131075
 10
102.2807508424854
 20
-128.820388422656
 10
101.9610459814542
 20
-128.820388422656
 10
101.6523654259758
 20
-128.8589734920908
 10
101.6527099355243
 20
-129.117011143936
 97
        0
 97
        0
 75
     2
 76
     1
 98
        0
  0
ENDBLK
  5
103
330
100
100
AcDbEntity
  8
0
100
AcDbBlockEnd
  0
BLOCK
  5
10B
330
109
100
AcDbEntity
  8
0
100
AcDbBlockBegin
  2
block 8
 70
     0
 10
0.0
 20
0.0
 30
0.0
  3
block 8
  1

  0
SPLINE
  5
10D
330
109
100
AcDbEntity
  8
_U+30EC_U+30A4_U+30E4_U+30FC 1
370
     0
100
AcDbSpline
210
0.0
220
0.0
230
1.0
 70
    11
 71
     3
 72
   110
 73
   106
 74
     0
 42
0.0000000001
 43
0.0000000001
 12
1.0
 22
0.0
 32
0.0
 13
1.0
 23
0.0
 33
0.0
 40
0.0
 40
0.0
 40
0.0
 40
0.0
 40
1.0
 40
1.0
 40
1.0
 40
2.0
 40
2.0
 40
2.0
 40
3.0
 40
3.0
 40
3.0
 40
4.0
 40
4.0
 40
4.0
 40
5.0
 40
5.0
 40
5.0
 40
6.0
 40
6.0
 40
6.0
 40
7.0
 40
7.0
 40
7.0
 40
8.0
 40
8.0
 40
8.0
 40
9.0
 40
9.0
 40
9.0
 40
10.0
 40
10.0
 40
10.0
 40
11.0
 40
11.0
 40
11.0
 40
12.0
 40
12.0
 40
12.0
 40
13.0
 40
13.0
 40
13.0
 40
14.0
 40
14.0
 40
14.0
 40
15.0
 40
15.0
 40
15.0
 40
16.0
 40
16.0
 40
16.0
 40
17.0
 40
17.0
 40
17.0
 40
18.0
 40
18.0
 40
18.0
 40
19.0
 40
19.0
 40
19.0
 40
20.0
 40
20.0
 40
20.0
 40
21.0
 40
21.0
 40
21.0
 40
22.0
 40
22.0
 40
22.0
 40
23.0
 40
23.0
 40
23.0
 40
24.0
 40
24.0
 40
24.0
 40
25.0
 40
25.0
 40
25.0
 40
26.0
 40
26.0
 40
26.0
 40
27.0
 40
27.0
 40
27.0
 40
28.0
 40
28.0
 40
28.0
 40
29.0
 40
29.0
 40
29.0
 40
30.0
 40
30.0
 40
30.0
 40
31.0
 40
31.0
 40
31.0
 40
32.0
 40
32.0
 40
32.0
 40
33.0
 40
33.0
 40
33.0
 40
34.0
 40
34.0
 40
34.0
 40
35.0
 40
35.0
 40
35.0
 40
35.0
 10
84.48338756568471
 20
-130.998377788431
 30
0.0
 10
84.48562687775012
 20
-130.9625487953844
 30
0.0
 10
84.48958873755817
 20
-130.7954616643497
 30
0.0
 10
84.48958873755817
 20
-130.7827148110543
 30
0.0
 10
84.48958873755817
 20
-130.7827148110543
 30
0.0
 10
84.4894164827839
 20
-130.6559352971971
 30
0.0
 10
84.4894164827839
 20
-130.6559352971971
 30
0.0
 10
84.4894164827839
 20
-130.6559352971971
 30
0.0
 10
83.05315617498324
 20
-130.6569688258427
 30
0.0
 10
83.05315617498324
 20
-130.6569688258427
 30
0.0
 10
83.05315617498324
 20
-130.6569688258427
 30
0.0
 10
83.05315617498324
 20
-130.7585991426576
 30
0.0
 10
83.05315617498324
 20
-130.7585991426576
 30
0.0
 10
83.05315617498324
 20
-130.8095865558393
 30
0.0
 10
83.05539548704866
 20
-130.9005370766499
 30
0.0
 10
83.05970185640521
 20
-130.9997558266251
 30
0.0
 10
83.05970185640521
 20
-130.9997558266251
 30
0.0
 10
82.85454642025859
 20
-131.0001003361736
 30
0.0
 10
82.85454642025859
 20
-131.0001003361736
 30
0.0
 10
82.85868053484089
 20
-130.9659938908696
 30
0.0
 10
82.86712101877976
 20
-130.8626410263121
 30
0.0
 10
82.86712101877976
 20
-130.8244004664259
 30
0.0
 10
82.86712101877976
 20
-130.8244004664259
 30
0.0
 10
82.86694876400549
 20
-130.6721272459778
 30
0.0
 10
82.86694876400549
 20
-130.6721272459778
 30
0.0
 10
82.86694876400549
 20
-130.6424994248047
 30
0.0
 10
82.85833602529236
 20
-130.5112412868166
 30
0.0
 10
82.85833602529236
 20
-130.4860920897743
 30
0.0
 10
82.86677650923123
 20
-130.4860920897743
 30
0.0
 10
83.25813935635561
 20
-130.4960828666815
 30
0.0
 10
83.2898342348199
 20
-130.4960828666815
 30
0.0
 10
83.21783173917818
 20
-130.3947970594152
 30
0.0
 10
83.1690836380619
 20
-130.3524223849466
 30
0.0
 10
83.11826847965446
 20
-130.3121147677692
 30
0.0
 10
83.11826847965446
 20
-130.3121147677692
 30
0.0
 10
83.26210121616364
 20
-130.1956705403678
 30
0.0
 10
83.26210121616364
 20
-130.1956705403678
 30
0.0
 10
83.34254419574422
 20
-130.2528591254229
 30
0.0
 10
83.40179983809053
 20
-130.3097032009295
 30
0.0
 10
83.47604164579766
 20
-130.4240803710398
 30
0.0
 10
83.47604164579766
 20
-130.4240803710398
 30
0.0
 10
83.3807847556305
 20
-130.4981499239727
 30
0.0
 10
83.3807847556305
 20
-130.4981499239727
 30
0.0
 10
83.3807847556305
 20
-130.4981499239727
 30
0.0
 10
83.4359062833945
 20
-130.4981499239727
 30
0.0
 10
83.4359062833945
 20
-130.4981499239727
 30
0.0
 10
83.4359062833945
 20
-130.4981499239727
 30
0.0
 10
83.67706296736199
 20
-130.4978054144242
 30
0.0
 10
83.67706296736199
 20
-130.4978054144242
 30
0.0
 10
83.67706296736199
 20
-130.4978054144242
 30
0.0
 10
83.67689071258772
 20
-130.4364827147867
 30
0.0
 10
83.67689071258772
 20
-130.4364827147867
 30
0.0
 10
83.67689071258772
 20
-130.3496663085584
 30
0.0
 10
83.67258434323116
 20
-130.2652614691698
 30
0.0
 10
83.66603866180918
 20
-130.1784450629415
 30
0.0
 10
83.66603866180918
 20
-130.1784450629415
 30
0.0
 10
83.86705998337352
 20
-130.1994601454015
 30
0.0
 10
83.86705998337352
 20
-130.1994601454015
 30
0.0
 10
83.92631562571981
 20
-130.205661317275
 30
0.0
 10
83.93268905236752
 20
-130.205661317275
 30
0.0
 10
83.93268905236752
 20
-130.2290879665747
 30
0.0
 10
83.93268905236752
 20
-130.2439018771612
 30
0.0
 10
83.89462074725552
 20
-130.2714626410433
 30
0.0
 10
83.87360566479549
 20
-130.2862765516298
 30
0.0
 10
83.87153860750435
 20
-130.3410535698453
 30
0.0
 10
83.86723223814778
 20
-130.3961750976093
 30
0.0
 10
83.86740449292205
 20
-130.4488850585336
 30
0.0
 10
83.86740449292205
 20
-130.4488850585336
 30
0.0
 10
83.86740449292205
 20
-130.4978054144242
 30
0.0
 10
83.86740449292205
 20
-130.4978054144242
 30
0.0
 10
83.86740449292205
 20
-130.4978054144242
 30
0.0
 10
84.14662948200154
 20
-130.4974609048757
 30
0.0
 10
84.14662948200154
 20
-130.4974609048757
 30
0.0
 10
84.14662948200154
 20
-130.4974609048757
 30
0.0
 10
84.04930553454324
 20
-130.4320040906559
 30
0.0
 10
84.04930553454324
 20
-130.4320040906559
 30
0.0
 10
84.1316433166407
 20
-130.351388856301
 30
0.0
 10
84.17608504840042
 20
-130.2859320420813
 30
0.0
 10
84.20984698415587
 20
-130.1949815212707
 30
0.0
 10
84.20984698415587
 20
-130.1949815212707
 30
0.0
 10
84.39192028055133
 20
-130.2876545898239
 30
0.0
 10
84.39192028055133
 20
-130.2876545898239
 30
0.0
 10
84.40242782178134
 20
-130.2921332139547
 30
0.0
 10
84.41930878965907
 20
-130.3045355577017
 30
0.0
 10
84.41930878965907
 20
-130.3217610351279
 30
0.0
 10
84.41948104443333
 20
-130.351388856301
 30
0.0
 10
84.38554685390362
 20
-130.351388856301
 30
0.0
 10
84.34317217943504
 20
-130.3534559135922
 30
0.0
 10
84.30303681703188
 20
-130.4209797851031
 30
0.0
 10
84.28615584915416
 20
-130.4485405489851
 30
0.0
 10
84.2482597988164
 20
-130.4974609048757
 30
0.0
 10
84.54849987035594
 20
-130.4905707139051
 30
0.0
 10
84.58656817546795
 20
-130.4905707139051
 30
0.0
 10
84.68389212292625
 20
-130.4864365993228
 30
0.0
 10
84.68182506563511
 20
-130.5243326496606
 30
0.0
 10
84.67769095105281
 20
-130.6176947373109
 30
0.0
 10
84.67769095105281
 20
-130.6555907876486
 30
0.0
 10
84.67769095105281
 20
-130.6555907876486
 30
0.0
 10
84.67786320582707
 20
-130.8247449759744
 30
0.0
 10
84.67786320582707
 20
-130.8247449759744
 30
0.0
 10
84.67803546060132
 20
-130.8777994464472
 30
0.0
 10
84.68010251789248
 20
-130.9391221460847
 30
0.0
 10
84.68647594454019
 20
-130.998377788431
 30
0.0
 10
84.68647594454019
 20
-130.998377788431
 30
0.0
 10
84.48338756568471
 20
-130.998377788431
 30
0.0
 10
84.48338756568471
 20
-130.998377788431
 30
0.0
  0
SPLINE
  5
10E
330
109
100
AcDbEntity
  8
_U+30EC_U+30A4_U+30E4_U+30FC 1
370
     0
100
AcDbSpline
210
0.0
220
0.0
230
1.0
 70
    11
 71
     3
 72
   131
 73
   127
 74
     0
 42
0.0000000001
 43
0.0000000001
 12
1.0
 22
0.0
 32
0.0
 13
1.0
 23
0.0
 33
0.0
 40
0.0
 40
0.0
 40
0.0
 40
0.0
 40
1.0
 40
1.0
 40
1.0
 40
2.0
 40
2.0
 40
2.0
 40
3.0
 40
3.0
 40
3.0
 40
4.0
 40
4.0
 40
4.0
 40
5.0
 40
5.0
 40
5.0
 40
6.0
 40
6.0
 40
6.0
 40
7.0
 40
7.0
 40
7.0
 40
8.0
 40
8.0
 40
8.0
 40
9.0
 40
9.0
 40
9.0
 40
10.0
 40
10.0
 40
10.0
 40
11.0
 40
11.0
 40
11.0
 40
12.0
 40
12.0
 40
12.0
 40
13.0
 40
13.0
 40
13.0
 40
14.0
 40
14.0
 40
14.0
 40
15.0
 40
15.0
 40
15.0
 40
16.0
 40
16.0
 40
16.0
 40
17.0
 40
17.0
 40
17.0
 40
18.0
 40
18.0
 40
18.0
 40
19.0
 40
19.0
 40
19.0
 40
20.0
 40
20.0
 40
20.0
 40
21.0
 40
21.0
 40
21.0
 40
22.0
 40
22.0
 40
22.0
 40
23.0
 40
23.0
 40
23.0
 40
24.0
 40
24.0
 40
24.0
 40
25.0
 40
25.0
 40
25.0
 40
26.0
 40
26.0
 40
26.0
 40
27.0
 40
27.0
 40
27.0
 40
28.0
 40
28.0
 40
28.0
 40
29.0
 40
29.0
 40
29.0
 40
30.0
 40
30.0
 40
30.0
 40
31.0
 40
31.0
 40
31.0
 40
32.0
 40
32.0
 40
32.0
 40
33.0
 40
33.0
 40
33.0
 40
34.0
 40
34.0
 40
34.0
 40
35.0
 40
35.0
 40
35.0
 40
36.0
 40
36.0
 40
36.0
 40
37.0
 40
37.0
 40
37.0
 40
38.0
 40
38.0
 40
38.0
 40
39.0
 40
39.0
 40
39.0
 40
40.0
 40
40.0
 40
40.0
 40
41.0
 40
41.0
 40
41.0
 40
42.0
 40
42.0
 40
42.0
 40
42.0
 10
84.5073309793072
 20
-131.5802544158897
 30
0.0
 10
84.5073309793072
 20
-131.5802544158897
 30
0.0
 10
84.50957029137261
 20
-131.7535427187977
 30
0.0
 10
84.50957029137261
 20
-131.7535427187977
 30
0.0
 10
84.50957029137261
 20
-131.7535427187977
 30
0.0
 10
84.50974254614687
 20
-131.8720540034903
 30
0.0
 10
84.50974254614687
 20
-131.8720540034903
 30
0.0
 10
84.50974254614687
 20
-132.0074462560606
 30
0.0
 10
84.38916420416312
 20
-132.0226046761958
 30
0.0
 10
84.27926565818366
 20
-132.0226046761958
 30
0.0
 10
84.2115695318985
 20
-132.0226046761958
 30
0.0
 10
84.19038219466421
 20
-132.0205376189046
 30
0.0
 10
84.15868731619992
 20
-132.0164035043223
 30
0.0
 10
84.15868731619992
 20
-132.0164035043223
 30
0.0
 10
84.08220619642736
 20
-131.804874641528
 30
0.0
 10
84.08220619642736
 20
-131.804874641528
 30
0.0
 10
84.13508841212595
 20
-131.8176214948234
 30
0.0
 10
84.20502385047652
 20
-131.8345024627011
 30
0.0
 10
84.24102509829738
 20
-131.8345024627011
 30
0.0
 10
84.30441485522599
 20
-131.8341579531526
 30
0.0
 10
84.30854896980829
 20
-131.8069416988191
 30
0.0
 10
84.30854896980829
 20
-131.7115125538777
 30
0.0
 10
84.30854896980829
 20
-131.7115125538777
 30
0.0
 10
84.30837671503402
 20
-131.5168646589611
 30
0.0
 10
84.30837671503402
 20
-131.5168646589611
 30
0.0
 10
84.30837671503402
 20
-131.5168646589611
 30
0.0
 10
83.86826576679336
 20
-131.5172091685096
 30
0.0
 10
83.86826576679336
 20
-131.5172091685096
 30
0.0
 10
83.86826576679336
 20
-131.5172091685096
 30
0.0
 10
83.86843802156761
 20
-131.6105712561599
 30
0.0
 10
83.86843802156761
 20
-131.6105712561599
 30
0.0
 10
83.86843802156761
 20
-131.640199077333
 30
0.0
 10
83.87067733363303
 20
-131.6739610130885
 30
0.0
 10
83.87067733363303
 20
-131.6867078663839
 30
0.0
 10
83.88359644170272
 20
-131.9257974930602
 30
0.0
 10
83.88359644170272
 20
-131.9509466901025
 30
0.0
 10
83.88790281105928
 20
-132.1011528532594
 30
0.0
 10
83.88790281105928
 20
-132.1011528532594
 30
0.0
 10
83.6572536683218
 20
-132.101497362808
 30
0.0
 10
83.6572536683218
 20
-132.101497362808
 30
0.0
 10
83.66156003767837
 20
-132.046375835044
 30
0.0
 10
83.67809649600757
 20
-131.6656927839239
 30
0.0
 10
83.67809649600757
 20
-131.6064371415776
 30
0.0
 10
83.67809649600757
 20
-131.6064371415776
 30
0.0
 10
83.6779242412333
 20
-131.5175536780581
 30
0.0
 10
83.6779242412333
 20
-131.5175536780581
 30
0.0
 10
83.6779242412333
 20
-131.5175536780581
 30
0.0
 10
83.24849308899691
 20
-131.5178981876066
 30
0.0
 10
83.24849308899691
 20
-131.5178981876066
 30
0.0
 10
83.24849308899691
 20
-131.5178981876066
 30
0.0
 10
83.24866534377117
 20
-131.7084119679409
 30
0.0
 10
83.24866534377117
 20
-131.7084119679409
 30
0.0
 10
83.24866534377117
 20
-131.7549207569918
 30
0.0
 10
83.26158445184086
 20
-131.9599039383642
 30
0.0
 10
83.26382376390627
 20
-132.0022786128328
 30
0.0
 10
83.26382376390627
 20
-132.0022786128328
 30
0.0
 10
83.0331746211688
 20
-132.0026231223813
 30
0.0
 10
83.0331746211688
 20
-132.0026231223813
 30
0.0
 10
83.0373087357511
 20
-131.9602484479127
 30
0.0
 10
83.04988333427225
 20
-131.7824815208738
 30
0.0
 10
83.04988333427225
 20
-131.7487195851184
 30
0.0
 10
83.04988333427225
 20
-131.7487195851184
 30
0.0
 10
83.049711079498
 20
-131.5730197153706
 30
0.0
 10
83.049711079498
 20
-131.5730197153706
 30
0.0
 10
83.049711079498
 20
-131.5351236650329
 30
0.0
 10
83.04316539807601
 20
-131.4228135522137
 30
0.0
 10
83.04109834078487
 20
-131.3532226234117
 30
0.0
 10
83.08760712983575
 20
-131.3552896807028
 30
0.0
 10
83.39215357073182
 20
-131.3656249671586
 30
0.0
 10
83.41334090796612
 20
-131.3656249671586
 30
0.0
 10
83.41334090796612
 20
-131.3656249671586
 30
0.0
 10
83.67775198645904
 20
-131.3652804576101
 30
0.0
 10
83.67775198645904
 20
-131.3652804576101
 30
0.0
 10
83.67775198645904
 20
-131.3652804576101
 30
0.0
 10
83.67775198645904
 20
-131.2529703447909
 30
0.0
 10
83.67775198645904
 20
-131.2529703447909
 30
0.0
 10
83.67775198645904
 20
-131.2529703447909
 30
0.0
 10
83.54649384847102
 20
-131.2533148543395
 30
0.0
 10
83.54649384847102
 20
-131.2533148543395
 30
0.0
 10
83.4662231236647
 20
-131.2533148543395
 30
0.0
 10
83.32015107509011
 20
-131.2577934784703
 30
0.0
 10
83.24832083422264
 20
-131.2598605357614
 30
0.0
 10
83.2503878915138
 20
-131.2343668291706
 30
0.0
 10
83.2545220060961
 20
-131.0820936087225
 30
0.0
 10
83.25434975132184
 20
-131.0610785262625
 30
0.0
 10
83.25434975132184
 20
-131.0610785262625
 30
0.0
 10
83.25434975132184
 20
-130.9212076495614
 30
0.0
 10
83.25434975132184
 20
-130.9212076495614
 30
0.0
 10
83.25434975132184
 20
-130.896058452519
 30
0.0
 10
83.24780406989986
 20
-130.7796142251176
 30
0.0
 10
83.24780406989986
 20
-130.7565320853664
 30
0.0
 10
83.35150144400588
 20
-130.7606661999487
 30
0.0
 10
83.37044946917476
 20
-130.764800314531
 30
0.0
 10
83.54184296956593
 20
-130.7644558049825
 30
0.0
 10
83.54184296956593
 20
-130.7644558049825
 30
0.0
 10
84.00934242691433
 20
-130.764111295434
 30
0.0
 10
84.00934242691433
 20
-130.764111295434
 30
0.0
 10
84.0558512159652
 20
-130.764111295434
 30
0.0
 10
84.25893959482069
 20
-130.757565614012
 30
0.0
 10
84.30131426928926
 20
-130.7554985567209
 30
0.0
 10
84.29924721199811
 20
-130.778580696472
 30
0.0
 10
84.29511309741581
 20
-130.8950249238735
 30
0.0
 10
84.29511309741581
 20
-130.9225856877555
 30
0.0
 10
84.29511309741581
 20
-130.9225856877555
 30
0.0
 10
84.29528535219008
 20
-131.081060080077
 30
0.0
 10
84.29528535219008
 20
-131.081060080077
 30
0.0
 10
84.29528535219008
 20
-131.1275688691278
 30
0.0
 10
84.29752466425549
 20
-131.2143852753561
 30
0.0
 10
84.30183103361205
 20
-131.2588270071159
 30
0.0
 10
84.1812526916283
 20
-131.2526258352424
 30
0.0
 10
84.13043753322087
 20
-131.2526258352424
 30
0.0
 10
84.0310465284714
 20
-131.2526258352424
 30
0.0
 10
84.0310465284714
 20
-131.2526258352424
 30
0.0
 10
83.86809351201909
 20
-131.2529703447909
 30
0.0
 10
83.86809351201909
 20
-131.2529703447909
 30
0.0
 10
83.86809351201909
 20
-131.2529703447909
 30
0.0
 10
83.86826576679336
 20
-131.3649359480615
 30
0.0
 10
83.86826576679336
 20
-131.3649359480615
 30
0.0
 10
83.86826576679336
 20
-131.3649359480615
 30
0.0
 10
84.15799829710286
 20
-131.3649359480615
 30
0.0
 10
84.15799829710286
 20
-131.3649359480615
 30
0.0
 10
84.25962861391774
 20
-131.364591438513
 30
0.0
 10
84.41827526101349
 20
-131.358045757091
 30
0.0
 10
84.51129283911524
 20
-131.358045757091
 30
0.0
 10
84.51129283911524
 20
-131.3942192596862
 30
0.0
 10
84.5073309793072
 20
-131.5485595374254
 30
0.0
 10
84.5073309793072
 20
-131.5802544158897
 30
0.0
  0
POLYLINE
  5
10F
330
109
100
AcDbEntity
  8
_U+30EC_U+30A4_U+30E4_U+30FC 1
370
     0
100
AcDb2dPolyline
 66
     1
 10
0.0
 20
0.0
 30
0.0
  0
VERTEX
  5
110
330
10F
100
AcDbEntity
  8
_U+30EC_U+30A4_U+30E4_U+30FC 1
370
     0
100
AcDbVertex
100
AcDb2dVertex
 10
84.1068386291469
 20
-130.9122504012997
 30
0.0
  0
VERTEX
  5
111
330
10F
100
AcDbEntity
  8
_U+30EC_U+30A4_U+30E4_U+30FC 1
370
     0
100
AcDbVertex
100
AcDb2dVertex
 10
83.43831785023417
 20
-130.9125949108482
 30
0.0
  0
VERTEX
  5
112
330
10F
100
AcDbEntity
  8
_U+30EC_U+30A4_U+30E4_U+30FC 1
370
     0
100
AcDbVertex
100
AcDb2dVertex
 10
83.43849010500844
 20
-131.1031086911826
 30
0.0
  0
VERTEX
  5
113
330
10F
100
AcDbEntity
  8
_U+30EC_U+30A4_U+30E4_U+30FC 1
370
     0
100
AcDbVertex
100
AcDb2dVertex
 10
84.10701088392116
 20
-131.1024196720855
 30
0.0
  0
VERTEX
  5
114
330
10F
100
AcDbEntity
  8
_U+30EC_U+30A4_U+30E4_U+30FC 1
370
     0
100
AcDbVertex
100
AcDb2dVertex
 10
84.1068386291469
 20
-130.9122504012997
 30
0.0
  0
SEQEND
  5
115
330
10F
100
AcDbEntity
  8
_U+30EC_U+30A4_U+30E4_U+30FC 1
370
     0
  0
HATCH
  5
116
330
109
100
AcDbEntity
  8
_U+30EC_U+30A4_U+30E4_U+30FC 1
 62
   179
420
  2234388
100
AcDbHatch
 10
0.0
 20
0.0
 30
0.0
210
0.0
220
0.0
230
1.0
  2
SOLID
 70
     1
 71
     0
 91
        3
 92
        1
 93
        1
 72
     4
 94
        3
 73
     0
 74
     1
 95
      110
 96
      106
 40
0.0
 40
0.0
 40
0.0
 40
0.0
 40
1.0
 40
1.0
 40
1.0
 40
2.0
 40
2.0
 40
2.0
 40
3.0
 40
3.0
 40
3.0
 40
4.0
 40
4.0
 40
4.0
 40
5.0
 40
5.0
 40
5.0
 40
6.0
 40
6.0
 40
6.0
 40
7.0
 40
7.0
 40
7.0
 40
8.0
 40
8.0
 40
8.0
 40
9.0
 40
9.0
 40
9.0
 40
10.0
 40
10.0
 40
10.0
 40
11.0
 40
11.0
 40
11.0
 40
12.0
 40
12.0
 40
12.0
 40
13.0
 40
13.0
 40
13.0
 40
14.0
 40
14.0
 40
14.0
 40
15.0
 40
15.0
 40
15.0
 40
16.0
 40
16.0
 40
16.0
 40
17.0
 40
17.0
 40
17.0
 40
18.0
 40
18.0
 40
18.0
 40
19.0
 40
19.0
 40
19.0
 40
20.0
 40
20.0
 40
20.0
 40
21.0
 40
21.0
 40
21.0
 40
22.0
 40
22.0
 40
22.0
 40
23.0
 40
23.0
 40
23.0
 40
24.0
 40
24.0
 40
24.0
 40
25.0
 40
25.0
 40
25.0
 40
26.0
 40
26.0
 40
26.0
 40
27.0
 40
27.0
 40
27.0
 40
28.0
 40
28.0
 40
28.0
 40
29.0
 40
29.0
 40
29.0
 40
30.0
 40
30.0
 40
30.0
 40
31.0
 40
31.0
 40
31.0
 40
32.0
 40
32.0
 40
32.0
 40
33.0
 40
33.0
 40
33.0
 40
34.0
 40
34.0
 40
34.0
 40
35.0
 40
35.0
 40
35.0
 40
35.0
 10
84.48338756568471
 20
-130.998377788431
 10
84.48562687775012
 20
-130.9625487953844
 10
84.48958873755817
 20
-130.7954616643497
 10
84.48958873755817
 20
-130.7827148110543
 10
84.48958873755817
 20
-130.7827148110543
 10
84.4894164827839
 20
-130.6559352971971
 10
84.4894164827839
 20
-130.6559352971971
 10
84.4894164827839
 20
-130.6559352971971
 10
83.05315617498324
 20
-130.6569688258427
 10
83.05315617498324
 20
-130.6569688258427
 10
83.05315617498324
 20
-130.6569688258427
 10
83.05315617498324
 20
-130.7585991426576
 10
83.05315617498324
 20
-130.7585991426576
 10
83.05315617498324
 20
-130.8095865558393
 10
83.05539548704866
 20
-130.9005370766499
 10
83.05970185640521
 20
-130.9997558266251
 10
83.05970185640521
 20
-130.9997558266251
 10
82.85454642025859
 20
-131.0001003361736
 10
82.85454642025859
 20
-131.0001003361736
 10
82.85868053484089
 20
-130.9659938908696
 10
82.86712101877976
 20
-130.8626410263121
 10
82.86712101877976
 20
-130.8244004664259
 10
82.86712101877976
 20
-130.8244004664259
 10
82.86694876400549
 20
-130.6721272459778
 10
82.86694876400549
 20
-130.6721272459778
 10
82.86694876400549
 20
-130.6424994248047
 10
82.85833602529236
 20
-130.5112412868166
 10
82.85833602529236
 20
-130.4860920897743
 10
82.86677650923123
 20
-130.4860920897743
 10
83.25813935635561
 20
-130.4960828666815
 10
83.2898342348199
 20
-130.4960828666815
 10
83.21783173917818
 20
-130.3947970594152
 10
83.1690836380619
 20
-130.3524223849466
 10
83.11826847965446
 20
-130.3121147677692
 10
83.11826847965446
 20
-130.3121147677692
 10
83.26210121616364
 20
-130.1956705403678
 10
83.26210121616364
 20
-130.1956705403678
 10
83.34254419574422
 20
-130.2528591254229
 10
83.40179983809053
 20
-130.3097032009295
 10
83.47604164579766
 20
-130.4240803710398
 10
83.47604164579766
 20
-130.4240803710398
 10
83.3807847556305
 20
-130.4981499239727
 10
83.3807847556305
 20
-130.4981499239727
 10
83.3807847556305
 20
-130.4981499239727
 10
83.4359062833945
 20
-130.4981499239727
 10
83.4359062833945
 20
-130.4981499239727
 10
83.4359062833945
 20
-130.4981499239727
 10
83.67706296736199
 20
-130.4978054144242
 10
83.67706296736199
 20
-130.4978054144242
 10
83.67706296736199
 20
-130.4978054144242
 10
83.67689071258772
 20
-130.4364827147867
 10
83.67689071258772
 20
-130.4364827147867
 10
83.67689071258772
 20
-130.3496663085584
 10
83.67258434323116
 20
-130.2652614691698
 10
83.66603866180918
 20
-130.1784450629415
 10
83.66603866180918
 20
-130.1784450629415
 10
83.86705998337352
 20
-130.1994601454015
 10
83.86705998337352
 20
-130.1994601454015
 10
83.92631562571981
 20
-130.205661317275
 10
83.93268905236752
 20
-130.205661317275
 10
83.93268905236752
 20
-130.2290879665747
 10
83.93268905236752
 20
-130.2439018771612
 10
83.89462074725552
 20
-130.2714626410433
 10
83.87360566479549
 20
-130.2862765516298
 10
83.87153860750435
 20
-130.3410535698453
 10
83.86723223814778
 20
-130.3961750976093
 10
83.86740449292205
 20
-130.4488850585336
 10
83.86740449292205
 20
-130.4488850585336
 10
83.86740449292205
 20
-130.4978054144242
 10
83.86740449292205
 20
-130.4978054144242
 10
83.86740449292205
 20
-130.4978054144242
 10
84.14662948200154
 20
-130.4974609048757
 10
84.14662948200154
 20
-130.4974609048757
 10
84.14662948200154
 20
-130.4974609048757
 10
84.04930553454324
 20
-130.4320040906559
 10
84.04930553454324
 20
-130.4320040906559
 10
84.1316433166407
 20
-130.351388856301
 10
84.17608504840042
 20
-130.2859320420813
 10
84.20984698415587
 20
-130.1949815212707
 10
84.20984698415587
 20
-130.1949815212707
 10
84.39192028055133
 20
-130.2876545898239
 10
84.39192028055133
 20
-130.2876545898239
 10
84.40242782178134
 20
-130.2921332139547
 10
84.41930878965907
 20
-130.3045355577017
 10
84.41930878965907
 20
-130.3217610351279
 10
84.41948104443333
 20
-130.351388856301
 10
84.38554685390362
 20
-130.351388856301
 10
84.34317217943504
 20
-130.3534559135922
 10
84.30303681703188
 20
-130.4209797851031
 10
84.28615584915416
 20
-130.4485405489851
 10
84.2482597988164
 20
-130.4974609048757
 10
84.54849987035594
 20
-130.4905707139051
 10
84.58656817546795
 20
-130.4905707139051
 10
84.68389212292625
 20
-130.4864365993228
 10
84.68182506563511
 20
-130.5243326496606
 10
84.67769095105281
 20
-130.6176947373109
 10
84.67769095105281
 20
-130.6555907876486
 10
84.67769095105281
 20
-130.6555907876486
 10
84.67786320582707
 20
-130.8247449759744
 10
84.67786320582707
 20
-130.8247449759744
 10
84.67803546060132
 20
-130.8777994464472
 10
84.68010251789248
 20
-130.9391221460847
 10
84.68647594454019
 20
-130.998377788431
 10
84.68647594454019
 20
-130.998377788431
 10
84.48338756568471
 20
-130.998377788431
 10
84.48338756568471
 20
-130.998377788431
 97
        0
 97
        0
 92
        1
 93
        1
 72
     4
 94
        3
 73
     0
 74
     1
 95
      131
 96
      127
 40
0.0
 40
0.0
 40
0.0
 40
0.0
 40
1.0
 40
1.0
 40
1.0
 40
2.0
 40
2.0
 40
2.0
 40
3.0
 40
3.0
 40
3.0
 40
4.0
 40
4.0
 40
4.0
 40
5.0
 40
5.0
 40
5.0
 40
6.0
 40
6.0
 40
6.0
 40
7.0
 40
7.0
 40
7.0
 40
8.0
 40
8.0
 40
8.0
 40
9.0
 40
9.0
 40
9.0
 40
10.0
 40
10.0
 40
10.0
 40
11.0
 40
11.0
 40
11.0
 40
12.0
 40
12.0
 40
12.0
 40
13.0
 40
13.0
 40
13.0
 40
14.0
 40
14.0
 40
14.0
 40
15.0
 40
15.0
 40
15.0
 40
16.0
 40
16.0
 40
16.0
 40
17.0
 40
17.0
 40
17.0
 40
18.0
 40
18.0
 40
18.0
 40
19.0
 40
19.0
 40
19.0
 40
20.0
 40
20.0
 40
20.0
 40
21.0
 40
21.0
 40
21.0
 40
22.0
 40
22.0
 40
22.0
 40
23.0
 40
23.0
 40
23.0
 40
24.0
 40
24.0
 40
24.0
 40
25.0
 40
25.0
 40
25.0
 40
26.0
 40
26.0
 40
26.0
 40
27.0
 40
27.0
 40
27.0
 40
28.0
 40
28.0
 40
28.0
 40
29.0
 40
29.0
 40
29.0
 40
30.0
 40
30.0
 40
30.0
 40
31.0
 40
31.0
 40
31.0
 40
32.0
 40
32.0
 40
32.0
 40
33.0
 40
33.0
 40
33.0
 40
34.0
 40
34.0
 40
34.0
 40
35.0
 40
35.0
 40
35.0
 40
36.0
 40
36.0
 40
36.0
 40
37.0
 40
37.0
 40
37.0
 40
38.0
 40
38.0
 40
38.0
 40
39.0
 40
39.0
 40
39.0
 40
40.0
 40
40.0
 40
40.0
 40
41.0
 40
41.0
 40
41.0
 40
42.0
 40
42.0
 40
42.0
 40
42.0
 10
84.5073309793072
 20
-131.5802544158897
 10
84.5073309793072
 20
-131.5802544158897
 10
84.50957029137261
 20
-131.7535427187977
 10
84.50957029137261
 20
-131.7535427187977
 10
84.50957029137261
 20
-131.7535427187977
 10
84.50974254614687
 20
-131.8720540034903
 10
84.50974254614687
 20
-131.8720540034903
 10
84.50974254614687
 20
-132.0074462560606
 10
84.38916420416312
 20
-132.0226046761958
 10
84.27926565818366
 20
-132.0226046761958
 10
84.2115695318985
 20
-132.0226046761958
 10
84.19038219466421
 20
-132.0205376189046
 10
84.15868731619992
 20
-132.0164035043223
 10
84.15868731619992
 20
-132.0164035043223
 10
84.08220619642736
 20
-131.804874641528
 10
84.08220619642736
 20
-131.804874641528
 10
84.13508841212595
 20
-131.8176214948234
 10
84.20502385047652
 20
-131.8345024627011
 10
84.24102509829738
 20
-131.8345024627011
 10
84.30441485522599
 20
-131.8341579531526
 10
84.30854896980829
 20
-131.8069416988191
 10
84.30854896980829
 20
-131.7115125538777
 10
84.30854896980829
 20
-131.7115125538777
 10
84.30837671503402
 20
-131.5168646589611
 10
84.30837671503402
 20
-131.5168646589611
 10
84.30837671503402
 20
-131.5168646589611
 10
83.86826576679336
 20
-131.5172091685096
 10
83.86826576679336
 20
-131.5172091685096
 10
83.86826576679336
 20
-131.5172091685096
 10
83.86843802156761
 20
-131.6105712561599
 10
83.86843802156761
 20
-131.6105712561599
 10
83.86843802156761
 20
-131.640199077333
 10
83.87067733363303
 20
-131.6739610130885
 10
83.87067733363303
 20
-131.6867078663839
 10
83.88359644170272
 20
-131.9257974930602
 10
83.88359644170272
 20
-131.9509466901025
 10
83.88790281105928
 20
-132.1011528532594
 10
83.88790281105928
 20
-132.1011528532594
 10
83.6572536683218
 20
-132.101497362808
 10
83.6572536683218
 20
-132.101497362808
 10
83.66156003767837
 20
-132.046375835044
 10
83.67809649600757
 20
-131.6656927839239
 10
83.67809649600757
 20
-131.6064371415776
 10
83.67809649600757
 20
-131.6064371415776
 10
83.6779242412333
 20
-131.5175536780581
 10
83.6779242412333
 20
-131.5175536780581
 10
83.6779242412333
 20
-131.5175536780581
 10
83.24849308899691
 20
-131.5178981876066
 10
83.24849308899691
 20
-131.5178981876066
 10
83.24849308899691
 20
-131.5178981876066
 10
83.24866534377117
 20
-131.7084119679409
 10
83.24866534377117
 20
-131.7084119679409
 10
83.24866534377117
 20
-131.7549207569918
 10
83.26158445184086
 20
-131.9599039383642
 10
83.26382376390627
 20
-132.0022786128328
 10
83.26382376390627
 20
-132.0022786128328
 10
83.0331746211688
 20
-132.0026231223813
 10
83.0331746211688
 20
-132.0026231223813
 10
83.0373087357511
 20
-131.9602484479127
 10
83.04988333427225
 20
-131.7824815208738
 10
83.04988333427225
 20
-131.7487195851184
 10
83.04988333427225
 20
-131.7487195851184
 10
83.049711079498
 20
-131.5730197153706
 10
83.049711079498
 20
-131.5730197153706
 10
83.049711079498
 20
-131.5351236650329
 10
83.04316539807601
 20
-131.4228135522137
 10
83.04109834078487
 20
-131.3532226234117
 10
83.08760712983575
 20
-131.3552896807028
 10
83.39215357073182
 20
-131.3656249671586
 10
83.41334090796612
 20
-131.3656249671586
 10
83.41334090796612
 20
-131.3656249671586
 10
83.67775198645904
 20
-131.3652804576101
 10
83.67775198645904
 20
-131.3652804576101
 10
83.67775198645904
 20
-131.3652804576101
 10
83.67775198645904
 20
-131.2529703447909
 10
83.67775198645904
 20
-131.2529703447909
 10
83.67775198645904
 20
-131.2529703447909
 10
83.54649384847102
 20
-131.2533148543395
 10
83.54649384847102
 20
-131.2533148543395
 10
83.4662231236647
 20
-131.2533148543395
 10
83.32015107509011
 20
-131.2577934784703
 10
83.24832083422264
 20
-131.2598605357614
 10
83.2503878915138
 20
-131.2343668291706
 10
83.2545220060961
 20
-131.0820936087225
 10
83.25434975132184
 20
-131.0610785262625
 10
83.25434975132184
 20
-131.0610785262625
 10
83.25434975132184
 20
-130.9212076495614
 10
83.25434975132184
 20
-130.9212076495614
 10
83.25434975132184
 20
-130.896058452519
 10
83.24780406989986
 20
-130.7796142251176
 10
83.24780406989986
 20
-130.7565320853664
 10
83.35150144400588
 20
-130.7606661999487
 10
83.37044946917476
 20
-130.764800314531
 10
83.54184296956593
 20
-130.7644558049825
 10
83.54184296956593
 20
-130.7644558049825
 10
84.00934242691433
 20
-130.764111295434
 10
84.00934242691433
 20
-130.764111295434
 10
84.0558512159652
 20
-130.764111295434
 10
84.25893959482069
 20
-130.757565614012
 10
84.30131426928926
 20
-130.7554985567209
 10
84.29924721199811
 20
-130.778580696472
 10
84.29511309741581
 20
-130.8950249238735
 10
84.29511309741581
 20
-130.9225856877555
 10
84.29511309741581
 20
-130.9225856877555
 10
84.29528535219008
 20
-131.081060080077
 10
84.29528535219008
 20
-131.081060080077
 10
84.29528535219008
 20
-131.1275688691278
 10
84.29752466425549
 20
-131.2143852753561
 10
84.30183103361205
 20
-131.2588270071159
 10
84.1812526916283
 20
-131.2526258352424
 10
84.13043753322087
 20
-131.2526258352424
 10
84.0310465284714
 20
-131.2526258352424
 10
84.0310465284714
 20
-131.2526258352424
 10
83.86809351201909
 20
-131.2529703447909
 10
83.86809351201909
 20
-131.2529703447909
 10
83.86809351201909
 20
-131.2529703447909
 10
83.86826576679336
 20
-131.3649359480615
 10
83.86826576679336
 20
-131.3649359480615
 10
83.86826576679336
 20
-131.3649359480615
 10
84.15799829710286
 20
-131.3649359480615
 10
84.15799829710286
 20
-131.3649359480615
 10
84.25962861391774
 20
-131.364591438513
 10
84.41827526101349
 20
-131.358045757091
 10
84.51129283911524
 20
-131.358045757091
 10
84.51129283911524
 20
-131.3942192596862
 10
84.5073309793072
 20
-131.5485595374254
 10
84.5073309793072
 20
-131.5802544158897
 97
        0
 97
        0
 92
        1
 93
        4
 72
     1
 10
84.1068386291469
 20
-130.9122504012997
 11
83.43831785023417
 21
-130.9125949108482
 72
     1
 10
83.43831785023417
 20
-130.9125949108482
 11
83.43849010500844
 21
-131.1031086911826
 72
     1
 10
83.43849010500844
 20
-131.1031086911826
 11
84.10701088392116
 21
-131.1024196720855
 72
     1
 10
84.10701088392116
 20
-131.1024196720855
 11
84.1068386291469
 21
-130.9122504012997
 97
        0
 75
     2
 76
     1
 98
        0
  0
SPLINE
  5
117
330
109
100
AcDbEntity
  8
_U+30EC_U+30A4_U+30E4_U+30FC 1
370
     0
100
AcDbSpline
210
0.0
220
0.0
230
1.0
 70
    11
 71
     3
 72
    26
 73
    22
 74
     0
 42
0.0000000001
 43
0.0000000001
 12
1.0
 22
0.0
 32
0.0
 13
1.0
 23
0.0
 33
0.0
 40
0.0
 40
0.0
 40
0.0
 40
0.0
 40
1.0
 40
1.0
 40
1.0
 40
2.0
 40
2.0
 40
2.0
 40
3.0
 40
3.0
 40
3.0
 40
4.0
 40
4.0
 40
4.0
 40
5.0
 40
5.0
 40
5.0
 40
6.0
 40
6.0
 40
6.0
 40
7.0
 40
7.0
 40
7.0
 40
7.0
 10
85.34810653248242
 20
-131.4017984697537
 30
0.0
 10
85.2700751197415
 20
-131.7232258785275
 30
0.0
 10
85.25112709457264
 20
-131.7952283741693
 30
0.0
 10
85.12434758071545
 20
-131.9647270720436
 30
0.0
 10
85.12434758071545
 20
-131.9647270720436
 30
0.0
 10
84.90213892191683
 20
-131.9078829965369
 30
0.0
 10
84.90213892191683
 20
-131.9078829965369
 30
0.0
 10
85.0015299266663
 20
-131.7680121198358
 30
0.0
 10
85.05647919965602
 20
-131.6453667205609
 30
0.0
 10
85.07112085546834
 20
-131.6071261606746
 30
0.0
 10
85.1071221032892
 20
-131.5182426971552
 30
0.0
 10
85.14915226820925
 20
-131.3490885088294
 30
0.0
 10
85.1534586375658
 20
-131.2770860131877
 30
0.0
 10
85.1534586375658
 20
-131.2770860131877
 30
0.0
 10
85.36929386971671
 20
-131.3404757701163
 30
0.0
 10
85.36929386971671
 20
-131.3404757701163
 30
0.0
 10
85.39892169088985
 20
-131.3487439992809
 30
0.0
 10
85.40736217482872
 20
-131.350811056572
 30
0.0
 10
85.40736217482872
 20
-131.3676920244498
 30
0.0
 10
85.40736217482872
 20
-131.3911186737494
 30
0.0
 10
85.37136092700786
 20
-131.3976643551714
 30
0.0
 10
85.34810653248242
 20
-131.4017984697537
 30
0.0
  0
SPLINE
  5
118
330
109
100
AcDbEntity
  8
_U+30EC_U+30A4_U+30E4_U+30FC 1
370
     0
100
AcDbSpline
210
0.0
220
0.0
230
1.0
 70
    11
 71
     3
 72
    89
 73
    85
 74
     0
 42
0.0000000001
 43
0.0000000001
 12
1.0
 22
0.0
 32
0.0
 13
1.0
 23
0.0
 33
0.0
 40
0.0
 40
0.0
 40
0.0
 40
0.0
 40
1.0
 40
1.0
 40
1.0
 40
2.0
 40
2.0
 40
2.0
 40
3.0
 40
3.0
 40
3.0
 40
4.0
 40
4.0
 40
4.0
 40
5.0
 40
5.0
 40
5.0
 40
6.0
 40
6.0
 40
6.0
 40
7.0
 40
7.0
 40
7.0
 40
8.0
 40
8.0
 40
8.0
 40
9.0
 40
9.0
 40
9.0
 40
10.0
 40
10.0
 40
10.0
 40
11.0
 40
11.0
 40
11.0
 40
12.0
 40
12.0
 40
12.0
 40
13.0
 40
13.0
 40
13.0
 40
14.0
 40
14.0
 40
14.0
 40
15.0
 40
15.0
 40
15.0
 40
16.0
 40
16.0
 40
16.0
 40
17.0
 40
17.0
 40
17.0
 40
18.0
 40
18.0
 40
18.0
 40
19.0
 40
19.0
 40
19.0
 40
20.0
 40
20.0
 40
20.0
 40
21.0
 40
21.0
 40
21.0
 40
22.0
 40
22.0
 40
22.0
 40
23.0
 40
23.0
 40
23.0
 40
24.0
 40
24.0
 40
24.0
 40
25.0
 40
25.0
 40
25.0
 40
26.0
 40
26.0
 40
26.0
 40
27.0
 40
27.0
 40
27.0
 40
28.0
 40
28.0
 40
28.0
 40
28.0
 10
86.30153670802531
 20
-130.6456000107414
 30
0.0
 10
86.30153670802531
 20
-130.7176025063831
 30
0.0
 10
86.30791013467302
 20
-130.785126377894
 30
0.0
 10
86.31221650402959
 20
-130.8381808483668
 30
0.0
 10
86.31221650402959
 20
-130.8381808483668
 30
0.0
 10
86.09655352665295
 20
-130.8381808483668
 30
0.0
 10
86.09655352665295
 20
-130.8381808483668
 30
0.0
 10
86.1027546985264
 20
-130.7875379447337
 30
0.0
 10
86.10912812517411
 20
-130.7200140732228
 30
0.0
 10
86.10895587039985
 20
-130.6459445202899
 30
0.0
 10
86.10895587039985
 20
-130.6459445202899
 30
0.0
 10
85.64989689699031
 20
-130.6462890298384
 30
0.0
 10
85.64989689699031
 20
-130.6462890298384
 30
0.0
 10
85.65006915176457
 20
-130.7182915254802
 30
0.0
 10
85.65420326634687
 20
-130.7627332572399
 30
0.0
 10
85.66281600506
 20
-130.8388698674639
 30
0.0
 10
85.66281600506
 20
-130.8388698674639
 30
0.0
 10
85.43647323167907
 20
-130.8388698674639
 30
0.0
 10
85.43647323167907
 20
-130.8388698674639
 30
0.0
 10
85.44698077290909
 20
-130.7627332572399
 30
0.0
 10
85.45542125684796
 20
-130.695209385729
 30
0.0
 10
85.45524900207369
 20
-130.6462890298384
 30
0.0
 10
85.28178844439137
 20
-130.646633539387
 30
0.0
 10
85.10626082941788
 20
-130.6531792208089
 30
0.0
 10
84.93280027173556
 20
-130.6638590168132
 30
0.0
 10
84.93280027173556
 20
-130.6638590168132
 30
0.0
 10
84.93262801696129
 20
-130.4564642686012
 30
0.0
 10
84.93262801696129
 20
-130.4564642686012
 30
0.0
 10
85.10608857464362
 20
-130.4667995550569
 30
0.0
 10
85.2816161896171
 20
-130.4730007269304
 30
0.0
 10
85.45507674729943
 20
-130.4730007269304
 30
0.0
 10
85.45507674729943
 20
-130.4730007269304
 30
0.0
 10
85.45507674729943
 20
-130.4030652885798
 30
0.0
 10
85.45507674729943
 20
-130.4030652885798
 30
0.0
 10
85.45507674729943
 20
-130.3672362955332
 30
0.0
 10
85.44853106587746
 20
-130.2084173936632
 30
0.0
 10
85.4464640085863
 20
-130.1725884006166
 30
0.0
 10
85.4464640085863
 20
-130.1725884006166
 30
0.0
 10
85.66436629802836
 20
-130.1936034830766
 30
0.0
 10
85.66436629802836
 20
-130.1936034830766
 30
0.0
 10
85.68762069255379
 20
-130.1956705403678
 30
0.0
 10
85.70450166043152
 20
-130.19980465495
 30
0.0
 10
85.70450166043152
 20
-130.2187526801189
 30
0.0
 10
85.70450166043152
 20
-130.2380452148363
 30
0.0
 10
85.68762069255379
 20
-130.2463134440009
 30
0.0
 10
85.65385875679834
 20
-130.2656059787183
 30
0.0
 10
85.6517916995072
 20
-130.2886881184695
 30
0.0
 10
85.64972464221604
 20
-130.3965196071578
 30
0.0
 10
85.64972464221604
 20
-130.405132345871
 30
0.0
 10
85.64972464221604
 20
-130.405132345871
 30
0.0
 10
85.64972464221604
 20
-130.4726562173819
 30
0.0
 10
85.64972464221604
 20
-130.4726562173819
 30
0.0
 10
85.64972464221604
 20
-130.4726562173819
 30
0.0
 10
86.10878361562558
 20
-130.4723117078333
 30
0.0
 10
86.10878361562558
 20
-130.4723117078333
 30
0.0
 10
86.10878361562558
 20
-130.4723117078333
 30
0.0
 10
86.10878361562558
 20
-130.3834282443139
 30
0.0
 10
86.10878361562558
 20
-130.3834282443139
 30
0.0
 10
86.10878361562558
 20
-130.3410535698453
 30
0.0
 10
86.10430499149476
 20
-130.2163411132792
 30
0.0
 10
86.10223793420361
 20
-130.1739664388107
 30
0.0
 10
86.10223793420361
 20
-130.1739664388107
 30
0.0
 10
86.3116997397068
 20
-130.1929144639795
 30
0.0
 10
86.3116997397068
 20
-130.1929144639795
 30
0.0
 10
86.32651365029338
 20
-130.1949815212707
 30
0.0
 10
86.35183510210996
 20
-130.1970485785619
 30
0.0
 10
86.35183510210996
 20
-130.2159966037307
 30
0.0
 10
86.35183510210996
 20
-130.233222081157
 30
0.0
 10
86.33702119152339
 20
-130.2394232530304
 30
0.0
 10
86.30325925576794
 20
-130.254237163617
 30
0.0
 10
86.30119219847678
 20
-130.3007459526679
 30
0.0
 10
86.30119219847678
 20
-130.3517333658496
 30
0.0
 10
86.30119219847678
 20
-130.3961750976093
 30
0.0
 10
86.30119219847678
 20
-130.3961750976093
 30
0.0
 10
86.30136445325105
 20
-130.4723117078333
 30
0.0
 10
86.30136445325105
 20
-130.4723117078333
 30
0.0
 10
86.66103242191113
 20
-130.4654215168628
 30
0.0
 10
86.7011677843143
 20
-130.4633544595717
 30
0.0
 10
86.84500052082348
 20
-130.4547417208586
 30
0.0
 10
86.84500052082348
 20
-130.4547417208586
 30
0.0
 10
86.84517277559773
 20
-130.6621364690706
 30
0.0
 10
86.84517277559773
 20
-130.6621364690706
 30
0.0
 10
86.64639076609882
 20
-130.6493896157752
 30
0.0
 10
86.48343774964651
 20
-130.6476670680325
 30
0.0
 10
86.30153670802531
 20
-130.6456000107414
 30
0.0
  0
SPLINE
  5
119
330
109
100
AcDbEntity
  8
_U+30EC_U+30A4_U+30E4_U+30FC 1
370
     0
100
AcDbSpline
210
0.0
220
0.0
230
1.0
 70
    11
 71
     3
 72
    56
 73
    52
 74
     0
 42
0.0000000001
 43
0.0000000001
 12
1.0
 22
0.0
 32
0.0
 13
1.0
 23
0.0
 33
0.0
 40
0.0
 40
0.0
 40
0.0
 40
0.0
 40
1.0
 40
1.0
 40
1.0
 40
2.0
 40
2.0
 40
2.0
 40
3.0
 40
3.0
 40
3.0
 40
4.0
 40
4.0
 40
4.0
 40
5.0
 40
5.0
 40
5.0
 40
6.0
 40
6.0
 40
6.0
 40
7.0
 40
7.0
 40
7.0
 40
8.0
 40
8.0
 40
8.0
 40
9.0
 40
9.0
 40
9.0
 40
10.0
 40
10.0
 40
10.0
 40
11.0
 40
11.0
 40
11.0
 40
12.0
 40
12.0
 40
12.0
 40
13.0
 40
13.0
 40
13.0
 40
14.0
 40
14.0
 40
14.0
 40
15.0
 40
15.0
 40
15.0
 40
16.0
 40
16.0
 40
16.0
 40
17.0
 40
17.0
 40
17.0
 40
17.0
 10
86.39369301225575
 20
-131.8830783090431
 30
0.0
 10
86.34511716591372
 20
-132.0439642682043
 30
0.0
 10
86.29223495021515
 20
-132.0777262039597
 30
0.0
 10
86.15270858306252
 20
-132.0780707135083
 30
0.0
 10
86.15270858306252
 20
-132.0780707135083
 30
0.0
 10
85.8056152129236
 20
-132.0784152230568
 30
0.0
 10
85.8056152129236
 20
-132.0784152230568
 30
0.0
 10
85.67022296035329
 20
-132.0784152230568
 30
0.0
 10
85.61958005672011
 20
-132.0784152230568
 30
0.0
 10
85.57513832496039
 20
-132.0277723194236
 30
0.0
 10
85.52415091177869
 20
-131.9685166770773
 30
0.0
 10
85.52415091177869
 20
-131.9199408307353
 30
0.0
 10
85.52397865700442
 20
-131.7314941076921
 30
0.0
 10
85.52397865700442
 20
-131.7314941076921
 30
0.0
 10
85.52380640223016
 20
-131.4417615773826
 30
0.0
 10
85.52380640223016
 20
-131.4417615773826
 30
0.0
 10
85.5236341474559
 20
-131.3742377058717
 30
0.0
 10
85.51932777809934
 20
-131.2092176321283
 30
0.0
 10
85.51708846603393
 20
-131.1454833656511
 30
0.0
 10
85.51708846603393
 20
-131.1454833656511
 30
0.0
 10
85.73929712483255
 20
-131.1751111868243
 30
0.0
 10
85.73929712483255
 20
-131.1751111868243
 30
0.0
 10
85.76255151935797
 20
-131.1771782441154
 30
0.0
 10
85.7794324872357
 20
-131.1833794159889
 30
0.0
 10
85.7794324872357
 20
-131.1981933265754
 30
0.0
 10
85.7794324872357
 20
-131.219552918584
 30
0.0
 10
85.76048446206683
 20
-131.2278211477486
 30
0.0
 10
85.73085664089368
 20
-131.240568001044
 30
0.0
 10
85.72878958360253
 20
-131.3039577579726
 30
0.0
 10
85.72465546902023
 20
-131.3187716685592
 30
0.0
 10
85.72465546902023
 20
-131.4541639211295
 30
0.0
 10
85.72465546902023
 20
-131.4541639211295
 30
0.0
 10
85.72499997856876
 20
-131.799017979203
 30
0.0
 10
85.72499997856876
 20
-131.799017979203
 30
0.0
 10
85.72517223334302
 20
-131.8772216467182
 30
0.0
 10
85.74842662786845
 20
-131.8965141814356
 30
0.0
 10
85.85212400197447
 20
-131.8961696718871
 30
0.0
 10
85.85212400197447
 20
-131.8961696718871
 30
0.0
 10
86.06571992205997
 20
-131.8961696718871
 30
0.0
 10
86.06571992205997
 20
-131.8961696718871
 30
0.0
 10
86.1546033855794
 20
-131.8961696718871
 30
0.0
 10
86.16717798410058
 20
-131.8748100798785
 30
0.0
 10
86.17785778010484
 20
-131.8493163732877
 30
0.0
 10
86.20955265856914
 20
-131.7752468203548
 30
0.0
 10
86.2157538304426
 20
-131.661214159793
 30
0.0
 10
86.21782088773374
 20
-131.6274522240376
 30
0.0
 10
86.21782088773374
 20
-131.6274522240376
 30
0.0
 10
86.42952200530235
 20
-131.7435519418905
 30
0.0
 10
86.42952200530235
 20
-131.7435519418905
 30
0.0
 10
86.42314857865463
 20
-131.7666340816417
 30
0.0
 10
86.3998941841292
 20
-131.8641302838743
 30
0.0
 10
86.39369301225575
 20
-131.8830783090431
 30
0.0
  0
SPLINE
  5
11A
330
109
100
AcDbEntity
  8
_U+30EC_U+30A4_U+30E4_U+30FC 1
370
     0
100
AcDbSpline
210
0.0
220
0.0
230
1.0
 70
    11
 71
     3
 72
    17
 73
    13
 74
     0
 42
0.0000000001
 43
0.0000000001
 12
1.0
 22
0.0
 32
0.0
 13
1.0
 23
0.0
 33
0.0
 40
0.0
 40
0.0
 40
0.0
 40
0.0
 40
1.0
 40
1.0
 40
1.0
 40
2.0
 40
2.0
 40
2.0
 40
3.0
 40
3.0
 40
3.0
 40
4.0
 40
4.0
 40
4.0
 40
4.0
 10
85.97235783440969
 20
-131.5406358178093
 30
0.0
 10
85.93618433181457
 20
-131.2825981659641
 30
0.0
 10
85.82800833357773
 20
-131.0903618378871
 30
0.0
 10
85.80682099634343
 20
-131.0545328448405
 30
0.0
 10
85.80682099634343
 20
-131.0545328448405
 30
0.0
 10
85.99716252190349
 20
-131.00561248895
 30
0.0
 10
85.99716252190349
 20
-131.00561248895
 30
0.0
 10
86.03540308178977
 20
-131.0731363604609
 30
0.0
 10
86.08415118290606
 20
-131.1640868812715
 30
0.0
 10
86.16683347455205
 20
-131.4496852969987
 30
0.0
 10
86.16683347455205
 20
-131.4496852969987
 30
0.0
 10
85.97235783440969
 20
-131.5406358178093
 30
0.0
 10
85.97235783440969
 20
-131.5406358178093
 30
0.0
  0
SPLINE
  5
11B
330
109
100
AcDbEntity
  8
_U+30EC_U+30A4_U+30E4_U+30FC 1
370
     0
100
AcDbSpline
210
0.0
220
0.0
230
1.0
 70
    11
 71
     3
 72
    23
 73
    19
 74
     0
 42
0.0000000001
 43
0.0000000001
 12
1.0
 22
0.0
 32
0.0
 13
1.0
 23
0.0
 33
0.0
 40
0.0
 40
0.0
 40
0.0
 40
0.0
 40
1.0
 40
1.0
 40
1.0
 40
2.0
 40
2.0
 40
2.0
 40
3.0
 40
3.0
 40
3.0
 40
4.0
 40
4.0
 40
4.0
 40
5.0
 40
5.0
 40
5.0
 40
6.0
 40
6.0
 40
6.0
 40
6.0
 10
86.65379772139211
 20
-131.8427706918657
 30
0.0
 10
86.61555716150583
 20
-131.7304605790466
 30
0.0
 10
86.58592934033268
 20
-131.6670708221179
 30
0.0
 10
86.52236732862983
 20
-131.5613063907208
 30
0.0
 10
86.46724580086583
 20
-131.4727674367499
 30
0.0
 10
86.40368378916297
 20
-131.3670030053527
 30
0.0
 10
86.34873451617324
 20
-131.301546191133
 30
0.0
 10
86.34873451617324
 20
-131.301546191133
 30
0.0
 10
86.54114309902444
 20
-131.2061170461915
 30
0.0
 10
86.54114309902444
 20
-131.2061170461915
 30
0.0
 10
86.56009112419332
 20
-131.2357448673647
 30
0.0
 10
86.65121389977817
 20
-131.3666584958042
 30
0.0
 10
86.6680948676559
 20
-131.3942192596862
 30
0.0
 10
86.7232163954199
 20
-131.4786240990748
 30
0.0
 10
86.81020505642245
 20
-131.6374430009448
 30
0.0
 10
86.83139239365674
 20
-131.6839517899957
 30
0.0
 10
86.83139239365674
 20
-131.6839517899957
 30
0.0
 10
86.65379772139211
 20
-131.8427706918657
 30
0.0
 10
86.65379772139211
 20
-131.8427706918657
 30
0.0
  0
HATCH
  5
11C
330
109
100
AcDbEntity
  8
_U+30EC_U+30A4_U+30E4_U+30FC 1
 62
   179
420
  2234388
100
AcDbHatch
 10
0.0
 20
0.0
 30
0.0
210
0.0
220
0.0
230
1.0
  2
SOLID
 70
     1
 71
     0
 91
        5
 92
        1
 93
        1
 72
     4
 94
        3
 73
     0
 74
     1
 95
       26
 96
       22
 40
0.0
 40
0.0
 40
0.0
 40
0.0
 40
1.0
 40
1.0
 40
1.0
 40
2.0
 40
2.0
 40
2.0
 40
3.0
 40
3.0
 40
3.0
 40
4.0
 40
4.0
 40
4.0
 40
5.0
 40
5.0
 40
5.0
 40
6.0
 40
6.0
 40
6.0
 40
7.0
 40
7.0
 40
7.0
 40
7.0
 10
85.34810653248242
 20
-131.4017984697537
 10
85.2700751197415
 20
-131.7232258785275
 10
85.25112709457264
 20
-131.7952283741693
 10
85.12434758071545
 20
-131.9647270720436
 10
85.12434758071545
 20
-131.9647270720436
 10
84.90213892191683
 20
-131.9078829965369
 10
84.90213892191683
 20
-131.9078829965369
 10
85.0015299266663
 20
-131.7680121198358
 10
85.05647919965602
 20
-131.6453667205609
 10
85.07112085546834
 20
-131.6071261606746
 10
85.1071221032892
 20
-131.5182426971552
 10
85.14915226820925
 20
-131.3490885088294
 10
85.1534586375658
 20
-131.2770860131877
 10
85.1534586375658
 20
-131.2770860131877
 10
85.36929386971671
 20
-131.3404757701163
 10
85.36929386971671
 20
-131.3404757701163
 10
85.39892169088985
 20
-131.3487439992809
 10
85.40736217482872
 20
-131.350811056572
 10
85.40736217482872
 20
-131.3676920244498
 10
85.40736217482872
 20
-131.3911186737494
 10
85.37136092700786
 20
-131.3976643551714
 10
85.34810653248242
 20
-131.4017984697537
 97
        0
 97
        0
 92
        1
 93
        1
 72
     4
 94
        3
 73
     0
 74
     1
 95
       89
 96
       85
 40
0.0
 40
0.0
 40
0.0
 40
0.0
 40
1.0
 40
1.0
 40
1.0
 40
2.0
 40
2.0
 40
2.0
 40
3.0
 40
3.0
 40
3.0
 40
4.0
 40
4.0
 40
4.0
 40
5.0
 40
5.0
 40
5.0
 40
6.0
 40
6.0
 40
6.0
 40
7.0
 40
7.0
 40
7.0
 40
8.0
 40
8.0
 40
8.0
 40
9.0
 40
9.0
 40
9.0
 40
10.0
 40
10.0
 40
10.0
 40
11.0
 40
11.0
 40
11.0
 40
12.0
 40
12.0
 40
12.0
 40
13.0
 40
13.0
 40
13.0
 40
14.0
 40
14.0
 40
14.0
 40
15.0
 40
15.0
 40
15.0
 40
16.0
 40
16.0
 40
16.0
 40
17.0
 40
17.0
 40
17.0
 40
18.0
 40
18.0
 40
18.0
 40
19.0
 40
19.0
 40
19.0
 40
20.0
 40
20.0
 40
20.0
 40
21.0
 40
21.0
 40
21.0
 40
22.0
 40
22.0
 40
22.0
 40
23.0
 40
23.0
 40
23.0
 40
24.0
 40
24.0
 40
24.0
 40
25.0
 40
25.0
 40
25.0
 40
26.0
 40
26.0
 40
26.0
 40
27.0
 40
27.0
 40
27.0
 40
28.0
 40
28.0
 40
28.0
 40
28.0
 10
86.30153670802531
 20
-130.6456000107414
 10
86.30153670802531
 20
-130.7176025063831
 10
86.30791013467302
 20
-130.785126377894
 10
86.31221650402959
 20
-130.8381808483668
 10
86.31221650402959
 20
-130.8381808483668
 10
86.09655352665295
 20
-130.8381808483668
 10
86.09655352665295
 20
-130.8381808483668
 10
86.1027546985264
 20
-130.7875379447337
 10
86.10912812517411
 20
-130.7200140732228
 10
86.10895587039985
 20
-130.6459445202899
 10
86.10895587039985
 20
-130.6459445202899
 10
85.64989689699031
 20
-130.6462890298384
 10
85.64989689699031
 20
-130.6462890298384
 10
85.65006915176457
 20
-130.7182915254802
 10
85.65420326634687
 20
-130.7627332572399
 10
85.66281600506
 20
-130.8388698674639
 10
85.66281600506
 20
-130.8388698674639
 10
85.43647323167907
 20
-130.8388698674639
 10
85.43647323167907
 20
-130.8388698674639
 10
85.44698077290909
 20
-130.7627332572399
 10
85.45542125684796
 20
-130.695209385729
 10
85.45524900207369
 20
-130.6462890298384
 10
85.28178844439137
 20
-130.646633539387
 10
85.10626082941788
 20
-130.6531792208089
 10
84.93280027173556
 20
-130.6638590168132
 10
84.93280027173556
 20
-130.6638590168132
 10
84.93262801696129
 20
-130.4564642686012
 10
84.93262801696129
 20
-130.4564642686012
 10
85.10608857464362
 20
-130.4667995550569
 10
85.2816161896171
 20
-130.4730007269304
 10
85.45507674729943
 20
-130.4730007269304
 10
85.45507674729943
 20
-130.4730007269304
 10
85.45507674729943
 20
-130.4030652885798
 10
85.45507674729943
 20
-130.4030652885798
 10
85.45507674729943
 20
-130.3672362955332
 10
85.44853106587746
 20
-130.2084173936632
 10
85.4464640085863
 20
-130.1725884006166
 10
85.4464640085863
 20
-130.1725884006166
 10
85.66436629802836
 20
-130.1936034830766
 10
85.66436629802836
 20
-130.1936034830766
 10
85.68762069255379
 20
-130.1956705403678
 10
85.70450166043152
 20
-130.19980465495
 10
85.70450166043152
 20
-130.2187526801189
 10
85.70450166043152
 20
-130.2380452148363
 10
85.68762069255379
 20
-130.2463134440009
 10
85.65385875679834
 20
-130.2656059787183
 10
85.6517916995072
 20
-130.2886881184695
 10
85.64972464221604
 20
-130.3965196071578
 10
85.64972464221604
 20
-130.405132345871
 10
85.64972464221604
 20
-130.405132345871
 10
85.64972464221604
 20
-130.4726562173819
 10
85.64972464221604
 20
-130.4726562173819
 10
85.64972464221604
 20
-130.4726562173819
 10
86.10878361562558
 20
-130.4723117078333
 10
86.10878361562558
 20
-130.4723117078333
 10
86.10878361562558
 20
-130.4723117078333
 10
86.10878361562558
 20
-130.3834282443139
 10
86.10878361562558
 20
-130.3834282443139
 10
86.10878361562558
 20
-130.3410535698453
 10
86.10430499149476
 20
-130.2163411132792
 10
86.10223793420361
 20
-130.1739664388107
 10
86.10223793420361
 20
-130.1739664388107
 10
86.3116997397068
 20
-130.1929144639795
 10
86.3116997397068
 20
-130.1929144639795
 10
86.32651365029338
 20
-130.1949815212707
 10
86.35183510210996
 20
-130.1970485785619
 10
86.35183510210996
 20
-130.2159966037307
 10
86.35183510210996
 20
-130.233222081157
 10
86.33702119152339
 20
-130.2394232530304
 10
86.30325925576794
 20
-130.254237163617
 10
86.30119219847678
 20
-130.3007459526679
 10
86.30119219847678
 20
-130.3517333658496
 10
86.30119219847678
 20
-130.3961750976093
 10
86.30119219847678
 20
-130.3961750976093
 10
86.30136445325105
 20
-130.4723117078333
 10
86.30136445325105
 20
-130.4723117078333
 10
86.66103242191113
 20
-130.4654215168628
 10
86.7011677843143
 20
-130.4633544595717
 10
86.84500052082348
 20
-130.4547417208586
 10
86.84500052082348
 20
-130.4547417208586
 10
86.84517277559773
 20
-130.6621364690706
 10
86.84517277559773
 20
-130.6621364690706
 10
86.64639076609882
 20
-130.6493896157752
 10
86.48343774964651
 20
-130.6476670680325
 10
86.30153670802531
 20
-130.6456000107414
 97
        0
 97
        0
 92
        1
 93
        1
 72
     4
 94
        3
 73
     0
 74
     1
 95
       56
 96
       52
 40
0.0
 40
0.0
 40
0.0
 40
0.0
 40
1.0
 40
1.0
 40
1.0
 40
2.0
 40
2.0
 40
2.0
 40
3.0
 40
3.0
 40
3.0
 40
4.0
 40
4.0
 40
4.0
 40
5.0
 40
5.0
 40
5.0
 40
6.0
 40
6.0
 40
6.0
 40
7.0
 40
7.0
 40
7.0
 40
8.0
 40
8.0
 40
8.0
 40
9.0
 40
9.0
 40
9.0
 40
10.0
 40
10.0
 40
10.0
 40
11.0
 40
11.0
 40
11.0
 40
12.0
 40
12.0
 40
12.0
 40
13.0
 40
13.0
 40
13.0
 40
14.0
 40
14.0
 40
14.0
 40
15.0
 40
15.0
 40
15.0
 40
16.0
 40
16.0
 40
16.0
 40
17.0
 40
17.0
 40
17.0
 40
17.0
 10
86.39369301225575
 20
-131.8830783090431
 10
86.34511716591372
 20
-132.0439642682043
 10
86.29223495021515
 20
-132.0777262039597
 10
86.15270858306252
 20
-132.0780707135083
 10
86.15270858306252
 20
-132.0780707135083
 10
85.8056152129236
 20
-132.0784152230568
 10
85.8056152129236
 20
-132.0784152230568
 10
85.67022296035329
 20
-132.0784152230568
 10
85.61958005672011
 20
-132.0784152230568
 10
85.57513832496039
 20
-132.0277723194236
 10
85.52415091177869
 20
-131.9685166770773
 10
85.52415091177869
 20
-131.9199408307353
 10
85.52397865700442
 20
-131.7314941076921
 10
85.52397865700442
 20
-131.7314941076921
 10
85.52380640223016
 20
-131.4417615773826
 10
85.52380640223016
 20
-131.4417615773826
 10
85.5236341474559
 20
-131.3742377058717
 10
85.51932777809934
 20
-131.2092176321283
 10
85.51708846603393
 20
-131.1454833656511
 10
85.51708846603393
 20
-131.1454833656511
 10
85.73929712483255
 20
-131.1751111868243
 10
85.73929712483255
 20
-131.1751111868243
 10
85.76255151935797
 20
-131.1771782441154
 10
85.7794324872357
 20
-131.1833794159889
 10
85.7794324872357
 20
-131.1981933265754
 10
85.7794324872357
 20
-131.219552918584
 10
85.76048446206683
 20
-131.2278211477486
 10
85.73085664089368
 20
-131.240568001044
 10
85.72878958360253
 20
-131.3039577579726
 10
85.72465546902023
 20
-131.3187716685592
 10
85.72465546902023
 20
-131.4541639211295
 10
85.72465546902023
 20
-131.4541639211295
 10
85.72499997856876
 20
-131.799017979203
 10
85.72499997856876
 20
-131.799017979203
 10
85.72517223334302
 20
-131.8772216467182
 10
85.74842662786845
 20
-131.8965141814356
 10
85.85212400197447
 20
-131.8961696718871
 10
85.85212400197447
 20
-131.8961696718871
 10
86.06571992205997
 20
-131.8961696718871
 10
86.06571992205997
 20
-131.8961696718871
 10
86.1546033855794
 20
-131.8961696718871
 10
86.16717798410058
 20
-131.8748100798785
 10
86.17785778010484
 20
-131.8493163732877
 10
86.20955265856914
 20
-131.7752468203548
 10
86.2157538304426
 20
-131.661214159793
 10
86.21782088773374
 20
-131.6274522240376
 10
86.21782088773374
 20
-131.6274522240376
 10
86.42952200530235
 20
-131.7435519418905
 10
86.42952200530235
 20
-131.7435519418905
 10
86.42314857865463
 20
-131.7666340816417
 10
86.3998941841292
 20
-131.8641302838743
 10
86.39369301225575
 20
-131.8830783090431
 97
        0
 97
        0
 92
        1
 93
        1
 72
     4
 94
        3
 73
     0
 74
     1
 95
       17
 96
       13
 40
0.0
 40
0.0
 40
0.0
 40
0.0
 40
1.0
 40
1.0
 40
1.0
 40
2.0
 40
2.0
 40
2.0
 40
3.0
 40
3.0
 40
3.0
 40
4.0
 40
4.0
 40
4.0
 40
4.0
 10
85.97235783440969
 20
-131.5406358178093
 10
85.93618433181457
 20
-131.2825981659641
 10
85.82800833357773
 20
-131.0903618378871
 10
85.80682099634343
 20
-131.0545328448405
 10
85.80682099634343
 20
-131.0545328448405
 10
85.99716252190349
 20
-131.00561248895
 10
85.99716252190349
 20
-131.00561248895
 10
86.03540308178977
 20
-131.0731363604609
 10
86.08415118290606
 20
-131.1640868812715
 10
86.16683347455205
 20
-131.4496852969987
 10
86.16683347455205
 20
-131.4496852969987
 10
85.97235783440969
 20
-131.5406358178093
 10
85.97235783440969
 20
-131.5406358178093
 97
        0
 97
        0
 92
        1
 93
        1
 72
     4
 94
        3
 73
     0
 74
     1
 95
       23
 96
       19
 40
0.0
 40
0.0
 40
0.0
 40
0.0
 40
1.0
 40
1.0
 40
1.0
 40
2.0
 40
2.0
 40
2.0
 40
3.0
 40
3.0
 40
3.0
 40
4.0
 40
4.0
 40
4.0
 40
5.0
 40
5.0
 40
5.0
 40
6.0
 40
6.0
 40
6.0
 40
6.0
 10
86.65379772139211
 20
-131.8427706918657
 10
86.61555716150583
 20
-131.7304605790466
 10
86.58592934033268
 20
-131.6670708221179
 10
86.52236732862983
 20
-131.5613063907208
 10
86.46724580086583
 20
-131.4727674367499
 10
86.40368378916297
 20
-131.3670030053527
 10
86.34873451617324
 20
-131.301546191133
 10
86.34873451617324
 20
-131.301546191133
 10
86.54114309902444
 20
-131.2061170461915
 10
86.54114309902444
 20
-131.2061170461915
 10
86.56009112419332
 20
-131.2357448673647
 10
86.65121389977817
 20
-131.3666584958042
 10
86.6680948676559
 20
-131.3942192596862
 10
86.7232163954199
 20
-131.4786240990748
 10
86.81020505642245
 20
-131.6374430009448
 10
86.83139239365674
 20
-131.6839517899957
 10
86.83139239365674
 20
-131.6839517899957
 10
86.65379772139211
 20
-131.8427706918657
 10
86.65379772139211
 20
-131.8427706918657
 97
        0
 97
        0
 75
     2
 76
     1
 98
        0
  0
SPLINE
  5
11D
330
109
100
AcDbEntity
  8
_U+30EC_U+30A4_U+30E4_U+30FC 1
370
     0
100
AcDbSpline
210
0.0
220
0.0
230
1.0
 70
    11
 71
     3
 72
   125
 73
   121
 74
     0
 42
0.0000000001
 43
0.0000000001
 12
1.0
 22
0.0
 32
0.0
 13
1.0
 23
0.0
 33
0.0
 40
0.0
 40
0.0
 40
0.0
 40
0.0
 40
1.0
 40
1.0
 40
1.0
 40
2.0
 40
2.0
 40
2.0
 40
3.0
 40
3.0
 40
3.0
 40
4.0
 40
4.0
 40
4.0
 40
5.0
 40
5.0
 40
5.0
 40
6.0
 40
6.0
 40
6.0
 40
7.0
 40
7.0
 40
7.0
 40
8.0
 40
8.0
 40
8.0
 40
9.0
 40
9.0
 40
9.0
 40
10.0
 40
10.0
 40
10.0
 40
11.0
 40
11.0
 40
11.0
 40
12.0
 40
12.0
 40
12.0
 40
13.0
 40
13.0
 40
13.0
 40
14.0
 40
14.0
 40
14.0
 40
15.0
 40
15.0
 40
15.0
 40
16.0
 40
16.0
 40
16.0
 40
17.0
 40
17.0
 40
17.0
 40
18.0
 40
18.0
 40
18.0
 40
19.0
 40
19.0
 40
19.0
 40
20.0
 40
20.0
 40
20.0
 40
21.0
 40
21.0
 40
21.0
 40
22.0
 40
22.0
 40
22.0
 40
23.0
 40
23.0
 40
23.0
 40
24.0
 40
24.0
 40
24.0
 40
25.0
 40
25.0
 40
25.0
 40
26.0
 40
26.0
 40
26.0
 40
27.0
 40
27.0
 40
27.0
 40
28.0
 40
28.0
 40
28.0
 40
29.0
 40
29.0
 40
29.0
 40
30.0
 40
30.0
 40
30.0
 40
31.0
 40
31.0
 40
31.0
 40
32.0
 40
32.0
 40
32.0
 40
33.0
 40
33.0
 40
33.0
 40
34.0
 40
34.0
 40
34.0
 40
35.0
 40
35.0
 40
35.0
 40
36.0
 40
36.0
 40
36.0
 40
37.0
 40
37.0
 40
37.0
 40
38.0
 40
38.0
 40
38.0
 40
39.0
 40
39.0
 40
39.0
 40
40.0
 40
40.0
 40
40.0
 40
40.0
 10
87.82805851753952
 20
-130.7520534612356
 30
0.0
 10
87.70110674890806
 20
-130.6845295897247
 30
0.0
 10
87.58672957879777
 20
-130.5684298718718
 30
0.0
 10
87.51472708315605
 20
-130.4857475802258
 30
0.0
 10
87.49784611527832
 20
-130.5050401149432
 30
0.0
 10
87.43014998899316
 20
-130.5959906357538
 30
0.0
 10
87.41533607840658
 20
-130.6128716036315
 30
0.0
 10
87.40276147988543
 20
-130.6276855142181
 30
0.0
 10
87.3478122068957
 20
-130.6934868379864
 30
0.0
 10
87.28011608061053
 20
-130.7610107094972
 30
0.0
 10
87.36055906019111
 20
-130.7651448240796
 30
0.0
 10
87.36693248683882
 20
-130.7651448240796
 30
0.0
 10
87.40500079195084
 20
-130.7651448240796
 30
0.0
 10
87.40500079195084
 20
-130.7651448240796
 30
0.0
 10
87.63134356533175
 20
-130.7651448240796
 30
0.0
 10
87.63134356533175
 20
-130.7651448240796
 30
0.0
 10
87.6609713865049
 20
-130.764800314531
 30
0.0
 10
87.82375214818296
 20
-130.7585991426576
 30
0.0
 10
87.83856605876953
 20
-130.7561875758179
 30
0.0
 10
87.83856605876953
 20
-130.7561875758179
 30
0.0
 10
87.83873831354379
 20
-130.9298203882745
 30
0.0
 10
87.83873831354379
 20
-130.9298203882745
 30
0.0
 10
87.80911049237065
 20
-130.9277533309833
 30
0.0
 10
87.67802460915689
 20
-130.9215521591099
 30
0.0
 10
87.64839678798374
 20
-130.9215521591099
 30
0.0
 10
87.64839678798374
 20
-130.9215521591099
 30
0.0
 10
87.5975816295763
 20
-130.9215521591099
 30
0.0
 10
87.5975816295763
 20
-130.9215521591099
 30
0.0
 10
87.5975816295763
 20
-130.9215521591099
 30
0.0
 10
87.59775388435057
 20
-131.0951849715665
 30
0.0
 10
87.59775388435057
 20
-131.0951849715665
 30
0.0
 10
87.65700952669687
 20
-131.094840462018
 30
0.0
 10
87.78172198326291
 20
-131.0907063474357
 30
0.0
 10
87.87697887343006
 20
-131.0758924368491
 30
0.0
 10
87.87697887343006
 20
-131.0758924368491
 30
0.0
 10
87.87715112820433
 20
-131.2660617076349
 30
0.0
 10
87.87715112820433
 20
-131.2660617076349
 30
0.0
 10
87.7946410913326
 20
-131.2557264211791
 30
0.0
 10
87.69318302929199
 20
-131.2557264211791
 30
0.0
 10
87.59792613912482
 20
-131.2557264211791
 30
0.0
 10
87.59792613912482
 20
-131.2557264211791
 30
0.0
 10
87.59844290344762
 20
-131.7742132917092
 30
0.0
 10
87.59844290344762
 20
-131.7742132917092
 30
0.0
 10
87.67664657096279
 20
-131.7614664384138
 30
0.0
 10
87.78878442900766
 20
-131.7380397891141
 30
0.0
 10
87.86285398194055
 20
-131.7232258785275
 30
0.0
 10
87.86285398194055
 20
-131.7232258785275
 30
0.0
 10
87.80583765165966
 20
-131.8944471241444
 30
0.0
 10
87.80583765165966
 20
-131.8944471241444
 30
0.0
 10
87.7698364038388
 20
-131.9051269201487
 30
0.0
 10
87.48010387352929
 20
-131.9729953012082
 30
0.0
 10
87.15643715269006
 20
-132.0284613385207
 30
0.0
 10
87.15437009539892
 20
-132.0474093636896
 30
0.0
 10
87.14592961146005
 20
-132.0770371848627
 30
0.0
 10
87.12698158629118
 20
-132.0770371848627
 30
0.0
 10
87.10786130634804
 20
-132.0770371848627
 30
0.0
 10
87.10148787970033
 20
-132.060156216985
 30
0.0
 10
87.09735376511803
 20
-132.0474093636896
 30
0.0
 10
87.09735376511803
 20
-132.0474093636896
 30
0.0
 10
87.02724607199319
 20
-131.8379475581864
 30
0.0
 10
87.02724607199319
 20
-131.8379475581864
 30
0.0
 10
87.19019908844551
 20
-131.8317463863129
 30
0.0
 10
87.20501299903208
 20
-131.8293348194732
 30
0.0
 10
87.42498234576529
 20
-131.7997069983001
 30
0.0
 10
87.42498234576529
 20
-131.7997069983001
 30
0.0
 10
87.4244655814425
 20
-131.2560709307276
 30
0.0
 10
87.4244655814425
 20
-131.2560709307276
 30
0.0
 10
87.4244655814425
 20
-131.2560709307276
 30
0.0
 10
87.34608965915307
 20
-131.2560709307276
 30
0.0
 10
87.34608965915307
 20
-131.2560709307276
 30
0.0
 10
87.25944550769903
 20
-131.2560709307276
 30
0.0
 10
87.15574813359301
 20
-131.2560709307276
 30
0.0
 10
87.0754774087867
 20
-131.2667507267319
 30
0.0
 10
87.0754774087867
 20
-131.2667507267319
 30
0.0
 10
87.07513289923817
 20
-131.0765814559461
 30
0.0
 10
87.07513289923817
 20
-131.0765814559461
 30
0.0
 10
87.1852036999919
 20
-131.0934624238239
 30
0.0
 10
87.3354098631488
 20
-131.0951849715665
 30
0.0
 10
87.34608965915307
 20
-131.0951849715665
 30
0.0
 10
87.34608965915307
 20
-131.0951849715665
 30
0.0
 10
87.42429332666823
 20
-131.0951849715665
 30
0.0
 10
87.42429332666823
 20
-131.0951849715665
 30
0.0
 10
87.42429332666823
 20
-131.0951849715665
 30
0.0
 10
87.42412107189398
 20
-130.9215521591099
 30
0.0
 10
87.42412107189398
 20
-130.9215521591099
 30
0.0
 10
87.34798446166995
 20
-130.9218966686584
 30
0.0
 10
87.33317055108338
 20
-130.9239637259496
 30
0.0
 10
87.19571124122191
 20
-130.9346435219539
 30
0.0
 10
87.19571124122191
 20
-130.9346435219539
 30
0.0
 10
87.19553898644764
 20
-130.8416259438521
 30
0.0
 10
87.19553898644764
 20
-130.8416259438521
 30
0.0
 10
87.18503144521763
 20
-130.8498941730167
 30
0.0
 10
87.18072507586108
 20
-130.8543727971475
 30
0.0
 10
87.16384410798335
 20
-130.8691867077341
 30
0.0
 10
87.16384410798335
 20
-130.8691867077341
 30
0.0
 10
86.9840101236533
 20
-130.7465413084592
 30
0.0
 10
86.9840101236533
 20
-130.7465413084592
 30
0.0
 10
87.04946693787305
 20
-130.7041666339906
 30
0.0
 10
87.16160479591794
 20
-130.6300970810578
 30
0.0
 10
87.26926402983199
 20
-130.5050401149432
 30
0.0
 10
87.32007918823943
 20
-130.4457844725969
 30
0.0
 10
87.42360430757118
 20
-130.3103922200266
 30
0.0
 10
87.4699408418478
 20
-130.1791340820386
 30
0.0
 10
87.4699408418478
 20
-130.1791340820386
 30
0.0
 10
87.64770776888669
 20
-130.240456781676
 30
0.0
 10
87.64770776888669
 20
-130.240456781676
 30
0.0
 10
87.66252167947326
 20
-130.2445908962583
 30
0.0
 10
87.6816419594164
 20
-130.2528591254229
 30
0.0
 10
87.6816419594164
 20
-130.2697400933006
 30
0.0
 10
87.6816419594164
 20
-130.2910996853092
 30
0.0
 10
87.66682804882983
 20
-130.2931667426003
 30
0.0
 10
87.6223863170701
 20
-130.3038465386046
 30
0.0
 10
87.6223863170701
 20
-130.3038465386046
 30
0.0
 10
87.61394583313124
 20
-130.3269286783558
 30
0.0
 10
87.61394583313124
 20
-130.3269286783558
 30
0.0
 10
87.69232175542068
 20
-130.4392387911749
 30
0.0
 10
87.87439505181612
 20
-130.5615396809013
 30
0.0
 10
87.9548380313967
 20
-130.6080484699522
 30
0.0
 10
87.9548380313967
 20
-130.6080484699522
 30
0.0
 10
87.82805851753952
 20
-130.7520534612356
 30
0.0
 10
87.82805851753952
 20
-130.7520534612356
 30
0.0
  0
SPLINE
  5
11E
330
109
100
AcDbEntity
  8
_U+30EC_U+30A4_U+30E4_U+30FC 1
370
     0
100
AcDbSpline
210
0.0
220
0.0
230
1.0
 70
    11
 71
     3
 72
    17
 73
    13
 74
     0
 42
0.0000000001
 43
0.0000000001
 12
1.0
 22
0.0
 32
0.0
 13
1.0
 23
0.0
 33
0.0
 40
0.0
 40
0.0
 40
0.0
 40
0.0
 40
1.0
 40
1.0
 40
1.0
 40
2.0
 40
2.0
 40
2.0
 40
3.0
 40
3.0
 40
3.0
 40
4.0
 40
4.0
 40
4.0
 40
4.0
 10
87.1879597763801
 20
-131.7449299800846
 30
0.0
 10
87.17090655372812
 20
-131.6391655486874
 30
0.0
 10
87.14971921649382
 20
-131.5461479705857
 30
0.0
 10
87.07978377814325
 20
-131.3938747501377
 30
0.0
 10
87.07978377814325
 20
-131.3938747501377
 30
0.0
 10
87.24687090917787
 20
-131.3322075409517
 30
0.0
 10
87.24687090917787
 20
-131.3322075409517
 30
0.0
 10
87.31456703546303
 20
-131.4824137041086
 30
0.0
 10
87.33799368476272
 20
-131.5840440209234
 30
0.0
 10
87.35504690741472
 20
-131.6770615990252
 30
0.0
 10
87.35504690741472
 20
-131.6770615990252
 30
0.0
 10
87.1879597763801
 20
-131.7449299800846
 30
0.0
 10
87.1879597763801
 20
-131.7449299800846
 30
0.0
  0
SPLINE
  5
11F
330
109
100
AcDbEntity
  8
_U+30EC_U+30A4_U+30E4_U+30FC 1
370
     0
100
AcDbSpline
210
0.0
220
0.0
230
1.0
 70
    11
 71
     3
 72
    23
 73
    19
 74
     0
 42
0.0000000001
 43
0.0000000001
 12
1.0
 22
0.0
 32
0.0
 13
1.0
 23
0.0
 33
0.0
 40
0.0
 40
0.0
 40
0.0
 40
0.0
 40
1.0
 40
1.0
 40
1.0
 40
2.0
 40
2.0
 40
2.0
 40
3.0
 40
3.0
 40
3.0
 40
4.0
 40
4.0
 40
4.0
 40
5.0
 40
5.0
 40
5.0
 40
6.0
 40
6.0
 40
6.0
 40
6.0
 10
87.88162975233516
 20
-131.4310817813783
 30
0.0
 10
87.86474878445743
 20
-131.5261664167712
 30
0.0
 10
87.8373602753497
 20
-131.6446777014638
 30
0.0
 10
87.79515785565538
 20
-131.7232258785275
 30
0.0
 10
87.79515785565538
 20
-131.7232258785275
 30
0.0
 10
87.63220483920307
 20
-131.6787841467678
 30
0.0
 10
87.63220483920307
 20
-131.6787841467678
 30
0.0
 10
87.6912882267751
 20
-131.5582058047841
 30
0.0
 10
87.71023625194397
 20
-131.3952527883318
 30
0.0
 10
87.71213105446085
 20
-131.3211832353989
 30
0.0
 10
87.71213105446085
 20
-131.3211832353989
 30
0.0
 10
87.90057777750403
 20
-131.371826139032
 30
0.0
 10
87.90057777750403
 20
-131.371826139032
 30
0.0
 10
87.9131523760252
 20
-131.3759602536144
 30
0.0
 10
87.93227265596832
 20
-131.3804388777452
 30
0.0
 10
87.93227265596832
 20
-131.3973198456229
 30
0.0
 10
87.93227265596832
 20
-131.4162678707918
 30
0.0
 10
87.91745874538175
 20
-131.4204019853741
 30
0.0
 10
87.88162975233516
 20
-131.4310817813783
 30
0.0
  0
SPLINE
  5
120
330
109
100
AcDbEntity
  8
_U+30EC_U+30A4_U+30E4_U+30FC 1
370
     0
100
AcDbSpline
210
0.0
220
0.0
230
1.0
 70
    11
 71
     3
 72
   128
 73
   124
 74
     0
 42
0.0000000001
 43
0.0000000001
 12
1.0
 22
0.0
 32
0.0
 13
1.0
 23
0.0
 33
0.0
 40
0.0
 40
0.0
 40
0.0
 40
0.0
 40
1.0
 40
1.0
 40
1.0
 40
2.0
 40
2.0
 40
2.0
 40
3.0
 40
3.0
 40
3.0
 40
4.0
 40
4.0
 40
4.0
 40
5.0
 40
5.0
 40
5.0
 40
6.0
 40
6.0
 40
6.0
 40
7.0
 40
7.0
 40
7.0
 40
8.0
 40
8.0
 40
8.0
 40
9.0
 40
9.0
 40
9.0
 40
10.0
 40
10.0
 40
10.0
 40
11.0
 40
11.0
 40
11.0
 40
12.0
 40
12.0
 40
12.0
 40
13.0
 40
13.0
 40
13.0
 40
14.0
 40
14.0
 40
14.0
 40
15.0
 40
15.0
 40
15.0
 40
16.0
 40
16.0
 40
16.0
 40
17.0
 40
17.0
 40
17.0
 40
18.0
 40
18.0
 40
18.0
 40
19.0
 40
19.0
 40
19.0
 40
20.0
 40
20.0
 40
20.0
 40
21.0
 40
21.0
 40
21.0
 40
22.0
 40
22.0
 40
22.0
 40
23.0
 40
23.0
 40
23.0
 40
24.0
 40
24.0
 40
24.0
 40
25.0
 40
25.0
 40
25.0
 40
26.0
 40
26.0
 40
26.0
 40
27.0
 40
27.0
 40
27.0
 40
28.0
 40
28.0
 40
28.0
 40
29.0
 40
29.0
 40
29.0
 40
30.0
 40
30.0
 40
30.0
 40
31.0
 40
31.0
 40
31.0
 40
32.0
 40
32.0
 40
32.0
 40
33.0
 40
33.0
 40
33.0
 40
34.0
 40
34.0
 40
34.0
 40
35.0
 40
35.0
 40
35.0
 40
36.0
 40
36.0
 40
36.0
 40
37.0
 40
37.0
 40
37.0
 40
38.0
 40
38.0
 40
38.0
 40
39.0
 40
39.0
 40
39.0
 40
40.0
 40
40.0
 40
40.0
 40
41.0
 40
41.0
 40
41.0
 40
41.0
 10
88.87640107370105
 20
-132.0966742291286
 30
0.0
 10
88.68812660543215
 20
-131.9657606006891
 30
0.0
 10
88.57357718054759
 20
-131.8114203229499
 30
0.0
 10
88.46333412501959
 20
-131.5554497283959
 30
0.0
 10
88.42113170532528
 20
-131.6591471025019
 30
0.0
 10
88.37255585898325
 20
-131.7459635087302
 30
0.0
 10
88.27540416629921
 20
-131.8475938255451
 30
0.0
 10
88.17825247361516
 20
-131.9471570850688
 30
0.0
 10
88.072488042218
 20
-132.0381076058794
 30
0.0
 10
87.94777558565195
 20
-132.0994303055168
 30
0.0
 10
87.94777558565195
 20
-132.0994303055168
 30
0.0
 10
87.76139591989994
 20
-131.9409559131953
 30
0.0
 10
87.76139591989994
 20
-131.9409559131953
 30
0.0
 10
87.9581108721077
 20
-131.8775661562667
 30
0.0
 10
88.07024873015258
 20
-131.8117648324985
 30
0.0
 10
88.19702824400977
 20
-131.640199077333
 30
0.0
 10
88.31743433121926
 20
-131.4772460608807
 30
0.0
 10
88.33000892974042
 20
-131.3756157440658
 30
0.0
 10
88.34258352826159
 20
-131.2657171980863
 30
0.0
 10
88.34258352826159
 20
-131.2657171980863
 30
0.0
 10
88.27282034468527
 20
-131.2657171980863
 30
0.0
 10
88.27282034468527
 20
-131.2657171980863
 30
0.0
 10
88.16274954393154
 20
-131.2657171980863
 30
0.0
 10
88.05061168588665
 20
-131.2722628795083
 30
0.0
 10
87.94071313990719
 20
-131.2850097328038
 30
0.0
 10
87.94071313990719
 20
-131.2850097328038
 30
0.0
 10
87.94036863035866
 20
-131.0776149845917
 30
0.0
 10
87.94036863035866
 20
-131.0776149845917
 30
0.0
 10
88.06318628440782
 20
-131.0903618378871
 30
0.0
 10
88.24302026873787
 20
-131.0944959524694
 30
0.0
 10
88.27264808991102
 20
-131.0944959524694
 30
0.0
 10
88.27264808991102
 20
-131.0944959524694
 30
0.0
 10
88.3572251840739
 20
-131.0941514429209
 30
0.0
 10
88.3572251840739
 20
-131.0941514429209
 30
0.0
 10
88.3572251840739
 20
-131.0941514429209
 30
0.0
 10
88.3572251840739
 20
-131.0521212780009
 30
0.0
 10
88.3572251840739
 20
-131.0521212780009
 30
0.0
 10
88.3572251840739
 20
-131.0521212780009
 30
0.0
 10
88.35688067452537
 20
-130.8044189126114
 30
0.0
 10
88.35688067452537
 20
-130.8044189126114
 30
0.0
 10
88.35688067452537
 20
-130.8044189126114
 30
0.0
 10
88.1601657223176
 20
-130.8047634221599
 30
0.0
 10
88.1601657223176
 20
-130.8047634221599
 30
0.0
 10
88.10952281868443
 20
-130.9508354707345
 30
0.0
 10
88.09057479351556
 20
-130.9887315210723
 30
0.0
 10
88.04613306175584
 20
-131.0500542207097
 30
0.0
 10
88.04613306175584
 20
-131.0500542207097
 30
0.0
 10
87.83667125625264
 20
-130.9804632919077
 30
0.0
 10
87.83667125625264
 20
-130.9804632919077
 30
0.0
 10
88.05853540550274
 20
-130.7286268119359
 30
0.0
 10
88.06043020801962
 20
-130.3817056965713
 30
0.0
 10
88.05612383866305
 20
-130.3162488823515
 30
0.0
 10
88.05612383866305
 20
-130.3162488823515
 30
0.0
 10
88.26558564416625
 20
-130.3582790472715
 30
0.0
 10
88.26558564416625
 20
-130.3582790472715
 30
0.0
 10
88.28677298140053
 20
-130.3624131618539
 30
0.0
 10
88.2993475799217
 20
-130.3686143337273
 30
0.0
 10
88.29951983469596
 20
-130.3813611870227
 30
0.0
 10
88.29951983469596
 20
-130.4047878363224
 30
0.0
 10
88.2740261281051
 20
-130.413056065487
 30
0.0
 10
88.25301104564508
 20
-130.419601746909
 30
0.0
 10
88.24026419234966
 20
-130.495738357133
 30
0.0
 10
88.2276895938285
 20
-130.5611951713528
 30
0.0
 10
88.20874156865962
 20
-130.6376762911253
 30
0.0
 10
88.20874156865962
 20
-130.6376762911253
 30
0.0
 10
88.3567084197511
 20
-130.6373317815768
 30
0.0
 10
88.3567084197511
 20
-130.6373317815768
 30
0.0
 10
88.35446910768569
 20
-130.4723117078333
 30
0.0
 10
88.35446910768569
 20
-130.4426838866602
 30
0.0
 10
88.34585636897256
 20
-130.1825791775238
 30
0.0
 10
88.34585636897256
 20
-130.1825791775238
 30
0.0
 10
88.55945228905806
 20
-130.2035942599838
 30
0.0
 10
88.55945228905806
 20
-130.2035942599838
 30
0.0
 10
88.5785725690012
 20
-130.205661317275
 30
0.0
 10
88.60389402081778
 20
-130.2077283745661
 30
0.0
 10
88.60389402081778
 20
-130.2287434570262
 30
0.0
 10
88.60389402081778
 20
-130.2435573676127
 30
0.0
 10
88.59752059417006
 20
-130.2456244249039
 30
0.0
 10
88.54894474782805
 20
-130.2731851887859
 30
0.0
 10
88.5468776905369
 20
-130.3748155056007
 30
0.0
 10
88.54704994531116
 20
-130.5357014647619
 30
0.0
 10
88.54498288802
 20
-130.6373317815768
 30
0.0
 10
88.54498288802
 20
-130.6373317815768
 30
0.0
 10
88.61061195701402
 20
-130.6369872720283
 30
0.0
 10
88.61061195701402
 20
-130.6369872720283
 30
0.0
 10
88.70793590447232
 20
-130.6369872720283
 30
0.0
 10
88.8476345263992
 20
-130.6304415906063
 30
0.0
 10
88.92153182455782
 20
-130.626307476024
 30
0.0
 10
88.92153182455782
 20
-130.626307476024
 30
0.0
 10
88.92187633410634
 20
-130.8168212563583
 30
0.0
 10
88.92187633410634
 20
-130.8168212563583
 30
0.0
 10
88.72292206983316
 20
-130.806141460354
 30
0.0
 10
88.70173473259888
 20
-130.8040744030629
 30
0.0
 10
88.59803735849286
 20
-130.8044189126114
 30
0.0
 10
88.59803735849286
 20
-130.8044189126114
 30
0.0
 10
88.54515514279427
 20
-130.8044189126114
 30
0.0
 10
88.54515514279427
 20
-130.8044189126114
 30
0.0
 10
88.54515514279427
 20
-130.8044189126114
 30
0.0
 10
88.5454996523428
 20
-131.0624565644566
 30
0.0
 10
88.5454996523428
 20
-131.0624565644566
 30
0.0
 10
88.5454996523428
 20
-131.0624565644566
 30
0.0
 10
88.5454996523428
 20
-131.0941514429209
 30
0.0
 10
88.5454996523428
 20
-131.0941514429209
 30
0.0
 10
88.5454996523428
 20
-131.0941514429209
 30
0.0
 10
88.61750214798452
 20
-131.0941514429209
 30
0.0
 10
88.61750214798452
 20
-131.0941514429209
 30
0.0
 10
88.72946775125514
 20
-131.0938069333724
 30
0.0
 10
88.84384492136543
 20
-131.0896728187901
 30
0.0
 10
88.95581052463605
 20
-131.0769259654947
 30
0.0
 10
88.95581052463605
 20
-131.0769259654947
 30
0.0
 10
88.95615503418458
 20
-131.2843207137067
 30
0.0
 10
88.95615503418458
 20
-131.2843207137067
 30
0.0
 10
88.81008298560998
 20
-131.267439745829
 30
0.0
 10
88.62387557463222
 20
-131.2653726885378
 30
0.0
 10
88.61750214798452
 20
-131.2653726885378
 30
0.0
 10
88.61750214798452
 20
-131.2653726885378
 30
0.0
 10
88.55411239105592
 20
-131.2653726885378
 30
0.0
 10
88.55411239105592
 20
-131.2653726885378
 30
0.0
 10
88.6709011280059
 20
-131.6608696502445
 30
0.0
 10
88.92497692004306
 20
-131.8827337994946
 30
0.0
 10
89.04762231931797
 20
-131.9630045243009
 30
0.0
 10
89.04762231931797
 20
-131.9630045243009
 30
0.0
 10
88.87640107370105
 20
-132.0966742291286
 30
0.0
 10
88.87640107370105
 20
-132.0966742291286
 30
0.0
  0
HATCH
  5
121
330
109
100
AcDbEntity
  8
_U+30EC_U+30A4_U+30E4_U+30FC 1
 62
   179
420
  2234388
100
AcDbHatch
 10
0.0
 20
0.0
 30
0.0
210
0.0
220
0.0
230
1.0
  2
SOLID
 70
     1
 71
     0
 91
        4
 92
        1
 93
        1
 72
     4
 94
        3
 73
     0
 74
     1
 95
      125
 96
      121
 40
0.0
 40
0.0
 40
0.0
 40
0.0
 40
1.0
 40
1.0
 40
1.0
 40
2.0
 40
2.0
 40
2.0
 40
3.0
 40
3.0
 40
3.0
 40
4.0
 40
4.0
 40
4.0
 40
5.0
 40
5.0
 40
5.0
 40
6.0
 40
6.0
 40
6.0
 40
7.0
 40
7.0
 40
7.0
 40
8.0
 40
8.0
 40
8.0
 40
9.0
 40
9.0
 40
9.0
 40
10.0
 40
10.0
 40
10.0
 40
11.0
 40
11.0
 40
11.0
 40
12.0
 40
12.0
 40
12.0
 40
13.0
 40
13.0
 40
13.0
 40
14.0
 40
14.0
 40
14.0
 40
15.0
 40
15.0
 40
15.0
 40
16.0
 40
16.0
 40
16.0
 40
17.0
 40
17.0
 40
17.0
 40
18.0
 40
18.0
 40
18.0
 40
19.0
 40
19.0
 40
19.0
 40
20.0
 40
20.0
 40
20.0
 40
21.0
 40
21.0
 40
21.0
 40
22.0
 40
22.0
 40
22.0
 40
23.0
 40
23.0
 40
23.0
 40
24.0
 40
24.0
 40
24.0
 40
25.0
 40
25.0
 40
25.0
 40
26.0
 40
26.0
 40
26.0
 40
27.0
 40
27.0
 40
27.0
 40
28.0
 40
28.0
 40
28.0
 40
29.0
 40
29.0
 40
29.0
 40
30.0
 40
30.0
 40
30.0
 40
31.0
 40
31.0
 40
31.0
 40
32.0
 40
32.0
 40
32.0
 40
33.0
 40
33.0
 40
33.0
 40
34.0
 40
34.0
 40
34.0
 40
35.0
 40
35.0
 40
35.0
 40
36.0
 40
36.0
 40
36.0
 40
37.0
 40
37.0
 40
37.0
 40
38.0
 40
38.0
 40
38.0
 40
39.0
 40
39.0
 40
39.0
 40
40.0
 40
40.0
 40
40.0
 40
40.0
 10
87.82805851753952
 20
-130.7520534612356
 10
87.70110674890806
 20
-130.6845295897247
 10
87.58672957879777
 20
-130.5684298718718
 10
87.51472708315605
 20
-130.4857475802258
 10
87.49784611527832
 20
-130.5050401149432
 10
87.43014998899316
 20
-130.5959906357538
 10
87.41533607840658
 20
-130.6128716036315
 10
87.40276147988543
 20
-130.6276855142181
 10
87.3478122068957
 20
-130.6934868379864
 10
87.28011608061053
 20
-130.7610107094972
 10
87.36055906019111
 20
-130.7651448240796
 10
87.36693248683882
 20
-130.7651448240796
 10
87.40500079195084
 20
-130.7651448240796
 10
87.40500079195084
 20
-130.7651448240796
 10
87.63134356533175
 20
-130.7651448240796
 10
87.63134356533175
 20
-130.7651448240796
 10
87.6609713865049
 20
-130.764800314531
 10
87.82375214818296
 20
-130.7585991426576
 10
87.83856605876953
 20
-130.7561875758179
 10
87.83856605876953
 20
-130.7561875758179
 10
87.83873831354379
 20
-130.9298203882745
 10
87.83873831354379
 20
-130.9298203882745
 10
87.80911049237065
 20
-130.9277533309833
 10
87.67802460915689
 20
-130.9215521591099
 10
87.64839678798374
 20
-130.9215521591099
 10
87.64839678798374
 20
-130.9215521591099
 10
87.5975816295763
 20
-130.9215521591099
 10
87.5975816295763
 20
-130.9215521591099
 10
87.5975816295763
 20
-130.9215521591099
 10
87.59775388435057
 20
-131.0951849715665
 10
87.59775388435057
 20
-131.0951849715665
 10
87.65700952669687
 20
-131.094840462018
 10
87.78172198326291
 20
-131.0907063474357
 10
87.87697887343006
 20
-131.0758924368491
 10
87.87697887343006
 20
-131.0758924368491
 10
87.87715112820433
 20
-131.2660617076349
 10
87.87715112820433
 20
-131.2660617076349
 10
87.7946410913326
 20
-131.2557264211791
 10
87.69318302929199
 20
-131.2557264211791
 10
87.59792613912482
 20
-131.2557264211791
 10
87.59792613912482
 20
-131.2557264211791
 10
87.59844290344762
 20
-131.7742132917092
 10
87.59844290344762
 20
-131.7742132917092
 10
87.67664657096279
 20
-131.7614664384138
 10
87.78878442900766
 20
-131.7380397891141
 10
87.86285398194055
 20
-131.7232258785275
 10
87.86285398194055
 20
-131.7232258785275
 10
87.80583765165966
 20
-131.8944471241444
 10
87.80583765165966
 20
-131.8944471241444
 10
87.7698364038388
 20
-131.9051269201487
 10
87.48010387352929
 20
-131.9729953012082
 10
87.15643715269006
 20
-132.0284613385207
 10
87.15437009539892
 20
-132.0474093636896
 10
87.14592961146005
 20
-132.0770371848627
 10
87.12698158629118
 20
-132.0770371848627
 10
87.10786130634804
 20
-132.0770371848627
 10
87.10148787970033
 20
-132.060156216985
 10
87.09735376511803
 20
-132.0474093636896
 10
87.09735376511803
 20
-132.0474093636896
 10
87.02724607199319
 20
-131.8379475581864
 10
87.02724607199319
 20
-131.8379475581864
 10
87.19019908844551
 20
-131.8317463863129
 10
87.20501299903208
 20
-131.8293348194732
 10
87.42498234576529
 20
-131.7997069983001
 10
87.42498234576529
 20
-131.7997069983001
 10
87.4244655814425
 20
-131.2560709307276
 10
87.4244655814425
 20
-131.2560709307276
 10
87.4244655814425
 20
-131.2560709307276
 10
87.34608965915307
 20
-131.2560709307276
 10
87.34608965915307
 20
-131.2560709307276
 10
87.25944550769903
 20
-131.2560709307276
 10
87.15574813359301
 20
-131.2560709307276
 10
87.0754774087867
 20
-131.2667507267319
 10
87.0754774087867
 20
-131.2667507267319
 10
87.07513289923817
 20
-131.0765814559461
 10
87.07513289923817
 20
-131.0765814559461
 10
87.1852036999919
 20
-131.0934624238239
 10
87.3354098631488
 20
-131.0951849715665
 10
87.34608965915307
 20
-131.0951849715665
 10
87.34608965915307
 20
-131.0951849715665
 10
87.42429332666823
 20
-131.0951849715665
 10
87.42429332666823
 20
-131.0951849715665
 10
87.42429332666823
 20
-131.0951849715665
 10
87.42412107189398
 20
-130.9215521591099
 10
87.42412107189398
 20
-130.9215521591099
 10
87.34798446166995
 20
-130.9218966686584
 10
87.33317055108338
 20
-130.9239637259496
 10
87.19571124122191
 20
-130.9346435219539
 10
87.19571124122191
 20
-130.9346435219539
 10
87.19553898644764
 20
-130.8416259438521
 10
87.19553898644764
 20
-130.8416259438521
 10
87.18503144521763
 20
-130.8498941730167
 10
87.18072507586108
 20
-130.8543727971475
 10
87.16384410798335
 20
-130.8691867077341
 10
87.16384410798335
 20
-130.8691867077341
 10
86.9840101236533
 20
-130.7465413084592
 10
86.9840101236533
 20
-130.7465413084592
 10
87.04946693787305
 20
-130.7041666339906
 10
87.16160479591794
 20
-130.6300970810578
 10
87.26926402983199
 20
-130.5050401149432
 10
87.32007918823943
 20
-130.4457844725969
 10
87.42360430757118
 20
-130.3103922200266
 10
87.4699408418478
 20
-130.1791340820386
 10
87.4699408418478
 20
-130.1791340820386
 10
87.64770776888669
 20
-130.240456781676
 10
87.64770776888669
 20
-130.240456781676
 10
87.66252167947326
 20
-130.2445908962583
 10
87.6816419594164
 20
-130.2528591254229
 10
87.6816419594164
 20
-130.2697400933006
 10
87.6816419594164
 20
-130.2910996853092
 10
87.66682804882983
 20
-130.2931667426003
 10
87.6223863170701
 20
-130.3038465386046
 10
87.6223863170701
 20
-130.3038465386046
 10
87.61394583313124
 20
-130.3269286783558
 10
87.61394583313124
 20
-130.3269286783558
 10
87.69232175542068
 20
-130.4392387911749
 10
87.87439505181612
 20
-130.5615396809013
 10
87.9548380313967
 20
-130.6080484699522
 10
87.9548380313967
 20
-130.6080484699522
 10
87.82805851753952
 20
-130.7520534612356
 10
87.82805851753952
 20
-130.7520534612356
 97
        0
 97
        0
 92
        1
 93
        1
 72
     4
 94
        3
 73
     0
 74
     1
 95
       17
 96
       13
 40
0.0
 40
0.0
 40
0.0
 40
0.0
 40
1.0
 40
1.0
 40
1.0
 40
2.0
 40
2.0
 40
2.0
 40
3.0
 40
3.0
 40
3.0
 40
4.0
 40
4.0
 40
4.0
 40
4.0
 10
87.1879597763801
 20
-131.7449299800846
 10
87.17090655372812
 20
-131.6391655486874
 10
87.14971921649382
 20
-131.5461479705857
 10
87.07978377814325
 20
-131.3938747501377
 10
87.07978377814325
 20
-131.3938747501377
 10
87.24687090917787
 20
-131.3322075409517
 10
87.24687090917787
 20
-131.3322075409517
 10
87.31456703546303
 20
-131.4824137041086
 10
87.33799368476272
 20
-131.5840440209234
 10
87.35504690741472
 20
-131.6770615990252
 10
87.35504690741472
 20
-131.6770615990252
 10
87.1879597763801
 20
-131.7449299800846
 10
87.1879597763801
 20
-131.7449299800846
 97
        0
 97
        0
 92
        1
 93
        1
 72
     4
 94
        3
 73
     0
 74
     1
 95
       23
 96
       19
 40
0.0
 40
0.0
 40
0.0
 40
0.0
 40
1.0
 40
1.0
 40
1.0
 40
2.0
 40
2.0
 40
2.0
 40
3.0
 40
3.0
 40
3.0
 40
4.0
 40
4.0
 40
4.0
 40
5.0
 40
5.0
 40
5.0
 40
6.0
 40
6.0
 40
6.0
 40
6.0
 10
87.88162975233516
 20
-131.4310817813783
 10
87.86474878445743
 20
-131.5261664167712
 10
87.8373602753497
 20
-131.6446777014638
 10
87.79515785565538
 20
-131.7232258785275
 10
87.79515785565538
 20
-131.7232258785275
 10
87.63220483920307
 20
-131.6787841467678
 10
87.63220483920307
 20
-131.6787841467678
 10
87.6912882267751
 20
-131.5582058047841
 10
87.71023625194397
 20
-131.3952527883318
 10
87.71213105446085
 20
-131.3211832353989
 10
87.71213105446085
 20
-131.3211832353989
 10
87.90057777750403
 20
-131.371826139032
 10
87.90057777750403
 20
-131.371826139032
 10
87.9131523760252
 20
-131.3759602536144
 10
87.93227265596832
 20
-131.3804388777452
 10
87.93227265596832
 20
-131.3973198456229
 10
87.93227265596832
 20
-131.4162678707918
 10
87.91745874538175
 20
-131.4204019853741
 10
87.88162975233516
 20
-131.4310817813783
 97
        0
 97
        0
 92
        1
 93
        1
 72
     4
 94
        3
 73
     0
 74
     1
 95
      128
 96
      124
 40
0.0
 40
0.0
 40
0.0
 40
0.0
 40
1.0
 40
1.0
 40
1.0
 40
2.0
 40
2.0
 40
2.0
 40
3.0
 40
3.0
 40
3.0
 40
4.0
 40
4.0
 40
4.0
 40
5.0
 40
5.0
 40
5.0
 40
6.0
 40
6.0
 40
6.0
 40
7.0
 40
7.0
 40
7.0
 40
8.0
 40
8.0
 40
8.0
 40
9.0
 40
9.0
 40
9.0
 40
10.0
 40
10.0
 40
10.0
 40
11.0
 40
11.0
 40
11.0
 40
12.0
 40
12.0
 40
12.0
 40
13.0
 40
13.0
 40
13.0
 40
14.0
 40
14.0
 40
14.0
 40
15.0
 40
15.0
 40
15.0
 40
16.0
 40
16.0
 40
16.0
 40
17.0
 40
17.0
 40
17.0
 40
18.0
 40
18.0
 40
18.0
 40
19.0
 40
19.0
 40
19.0
 40
20.0
 40
20.0
 40
20.0
 40
21.0
 40
21.0
 40
21.0
 40
22.0
 40
22.0
 40
22.0
 40
23.0
 40
23.0
 40
23.0
 40
24.0
 40
24.0
 40
24.0
 40
25.0
 40
25.0
 40
25.0
 40
26.0
 40
26.0
 40
26.0
 40
27.0
 40
27.0
 40
27.0
 40
28.0
 40
28.0
 40
28.0
 40
29.0
 40
29.0
 40
29.0
 40
30.0
 40
30.0
 40
30.0
 40
31.0
 40
31.0
 40
31.0
 40
32.0
 40
32.0
 40
32.0
 40
33.0
 40
33.0
 40
33.0
 40
34.0
 40
34.0
 40
34.0
 40
35.0
 40
35.0
 40
35.0
 40
36.0
 40
36.0
 40
36.0
 40
37.0
 40
37.0
 40
37.0
 40
38.0
 40
38.0
 40
38.0
 40
39.0
 40
39.0
 40
39.0
 40
40.0
 40
40.0
 40
40.0
 40
41.0
 40
41.0
 40
41.0
 40
41.0
 10
88.87640107370105
 20
-132.0966742291286
 10
88.68812660543215
 20
-131.9657606006891
 10
88.57357718054759
 20
-131.8114203229499
 10
88.46333412501959
 20
-131.5554497283959
 10
88.42113170532528
 20
-131.6591471025019
 10
88.37255585898325
 20
-131.7459635087302
 10
88.27540416629921
 20
-131.8475938255451
 10
88.17825247361516
 20
-131.9471570850688
 10
88.072488042218
 20
-132.0381076058794
 10
87.94777558565195
 20
-132.0994303055168
 10
87.94777558565195
 20
-132.0994303055168
 10
87.76139591989994
 20
-131.9409559131953
 10
87.76139591989994
 20
-131.9409559131953
 10
87.9581108721077
 20
-131.8775661562667
 10
88.07024873015258
 20
-131.8117648324985
 10
88.19702824400977
 20
-131.640199077333
 10
88.31743433121926
 20
-131.4772460608807
 10
88.33000892974042
 20
-131.3756157440658
 10
88.34258352826159
 20
-131.2657171980863
 10
88.34258352826159
 20
-131.2657171980863
 10
88.27282034468527
 20
-131.2657171980863
 10
88.27282034468527
 20
-131.2657171980863
 10
88.16274954393154
 20
-131.2657171980863
 10
88.05061168588665
 20
-131.2722628795083
 10
87.94071313990719
 20
-131.2850097328038
 10
87.94071313990719
 20
-131.2850097328038
 10
87.94036863035866
 20
-131.0776149845917
 10
87.94036863035866
 20
-131.0776149845917
 10
88.06318628440782
 20
-131.0903618378871
 10
88.24302026873787
 20
-131.0944959524694
 10
88.27264808991102
 20
-131.0944959524694
 10
88.27264808991102
 20
-131.0944959524694
 10
88.3572251840739
 20
-131.0941514429209
 10
88.3572251840739
 20
-131.0941514429209
 10
88.3572251840739
 20
-131.0941514429209
 10
88.3572251840739
 20
-131.0521212780009
 10
88.3572251840739
 20
-131.0521212780009
 10
88.3572251840739
 20
-131.0521212780009
 10
88.35688067452537
 20
-130.8044189126114
 10
88.35688067452537
 20
-130.8044189126114
 10
88.35688067452537
 20
-130.8044189126114
 10
88.1601657223176
 20
-130.8047634221599
 10
88.1601657223176
 20
-130.8047634221599
 10
88.10952281868443
 20
-130.9508354707345
 10
88.09057479351556
 20
-130.9887315210723
 10
88.04613306175584
 20
-131.0500542207097
 10
88.04613306175584
 20
-131.0500542207097
 10
87.83667125625264
 20
-130.9804632919077
 10
87.83667125625264
 20
-130.9804632919077
 10
88.05853540550274
 20
-130.7286268119359
 10
88.06043020801962
 20
-130.3817056965713
 10
88.05612383866305
 20
-130.3162488823515
 10
88.05612383866305
 20
-130.3162488823515
 10
88.26558564416625
 20
-130.3582790472715
 10
88.26558564416625
 20
-130.3582790472715
 10
88.28677298140053
 20
-130.3624131618539
 10
88.2993475799217
 20
-130.3686143337273
 10
88.29951983469596
 20
-130.3813611870227
 10
88.29951983469596
 20
-130.4047878363224
 10
88.2740261281051
 20
-130.413056065487
 10
88.25301104564508
 20
-130.419601746909
 10
88.24026419234966
 20
-130.495738357133
 10
88.2276895938285
 20
-130.5611951713528
 10
88.20874156865962
 20
-130.6376762911253
 10
88.20874156865962
 20
-130.6376762911253
 10
88.3567084197511
 20
-130.6373317815768
 10
88.3567084197511
 20
-130.6373317815768
 10
88.35446910768569
 20
-130.4723117078333
 10
88.35446910768569
 20
-130.4426838866602
 10
88.34585636897256
 20
-130.1825791775238
 10
88.34585636897256
 20
-130.1825791775238
 10
88.55945228905806
 20
-130.2035942599838
 10
88.55945228905806
 20
-130.2035942599838
 10
88.5785725690012
 20
-130.205661317275
 10
88.60389402081778
 20
-130.2077283745661
 10
88.60389402081778
 20
-130.2287434570262
 10
88.60389402081778
 20
-130.2435573676127
 10
88.59752059417006
 20
-130.2456244249039
 10
88.54894474782805
 20
-130.2731851887859
 10
88.5468776905369
 20
-130.3748155056007
 10
88.54704994531116
 20
-130.5357014647619
 10
88.54498288802
 20
-130.6373317815768
 10
88.54498288802
 20
-130.6373317815768
 10
88.61061195701402
 20
-130.6369872720283
 10
88.61061195701402
 20
-130.6369872720283
 10
88.70793590447232
 20
-130.6369872720283
 10
88.8476345263992
 20
-130.6304415906063
 10
88.92153182455782
 20
-130.626307476024
 10
88.92153182455782
 20
-130.626307476024
 10
88.92187633410634
 20
-130.8168212563583
 10
88.92187633410634
 20
-130.8168212563583
 10
88.72292206983316
 20
-130.806141460354
 10
88.70173473259888
 20
-130.8040744030629
 10
88.59803735849286
 20
-130.8044189126114
 10
88.59803735849286
 20
-130.8044189126114
 10
88.54515514279427
 20
-130.8044189126114
 10
88.54515514279427
 20
-130.8044189126114
 10
88.54515514279427
 20
-130.8044189126114
 10
88.5454996523428
 20
-131.0624565644566
 10
88.5454996523428
 20
-131.0624565644566
 10
88.5454996523428
 20
-131.0624565644566
 10
88.5454996523428
 20
-131.0941514429209
 10
88.5454996523428
 20
-131.0941514429209
 10
88.5454996523428
 20
-131.0941514429209
 10
88.61750214798452
 20
-131.0941514429209
 10
88.61750214798452
 20
-131.0941514429209
 10
88.72946775125514
 20
-131.0938069333724
 10
88.84384492136543
 20
-131.0896728187901
 10
88.95581052463605
 20
-131.0769259654947
 10
88.95581052463605
 20
-131.0769259654947
 10
88.95615503418458
 20
-131.2843207137067
 10
88.95615503418458
 20
-131.2843207137067
 10
88.81008298560998
 20
-131.267439745829
 10
88.62387557463222
 20
-131.2653726885378
 10
88.61750214798452
 20
-131.2653726885378
 10
88.61750214798452
 20
-131.2653726885378
 10
88.55411239105592
 20
-131.2653726885378
 10
88.55411239105592
 20
-131.2653726885378
 10
88.6709011280059
 20
-131.6608696502445
 10
88.92497692004306
 20
-131.8827337994946
 10
89.04762231931797
 20
-131.9630045243009
 10
89.04762231931797
 20
-131.9630045243009
 10
88.87640107370105
 20
-132.0966742291286
 10
88.87640107370105
 20
-132.0966742291286
 97
        0
 97
        0
 75
     2
 76
     1
 98
        0
  0
SPLINE
  5
122
330
109
100
AcDbEntity
  8
_U+30EC_U+30A4_U+30E4_U+30FC 1
370
     0
100
AcDbSpline
210
0.0
220
0.0
230
1.0
 70
    11
 71
     3
 72
    86
 73
    82
 74
     0
 42
0.0000000001
 43
0.0000000001
 12
1.0
 22
0.0
 32
0.0
 13
1.0
 23
0.0
 33
0.0
 40
0.0
 40
0.0
 40
0.0
 40
0.0
 40
1.0
 40
1.0
 40
1.0
 40
2.0
 40
2.0
 40
2.0
 40
3.0
 40
3.0
 40
3.0
 40
4.0
 40
4.0
 40
4.0
 40
5.0
 40
5.0
 40
5.0
 40
6.0
 40
6.0
 40
6.0
 40
7.0
 40
7.0
 40
7.0
 40
8.0
 40
8.0
 40
8.0
 40
9.0
 40
9.0
 40
9.0
 40
10.0
 40
10.0
 40
10.0
 40
11.0
 40
11.0
 40
11.0
 40
12.0
 40
12.0
 40
12.0
 40
13.0
 40
13.0
 40
13.0
 40
14.0
 40
14.0
 40
14.0
 40
15.0
 40
15.0
 40
15.0
 40
16.0
 40
16.0
 40
16.0
 40
17.0
 40
17.0
 40
17.0
 40
18.0
 40
18.0
 40
18.0
 40
19.0
 40
19.0
 40
19.0
 40
20.0
 40
20.0
 40
20.0
 40
21.0
 40
21.0
 40
21.0
 40
22.0
 40
22.0
 40
22.0
 40
23.0
 40
23.0
 40
23.0
 40
24.0
 40
24.0
 40
24.0
 40
25.0
 40
25.0
 40
25.0
 40
26.0
 40
26.0
 40
26.0
 40
27.0
 40
27.0
 40
27.0
 40
27.0
 10
89.69288870370525
 20
-130.750330913493
 30
0.0
 10
89.69288870370525
 20
-130.750330913493
 30
0.0
 10
89.66119382524096
 20
-130.750330913493
 30
0.0
 10
89.66119382524096
 20
-130.750330913493
 30
0.0
 10
89.66119382524096
 20
-130.8033853839658
 30
0.0
 10
89.70150144241838
 20
-130.9194851018187
 30
0.0
 10
89.7418090595958
 20
-131.0001003361736
 30
0.0
 10
89.81381155523752
 20
-131.1478949324908
 30
0.0
 10
89.90062796146582
 20
-131.2409125105926
 30
0.0
 10
89.9493760625821
 20
-131.2915554142257
 30
0.0
 10
89.9493760625821
 20
-131.2915554142257
 30
0.0
 10
89.82466360601606
 20
-131.4524413733869
 30
0.0
 10
89.82466360601606
 20
-131.4524413733869
 30
0.0
 10
89.76971433302633
 20
-131.3955972978803
 30
0.0
 10
89.7294067158489
 20
-131.3511555661206
 30
0.0
 10
89.66171058956374
 20
-131.2243760522634
 30
0.0
 10
89.66171058956374
 20
-131.2243760522634
 30
0.0
 10
89.66188284433801
 20
-131.4210910044711
 30
0.0
 10
89.66188284433801
 20
-131.4210910044711
 30
0.0
 10
89.66205509911227
 20
-131.5881781355057
 30
0.0
 10
89.66205509911227
 20
-131.6898084523206
 30
0.0
 10
89.68358694589507
 20
-132.0935736431919
 30
0.0
 10
89.68358694589507
 20
-132.0935736431919
 30
0.0
 10
89.45724417251417
 20
-132.0939181527404
 30
0.0
 10
89.45724417251417
 20
-132.0939181527404
 30
0.0
 10
89.47188582832648
 20
-131.9523247282966
 30
0.0
 10
89.48428817207338
 20
-131.5120415252817
 30
0.0
 10
89.4841159172991
 20
-131.4338378577665
 30
0.0
 10
89.4841159172991
 20
-131.4338378577665
 30
0.0
 10
89.48394366252485
 20
-131.2161078230988
 30
0.0
 10
89.48394366252485
 20
-131.2161078230988
 30
0.0
 10
89.41641979101395
 20
-131.41902394718
 30
0.0
 10
89.33408200891648
 20
-131.5313340599991
 30
0.0
 10
89.26638588263133
 20
-131.6222845808097
 30
0.0
 10
89.26638588263133
 20
-131.6222845808097
 30
0.0
 10
89.07587210229701
 20
-131.5209987735434
 30
0.0
 10
89.07587210229701
 20
-131.5209987735434
 30
0.0
 10
89.28722871031708
 20
-131.3198051972048
 30
0.0
 10
89.39488794423114
 20
-131.0383408960599
 30
0.0
 10
89.4432915357989
 20
-130.7506754230415
 30
0.0
 10
89.35440807227945
 20
-130.7506754230415
 30
0.0
 10
89.26552460876002
 20
-130.7551540471723
 30
0.0
 10
89.17888045730598
 20
-130.7679009004678
 30
0.0
 10
89.17888045730598
 20
-130.7679009004678
 30
0.0
 10
89.17870820253171
 20
-130.5605061522557
 30
0.0
 10
89.17870820253171
 20
-130.5605061522557
 30
0.0
 10
89.26759166605116
 20
-130.5753200628423
 30
0.0
 10
89.39867754926492
 20
-130.5770426105849
 30
0.0
 10
89.43674585437692
 20
-130.5770426105849
 30
0.0
 10
89.43674585437692
 20
-130.5770426105849
 30
0.0
 10
89.4832546434278
 20
-130.5770426105849
 30
0.0
 10
89.4832546434278
 20
-130.5770426105849
 30
0.0
 10
89.48118758613666
 20
-130.5284667642429
 30
0.0
 10
89.48101533136239
 20
-130.3083251627354
 30
0.0
 10
89.47877601929697
 20
-130.2638834309757
 30
0.0
 10
89.47877601929697
 20
-130.2218532660557
 30
0.0
 10
89.47877601929697
 20
-130.2091064127602
 30
0.0
 10
89.47446964994042
 20
-130.170865852874
 30
0.0
 10
89.47446964994042
 20
-130.170865852874
 30
0.0
 10
89.68186439815246
 20
-130.1832681966208
 30
0.0
 10
89.68186439815246
 20
-130.1832681966208
 30
0.0
 10
89.69237193938247
 20
-130.1832681966208
 30
0.0
 10
89.7156263339079
 20
-130.1856797634605
 30
0.0
 10
89.7156263339079
 20
-130.2046277886294
 30
0.0
 10
89.71579858868216
 20
-130.2277099283806
 30
0.0
 10
89.69030488209131
 20
-130.2383897243849
 30
0.0
 10
89.66911754485703
 20
-130.2490695203891
 30
0.0
 10
89.66705048756587
 20
-130.2828314561446
 30
0.0
 10
89.66308862775784
 20
-130.530533821534
 30
0.0
 10
89.66308862775784
 20
-130.5770426105849
 30
0.0
 10
89.66308862775784
 20
-130.5770426105849
 30
0.0
 10
89.692716448931
 20
-130.5770426105849
 30
0.0
 10
89.692716448931
 20
-130.5770426105849
 30
0.0
 10
89.77953285515929
 20
-130.5766981010364
 30
0.0
 10
89.86841631867874
 20
-130.5725639864541
 30
0.0
 10
89.95299341284162
 20
-130.5598171331587
 30
0.0
 10
89.95299341284162
 20
-130.5598171331587
 30
0.0
 10
89.95316566761588
 20
-130.7672118813707
 30
0.0
 10
89.95316566761588
 20
-130.7672118813707
 30
0.0
 10
89.841027809571
 20
-130.750330913493
 30
0.0
 10
89.70356849970953
 20
-130.750330913493
 30
0.0
 10
89.69288870370525
 20
-130.750330913493
 30
0.0
  0
SPLINE
  5
123
330
109
100
AcDbEntity
  8
_U+30EC_U+30A4_U+30E4_U+30FC 1
370
     0
100
AcDbSpline
210
0.0
220
0.0
230
1.0
 70
    11
 71
     3
 72
    80
 73
    76
 74
     0
 42
0.0000000001
 43
0.0000000001
 12
1.0
 22
0.0
 32
0.0
 13
1.0
 23
0.0
 33
0.0
 40
0.0
 40
0.0
 40
0.0
 40
0.0
 40
1.0
 40
1.0
 40
1.0
 40
2.0
 40
2.0
 40
2.0
 40
3.0
 40
3.0
 40
3.0
 40
4.0
 40
4.0
 40
4.0
 40
5.0
 40
5.0
 40
5.0
 40
6.0
 40
6.0
 40
6.0
 40
7.0
 40
7.0
 40
7.0
 40
8.0
 40
8.0
 40
8.0
 40
9.0
 40
9.0
 40
9.0
 40
10.0
 40
10.0
 40
10.0
 40
11.0
 40
11.0
 40
11.0
 40
12.0
 40
12.0
 40
12.0
 40
13.0
 40
13.0
 40
13.0
 40
14.0
 40
14.0
 40
14.0
 40
15.0
 40
15.0
 40
15.0
 40
16.0
 40
16.0
 40
16.0
 40
17.0
 40
17.0
 40
17.0
 40
18.0
 40
18.0
 40
18.0
 40
19.0
 40
19.0
 40
19.0
 40
20.0
 40
20.0
 40
20.0
 40
21.0
 40
21.0
 40
21.0
 40
22.0
 40
22.0
 40
22.0
 40
23.0
 40
23.0
 40
23.0
 40
24.0
 40
24.0
 40
24.0
 40
25.0
 40
25.0
 40
25.0
 40
25.0
 10
90.9317450402011
 20
-132.0460313254954
 30
0.0
 10
90.74967174380564
 20
-131.9254529835117
 30
0.0
 10
90.67129582151621
 20
-131.8496608828362
 30
0.0
 10
90.59291989922677
 20
-131.7607774193168
 30
0.0
 10
90.44081893355299
 20
-131.9216633784779
 30
0.0
 10
90.32661401821696
 20
-131.9957329314108
 30
0.0
 10
90.20827498829863
 20
-132.0549885737571
 30
0.0
 10
90.20827498829863
 20
-132.0549885737571
 30
0.0
 10
90.02189532254661
 20
-131.9051269201487
 30
0.0
 10
90.02189532254661
 20
-131.9051269201487
 30
0.0
 10
90.19948999481124
 20
-131.8413926536716
 30
0.0
 10
90.34538978861157
 20
-131.7693901580299
 30
0.0
 10
90.48284909847304
 20
-131.6147053707422
 30
0.0
 10
90.35572507506733
 20
-131.4097221893698
 30
0.0
 10
90.28355032465134
 20
-131.1792453014066
 30
0.0
 10
90.25788436328622
 20
-130.9401556747302
 30
0.0
 10
90.25788436328622
 20
-130.9401556747302
 30
0.0
 10
90.19449460635764
 20
-130.9401556747302
 30
0.0
 10
90.19449460635764
 20
-130.9401556747302
 30
0.0
 10
90.19449460635764
 20
-130.9401556747302
 30
0.0
 10
90.19449460635764
 20
-131.0290391382497
 30
0.0
 10
90.19449460635764
 20
-131.0290391382497
 30
0.0
 10
90.19483911590615
 20
-131.2660617076349
 30
0.0
 10
90.1762356002858
 20
-131.7483750755699
 30
0.0
 10
89.90355629262828
 20
-132.0639458220188
 30
0.0
 10
89.90355629262828
 20
-132.0639458220188
 30
0.0
 10
89.71528182435938
 20
-131.9519802187481
 30
0.0
 10
89.71528182435938
 20
-131.9519802187481
 30
0.0
 10
89.97728133601262
 20
-131.7252929358187
 30
0.0
 10
90.0086317049284
 20
-131.3742377058717
 30
0.0
 10
90.00828719537988
 20
-130.9298203882745
 30
0.0
 10
90.00794268583135
 20
-130.5977131834964
 30
0.0
 10
90.00363631647478
 20
-130.3841172634109
 30
0.0
 10
89.99502357776167
 20
-130.233911100254
 30
0.0
 10
90.10078800915883
 20
-130.2442463867098
 30
0.0
 10
90.18743216061287
 20
-130.2483805012921
 30
0.0
 10
90.33987763583518
 20
-130.2483805012921
 30
0.0
 10
90.33987763583518
 20
-130.2483805012921
 30
0.0
 10
90.70781383365986
 20
-130.2480359917436
 30
0.0
 10
90.70781383365986
 20
-130.2480359917436
 30
0.0
 10
90.80307072382702
 20
-130.2480359917436
 30
0.0
 10
90.98497176544821
 20
-130.2394232530304
 30
0.0
 10
91.05904131838108
 20
-130.2308105143173
 30
0.0
 10
91.05904131838108
 20
-130.2308105143173
 30
0.0
 10
91.05921357315533
 20
-130.4361382052382
 30
0.0
 10
91.05921357315533
 20
-130.4361382052382
 30
0.0
 10
90.95982256840588
 20
-130.4254584092339
 30
0.0
 10
90.84561765306985
 20
-130.4233913519428
 30
0.0
 10
90.61290145304122
 20
-130.4237358614913
 30
0.0
 10
90.61290145304122
 20
-130.4237358614913
 30
0.0
 10
90.57052677857266
 20
-130.4237358614913
 30
0.0
 10
90.57052677857266
 20
-130.4237358614913
 30
0.0
 10
90.57052677857266
 20
-130.4237358614913
 30
0.0
 10
90.19397784203484
 20
-130.4240803710398
 30
0.0
 10
90.19397784203484
 20
-130.4240803710398
 30
0.0
 10
90.19397784203484
 20
-130.4240803710398
 30
0.0
 10
90.19432235158337
 20
-130.7668673718222
 30
0.0
 10
90.19432235158337
 20
-130.7668673718222
 30
0.0
 10
90.19432235158337
 20
-130.7668673718222
 30
0.0
 10
90.54761689359574
 20
-130.7665228622737
 30
0.0
 10
90.54761689359574
 20
-130.7665228622737
 30
0.0
 10
90.60049910929432
 20
-130.7665228622737
 30
0.0
 10
90.83958873597066
 20
-130.7599771808517
 30
0.0
 10
90.88816458231268
 20
-130.757565614012
 30
0.0
 10
90.88816458231268
 20
-130.757565614012
 30
0.0
 10
90.96447344731097
 20
-130.8485161348226
 30
0.0
 10
90.96447344731097
 20
-130.8485161348226
 30
0.0
 10
90.88230791998777
 20
-131.2612385739555
 30
0.0
 10
90.82529158970688
 20
-131.4283257049902
 30
0.0
 10
90.70919187185396
 20
-131.6081596893202
 30
0.0
 10
90.7980753353734
 20
-131.7056558915528
 30
0.0
 10
90.89557153760597
 20
-131.7941948455237
 30
0.0
 10
91.0965928591703
 20
-131.8913465382077
 30
0.0
 10
91.0965928591703
 20
-131.8913465382077
 30
0.0
 10
90.9317450402011
 20
-132.0460313254954
 30
0.0
 10
90.9317450402011
 20
-132.0460313254954
 30
0.0
  0
SPLINE
  5
124
330
109
100
AcDbEntity
  8
_U+30EC_U+30A4_U+30E4_U+30FC 1
370
     0
100
AcDbSpline
210
0.0
220
0.0
230
1.0
 70
    11
 71
     3
 72
    14
 73
    10
 74
     0
 42
0.0000000001
 43
0.0000000001
 12
1.0
 22
0.0
 32
0.0
 13
1.0
 23
0.0
 33
0.0
 40
0.0
 40
0.0
 40
0.0
 40
0.0
 40
1.0
 40
1.0
 40
1.0
 40
2.0
 40
2.0
 40
2.0
 40
3.0
 40
3.0
 40
3.0
 40
3.0
 10
90.44409177426398
 20
-130.9401556747302
 30
0.0
 10
90.46114499691596
 20
-131.1175780922206
 30
0.0
 10
90.50782604074111
 20
-131.2912109046772
 30
0.0
 10
90.59257538967825
 20
-131.4476182397075
 30
0.0
 10
90.63908417872912
 20
-131.3566677188969
 30
0.0
 10
90.71728784624429
 20
-131.1768337345669
 30
0.0
 10
90.74243704328661
 20
-130.9398111651817
 30
0.0
 10
90.74243704328661
 20
-130.9398111651817
 30
0.0
 10
90.44409177426398
 20
-130.9401556747302
 30
0.0
 10
90.44409177426398
 20
-130.9401556747302
 30
0.0
  0
HATCH
  5
125
330
109
100
AcDbEntity
  8
_U+30EC_U+30A4_U+30E4_U+30FC 1
 62
   179
420
  2234388
100
AcDbHatch
 10
0.0
 20
0.0
 30
0.0
210
0.0
220
0.0
230
1.0
  2
SOLID
 70
     1
 71
     0
 91
        3
 92
        1
 93
        1
 72
     4
 94
        3
 73
     0
 74
     1
 95
       86
 96
       82
 40
0.0
 40
0.0
 40
0.0
 40
0.0
 40
1.0
 40
1.0
 40
1.0
 40
2.0
 40
2.0
 40
2.0
 40
3.0
 40
3.0
 40
3.0
 40
4.0
 40
4.0
 40
4.0
 40
5.0
 40
5.0
 40
5.0
 40
6.0
 40
6.0
 40
6.0
 40
7.0
 40
7.0
 40
7.0
 40
8.0
 40
8.0
 40
8.0
 40
9.0
 40
9.0
 40
9.0
 40
10.0
 40
10.0
 40
10.0
 40
11.0
 40
11.0
 40
11.0
 40
12.0
 40
12.0
 40
12.0
 40
13.0
 40
13.0
 40
13.0
 40
14.0
 40
14.0
 40
14.0
 40
15.0
 40
15.0
 40
15.0
 40
16.0
 40
16.0
 40
16.0
 40
17.0
 40
17.0
 40
17.0
 40
18.0
 40
18.0
 40
18.0
 40
19.0
 40
19.0
 40
19.0
 40
20.0
 40
20.0
 40
20.0
 40
21.0
 40
21.0
 40
21.0
 40
22.0
 40
22.0
 40
22.0
 40
23.0
 40
23.0
 40
23.0
 40
24.0
 40
24.0
 40
24.0
 40
25.0
 40
25.0
 40
25.0
 40
26.0
 40
26.0
 40
26.0
 40
27.0
 40
27.0
 40
27.0
 40
27.0
 10
89.69288870370525
 20
-130.750330913493
 10
89.69288870370525
 20
-130.750330913493
 10
89.66119382524096
 20
-130.750330913493
 10
89.66119382524096
 20
-130.750330913493
 10
89.66119382524096
 20
-130.8033853839658
 10
89.70150144241838
 20
-130.9194851018187
 10
89.7418090595958
 20
-131.0001003361736
 10
89.81381155523752
 20
-131.1478949324908
 10
89.90062796146582
 20
-131.2409125105926
 10
89.9493760625821
 20
-131.2915554142257
 10
89.9493760625821
 20
-131.2915554142257
 10
89.82466360601606
 20
-131.4524413733869
 10
89.82466360601606
 20
-131.4524413733869
 10
89.76971433302633
 20
-131.3955972978803
 10
89.7294067158489
 20
-131.3511555661206
 10
89.66171058956374
 20
-131.2243760522634
 10
89.66171058956374
 20
-131.2243760522634
 10
89.66188284433801
 20
-131.4210910044711
 10
89.66188284433801
 20
-131.4210910044711
 10
89.66205509911227
 20
-131.5881781355057
 10
89.66205509911227
 20
-131.6898084523206
 10
89.68358694589507
 20
-132.0935736431919
 10
89.68358694589507
 20
-132.0935736431919
 10
89.45724417251417
 20
-132.0939181527404
 10
89.45724417251417
 20
-132.0939181527404
 10
89.47188582832648
 20
-131.9523247282966
 10
89.48428817207338
 20
-131.5120415252817
 10
89.4841159172991
 20
-131.4338378577665
 10
89.4841159172991
 20
-131.4338378577665
 10
89.48394366252485
 20
-131.2161078230988
 10
89.48394366252485
 20
-131.2161078230988
 10
89.41641979101395
 20
-131.41902394718
 10
89.33408200891648
 20
-131.5313340599991
 10
89.26638588263133
 20
-131.6222845808097
 10
89.26638588263133
 20
-131.6222845808097
 10
89.07587210229701
 20
-131.5209987735434
 10
89.07587210229701
 20
-131.5209987735434
 10
89.28722871031708
 20
-131.3198051972048
 10
89.39488794423114
 20
-131.0383408960599
 10
89.4432915357989
 20
-130.7506754230415
 10
89.35440807227945
 20
-130.7506754230415
 10
89.26552460876002
 20
-130.7551540471723
 10
89.17888045730598
 20
-130.7679009004678
 10
89.17888045730598
 20
-130.7679009004678
 10
89.17870820253171
 20
-130.5605061522557
 10
89.17870820253171
 20
-130.5605061522557
 10
89.26759166605116
 20
-130.5753200628423
 10
89.39867754926492
 20
-130.5770426105849
 10
89.43674585437692
 20
-130.5770426105849
 10
89.43674585437692
 20
-130.5770426105849
 10
89.4832546434278
 20
-130.5770426105849
 10
89.4832546434278
 20
-130.5770426105849
 10
89.48118758613666
 20
-130.5284667642429
 10
89.48101533136239
 20
-130.3083251627354
 10
89.47877601929697
 20
-130.2638834309757
 10
89.47877601929697
 20
-130.2218532660557
 10
89.47877601929697
 20
-130.2091064127602
 10
89.47446964994042
 20
-130.170865852874
 10
89.47446964994042
 20
-130.170865852874
 10
89.68186439815246
 20
-130.1832681966208
 10
89.68186439815246
 20
-130.1832681966208
 10
89.69237193938247
 20
-130.1832681966208
 10
89.7156263339079
 20
-130.1856797634605
 10
89.7156263339079
 20
-130.2046277886294
 10
89.71579858868216
 20
-130.2277099283806
 10
89.69030488209131
 20
-130.2383897243849
 10
89.66911754485703
 20
-130.2490695203891
 10
89.66705048756587
 20
-130.2828314561446
 10
89.66308862775784
 20
-130.530533821534
 10
89.66308862775784
 20
-130.5770426105849
 10
89.66308862775784
 20
-130.5770426105849
 10
89.692716448931
 20
-130.5770426105849
 10
89.692716448931
 20
-130.5770426105849
 10
89.77953285515929
 20
-130.5766981010364
 10
89.86841631867874
 20
-130.5725639864541
 10
89.95299341284162
 20
-130.5598171331587
 10
89.95299341284162
 20
-130.5598171331587
 10
89.95316566761588
 20
-130.7672118813707
 10
89.95316566761588
 20
-130.7672118813707
 10
89.841027809571
 20
-130.750330913493
 10
89.70356849970953
 20
-130.750330913493
 10
89.69288870370525
 20
-130.750330913493
 97
        0
 97
        0
 92
        1
 93
        1
 72
     4
 94
        3
 73
     0
 74
     1
 95
       80
 96
       76
 40
0.0
 40
0.0
 40
0.0
 40
0.0
 40
1.0
 40
1.0
 40
1.0
 40
2.0
 40
2.0
 40
2.0
 40
3.0
 40
3.0
 40
3.0
 40
4.0
 40
4.0
 40
4.0
 40
5.0
 40
5.0
 40
5.0
 40
6.0
 40
6.0
 40
6.0
 40
7.0
 40
7.0
 40
7.0
 40
8.0
 40
8.0
 40
8.0
 40
9.0
 40
9.0
 40
9.0
 40
10.0
 40
10.0
 40
10.0
 40
11.0
 40
11.0
 40
11.0
 40
12.0
 40
12.0
 40
12.0
 40
13.0
 40
13.0
 40
13.0
 40
14.0
 40
14.0
 40
14.0
 40
15.0
 40
15.0
 40
15.0
 40
16.0
 40
16.0
 40
16.0
 40
17.0
 40
17.0
 40
17.0
 40
18.0
 40
18.0
 40
18.0
 40
19.0
 40
19.0
 40
19.0
 40
20.0
 40
20.0
 40
20.0
 40
21.0
 40
21.0
 40
21.0
 40
22.0
 40
22.0
 40
22.0
 40
23.0
 40
23.0
 40
23.0
 40
24.0
 40
24.0
 40
24.0
 40
25.0
 40
25.0
 40
25.0
 40
25.0
 10
90.9317450402011
 20
-132.0460313254954
 10
90.74967174380564
 20
-131.9254529835117
 10
90.67129582151621
 20
-131.8496608828362
 10
90.59291989922677
 20
-131.7607774193168
 10
90.44081893355299
 20
-131.9216633784779
 10
90.32661401821696
 20
-131.9957329314108
 10
90.20827498829863
 20
-132.0549885737571
 10
90.20827498829863
 20
-132.0549885737571
 10
90.02189532254661
 20
-131.9051269201487
 10
90.02189532254661
 20
-131.9051269201487
 10
90.19948999481124
 20
-131.8413926536716
 10
90.34538978861157
 20
-131.7693901580299
 10
90.48284909847304
 20
-131.6147053707422
 10
90.35572507506733
 20
-131.4097221893698
 10
90.28355032465134
 20
-131.1792453014066
 10
90.25788436328622
 20
-130.9401556747302
 10
90.25788436328622
 20
-130.9401556747302
 10
90.19449460635764
 20
-130.9401556747302
 10
90.19449460635764
 20
-130.9401556747302
 10
90.19449460635764
 20
-130.9401556747302
 10
90.19449460635764
 20
-131.0290391382497
 10
90.19449460635764
 20
-131.0290391382497
 10
90.19483911590615
 20
-131.2660617076349
 10
90.1762356002858
 20
-131.7483750755699
 10
89.90355629262828
 20
-132.0639458220188
 10
89.90355629262828
 20
-132.0639458220188
 10
89.71528182435938
 20
-131.9519802187481
 10
89.71528182435938
 20
-131.9519802187481
 10
89.97728133601262
 20
-131.7252929358187
 10
90.0086317049284
 20
-131.3742377058717
 10
90.00828719537988
 20
-130.9298203882745
 10
90.00794268583135
 20
-130.5977131834964
 10
90.00363631647478
 20
-130.3841172634109
 10
89.99502357776167
 20
-130.233911100254
 10
90.10078800915883
 20
-130.2442463867098
 10
90.18743216061287
 20
-130.2483805012921
 10
90.33987763583518
 20
-130.2483805012921
 10
90.33987763583518
 20
-130.2483805012921
 10
90.70781383365986
 20
-130.2480359917436
 10
90.70781383365986
 20
-130.2480359917436
 10
90.80307072382702
 20
-130.2480359917436
 10
90.98497176544821
 20
-130.2394232530304
 10
91.05904131838108
 20
-130.2308105143173
 10
91.05904131838108
 20
-130.2308105143173
 10
91.05921357315533
 20
-130.4361382052382
 10
91.05921357315533
 20
-130.4361382052382
 10
90.95982256840588
 20
-130.4254584092339
 10
90.84561765306985
 20
-130.4233913519428
 10
90.61290145304122
 20
-130.4237358614913
 10
90.61290145304122
 20
-130.4237358614913
 10
90.57052677857266
 20
-130.4237358614913
 10
90.57052677857266
 20
-130.4237358614913
 10
90.57052677857266
 20
-130.4237358614913
 10
90.19397784203484
 20
-130.4240803710398
 10
90.19397784203484
 20
-130.4240803710398
 10
90.19397784203484
 20
-130.4240803710398
 10
90.19432235158337
 20
-130.7668673718222
 10
90.19432235158337
 20
-130.7668673718222
 10
90.19432235158337
 20
-130.7668673718222
 10
90.54761689359574
 20
-130.7665228622737
 10
90.54761689359574
 20
-130.7665228622737
 10
90.60049910929432
 20
-130.7665228622737
 10
90.83958873597066
 20
-130.7599771808517
 10
90.88816458231268
 20
-130.757565614012
 10
90.88816458231268
 20
-130.757565614012
 10
90.96447344731097
 20
-130.8485161348226
 10
90.96447344731097
 20
-130.8485161348226
 10
90.88230791998777
 20
-131.2612385739555
 10
90.82529158970688
 20
-131.4283257049902
 10
90.70919187185396
 20
-131.6081596893202
 10
90.7980753353734
 20
-131.7056558915528
 10
90.89557153760597
 20
-131.7941948455237
 10
91.0965928591703
 20
-131.8913465382077
 10
91.0965928591703
 20
-131.8913465382077
 10
90.9317450402011
 20
-132.0460313254954
 10
90.9317450402011
 20
-132.0460313254954
 97
        0
 97
        0
 92
        1
 93
        1
 72
     4
 94
        3
 73
     0
 74
     1
 95
       14
 96
       10
 40
0.0
 40
0.0
 40
0.0
 40
0.0
 40
1.0
 40
1.0
 40
1.0
 40
2.0
 40
2.0
 40
2.0
 40
3.0
 40
3.0
 40
3.0
 40
3.0
 10
90.44409177426398
 20
-130.9401556747302
 10
90.46114499691596
 20
-131.1175780922206
 10
90.50782604074111
 20
-131.2912109046772
 10
90.59257538967825
 20
-131.4476182397075
 10
90.63908417872912
 20
-131.3566677188969
 10
90.71728784624429
 20
-131.1768337345669
 10
90.74243704328661
 20
-130.9398111651817
 10
90.74243704328661
 20
-130.9398111651817
 10
90.44409177426398
 20
-130.9401556747302
 10
90.44409177426398
 20
-130.9401556747302
 97
        0
 97
        0
 75
     2
 76
     1
 98
        0
  0
SPLINE
  5
126
330
109
100
AcDbEntity
  8
_U+30EC_U+30A4_U+30E4_U+30FC 1
370
     0
100
AcDbSpline
210
0.0
220
0.0
230
1.0
 70
    11
 71
     3
 72
    53
 73
    49
 74
     0
 42
0.0000000001
 43
0.0000000001
 12
1.0
 22
0.0
 32
0.0
 13
1.0
 23
0.0
 33
0.0
 40
0.0
 40
0.0
 40
0.0
 40
0.0
 40
1.0
 40
1.0
 40
1.0
 40
2.0
 40
2.0
 40
2.0
 40
3.0
 40
3.0
 40
3.0
 40
4.0
 40
4.0
 40
4.0
 40
5.0
 40
5.0
 40
5.0
 40
6.0
 40
6.0
 40
6.0
 40
7.0
 40
7.0
 40
7.0
 40
8.0
 40
8.0
 40
8.0
 40
9.0
 40
9.0
 40
9.0
 40
10.0
 40
10.0
 40
10.0
 40
11.0
 40
11.0
 40
11.0
 40
12.0
 40
12.0
 40
12.0
 40
13.0
 40
13.0
 40
13.0
 40
14.0
 40
14.0
 40
14.0
 40
15.0
 40
15.0
 40
15.0
 40
16.0
 40
16.0
 40
16.0
 40
16.0
 10
91.65194225139257
 20
-131.9881537213433
 30
0.0
 10
91.46177298060678
 20
-131.9884982308918
 30
0.0
 10
91.40217282871195
 20
-131.8637857743257
 30
0.0
 10
91.40217282871195
 20
-131.71564666846
 30
0.0
 10
91.40217282871195
 20
-131.71564666846
 30
0.0
 10
91.40148380961492
 20
-131.0218044377307
 30
0.0
 10
91.40148380961492
 20
-131.0218044377307
 30
0.0
 10
91.40148380961492
 20
-131.0218044377307
 30
0.0
 10
91.21958276799371
 20
-131.0218044377307
 30
0.0
 10
91.21958276799371
 20
-131.0218044377307
 30
0.0
 10
91.21958276799371
 20
-131.0218044377307
 30
0.0
 10
91.21941051321946
 20
-130.8292236001052
 30
0.0
 10
91.21941051321946
 20
-130.8292236001052
 30
0.0
 10
91.21941051321946
 20
-130.8292236001052
 30
0.0
 10
91.40148380961492
 20
-130.8292236001052
 30
0.0
 10
91.40148380961492
 20
-130.8292236001052
 30
0.0
 10
91.40148380961492
 20
-130.8292236001052
 30
0.0
 10
91.40113930006639
 20
-130.5139973632049
 30
0.0
 10
91.40113930006639
 20
-130.5139973632049
 30
0.0
 10
91.40113930006639
 20
-130.5139973632049
 30
0.0
 10
91.61886933473417
 20
-130.5136528536563
 30
0.0
 10
91.61886933473417
 20
-130.5136528536563
 30
0.0
 10
91.61886933473417
 20
-130.5136528536563
 30
0.0
 10
91.6192138442827
 20
-130.8288790905567
 30
0.0
 10
91.6192138442827
 20
-130.8288790905567
 30
0.0
 10
91.6192138442827
 20
-130.8288790905567
 30
0.0
 10
91.80972762461701
 20
-130.8288790905567
 30
0.0
 10
91.80972762461701
 20
-130.8288790905567
 30
0.0
 10
91.80972762461701
 20
-130.8288790905567
 30
0.0
 10
91.80972762461701
 20
-131.0214599281821
 30
0.0
 10
91.80972762461701
 20
-131.0214599281821
 30
0.0
 10
91.80972762461701
 20
-131.0214599281821
 30
0.0
 10
91.61955835383122
 20
-131.0214599281821
 30
0.0
 10
91.61955835383122
 20
-131.0214599281821
 30
0.0
 10
91.61955835383122
 20
-131.0214599281821
 30
0.0
 10
91.61990286337975
 20
-131.6898084523206
 30
0.0
 10
91.61990286337975
 20
-131.6898084523206
 30
0.0
 10
91.62024737292828
 20
-131.7745578012577
 30
0.0
 10
91.6729573338526
 20
-131.7976399410089
 30
0.0
 10
91.74495982949432
 20
-131.7976399410089
 30
0.0
 10
91.75563962549859
 20
-131.7976399410089
 30
0.0
 10
91.77872176524977
 20
-131.7976399410089
 30
0.0
 10
91.81041664371406
 20
-131.7935058264266
 30
0.0
 10
91.81041664371406
 20
-131.7935058264266
 30
0.0
 10
91.81076115326259
 20
-131.9647270720436
 30
0.0
 10
91.81076115326259
 20
-131.9647270720436
 30
0.0
 10
91.77699921750714
 20
-131.977473925339
 30
0.0
 10
91.70292966457427
 20
-131.9881537213433
 30
0.0
 10
91.65194225139257
 20
-131.9881537213433
 30
0.0
  0
HATCH
  5
127
330
109
100
AcDbEntity
  8
_U+30EC_U+30A4_U+30E4_U+30FC 1
 62
   179
420
  2234388
100
AcDbHatch
 10
0.0
 20
0.0
 30
0.0
210
0.0
220
0.0
230
1.0
  2
SOLID
 70
     1
 71
     0
 91
        1
 92
        1
 93
        1
 72
     4
 94
        3
 73
     0
 74
     1
 95
       53
 96
       49
 40
0.0
 40
0.0
 40
0.0
 40
0.0
 40
1.0
 40
1.0
 40
1.0
 40
2.0
 40
2.0
 40
2.0
 40
3.0
 40
3.0
 40
3.0
 40
4.0
 40
4.0
 40
4.0
 40
5.0
 40
5.0
 40
5.0
 40
6.0
 40
6.0
 40
6.0
 40
7.0
 40
7.0
 40
7.0
 40
8.0
 40
8.0
 40
8.0
 40
9.0
 40
9.0
 40
9.0
 40
10.0
 40
10.0
 40
10.0
 40
11.0
 40
11.0
 40
11.0
 40
12.0
 40
12.0
 40
12.0
 40
13.0
 40
13.0
 40
13.0
 40
14.0
 40
14.0
 40
14.0
 40
15.0
 40
15.0
 40
15.0
 40
16.0
 40
16.0
 40
16.0
 40
16.0
 10
91.65194225139257
 20
-131.9881537213433
 10
91.46177298060678
 20
-131.9884982308918
 10
91.40217282871195
 20
-131.8637857743257
 10
91.40217282871195
 20
-131.71564666846
 10
91.40217282871195
 20
-131.71564666846
 10
91.40148380961492
 20
-131.0218044377307
 10
91.40148380961492
 20
-131.0218044377307
 10
91.40148380961492
 20
-131.0218044377307
 10
91.21958276799371
 20
-131.0218044377307
 10
91.21958276799371
 20
-131.0218044377307
 10
91.21958276799371
 20
-131.0218044377307
 10
91.21941051321946
 20
-130.8292236001052
 10
91.21941051321946
 20
-130.8292236001052
 10
91.21941051321946
 20
-130.8292236001052
 10
91.40148380961492
 20
-130.8292236001052
 10
91.40148380961492
 20
-130.8292236001052
 10
91.40148380961492
 20
-130.8292236001052
 10
91.40113930006639
 20
-130.5139973632049
 10
91.40113930006639
 20
-130.5139973632049
 10
91.40113930006639
 20
-130.5139973632049
 10
91.61886933473417
 20
-130.5136528536563
 10
91.61886933473417
 20
-130.5136528536563
 10
91.61886933473417
 20
-130.5136528536563
 10
91.6192138442827
 20
-130.8288790905567
 10
91.6192138442827
 20
-130.8288790905567
 10
91.6192138442827
 20
-130.8288790905567
 10
91.80972762461701
 20
-130.8288790905567
 10
91.80972762461701
 20
-130.8288790905567
 10
91.80972762461701
 20
-130.8288790905567
 10
91.80972762461701
 20
-131.0214599281821
 10
91.80972762461701
 20
-131.0214599281821
 10
91.80972762461701
 20
-131.0214599281821
 10
91.61955835383122
 20
-131.0214599281821
 10
91.61955835383122
 20
-131.0214599281821
 10
91.61955835383122
 20
-131.0214599281821
 10
91.61990286337975
 20
-131.6898084523206
 10
91.61990286337975
 20
-131.6898084523206
 10
91.62024737292828
 20
-131.7745578012577
 10
91.6729573338526
 20
-131.7976399410089
 10
91.74495982949432
 20
-131.7976399410089
 10
91.75563962549859
 20
-131.7976399410089
 10
91.77872176524977
 20
-131.7976399410089
 10
91.81041664371406
 20
-131.7935058264266
 10
91.81041664371406
 20
-131.7935058264266
 10
91.81076115326259
 20
-131.9647270720436
 10
91.81076115326259
 20
-131.9647270720436
 10
91.77699921750714
 20
-131.977473925339
 10
91.70292966457427
 20
-131.9881537213433
 10
91.65194225139257
 20
-131.9881537213433
 97
        0
 97
        0
 75
     2
 76
     1
 98
        0
  0
POLYLINE
  5
128
330
109
100
AcDbEntity
  8
_U+30EC_U+30A4_U+30E4_U+30FC 1
370
     0
100
AcDb2dPolyline
 66
     1
 10
0.0
 20
0.0
 30
0.0
  0
VERTEX
  5
129
330
128
100
AcDbEntity
  8
_U+30EC_U+30A4_U+30E4_U+30FC 1
370
     0
100
AcDbVertex
100
AcDb2dVertex
 10
91.98370494662214
 20
-131.0507432398068
 30
0.0
  0
VERTEX
  5
12A
330
128
100
AcDbEntity
  8
_U+30EC_U+30A4_U+30E4_U+30FC 1
370
     0
100
AcDbVertex
100
AcDb2dVertex
 10
91.98336043707361
 20
-130.8454155488859
 30
0.0
  0
VERTEX
  5
12B
330
128
100
AcDbEntity
  8
_U+30EC_U+30A4_U+30E4_U+30FC 1
370
     0
100
AcDbVertex
100
AcDb2dVertex
 10
93.16192760257758
 20
-130.8443820202403
 30
0.0
  0
VERTEX
  5
12C
330
128
100
AcDbEntity
  8
_U+30EC_U+30A4_U+30E4_U+30FC 1
370
     0
100
AcDbVertex
100
AcDb2dVertex
 10
93.16192760257758
 20
-131.0497097111612
 30
0.0
  0
VERTEX
  5
12D
330
128
100
AcDbEntity
  8
_U+30EC_U+30A4_U+30E4_U+30FC 1
370
     0
100
AcDbVertex
100
AcDb2dVertex
 10
91.98370494662214
 20
-131.0507432398068
 30
0.0
  0
SEQEND
  5
12E
330
128
100
AcDbEntity
  8
_U+30EC_U+30A4_U+30E4_U+30FC 1
370
     0
  0
POLYLINE
  5
12F
330
109
100
AcDbEntity
  8
_U+30EC_U+30A4_U+30E4_U+30FC 1
370
     0
100
AcDb2dPolyline
 66
     1
 10
0.0
 20
0.0
 30
0.0
  0
VERTEX
  5
130
330
12F
100
AcDbEntity
  8
_U+30EC_U+30A4_U+30E4_U+30FC 1
370
     0
100
AcDbVertex
100
AcDb2dVertex
 10
91.98404945617065
 20
-131.4844807613997
 30
0.0
  0
VERTEX
  5
131
330
12F
100
AcDbEntity
  8
_U+30EC_U+30A4_U+30E4_U+30FC 1
370
     0
100
AcDbVertex
100
AcDb2dVertex
 10
91.98370494662214
 20
-131.2791530704788
 30
0.0
  0
VERTEX
  5
132
330
12F
100
AcDbEntity
  8
_U+30EC_U+30A4_U+30E4_U+30FC 1
370
     0
100
AcDbVertex
100
AcDb2dVertex
 10
93.1622721121261
 20
-131.2781195418333
 30
0.0
  0
VERTEX
  5
133
330
12F
100
AcDbEntity
  8
_U+30EC_U+30A4_U+30E4_U+30FC 1
370
     0
100
AcDbVertex
100
AcDb2dVertex
 10
93.1622721121261
 20
-131.4834472327541
 30
0.0
  0
VERTEX
  5
134
330
12F
100
AcDbEntity
  8
_U+30EC_U+30A4_U+30E4_U+30FC 1
370
     0
100
AcDbVertex
100
AcDb2dVertex
 10
91.98404945617065
 20
-131.4844807613997
 30
0.0
  0
SEQEND
  5
135
330
12F
100
AcDbEntity
  8
_U+30EC_U+30A4_U+30E4_U+30FC 1
370
     0
  0
HATCH
  5
136
330
109
100
AcDbEntity
  8
_U+30EC_U+30A4_U+30E4_U+30FC 1
 62
   179
420
  2234388
100
AcDbHatch
 10
0.0
 20
0.0
 30
0.0
210
0.0
220
0.0
230
1.0
  2
SOLID
 70
     1
 71
     0
 91
        2
 92
        1
 93
        4
 72
     1
 10
91.98370494662214
 20
-131.0507432398068
 11
91.98336043707361
 21
-130.8454155488859
 72
     1
 10
91.98336043707361
 20
-130.8454155488859
 11
93.16192760257758
 21
-130.8443820202403
 72
     1
 10
93.16192760257758
 20
-130.8443820202403
 11
93.16192760257758
 21
-131.0497097111612
 72
     1
 10
93.16192760257758
 20
-131.0497097111612
 11
91.98370494662214
 21
-131.0507432398068
 97
        0
 92
        1
 93
        4
 72
     1
 10
91.98404945617065
 20
-131.4844807613997
 11
91.98370494662214
 21
-131.2791530704788
 72
     1
 10
91.98370494662214
 20
-131.2791530704788
 11
93.1622721121261
 21
-131.2781195418333
 72
     1
 10
93.1622721121261
 20
-131.2781195418333
 11
93.1622721121261
 21
-131.4834472327541
 72
     1
 10
93.1622721121261
 20
-131.4834472327541
 11
91.98404945617065
 21
-131.4844807613997
 97
        0
 75
     2
 76
     1
 98
        0
  0
SPLINE
  5
137
330
109
100
AcDbEntity
  8
_U+30EC_U+30A4_U+30E4_U+30FC 1
370
     0
100
AcDbSpline
210
0.0
220
0.0
230
1.0
 70
    11
 71
     3
 72
    29
 73
    25
 74
     0
 42
0.0000000001
 43
0.0000000001
 12
1.0
 22
0.0
 32
0.0
 13
1.0
 23
0.0
 33
0.0
 40
0.0
 40
0.0
 40
0.0
 40
0.0
 40
1.0
 40
1.0
 40
1.0
 40
2.0
 40
2.0
 40
2.0
 40
3.0
 40
3.0
 40
3.0
 40
4.0
 40
4.0
 40
4.0
 40
5.0
 40
5.0
 40
5.0
 40
6.0
 40
6.0
 40
6.0
 40
7.0
 40
7.0
 40
7.0
 40
8.0
 40
8.0
 40
8.0
 40
8.0
 10
94.2846842212205
 20
-131.7573323238315
 30
0.0
 10
94.17685273253218
 20
-131.9667941293347
 30
0.0
 10
94.00356442962412
 20
-131.9860866640521
 30
0.0
 10
93.88712020222268
 20
-131.9860866640521
 30
0.0
 10
93.7262342430615
 20
-131.9864311736006
 30
0.0
 10
93.58464081861773
 20
-131.9399223845498
 30
0.0
 10
93.48921167367631
 20
-131.7580213429285
 30
0.0
 10
93.38551429957029
 20
-131.5633734480119
 30
0.0
 10
93.3662217648529
 20
-131.3266953881753
 30
0.0
 10
93.36587725530437
 20
-131.1637423717229
 30
0.0
 10
93.36587725530437
 20
-131.0197373804395
 30
0.0
 10
93.38241371363357
 20
-130.7682454100163
 30
0.0
 10
93.48817814503074
 20
-130.5691188909688
 30
0.0
 10
93.59566512417054
 20
-130.3658582573391
 30
0.0
 10
93.7565510833317
 20
-130.3424316080394
 30
0.0
 10
93.88574216402857
 20
-130.3424316080394
 30
0.0
 10
94.04421655635007
 20
-130.3424316080394
 30
0.0
 10
94.1882215476335
 20
-130.3865288302506
 30
0.0
 10
94.28365069257492
 20
-130.5684298718718
 30
0.0
 10
94.38321395209864
 20
-130.7606661999487
 30
0.0
 10
94.40664060139835
 20
-130.9894205401693
 30
0.0
 10
94.40664060139835
 20
-131.1627088430774
 30
0.0
 10
94.40698511094686
 20
-131.3339300886943
 30
0.0
 10
94.38597002848684
 20
-131.564751486206
 30
0.0
 10
94.2846842212205
 20
-131.7573323238315
 30
0.0
  0
SPLINE
  5
138
330
109
100
AcDbEntity
  8
_U+30EC_U+30A4_U+30E4_U+30FC 1
370
     0
100
AcDbSpline
210
0.0
220
0.0
230
1.0
 70
    11
 71
     3
 72
    17
 73
    13
 74
     0
 42
0.0000000001
 43
0.0000000001
 12
1.0
 22
0.0
 32
0.0
 13
1.0
 23
0.0
 33
0.0
 40
0.0
 40
0.0
 40
0.0
 40
0.0
 40
1.0
 40
1.0
 40
1.0
 40
2.0
 40
2.0
 40
2.0
 40
3.0
 40
3.0
 40
3.0
 40
4.0
 40
4.0
 40
4.0
 40
4.0
 10
93.88574216402857
 20
-130.5350124456649
 30
0.0
 10
93.63631725089648
 20
-130.5350124456649
 30
0.0
 10
93.5898084618456
 20
-130.8185438041009
 30
0.0
 10
93.59015297139413
 20
-131.1633978621744
 30
0.0
 10
93.59049748094266
 20
-131.4831027232056
 30
0.0
 10
93.62667098353778
 20
-131.791783278684
 30
0.0
 10
93.88712020222268
 20
-131.7914387691355
 30
0.0
 10
94.1344780580636
 20
-131.7914387691355
 30
0.0
 10
94.1827093948571
 20
-131.5099744679906
 30
0.0
 10
94.1827093948571
 20
-131.1630533526259
 30
0.0
 10
94.18236488530857
 20
-130.8433484915947
 30
0.0
 10
94.14377981587378
 20
-130.5346679361163
 30
0.0
 10
93.88574216402857
 20
-130.5350124456649
 30
0.0
  0
HATCH
  5
139
330
109
100
AcDbEntity
  8
_U+30EC_U+30A4_U+30E4_U+30FC 1
 62
   179
420
  2234388
100
AcDbHatch
 10
0.0
 20
0.0
 30
0.0
210
0.0
220
0.0
230
1.0
  2
SOLID
 70
     1
 71
     0
 91
        2
 92
        1
 93
        1
 72
     4
 94
        3
 73
     0
 74
     1
 95
       29
 96
       25
 40
0.0
 40
0.0
 40
0.0
 40
0.0
 40
1.0
 40
1.0
 40
1.0
 40
2.0
 40
2.0
 40
2.0
 40
3.0
 40
3.0
 40
3.0
 40
4.0
 40
4.0
 40
4.0
 40
5.0
 40
5.0
 40
5.0
 40
6.0
 40
6.0
 40
6.0
 40
7.0
 40
7.0
 40
7.0
 40
8.0
 40
8.0
 40
8.0
 40
8.0
 10
94.2846842212205
 20
-131.7573323238315
 10
94.17685273253218
 20
-131.9667941293347
 10
94.00356442962412
 20
-131.9860866640521
 10
93.88712020222268
 20
-131.9860866640521
 10
93.7262342430615
 20
-131.9864311736006
 10
93.58464081861773
 20
-131.9399223845498
 10
93.48921167367631
 20
-131.7580213429285
 10
93.38551429957029
 20
-131.5633734480119
 10
93.3662217648529
 20
-131.3266953881753
 10
93.36587725530437
 20
-131.1637423717229
 10
93.36587725530437
 20
-131.0197373804395
 10
93.38241371363357
 20
-130.7682454100163
 10
93.48817814503074
 20
-130.5691188909688
 10
93.59566512417054
 20
-130.3658582573391
 10
93.7565510833317
 20
-130.3424316080394
 10
93.88574216402857
 20
-130.3424316080394
 10
94.04421655635007
 20
-130.3424316080394
 10
94.1882215476335
 20
-130.3865288302506
 10
94.28365069257492
 20
-130.5684298718718
 10
94.38321395209864
 20
-130.7606661999487
 10
94.40664060139835
 20
-130.9894205401693
 10
94.40664060139835
 20
-131.1627088430774
 10
94.40698511094686
 20
-131.3339300886943
 10
94.38597002848684
 20
-131.564751486206
 10
94.2846842212205
 20
-131.7573323238315
 97
        0
 97
        0
 92
        1
 93
        1
 72
     4
 94
        3
 73
     0
 74
     1
 95
       17
 96
       13
 40
0.0
 40
0.0
 40
0.0
 40
0.0
 40
1.0
 40
1.0
 40
1.0
 40
2.0
 40
2.0
 40
2.0
 40
3.0
 40
3.0
 40
3.0
 40
4.0
 40
4.0
 40
4.0
 40
4.0
 10
93.88574216402857
 20
-130.5350124456649
 10
93.63631725089648
 20
-130.5350124456649
 10
93.5898084618456
 20
-130.8185438041009
 10
93.59015297139413
 20
-131.1633978621744
 10
93.59049748094266
 20
-131.4831027232056
 10
93.62667098353778
 20
-131.791783278684
 10
93.88712020222268
 20
-131.7914387691355
 10
94.1344780580636
 20
-131.7914387691355
 10
94.1827093948571
 20
-131.5099744679906
 10
94.1827093948571
 20
-131.1630533526259
 10
94.18236488530857
 20
-130.8433484915947
 10
94.14377981587378
 20
-130.5346679361163
 10
93.88574216402857
 20
-130.5350124456649
 97
        0
 97
        0
 75
     2
 76
     1
 98
        0
  0
POLYLINE
  5
13A
330
109
100
AcDbEntity
  8
_U+30EC_U+30A4_U+30E4_U+30FC 1
370
     0
100
AcDb2dPolyline
 66
     1
 10
0.0
 20
0.0
 30
0.0
  0
VERTEX
  5
13B
330
13A
100
AcDbEntity
  8
_U+30EC_U+30A4_U+30E4_U+30FC 1
370
     0
100
AcDbVertex
100
AcDb2dVertex
 10
94.6240261265176
 20
-131.9347547413219
 30
0.0
  0
VERTEX
  5
13C
330
13A
100
AcDbEntity
  8
_U+30EC_U+30A4_U+30E4_U+30FC 1
370
     0
100
AcDbVertex
100
AcDb2dVertex
 10
94.62368161696908
 20
-131.6829182613501
 30
0.0
  0
VERTEX
  5
13D
330
13A
100
AcDbEntity
  8
_U+30EC_U+30A4_U+30E4_U+30FC 1
370
     0
100
AcDbVertex
100
AcDb2dVertex
 10
94.87551809694085
 20
-131.6825737518016
 30
0.0
  0
VERTEX
  5
13E
330
13A
100
AcDbEntity
  8
_U+30EC_U+30A4_U+30E4_U+30FC 1
370
     0
100
AcDbVertex
100
AcDb2dVertex
 10
94.87551809694085
 20
-131.9344102317733
 30
0.0
  0
VERTEX
  5
13F
330
13A
100
AcDbEntity
  8
_U+30EC_U+30A4_U+30E4_U+30FC 1
370
     0
100
AcDbVertex
100
AcDb2dVertex
 10
94.6240261265176
 20
-131.9347547413219
 30
0.0
  0
SEQEND
  5
140
330
13A
100
AcDbEntity
  8
_U+30EC_U+30A4_U+30E4_U+30FC 1
370
     0
  0
HATCH
  5
141
330
109
100
AcDbEntity
  8
_U+30EC_U+30A4_U+30E4_U+30FC 1
 62
   179
420
  2234388
100
AcDbHatch
 10
0.0
 20
0.0
 30
0.0
210
0.0
220
0.0
230
1.0
  2
SOLID
 70
     1
 71
     0
 91
        1
 92
        1
 93
        4
 72
     1
 10
94.6240261265176
 20
-131.9347547413219
 11
94.62368161696908
 21
-131.6829182613501
 72
     1
 10
94.62368161696908
 20
-131.6829182613501
 11
94.87551809694085
 21
-131.6825737518016
 72
     1
 10
94.87551809694085
 20
-131.6825737518016
 11
94.87551809694085
 21
-131.9344102317733
 72
     1
 10
94.87551809694085
 20
-131.9344102317733
 11
94.6240261265176
 21
-131.9347547413219
 97
        0
 75
     2
 76
     1
 98
        0
  0
SPLINE
  5
142
330
109
100
AcDbEntity
  8
_U+30EC_U+30A4_U+30E4_U+30FC 1
370
     0
100
AcDbSpline
210
0.0
220
0.0
230
1.0
 70
    11
 71
     3
 72
    53
 73
    49
 74
     0
 42
0.0000000001
 43
0.0000000001
 12
1.0
 22
0.0
 32
0.0
 13
1.0
 23
0.0
 33
0.0
 40
0.0
 40
0.0
 40
0.0
 40
0.0
 40
1.0
 40
1.0
 40
1.0
 40
2.0
 40
2.0
 40
2.0
 40
3.0
 40
3.0
 40
3.0
 40
4.0
 40
4.0
 40
4.0
 40
5.0
 40
5.0
 40
5.0
 40
6.0
 40
6.0
 40
6.0
 40
7.0
 40
7.0
 40
7.0
 40
8.0
 40
8.0
 40
8.0
 40
9.0
 40
9.0
 40
9.0
 40
10.0
 40
10.0
 40
10.0
 40
11.0
 40
11.0
 40
11.0
 40
12.0
 40
12.0
 40
12.0
 40
13.0
 40
13.0
 40
13.0
 40
14.0
 40
14.0
 40
14.0
 40
15.0
 40
15.0
 40
15.0
 40
16.0
 40
16.0
 40
16.0
 40
16.0
 10
95.59313148651839
 20
-131.984708625858
 30
0.0
 10
95.51492781900322
 20
-131.984708625858
 30
0.0
 10
95.41329750218834
 20
-131.9678276579803
 30
0.0
 10
95.31166718537348
 20
-131.9044379010517
 30
0.0
 10
95.13803437291689
 20
-131.7945393550722
 30
0.0
 10
95.11701929045687
 20
-131.6632812170842
 30
0.0
 10
95.09772675573946
 20
-131.5554497283959
 30
0.0
 10
95.09772675573946
 20
-131.5554497283959
 30
0.0
 10
95.31993541453808
 20
-131.5554497283959
 30
0.0
 10
95.31993541453808
 20
-131.5554497283959
 30
0.0
 10
95.37505694230207
 20
-131.7542317378948
 30
0.0
 10
95.50183645615927
 20
-131.7835150495194
 30
0.0
 10
95.59519854380954
 20
-131.7835150495194
 30
0.0
 10
95.73472491096216
 20
-131.7835150495194
 30
0.0
 10
95.8869981314102
 20
-131.6839517899957
 30
0.0
 10
95.88665362186167
 20
-131.4510633351928
 30
0.0
 10
95.88630911231314
 20
-131.1950927406387
 30
0.0
 10
95.70647512798311
 20
-131.1255018118367
 30
0.0
 10
95.58589678599937
 20
-131.1258463213852
 30
0.0
 10
95.55420190753506
 20
-131.1258463213852
 30
0.0
 10
95.41260848309129
 20
-131.1258463213852
 30
0.0
 10
95.32372501957185
 20
-131.2550374020821
 30
0.0
 10
95.32372501957185
 20
-131.2550374020821
 30
0.0
 10
95.14802514982411
 20
-131.2360893769132
 30
0.0
 10
95.14802514982411
 20
-131.2360893769132
 30
0.0
 10
95.14802514982411
 20
-131.2360893769132
 30
0.0
 10
95.2679144727108
 20
-130.3896294161873
 30
0.0
 10
95.2679144727108
 20
-130.3896294161873
 30
0.0
 10
95.2679144727108
 20
-130.3896294161873
 30
0.0
 10
96.04650605237727
 20
-130.3889403970903
 30
0.0
 10
96.04650605237727
 20
-130.3889403970903
 30
0.0
 10
96.04650605237727
 20
-130.3889403970903
 30
0.0
 10
96.04650605237727
 20
-130.5835882920069
 30
0.0
 10
96.04650605237727
 20
-130.5835882920069
 30
0.0
 10
96.04650605237727
 20
-130.5835882920069
 30
0.0
 10
95.43121199871165
 20
-130.5842773111039
 30
0.0
 10
95.43121199871165
 20
-130.5842773111039
 30
0.0
 10
95.43121199871165
 20
-130.5842773111039
 30
0.0
 10
95.3657551844919
 20
-131.0073350366926
 30
0.0
 10
95.3657551844919
 20
-131.0073350366926
 30
0.0
 10
95.42707788412935
 20
-130.9735731009372
 30
0.0
 10
95.50976017577534
 20
-130.9332654837598
 30
0.0
 10
95.62827146046794
 20
-130.9332654837598
 30
0.0
 10
95.88183048818233
 20
-130.9329209742112
 30
0.0
 10
96.11919756711603
 20
-131.1189561304147
 30
0.0
 10
96.11954207666456
 20
-131.4317708004754
 30
0.0
 10
96.11954207666456
 20
-131.7494086042154
 30
0.0
 10
95.89561087012332
 20
-131.9843641163095
 30
0.0
 10
95.59313148651839
 20
-131.984708625858
 30
0.0
  0
HATCH
  5
143
330
109
100
AcDbEntity
  8
_U+30EC_U+30A4_U+30E4_U+30FC 1
 62
   179
420
  2234388
100
AcDbHatch
 10
0.0
 20
0.0
 30
0.0
210
0.0
220
0.0
230
1.0
  2
SOLID
 70
     1
 71
     0
 91
        1
 92
        1
 93
        1
 72
     4
 94
        3
 73
     0
 74
     1
 95
       53
 96
       49
 40
0.0
 40
0.0
 40
0.0
 40
0.0
 40
1.0
 40
1.0
 40
1.0
 40
2.0
 40
2.0
 40
2.0
 40
3.0
 40
3.0
 40
3.0
 40
4.0
 40
4.0
 40
4.0
 40
5.0
 40
5.0
 40
5.0
 40
6.0
 40
6.0
 40
6.0
 40
7.0
 40
7.0
 40
7.0
 40
8.0
 40
8.0
 40
8.0
 40
9.0
 40
9.0
 40
9.0
 40
10.0
 40
10.0
 40
10.0
 40
11.0
 40
11.0
 40
11.0
 40
12.0
 40
12.0
 40
12.0
 40
13.0
 40
13.0
 40
13.0
 40
14.0
 40
14.0
 40
14.0
 40
15.0
 40
15.0
 40
15.0
 40
16.0
 40
16.0
 40
16.0
 40
16.0
 10
95.59313148651839
 20
-131.984708625858
 10
95.51492781900322
 20
-131.984708625858
 10
95.41329750218834
 20
-131.9678276579803
 10
95.31166718537348
 20
-131.9044379010517
 10
95.13803437291689
 20
-131.7945393550722
 10
95.11701929045687
 20
-131.6632812170842
 10
95.09772675573946
 20
-131.5554497283959
 10
95.09772675573946
 20
-131.5554497283959
 10
95.31993541453808
 20
-131.5554497283959
 10
95.31993541453808
 20
-131.5554497283959
 10
95.37505694230207
 20
-131.7542317378948
 10
95.50183645615927
 20
-131.7835150495194
 10
95.59519854380954
 20
-131.7835150495194
 10
95.73472491096216
 20
-131.7835150495194
 10
95.8869981314102
 20
-131.6839517899957
 10
95.88665362186167
 20
-131.4510633351928
 10
95.88630911231314
 20
-131.1950927406387
 10
95.70647512798311
 20
-131.1255018118367
 10
95.58589678599937
 20
-131.1258463213852
 10
95.55420190753506
 20
-131.1258463213852
 10
95.41260848309129
 20
-131.1258463213852
 10
95.32372501957185
 20
-131.2550374020821
 10
95.32372501957185
 20
-131.2550374020821
 10
95.14802514982411
 20
-131.2360893769132
 10
95.14802514982411
 20
-131.2360893769132
 10
95.14802514982411
 20
-131.2360893769132
 10
95.2679144727108
 20
-130.3896294161873
 10
95.2679144727108
 20
-130.3896294161873
 10
95.2679144727108
 20
-130.3896294161873
 10
96.04650605237727
 20
-130.3889403970903
 10
96.04650605237727
 20
-130.3889403970903
 10
96.04650605237727
 20
-130.3889403970903
 10
96.04650605237727
 20
-130.5835882920069
 10
96.04650605237727
 20
-130.5835882920069
 10
96.04650605237727
 20
-130.5835882920069
 10
95.43121199871165
 20
-130.5842773111039
 10
95.43121199871165
 20
-130.5842773111039
 10
95.43121199871165
 20
-130.5842773111039
 10
95.3657551844919
 20
-131.0073350366926
 10
95.3657551844919
 20
-131.0073350366926
 10
95.42707788412935
 20
-130.9735731009372
 10
95.50976017577534
 20
-130.9332654837598
 10
95.62827146046794
 20
-130.9332654837598
 10
95.88183048818233
 20
-130.9329209742112
 10
96.11919756711603
 20
-131.1189561304147
 10
96.11954207666456
 20
-131.4317708004754
 10
96.11954207666456
 20
-131.7494086042154
 10
95.89561087012332
 20
-131.9843641163095
 10
95.59313148651839
 20
-131.984708625858
 97
        0
 97
        0
 75
     2
 76
     1
 98
        0
  0
ENDBLK
  5
10C
330
109
100
AcDbEntity
  8
0
100
AcDbBlockEnd
  0
BLOCK
  5
146
330
144
100
AcDbEntity
  8
0
100
AcDbBlockBegin
  2
block 9
 70
     0
 10
0.0
 20
0.0
 30
0.0
  3
block 9
  1

  0
SPLINE
  5
148
330
144
100
AcDbEntity
  8
_U+30EC_U+30A4_U+30E4_U+30FC 1
370
     0
100
AcDbSpline
210
0.0
220
0.0
230
1.0
 70
    11
 71
     3
 72
    38
 73
    34
 74
     0
 42
0.0000000001
 43
0.0000000001
 12
1.0
 22
0.0
 32
0.0
 13
1.0
 23
0.0
 33
0.0
 40
0.0
 40
0.0
 40
0.0
 40
0.0
 40
1.0
 40
1.0
 40
1.0
 40
2.0
 40
2.0
 40
2.0
 40
3.0
 40
3.0
 40
3.0
 40
4.0
 40
4.0
 40
4.0
 40
5.0
 40
5.0
 40
5.0
 40
6.0
 40
6.0
 40
6.0
 40
7.0
 40
7.0
 40
7.0
 40
8.0
 40
8.0
 40
8.0
 40
9.0
 40
9.0
 40
9.0
 40
10.0
 40
10.0
 40
10.0
 40
11.0
 40
11.0
 40
11.0
 40
11.0
 10
95.23346351785831
 20
-139.7124023088219
 30
0.0
 10
95.04777287120334
 20
-139.9728515275068
 30
0.0
 10
94.96750214639702
 20
-140.0848171307774
 30
0.0
 10
94.7687201368981
 20
-140.2543158286517
 30
0.0
 10
94.7687201368981
 20
-140.2543158286517
 30
0.0
 10
94.60128849631496
 20
-140.1044541750433
 30
0.0
 10
94.60128849631496
 20
-140.1044541750433
 30
0.0
 10
94.80007050581388
 20
-139.9855983808022
 30
0.0
 10
94.95647784084422
 20
-139.7971516577591
 30
0.0
 10
95.08945852657486
 20
-139.568741827087
 30
0.0
 10
95.08945852657486
 20
-139.568741827087
 30
0.0
 10
94.2474771899798
 20
-139.569430846184
 30
0.0
 10
94.2474771899798
 20
-139.569430846184
 30
0.0
 10
94.08486868307601
 20
-139.569430846184
 30
0.0
 10
93.83303220310425
 20
-139.5763210371545
 30
0.0
 10
93.6256374548922
 20
-139.5849337758677
 30
0.0
 10
93.6256374548922
 20
-139.5849337758677
 30
0.0
 10
93.6256374548922
 20
-139.3923529382422
 30
0.0
 10
93.6256374548922
 20
-139.3923529382422
 30
0.0
 10
93.79272458592682
 20
-139.402688224698
 30
0.0
 10
94.04869518048089
 20
-139.4068223392802
 30
0.0
 10
94.23679739397552
 20
-139.4064778297317
 30
0.0
 10
94.23679739397552
 20
-139.4064778297317
 30
0.0
 10
94.74253741121021
 20
-139.4061333201832
 30
0.0
 10
94.74253741121021
 20
-139.4061333201832
 30
0.0
 10
94.87792966378052
 20
-139.4057888106347
 30
0.0
 10
95.05121796668858
 20
-139.3909749000481
 30
0.0
 10
95.22898489372749
 20
-139.3654811934572
 30
0.0
 10
95.22898489372749
 20
-139.3654811934572
 30
0.0
 10
95.38573673830635
 20
-139.5577175215342
 30
0.0
 10
95.38573673830635
 20
-139.5577175215342
 30
0.0
 10
95.33922794925547
 20
-139.5790771135427
 30
0.0
 10
95.3244140386689
 20
-139.5852782854162
 30
0.0
 10
95.23346351785831
 20
-139.7124023088219
 30
0.0
  0
SPLINE
  5
149
330
144
100
AcDbEntity
  8
_U+30EC_U+30A4_U+30E4_U+30FC 1
370
     0
100
AcDbSpline
210
0.0
220
0.0
230
1.0
 70
    11
 71
     3
 72
    29
 73
    25
 74
     0
 42
0.0000000001
 43
0.0000000001
 12
1.0
 22
0.0
 32
0.0
 13
1.0
 23
0.0
 33
0.0
 40
0.0
 40
0.0
 40
0.0
 40
0.0
 40
1.0
 40
1.0
 40
1.0
 40
2.0
 40
2.0
 40
2.0
 40
3.0
 40
3.0
 40
3.0
 40
4.0
 40
4.0
 40
4.0
 40
5.0
 40
5.0
 40
5.0
 40
6.0
 40
6.0
 40
6.0
 40
7.0
 40
7.0
 40
7.0
 40
8.0
 40
8.0
 40
8.0
 40
8.0
 10
94.56924910830213
 20
-139.7995632245987
 30
0.0
 10
94.5358316820952
 20
-140.1616427600985
 30
0.0
 10
94.49621308401484
 20
-140.5867675429783
 30
0.0
 10
94.00769854420642
 20
-140.9553927599
 30
0.0
 10
94.00769854420642
 20
-140.9553927599
 30
0.0
 10
93.80030379599437
 20
-140.8220675646209
 30
0.0
 10
93.80030379599437
 20
-140.8220675646209
 30
0.0
 10
94.03904891312219
 20
-140.6866753120506
 30
0.0
 10
94.16582842697937
 20
-140.4896158502943
 30
0.0
 10
94.19132213357022
 20
-140.4496527426654
 30
0.0
 10
94.31396753284513
 20
-140.2591389623311
 30
0.0
 10
94.3453179017609
 20
-140.0727592965791
 30
0.0
 10
94.3453179017609
 20
-139.8295355553204
 30
0.0
 10
94.34497339221237
 20
-139.7830267662695
 30
0.0
 10
94.34497339221237
 20
-139.7492648305141
 30
0.0
 10
94.34083927763007
 20
-139.6772623348724
 30
0.0
 10
94.34083927763007
 20
-139.6772623348724
 30
0.0
 10
94.56924910830213
 20
-139.7003444746235
 30
0.0
 10
94.56924910830213
 20
-139.7003444746235
 30
0.0
 10
94.615757897353
 20
-139.7044785892058
 30
0.0
 10
94.62643769335729
 20
-139.7320393530878
 30
0.0
 10
94.62643769335729
 20
-139.7468532636744
 30
0.0
 10
94.62643769335729
 20
-139.7678683461344
 30
0.0
 10
94.62023652148383
 20
-139.7699354034256
 30
0.0
 10
94.56924910830213
 20
-139.7995632245987
 30
0.0
  0
HATCH
  5
14A
330
144
100
AcDbEntity
  8
_U+30EC_U+30A4_U+30E4_U+30FC 1
 62
   179
420
  2234388
100
AcDbHatch
 10
0.0
 20
0.0
 30
0.0
210
0.0
220
0.0
230
1.0
  2
SOLID
 70
     1
 71
     0
 91
        2
 92
        1
 93
        1
 72
     4
 94
        3
 73
     0
 74
     1
 95
       38
 96
       34
 40
0.0
 40
0.0
 40
0.0
 40
0.0
 40
1.0
 40
1.0
 40
1.0
 40
2.0
 40
2.0
 40
2.0
 40
3.0
 40
3.0
 40
3.0
 40
4.0
 40
4.0
 40
4.0
 40
5.0
 40
5.0
 40
5.0
 40
6.0
 40
6.0
 40
6.0
 40
7.0
 40
7.0
 40
7.0
 40
8.0
 40
8.0
 40
8.0
 40
9.0
 40
9.0
 40
9.0
 40
10.0
 40
10.0
 40
10.0
 40
11.0
 40
11.0
 40
11.0
 40
11.0
 10
95.23346351785831
 20
-139.7124023088219
 10
95.04777287120334
 20
-139.9728515275068
 10
94.96750214639702
 20
-140.0848171307774
 10
94.7687201368981
 20
-140.2543158286517
 10
94.7687201368981
 20
-140.2543158286517
 10
94.60128849631496
 20
-140.1044541750433
 10
94.60128849631496
 20
-140.1044541750433
 10
94.80007050581388
 20
-139.9855983808022
 10
94.95647784084422
 20
-139.7971516577591
 10
95.08945852657486
 20
-139.568741827087
 10
95.08945852657486
 20
-139.568741827087
 10
94.2474771899798
 20
-139.569430846184
 10
94.2474771899798
 20
-139.569430846184
 10
94.08486868307601
 20
-139.569430846184
 10
93.83303220310425
 20
-139.5763210371545
 10
93.6256374548922
 20
-139.5849337758677
 10
93.6256374548922
 20
-139.5849337758677
 10
93.6256374548922
 20
-139.3923529382422
 10
93.6256374548922
 20
-139.3923529382422
 10
93.79272458592682
 20
-139.402688224698
 10
94.04869518048089
 20
-139.4068223392802
 10
94.23679739397552
 20
-139.4064778297317
 10
94.23679739397552
 20
-139.4064778297317
 10
94.74253741121021
 20
-139.4061333201832
 10
94.74253741121021
 20
-139.4061333201832
 10
94.87792966378052
 20
-139.4057888106347
 10
95.05121796668858
 20
-139.3909749000481
 10
95.22898489372749
 20
-139.3654811934572
 10
95.22898489372749
 20
-139.3654811934572
 10
95.38573673830635
 20
-139.5577175215342
 10
95.38573673830635
 20
-139.5577175215342
 10
95.33922794925547
 20
-139.5790771135427
 10
95.3244140386689
 20
-139.5852782854162
 10
95.23346351785831
 20
-139.7124023088219
 97
        0
 97
        0
 92
        1
 93
        1
 72
     4
 94
        3
 73
     0
 74
     1
 95
       29
 96
       25
 40
0.0
 40
0.0
 40
0.0
 40
0.0
 40
1.0
 40
1.0
 40
1.0
 40
2.0
 40
2.0
 40
2.0
 40
3.0
 40
3.0
 40
3.0
 40
4.0
 40
4.0
 40
4.0
 40
5.0
 40
5.0
 40
5.0
 40
6.0
 40
6.0
 40
6.0
 40
7.0
 40
7.0
 40
7.0
 40
8.0
 40
8.0
 40
8.0
 40
8.0
 10
94.56924910830213
 20
-139.7995632245987
 10
94.5358316820952
 20
-140.1616427600985
 10
94.49621308401484
 20
-140.5867675429783
 10
94.00769854420642
 20
-140.9553927599
 10
94.00769854420642
 20
-140.9553927599
 10
93.80030379599437
 20
-140.8220675646209
 10
93.80030379599437
 20
-140.8220675646209
 10
94.03904891312219
 20
-140.6866753120506
 10
94.16582842697937
 20
-140.4896158502943
 10
94.19132213357022
 20
-140.4496527426654
 10
94.31396753284513
 20
-140.2591389623311
 10
94.3453179017609
 20
-140.0727592965791
 10
94.3453179017609
 20
-139.8295355553204
 10
94.34497339221237
 20
-139.7830267662695
 10
94.34497339221237
 20
-139.7492648305141
 10
94.34083927763007
 20
-139.6772623348724
 10
94.34083927763007
 20
-139.6772623348724
 10
94.56924910830213
 20
-139.7003444746235
 10
94.56924910830213
 20
-139.7003444746235
 10
94.615757897353
 20
-139.7044785892058
 10
94.62643769335729
 20
-139.7320393530878
 10
94.62643769335729
 20
-139.7468532636744
 10
94.62643769335729
 20
-139.7678683461344
 10
94.62023652148383
 20
-139.7699354034256
 10
94.56924910830213
 20
-139.7995632245987
 97
        0
 97
        0
 75
     2
 76
     1
 98
        0
  0
SPLINE
  5
14B
330
144
100
AcDbEntity
  8
_U+30EC_U+30A4_U+30E4_U+30FC 1
370
     0
100
AcDbSpline
210
0.0
220
0.0
230
1.0
 70
    11
 71
     3
 72
    35
 73
    31
 74
     0
 42
0.0000000001
 43
0.0000000001
 12
1.0
 22
0.0
 32
0.0
 13
1.0
 23
0.0
 33
0.0
 40
0.0
 40
0.0
 40
0.0
 40
0.0
 40
1.0
 40
1.0
 40
1.0
 40
2.0
 40
2.0
 40
2.0
 40
3.0
 40
3.0
 40
3.0
 40
4.0
 40
4.0
 40
4.0
 40
5.0
 40
5.0
 40
5.0
 40
6.0
 40
6.0
 40
6.0
 40
7.0
 40
7.0
 40
7.0
 40
8.0
 40
8.0
 40
8.0
 40
9.0
 40
9.0
 40
9.0
 40
10.0
 40
10.0
 40
10.0
 40
10.0
 10
96.29661998460641
 20
-139.5167208852597
 30
0.0
 10
96.28800724589328
 20
-139.5232665666817
 30
0.0
 10
96.24563257142471
 20
-139.548415763724
 30
0.0
 10
96.23943139955126
 20
-139.554961445146
 30
0.0
 10
96.23770885180863
 20
-140.2084960586979
 30
0.0
 10
96.15571557925969
 20
-140.6401665229997
 30
0.0
 10
95.71818845263296
 20
-140.8861463406465
 30
0.0
 10
95.71818845263296
 20
-140.8861463406465
 30
0.0
 10
95.55075681204981
 20
-140.7083794136076
 30
0.0
 10
95.55075681204981
 20
-140.7083794136076
 30
0.0
 10
95.6334391036958
 20
-140.672550420561
 30
0.0
 10
95.80259329202158
 20
-140.6026149822105
 30
0.0
 10
95.9269612390391
 20
-140.3335530248125
 30
0.0
 10
95.96485728937685
 20
-140.251215242715
 30
0.0
 10
95.99035099596769
 20
-140.1537190404824
 30
0.0
 10
96.00275333971459
 20
-140.0290065839164
 30
0.0
 10
96.01550019301001
 20
-139.9191080379369
 30
0.0
 10
96.01550019301001
 20
-139.8322916317086
 30
0.0
 10
96.01550019301001
 20
-139.7813042185269
 30
0.0
 10
96.01515568346149
 20
-139.5783880944457
 30
0.0
 10
96.00034177287492
 20
-139.4746907203397
 30
0.0
 10
95.98966197687065
 20
-139.4071668488288
 30
0.0
 10
95.98966197687065
 20
-139.4071668488288
 30
0.0
 10
96.23943139955126
 20
-139.4405842750357
 30
0.0
 10
96.23943139955126
 20
-139.4405842750357
 30
0.0
 10
96.29214136047558
 20
-139.4467854469091
 30
0.0
 10
96.30902232835331
 20
-139.45126407104
 30
0.0
 10
96.30902232835331
 20
-139.4850260067954
 30
0.0
 10
96.30902232835331
 20
-139.499839917382
 30
0.0
 10
96.30488821377101
 20
-139.5084526560951
 30
0.0
 10
96.29661998460641
 20
-139.5167208852597
 30
0.0
  0
SPLINE
  5
14C
330
144
100
AcDbEntity
  8
_U+30EC_U+30A4_U+30E4_U+30FC 1
370
     0
100
AcDbSpline
210
0.0
220
0.0
230
1.0
 70
    11
 71
     3
 72
    50
 73
    46
 74
     0
 42
0.0000000001
 43
0.0000000001
 12
1.0
 22
0.0
 32
0.0
 13
1.0
 23
0.0
 33
0.0
 40
0.0
 40
0.0
 40
0.0
 40
0.0
 40
1.0
 40
1.0
 40
1.0
 40
2.0
 40
2.0
 40
2.0
 40
3.0
 40
3.0
 40
3.0
 40
4.0
 40
4.0
 40
4.0
 40
5.0
 40
5.0
 40
5.0
 40
6.0
 40
6.0
 40
6.0
 40
7.0
 40
7.0
 40
7.0
 40
8.0
 40
8.0
 40
8.0
 40
9.0
 40
9.0
 40
9.0
 40
10.0
 40
10.0
 40
10.0
 40
11.0
 40
11.0
 40
11.0
 40
12.0
 40
12.0
 40
12.0
 40
13.0
 40
13.0
 40
13.0
 40
14.0
 40
14.0
 40
14.0
 40
15.0
 40
15.0
 40
15.0
 40
15.0
 10
96.68694930308521
 20
-140.8596191054101
 30
0.0
 10
96.68694930308521
 20
-140.8596191054101
 30
0.0
 10
96.53674313992832
 20
-140.7476535021395
 30
0.0
 10
96.53674313992832
 20
-140.7476535021395
 30
0.0
 10
96.54501136909292
 20
-140.7032117703798
 30
0.0
 10
96.54914548367522
 20
-140.5657524605183
 30
0.0
 10
96.54914548367522
 20
-140.513042499594
 30
0.0
 10
96.55121254096636
 20
-140.4431070612434
 30
0.0
 10
96.55327959825752
 20
-140.3287298911331
 30
0.0
 10
96.55327959825752
 20
-140.2612060196222
 30
0.0
 10
96.55327959825752
 20
-140.2612060196222
 30
0.0
 10
96.55259057916047
 20
-139.8295355553204
 30
0.0
 10
96.55259057916047
 20
-139.8295355553204
 30
0.0
 10
96.55259057916047
 20
-139.795773619565
 30
0.0
 10
96.5419107831562
 20
-139.4361056509049
 30
0.0
 10
96.53743215902537
 20
-139.3706488366851
 30
0.0
 10
96.53743215902537
 20
-139.3706488366851
 30
0.0
 10
96.77445472841056
 20
-139.3957980337275
 30
0.0
 10
96.77445472841056
 20
-139.3957980337275
 30
0.0
 10
96.80201549229255
 20
-139.3978650910186
 30
0.0
 10
96.8316433134657
 20
-139.4082003774743
 30
0.0
 10
96.8316433134657
 20
-139.4378281986475
 30
0.0
 10
96.8316433134657
 20
-139.4550536760737
 30
0.0
 10
96.82303057475258
 20
-139.4653889625295
 30
0.0
 10
96.80821666416601
 20
-139.4760687585338
 30
0.0
 10
96.78926863899713
 20
-139.4908826691203
 30
0.0
 10
96.78720158170599
 20
-139.4929497264115
 30
0.0
 10
96.7723876711194
 20
-139.5056965797069
 30
0.0
 10
96.7599853273725
 20
-139.5987141578087
 30
0.0
 10
96.75791827008136
 20
-139.8694986629493
 30
0.0
 10
96.75791827008136
 20
-139.9711289797642
 30
0.0
 10
96.75791827008136
 20
-139.9711289797642
 30
0.0
 10
96.75860728917841
 20
-140.5592067790963
 30
0.0
 10
96.75860728917841
 20
-140.5592067790963
 30
0.0
 10
96.8137288169424
 20
-140.5295789579232
 30
0.0
 10
96.9487765599642
 20
-140.4555094049903
 30
0.0
 10
97.11379663370766
 20
-140.2732638538206
 30
0.0
 10
97.21956106510484
 20
-140.1568196264191
 30
0.0
 10
97.26813691144686
 20
-140.072070277482
 30
0.0
 10
97.32704804424463
 20
-139.9559705596291
 30
0.0
 10
97.32704804424463
 20
-139.9559705596291
 30
0.0
 10
97.46898597823693
 20
-140.1247802384063
 30
0.0
 10
97.46898597823693
 20
-140.1247802384063
 30
0.0
 10
97.19854598264482
 20
-140.5526610976743
 30
0.0
 10
96.87091740199756
 20
-140.7493760498821
 30
0.0
 10
96.68694930308521
 20
-140.8596191054101
 30
0.0
  0
HATCH
  5
14D
330
144
100
AcDbEntity
  8
_U+30EC_U+30A4_U+30E4_U+30FC 1
 62
   179
420
  2234388
100
AcDbHatch
 10
0.0
 20
0.0
 30
0.0
210
0.0
220
0.0
230
1.0
  2
SOLID
 70
     1
 71
     0
 91
        2
 92
        1
 93
        1
 72
     4
 94
        3
 73
     0
 74
     1
 95
       35
 96
       31
 40
0.0
 40
0.0
 40
0.0
 40
0.0
 40
1.0
 40
1.0
 40
1.0
 40
2.0
 40
2.0
 40
2.0
 40
3.0
 40
3.0
 40
3.0
 40
4.0
 40
4.0
 40
4.0
 40
5.0
 40
5.0
 40
5.0
 40
6.0
 40
6.0
 40
6.0
 40
7.0
 40
7.0
 40
7.0
 40
8.0
 40
8.0
 40
8.0
 40
9.0
 40
9.0
 40
9.0
 40
10.0
 40
10.0
 40
10.0
 40
10.0
 10
96.29661998460641
 20
-139.5167208852597
 10
96.28800724589328
 20
-139.5232665666817
 10
96.24563257142471
 20
-139.548415763724
 10
96.23943139955126
 20
-139.554961445146
 10
96.23770885180863
 20
-140.2084960586979
 10
96.15571557925969
 20
-140.6401665229997
 10
95.71818845263296
 20
-140.8861463406465
 10
95.71818845263296
 20
-140.8861463406465
 10
95.55075681204981
 20
-140.7083794136076
 10
95.55075681204981
 20
-140.7083794136076
 10
95.6334391036958
 20
-140.672550420561
 10
95.80259329202158
 20
-140.6026149822105
 10
95.9269612390391
 20
-140.3335530248125
 10
95.96485728937685
 20
-140.251215242715
 10
95.99035099596769
 20
-140.1537190404824
 10
96.00275333971459
 20
-140.0290065839164
 10
96.01550019301001
 20
-139.9191080379369
 10
96.01550019301001
 20
-139.8322916317086
 10
96.01550019301001
 20
-139.7813042185269
 10
96.01515568346149
 20
-139.5783880944457
 10
96.00034177287492
 20
-139.4746907203397
 10
95.98966197687065
 20
-139.4071668488288
 10
95.98966197687065
 20
-139.4071668488288
 10
96.23943139955126
 20
-139.4405842750357
 10
96.23943139955126
 20
-139.4405842750357
 10
96.29214136047558
 20
-139.4467854469091
 10
96.30902232835331
 20
-139.45126407104
 10
96.30902232835331
 20
-139.4850260067954
 10
96.30902232835331
 20
-139.499839917382
 10
96.30488821377101
 20
-139.5084526560951
 10
96.29661998460641
 20
-139.5167208852597
 97
        0
 97
        0
 92
        1
 93
        1
 72
     4
 94
        3
 73
     0
 74
     1
 95
       50
 96
       46
 40
0.0
 40
0.0
 40
0.0
 40
0.0
 40
1.0
 40
1.0
 40
1.0
 40
2.0
 40
2.0
 40
2.0
 40
3.0
 40
3.0
 40
3.0
 40
4.0
 40
4.0
 40
4.0
 40
5.0
 40
5.0
 40
5.0
 40
6.0
 40
6.0
 40
6.0
 40
7.0
 40
7.0
 40
7.0
 40
8.0
 40
8.0
 40
8.0
 40
9.0
 40
9.0
 40
9.0
 40
10.0
 40
10.0
 40
10.0
 40
11.0
 40
11.0
 40
11.0
 40
12.0
 40
12.0
 40
12.0
 40
13.0
 40
13.0
 40
13.0
 40
14.0
 40
14.0
 40
14.0
 40
15.0
 40
15.0
 40
15.0
 40
15.0
 10
96.68694930308521
 20
-140.8596191054101
 10
96.68694930308521
 20
-140.8596191054101
 10
96.53674313992832
 20
-140.7476535021395
 10
96.53674313992832
 20
-140.7476535021395
 10
96.54501136909292
 20
-140.7032117703798
 10
96.54914548367522
 20
-140.5657524605183
 10
96.54914548367522
 20
-140.513042499594
 10
96.55121254096636
 20
-140.4431070612434
 10
96.55327959825752
 20
-140.3287298911331
 10
96.55327959825752
 20
-140.2612060196222
 10
96.55327959825752
 20
-140.2612060196222
 10
96.55259057916047
 20
-139.8295355553204
 10
96.55259057916047
 20
-139.8295355553204
 10
96.55259057916047
 20
-139.795773619565
 10
96.5419107831562
 20
-139.4361056509049
 10
96.53743215902537
 20
-139.3706488366851
 10
96.53743215902537
 20
-139.3706488366851
 10
96.77445472841056
 20
-139.3957980337275
 10
96.77445472841056
 20
-139.3957980337275
 10
96.80201549229255
 20
-139.3978650910186
 10
96.8316433134657
 20
-139.4082003774743
 10
96.8316433134657
 20
-139.4378281986475
 10
96.8316433134657
 20
-139.4550536760737
 10
96.82303057475258
 20
-139.4653889625295
 10
96.80821666416601
 20
-139.4760687585338
 10
96.78926863899713
 20
-139.4908826691203
 10
96.78720158170599
 20
-139.4929497264115
 10
96.7723876711194
 20
-139.5056965797069
 10
96.7599853273725
 20
-139.5987141578087
 10
96.75791827008136
 20
-139.8694986629493
 10
96.75791827008136
 20
-139.9711289797642
 10
96.75791827008136
 20
-139.9711289797642
 10
96.75860728917841
 20
-140.5592067790963
 10
96.75860728917841
 20
-140.5592067790963
 10
96.8137288169424
 20
-140.5295789579232
 10
96.9487765599642
 20
-140.4555094049903
 10
97.11379663370766
 20
-140.2732638538206
 10
97.21956106510484
 20
-140.1568196264191
 10
97.26813691144686
 20
-140.072070277482
 10
97.32704804424463
 20
-139.9559705596291
 10
97.32704804424463
 20
-139.9559705596291
 10
97.46898597823693
 20
-140.1247802384063
 10
97.46898597823693
 20
-140.1247802384063
 10
97.19854598264482
 20
-140.5526610976743
 10
96.87091740199756
 20
-140.7493760498821
 10
96.68694930308521
 20
-140.8596191054101
 97
        0
 97
        0
 75
     2
 76
     1
 98
        0
  0
SPLINE
  5
14E
330
144
100
AcDbEntity
  8
_U+30EC_U+30A4_U+30E4_U+30FC 1
370
     0
100
AcDbSpline
210
0.0
220
0.0
230
1.0
 70
    11
 71
     3
 72
    20
 73
    16
 74
     0
 42
0.0000000001
 43
0.0000000001
 12
1.0
 22
0.0
 32
0.0
 13
1.0
 23
0.0
 33
0.0
 40
0.0
 40
0.0
 40
0.0
 40
0.0
 40
1.0
 40
1.0
 40
1.0
 40
2.0
 40
2.0
 40
2.0
 40
3.0
 40
3.0
 40
3.0
 40
4.0
 40
4.0
 40
4.0
 40
5.0
 40
5.0
 40
5.0
 40
5.0
 10
98.72747935899869
 20
-141.0735595350441
 30
0.0
 10
98.5896755395887
 20
-140.9657280463558
 30
0.0
 10
98.46082896844035
 20
-140.8771890923849
 30
0.0
 10
98.22794051363746
 20
-140.7672905464054
 30
0.0
 10
98.03742673330315
 20
-140.6766845351433
 30
0.0
 10
97.84071178109538
 20
-140.596413810337
 30
0.0
 10
97.63331703288334
 20
-140.5605848172904
 30
0.0
 10
97.63331703288334
 20
-140.5605848172904
 30
0.0
 10
97.72185598685427
 20
-140.3659369223738
 30
0.0
 10
97.72185598685427
 20
-140.3659369223738
 30
0.0
 10
98.14077959786064
 20
-140.4734239015136
 30
0.0
 10
98.56004771841555
 20
-140.665315720042
 30
0.0
 10
98.82256399439159
 20
-140.8554849908278
 30
0.0
 10
98.82256399439159
 20
-140.8554849908278
 30
0.0
 10
98.72747935899869
 20
-141.0735595350441
 30
0.0
 10
98.72747935899869
 20
-141.0735595350441
 30
0.0
  0
SPLINE
  5
14F
330
144
100
AcDbEntity
  8
_U+30EC_U+30A4_U+30E4_U+30FC 1
370
     0
100
AcDbSpline
210
0.0
220
0.0
230
1.0
 70
    11
 71
     3
 72
    17
 73
    13
 74
     0
 42
0.0000000001
 43
0.0000000001
 12
1.0
 22
0.0
 32
0.0
 13
1.0
 23
0.0
 33
0.0
 40
0.0
 40
0.0
 40
0.0
 40
0.0
 40
1.0
 40
1.0
 40
1.0
 40
2.0
 40
2.0
 40
2.0
 40
3.0
 40
3.0
 40
3.0
 40
4.0
 40
4.0
 40
4.0
 40
4.0
 10
98.62309296579562
 20
-140.3056477513819
 30
0.0
 10
98.39640568286617
 20
-140.1389051298958
 30
0.0
 10
98.06636553537925
 20
-140.0121256160386
 30
0.0
 10
97.83795570470718
 20
-139.9766411325406
 30
0.0
 10
97.83795570470718
 20
-139.9766411325406
 30
0.0
 10
97.90754663350923
 20
-139.7775146134931
 30
0.0
 10
97.90754663350923
 20
-139.7775146134931
 30
0.0
 10
98.09358178971272
 20
-139.8092094919574
 30
0.0
 10
98.46186249708593
 20
-139.9570040882747
 30
0.0
 10
98.70129663331079
 20
-140.1089327991742
 30
0.0
 10
98.70129663331079
 20
-140.1089327991742
 30
0.0
 10
98.62309296579562
 20
-140.3056477513819
 30
0.0
 10
98.62309296579562
 20
-140.3056477513819
 30
0.0
  0
SPLINE
  5
150
330
144
100
AcDbEntity
  8
_U+30EC_U+30A4_U+30E4_U+30FC 1
370
     0
100
AcDbSpline
210
0.0
220
0.0
230
1.0
 70
    11
 71
     3
 72
    20
 73
    16
 74
     0
 42
0.0000000001
 43
0.0000000001
 12
1.0
 22
0.0
 32
0.0
 13
1.0
 23
0.0
 33
0.0
 40
0.0
 40
0.0
 40
0.0
 40
0.0
 40
1.0
 40
1.0
 40
1.0
 40
2.0
 40
2.0
 40
2.0
 40
3.0
 40
3.0
 40
3.0
 40
4.0
 40
4.0
 40
4.0
 40
5.0
 40
5.0
 40
5.0
 40
5.0
 10
98.65444333471139
 20
-139.7389295440583
 30
0.0
 10
98.59070906823428
 20
-139.6838080162943
 30
0.0
 10
98.51870657259255
 20
-139.6204182593657
 30
0.0
 10
98.27341577404276
 20
-139.5105197133863
 30
0.0
 10
98.03846026194873
 20
-139.4071668488288
 30
0.0
 10
97.94096405971615
 20
-139.390285880951
 30
0.0
 10
97.84174530974096
 20
-139.3737494226218
 30
0.0
 10
97.84174530974096
 20
-139.3737494226218
 30
0.0
 10
97.90926918125186
 20
-139.168421731701
 30
0.0
 10
97.90926918125186
 20
-139.168421731701
 30
0.0
 10
98.22862953273452
 20
-139.231466979081
 30
0.0
 10
98.59897729739887
 20
-139.4257703644491
 30
0.0
 10
98.72816837809575
 20
-139.5229220571332
 30
0.0
 10
98.72816837809575
 20
-139.5229220571332
 30
0.0
 10
98.65444333471139
 20
-139.7389295440583
 30
0.0
 10
98.65444333471139
 20
-139.7389295440583
 30
0.0
  0
HATCH
  5
151
330
144
100
AcDbEntity
  8
_U+30EC_U+30A4_U+30E4_U+30FC 1
 62
   179
420
  2234388
100
AcDbHatch
 10
0.0
 20
0.0
 30
0.0
210
0.0
220
0.0
230
1.0
  2
SOLID
 70
     1
 71
     0
 91
        3
 92
        1
 93
        1
 72
     4
 94
        3
 73
     0
 74
     1
 95
       20
 96
       16
 40
0.0
 40
0.0
 40
0.0
 40
0.0
 40
1.0
 40
1.0
 40
1.0
 40
2.0
 40
2.0
 40
2.0
 40
3.0
 40
3.0
 40
3.0
 40
4.0
 40
4.0
 40
4.0
 40
5.0
 40
5.0
 40
5.0
 40
5.0
 10
98.72747935899869
 20
-141.0735595350441
 10
98.5896755395887
 20
-140.9657280463558
 10
98.46082896844035
 20
-140.8771890923849
 10
98.22794051363746
 20
-140.7672905464054
 10
98.03742673330315
 20
-140.6766845351433
 10
97.84071178109538
 20
-140.596413810337
 10
97.63331703288334
 20
-140.5605848172904
 10
97.63331703288334
 20
-140.5605848172904
 10
97.72185598685427
 20
-140.3659369223738
 10
97.72185598685427
 20
-140.3659369223738
 10
98.14077959786064
 20
-140.4734239015136
 10
98.56004771841555
 20
-140.665315720042
 10
98.82256399439159
 20
-140.8554849908278
 10
98.82256399439159
 20
-140.8554849908278
 10
98.72747935899869
 20
-141.0735595350441
 10
98.72747935899869
 20
-141.0735595350441
 97
        0
 97
        0
 92
        1
 93
        1
 72
     4
 94
        3
 73
     0
 74
     1
 95
       17
 96
       13
 40
0.0
 40
0.0
 40
0.0
 40
0.0
 40
1.0
 40
1.0
 40
1.0
 40
2.0
 40
2.0
 40
2.0
 40
3.0
 40
3.0
 40
3.0
 40
4.0
 40
4.0
 40
4.0
 40
4.0
 10
98.62309296579562
 20
-140.3056477513819
 10
98.39640568286617
 20
-140.1389051298958
 10
98.06636553537925
 20
-140.0121256160386
 10
97.83795570470718
 20
-139.9766411325406
 10
97.83795570470718
 20
-139.9766411325406
 10
97.90754663350923
 20
-139.7775146134931
 10
97.90754663350923
 20
-139.7775146134931
 10
98.09358178971272
 20
-139.8092094919574
 10
98.46186249708593
 20
-139.9570040882747
 10
98.70129663331079
 20
-140.1089327991742
 10
98.70129663331079
 20
-140.1089327991742
 10
98.62309296579562
 20
-140.3056477513819
 10
98.62309296579562
 20
-140.3056477513819
 97
        0
 97
        0
 92
        1
 93
        1
 72
     4
 94
        3
 73
     0
 74
     1
 95
       20
 96
       16
 40
0.0
 40
0.0
 40
0.0
 40
0.0
 40
1.0
 40
1.0
 40
1.0
 40
2.0
 40
2.0
 40
2.0
 40
3.0
 40
3.0
 40
3.0
 40
4.0
 40
4.0
 40
4.0
 40
5.0
 40
5.0
 40
5.0
 40
5.0
 10
98.65444333471139
 20
-139.7389295440583
 10
98.59070906823428
 20
-139.6838080162943
 10
98.51870657259255
 20
-139.6204182593657
 10
98.27341577404276
 20
-139.5105197133863
 10
98.03846026194873
 20
-139.4071668488288
 10
97.94096405971615
 20
-139.390285880951
 10
97.84174530974096
 20
-139.3737494226218
 10
97.84174530974096
 20
-139.3737494226218
 10
97.90926918125186
 20
-139.168421731701
 10
97.90926918125186
 20
-139.168421731701
 10
98.22862953273452
 20
-139.231466979081
 10
98.59897729739887
 20
-139.4257703644491
 10
98.72816837809575
 20
-139.5229220571332
 10
98.72816837809575
 20
-139.5229220571332
 10
98.65444333471139
 20
-139.7389295440583
 10
98.65444333471139
 20
-139.7389295440583
 97
        0
 97
        0
 75
     2
 76
     1
 98
        0
  0
SPLINE
  5
152
330
144
100
AcDbEntity
  8
_U+30EC_U+30A4_U+30E4_U+30FC 1
370
     0
100
AcDbSpline
210
0.0
220
0.0
230
1.0
 70
    11
 71
     3
 72
   104
 73
   100
 74
     0
 42
0.0000000001
 43
0.0000000001
 12
1.0
 22
0.0
 32
0.0
 13
1.0
 23
0.0
 33
0.0
 40
0.0
 40
0.0
 40
0.0
 40
0.0
 40
1.0
 40
1.0
 40
1.0
 40
2.0
 40
2.0
 40
2.0
 40
3.0
 40
3.0
 40
3.0
 40
4.0
 40
4.0
 40
4.0
 40
5.0
 40
5.0
 40
5.0
 40
6.0
 40
6.0
 40
6.0
 40
7.0
 40
7.0
 40
7.0
 40
8.0
 40
8.0
 40
8.0
 40
9.0
 40
9.0
 40
9.0
 40
10.0
 40
10.0
 40
10.0
 40
11.0
 40
11.0
 40
11.0
 40
12.0
 40
12.0
 40
12.0
 40
13.0
 40
13.0
 40
13.0
 40
14.0
 40
14.0
 40
14.0
 40
15.0
 40
15.0
 40
15.0
 40
16.0
 40
16.0
 40
16.0
 40
17.0
 40
17.0
 40
17.0
 40
18.0
 40
18.0
 40
18.0
 40
19.0
 40
19.0
 40
19.0
 40
20.0
 40
20.0
 40
20.0
 40
21.0
 40
21.0
 40
21.0
 40
22.0
 40
22.0
 40
22.0
 40
23.0
 40
23.0
 40
23.0
 40
24.0
 40
24.0
 40
24.0
 40
25.0
 40
25.0
 40
25.0
 40
26.0
 40
26.0
 40
26.0
 40
27.0
 40
27.0
 40
27.0
 40
28.0
 40
28.0
 40
28.0
 40
29.0
 40
29.0
 40
29.0
 40
30.0
 40
30.0
 40
30.0
 40
31.0
 40
31.0
 40
31.0
 40
32.0
 40
32.0
 40
32.0
 40
33.0
 40
33.0
 40
33.0
 40
33.0
 10
100.5399440937886
 20
-139.5425591013991
 30
0.0
 10
100.5716389722529
 20
-139.5994031769057
 30
0.0
 10
100.6012667934261
 20
-139.6755397871297
 30
0.0
 10
100.6184922708523
 20
-139.7602891360669
 30
0.0
 10
100.6184922708523
 20
-139.7602891360669
 30
0.0
 10
100.4365912292311
 20
-139.8281575171263
 30
0.0
 10
100.4365912292311
 20
-139.8281575171263
 30
0.0
 10
100.4110975226403
 20
-139.713780347016
 30
0.0
 10
100.3962836120537
 20
-139.6483235327963
 30
0.0
 10
100.3370279697074
 20
-139.5425591013991
 30
0.0
 10
100.3370279697074
 20
-139.5425591013991
 30
0.0
 10
100.2164496277237
 20
-139.5425591013991
 30
0.0
 10
100.2164496277237
 20
-139.5425591013991
 30
0.0
 10
100.1275661642042
 20
-139.7079236846911
 30
0.0
 10
100.0896701138665
 20
-139.7502983591596
 30
0.0
 10
100.0600422926933
 20
-139.7840602949151
 30
0.0
 10
100.0600422926933
 20
-139.7840602949151
 30
0.0
 10
99.85678165906359
 20
-139.7124023088219
 30
0.0
 10
99.85678165906359
 20
-139.7124023088219
 30
0.0
 10
99.897089276241
 20
-139.6762288062268
 30
0.0
 10
99.96254609046076
 20
-139.6190402211716
 30
0.0
 10
100.0090548795116
 20
-139.5515163496607
 30
0.0
 10
99.95393335174764
 20
-139.5494492923696
 30
0.0
 10
99.78271210613072
 20
-139.5494492923696
 30
0.0
 10
99.71932234920212
 20
-139.5494492923696
 30
0.0
 10
99.71932234920212
 20
-139.5494492923696
 30
0.0
 10
99.68969452802897
 20
-139.5494492923696
 30
0.0
 10
99.68969452802897
 20
-139.5494492923696
 30
0.0
 10
99.72552352107557
 20
-139.6193847307202
 30
0.0
 10
99.76996525283529
 20
-139.7165364234042
 30
0.0
 10
99.79545895942614
 20
-139.7968071482105
 30
0.0
 10
99.79545895942614
 20
-139.7968071482105
 30
0.0
 10
99.61355791780495
 20
-139.8712212106919
 30
0.0
 10
99.61355791780495
 20
-139.8712212106919
 30
0.0
 10
99.59667694992723
 20
-139.8119655683456
 30
0.0
 10
99.56291501417178
 20
-139.6979329077839
 30
0.0
 10
99.48643389439923
 20
-139.5497938019181
 30
0.0
 10
99.48643389439923
 20
-139.5497938019181
 30
0.0
 10
99.37653534841976
 20
-139.5497938019181
 30
0.0
 10
99.37653534841976
 20
-139.5497938019181
 30
0.0
 10
99.36998966699778
 20
-139.5563394833401
 30
0.0
 10
99.27490503160489
 20
-139.6662380293195
 30
0.0
 10
99.179820396212
 20
-139.7489203209656
 30
0.0
 10
99.179820396212
 20
-139.7489203209656
 30
0.0
 10
98.98723955858652
 20
-139.6497015709903
 30
0.0
 10
98.98723955858652
 20
-139.6497015709903
 30
0.0
 10
99.08025713668827
 20
-139.5966471005175
 30
0.0
 10
99.1605278614946
 20
-139.5225775475846
 30
0.0
 10
99.23046329984517
 20
-139.4398952559386
 30
0.0
 10
99.31693519652494
 20
-139.3361978818326
 30
0.0
 10
99.35724281370236
 20
-139.2345675650178
 30
0.0
 10
99.3910047494578
 20
-139.1394829296248
 30
0.0
 10
99.3910047494578
 20
-139.1394829296248
 30
0.0
 10
99.58358558708328
 20
-139.2218207117223
 30
0.0
 10
99.58358558708328
 20
-139.2218207117223
 30
0.0
 10
99.59839949766985
 20
-139.2280218835958
 30
0.0
 10
99.6087347841256
 20
-139.2366346223089
 30
0.0
 10
99.6087347841256
 20
-139.2469699087646
 30
0.0
 10
99.6087347841256
 20
-139.2683295007732
 30
0.0
 10
99.58358558708328
 20
-139.2724636153555
 30
0.0
 10
99.55395776591013
 20
-139.2769422394863
 30
0.0
 10
99.51812877286353
 20
-139.3382649391238
 30
0.0
 10
99.50538191956811
 20
-139.3592800215838
 30
0.0
 10
99.48643389439923
 20
-139.3889078427569
 30
0.0
 10
99.48643389439923
 20
-139.3889078427569
 30
0.0
 10
99.71897783965359
 20
-139.3889078427569
 30
0.0
 10
99.71897783965359
 20
-139.3889078427569
 30
0.0
 10
99.76755368599562
 20
-139.3885633332084
 30
0.0
 10
99.9770154914988
 20
-139.3820176517864
 30
0.0
 10
100.0214572232585
 20
-139.3799505944953
 30
0.0
 10
100.0214572232585
 20
-139.3799505944953
 30
0.0
 10
100.021801732807
 20
-139.5322238149433
 30
0.0
 10
100.021801732807
 20
-139.5322238149433
 30
0.0
 10
100.0638318977271
 20
-139.4626328861413
 30
0.0
 10
100.1399685079511
 20
-139.2762532203893
 30
0.0
 10
100.1630506477023
 20
-139.1491291969836
 30
0.0
 10
100.1630506477023
 20
-139.1491291969836
 30
0.0
 10
100.3576985426189
 20
-139.2145860112033
 30
0.0
 10
100.3576985426189
 20
-139.2145860112033
 30
0.0
 10
100.3745795104966
 20
-139.2211316926253
 30
0.0
 10
100.3893934210832
 20
-139.2252658072076
 30
0.0
 10
100.3893934210832
 20
-139.2400797177941
 30
0.0
 10
100.3893934210832
 20
-139.2610948002542
 30
0.0
 10
100.3618326572012
 20
-139.265573424385
 30
0.0
 10
100.33875051745
 20
-139.2697075389673
 30
0.0
 10
100.3260036641546
 20
-139.3014024174316
 30
0.0
 10
100.311189753568
 20
-139.3351643531871
 30
0.0
 10
100.2881076138169
 20
-139.390285880951
 30
0.0
 10
100.2881076138169
 20
-139.390285880951
 30
0.0
 10
100.5568250616664
 20
-139.3899413714025
 30
0.0
 10
100.5568250616664
 20
-139.3899413714025
 30
0.0
 10
100.6181477613038
 20
-139.3899413714025
 30
0.0
 10
100.8951334383179
 20
-139.3771945181071
 30
0.0
 10
100.952322023373
 20
-139.3747829512674
 30
0.0
 10
100.952322023373
 20
-139.3747829512674
 30
0.0
 10
100.952322023373
 20
-139.5546169355975
 30
0.0
 10
100.952322023373
 20
-139.5546169355975
 30
0.0
 10
100.8954779478664
 20
-139.5504828210152
 30
0.0
 10
100.7111653394055
 20
-139.5422145918506
 30
0.0
 10
100.5399440937886
 20
-139.5425591013991
 30
0.0
  0
SPLINE
  5
153
330
144
100
AcDbEntity
  8
_U+30EC_U+30A4_U+30E4_U+30FC 1
370
     0
100
AcDbSpline
210
0.0
220
0.0
230
1.0
 70
    11
 71
     3
 72
    17
 73
    13
 74
     0
 42
0.0000000001
 43
0.0000000001
 12
1.0
 22
0.0
 32
0.0
 13
1.0
 23
0.0
 33
0.0
 40
0.0
 40
0.0
 40
0.0
 40
0.0
 40
1.0
 40
1.0
 40
1.0
 40
2.0
 40
2.0
 40
2.0
 40
3.0
 40
3.0
 40
3.0
 40
4.0
 40
4.0
 40
4.0
 40
4.0
 10
99.24389917223765
 20
-140.4406954944037
 30
0.0
 10
99.16982961930476
 20
-140.3580132027577
 30
0.0
 10
99.10643986237618
 20
-140.3073702991246
 30
0.0
 10
98.99619680684818
 20
-140.2419134849048
 30
0.0
 10
98.99619680684818
 20
-140.2419134849048
 30
0.0
 10
99.11677514883192
 20
-140.1044541750433
 30
0.0
 10
99.11677514883192
 20
-140.1044541750433
 30
0.0
 10
99.2142713510645
 20
-140.1657768746808
 30
0.0
 10
99.27766110799308
 20
-140.2184868356051
 30
0.0
 10
99.35379771821711
 20
-140.2946234458291
 30
0.0
 10
99.35379771821711
 20
-140.2946234458291
 30
0.0
 10
99.24389917223765
 20
-140.4406954944037
 30
0.0
 10
99.24389917223765
 20
-140.4406954944037
 30
0.0
  0
SPLINE
  5
154
330
144
100
AcDbEntity
  8
_U+30EC_U+30A4_U+30E4_U+30FC 1
370
     0
100
AcDbSpline
210
0.0
220
0.0
230
1.0
 70
    11
 71
     3
 72
    29
 73
    25
 74
     0
 42
0.0000000001
 43
0.0000000001
 12
1.0
 22
0.0
 32
0.0
 13
1.0
 23
0.0
 33
0.0
 40
0.0
 40
0.0
 40
0.0
 40
0.0
 40
1.0
 40
1.0
 40
1.0
 40
2.0
 40
2.0
 40
2.0
 40
3.0
 40
3.0
 40
3.0
 40
4.0
 40
4.0
 40
4.0
 40
5.0
 40
5.0
 40
5.0
 40
6.0
 40
6.0
 40
6.0
 40
7.0
 40
7.0
 40
7.0
 40
8.0
 40
8.0
 40
8.0
 40
8.0
 10
99.47472056974938
 20
-140.7049343181224
 30
0.0
 10
99.45370548728935
 20
-140.7493760498821
 30
0.0
 10
99.35035262273186
 20
-140.9250759196298
 30
0.0
 10
99.29109698038556
 20
-141.0267062364447
 30
0.0
 10
99.29729815225902
 20
-141.0391085801916
 30
0.0
 10
99.30384383368099
 20
-141.0539224907782
 30
0.0
 10
99.30384383368099
 20
-141.0687364013648
 30
0.0
 10
99.30384383368099
 20
-141.0773491400779
 30
0.0
 10
99.29970971909869
 20
-141.0900959933733
 30
0.0
 10
99.28282875122096
 20
-141.0900959933733
 30
0.0
 10
99.2721489552167
 20
-141.0900959933733
 30
0.0
 10
99.25940210192127
 20
-141.0835503119513
 30
0.0
 10
99.25526798733897
 20
-141.0814832546602
 30
0.0
 10
99.25526798733897
 20
-141.0814832546602
 30
0.0
 10
99.08576928946468
 20
-140.9781303901027
 30
0.0
 10
99.08576928946468
 20
-140.9781303901027
 30
0.0
 10
99.21702742745269
 20
-140.8299912842369
 30
0.0
 10
99.39651690223421
 20
-140.4913383980369
 30
0.0
 10
99.46404077374511
 20
-140.286010707116
 30
0.0
 10
99.46404077374511
 20
-140.286010707116
 30
0.0
 10
99.60563419818888
 20
-140.4210584501378
 30
0.0
 10
99.60563419818888
 20
-140.4210584501378
 30
0.0
 10
99.58048500114656
 20
-140.4889268311972
 30
0.0
 10
99.52122935880026
 20
-140.6115722304721
 30
0.0
 10
99.47472056974938
 20
-140.7049343181224
 30
0.0
  0
SPLINE
  5
155
330
144
100
AcDbEntity
  8
_U+30EC_U+30A4_U+30E4_U+30FC 1
370
     0
100
AcDbSpline
210
0.0
220
0.0
230
1.0
 70
    11
 71
     3
 72
    17
 73
    13
 74
     0
 42
0.0000000001
 43
0.0000000001
 12
1.0
 22
0.0
 32
0.0
 13
1.0
 23
0.0
 33
0.0
 40
0.0
 40
0.0
 40
0.0
 40
0.0
 40
1.0
 40
1.0
 40
1.0
 40
2.0
 40
2.0
 40
2.0
 40
3.0
 40
3.0
 40
3.0
 40
4.0
 40
4.0
 40
4.0
 40
4.0
 10
99.46369626419659
 20
-140.1144449519506
 30
0.0
 10
99.37894691525943
 20
-140.0193603165577
 30
0.0
 10
99.30487736232656
 20
-139.9580376169202
 30
0.0
 10
99.19704587363825
 20
-139.8884466881182
 30
0.0
 10
99.19704587363825
 20
-139.8884466881182
 30
0.0
 10
99.3152126487823
 20
-139.7530544355479
 30
0.0
 10
99.3152126487823
 20
-139.7530544355479
 30
0.0
 10
99.39582788313716
 20
-139.8057643964722
 30
0.0
 10
99.51020505324745
 20
-139.8925808027005
 30
0.0
 10
99.57772892475835
 20
-139.9749185847979
 30
0.0
 10
99.57772892475835
 20
-139.9749185847979
 30
0.0
 10
99.46369626419659
 20
-140.1144449519506
 30
0.0
 10
99.46369626419659
 20
-140.1144449519506
 30
0.0
  0
SPLINE
  5
156
330
144
100
AcDbEntity
  8
_U+30EC_U+30A4_U+30E4_U+30FC 1
370
     0
100
AcDbSpline
210
0.0
220
0.0
230
1.0
 70
    11
 71
     3
 72
    71
 73
    67
 74
     0
 42
0.0000000001
 43
0.0000000001
 12
1.0
 22
0.0
 32
0.0
 13
1.0
 23
0.0
 33
0.0
 40
0.0
 40
0.0
 40
0.0
 40
0.0
 40
1.0
 40
1.0
 40
1.0
 40
2.0
 40
2.0
 40
2.0
 40
3.0
 40
3.0
 40
3.0
 40
4.0
 40
4.0
 40
4.0
 40
5.0
 40
5.0
 40
5.0
 40
6.0
 40
6.0
 40
6.0
 40
7.0
 40
7.0
 40
7.0
 40
8.0
 40
8.0
 40
8.0
 40
9.0
 40
9.0
 40
9.0
 40
10.0
 40
10.0
 40
10.0
 40
11.0
 40
11.0
 40
11.0
 40
12.0
 40
12.0
 40
12.0
 40
13.0
 40
13.0
 40
13.0
 40
14.0
 40
14.0
 40
14.0
 40
15.0
 40
15.0
 40
15.0
 40
16.0
 40
16.0
 40
16.0
 40
17.0
 40
17.0
 40
17.0
 40
18.0
 40
18.0
 40
18.0
 40
19.0
 40
19.0
 40
19.0
 40
20.0
 40
20.0
 40
20.0
 40
21.0
 40
21.0
 40
21.0
 40
22.0
 40
22.0
 40
22.0
 40
22.0
 10
100.8303656431952
 20
-140.3228732288082
 30
0.0
 10
100.8303656431952
 20
-140.3228732288082
 30
0.0
 10
100.8307101527437
 20
-140.7097574518017
 30
0.0
 10
100.8307101527437
 20
-140.7097574518017
 30
0.0
 10
100.8307101527437
 20
-140.7097574518017
 30
0.0
 10
100.8310546622922
 20
-140.7648789795657
 30
0.0
 10
100.8310546622922
 20
-140.7648789795657
 30
0.0
 10
100.8310546622922
 20
-140.79657385803
 30
0.0
 10
100.8351887768745
 20
-140.9784748996512
 30
0.0
 10
100.8396674010054
 20
-141.071492477753
 30
0.0
 10
100.8396674010054
 20
-141.071492477753
 30
0.0
 10
100.6260714809199
 20
-141.0718369873015
 30
0.0
 10
100.6260714809199
 20
-141.0718369873015
 30
0.0
 10
100.6302055955022
 20
-141.0063801730817
 30
0.0
 10
100.6302055955022
 20
-140.9977674343686
 30
0.0
 10
100.6343397100845
 20
-140.9257649387269
 30
0.0
 10
100.6343397100845
 20
-140.9257649387269
 30
0.0
 10
99.87710772242656
 20
-140.926453957824
 30
0.0
 10
99.87710772242656
 20
-140.926453957824
 30
0.0
 10
99.87710772242656
 20
-140.926453957824
 30
0.0
 10
99.88365340384854
 20
-141.085272859694
 30
0.0
 10
99.88365340384854
 20
-141.085272859694
 30
0.0
 10
99.88365340384854
 20
-141.085272859694
 30
0.0
 10
99.6762586556365
 20
-141.085272859694
 30
0.0
 10
99.6762586556365
 20
-141.085272859694
 30
0.0
 10
99.67832571292764
 20
-141.0556450385208
 30
0.0
 10
99.6803927702188
 20
-141.0408311279342
 30
0.0
 10
99.6845268848011
 20
-140.9202527859505
 30
0.0
 10
99.68659394209224
 20
-140.8844237929039
 30
0.0
 10
99.6886609993834
 20
-140.7214707764516
 30
0.0
 10
99.68831648983488
 20
-140.6877088406961
 30
0.0
 10
99.68831648983488
 20
-140.6877088406961
 30
0.0
 10
99.68797198028635
 20
-140.3090928468672
 30
0.0
 10
99.68797198028635
 20
-140.3090928468672
 30
0.0
 10
99.68797198028635
 20
-140.1905815621746
 30
0.0
 10
99.68142629886437
 20
-140.0128146351357
 30
0.0
 10
99.67935924157322
 20
-139.9621717315025
 30
0.0
 10
99.74929467992379
 20
-139.968372903376
 30
0.0
 10
99.96495765730043
 20
-139.9725070179583
 30
0.0
 10
100.0431613248156
 20
-139.9721625084098
 30
0.0
 10
100.0431613248156
 20
-139.9721625084098
 30
0.0
 10
100.0855359992842
 20
-139.9721625084098
 30
0.0
 10
100.0855359992842
 20
-139.9721625084098
 30
0.0
 10
100.1065510817442
 20
-139.9025715796077
 30
0.0
 10
100.1296332214954
 20
-139.8071424346663
 30
0.0
 10
100.1361789029174
 20
-139.7351399390245
 30
0.0
 10
100.1361789029174
 20
-139.7351399390245
 30
0.0
 10
100.3222140591208
 20
-139.7881944094974
 30
0.0
 10
100.3222140591208
 20
-139.7881944094974
 30
0.0
 10
100.358387561716
 20
-139.7985296959532
 30
0.0
 10
100.3666557908806
 20
-139.7985296959532
 30
0.0
 10
100.3666557908806
 20
-139.817477721122
 30
0.0
 10
100.3666557908806
 20
-139.8367702558394
 30
0.0
 10
100.3394395365471
 20
-139.8471055422952
 30
0.0
 10
100.3139458299562
 20
-139.8577853382994
 30
0.0
 10
100.303266033952
 20
-139.900160012768
 30
0.0
 10
100.2949978047874
 20
-139.92772077665
 30
0.0
 10
100.2760497796185
 20
-139.9721625084098
 30
0.0
 10
100.2760497796185
 20
-139.9721625084098
 30
0.0
 10
100.4472710252354
 20
-139.9718179988612
 30
0.0
 10
100.4472710252354
 20
-139.9718179988612
 30
0.0
 10
100.510660782164
 20
-139.9718179988612
 30
0.0
 10
100.7814452873046
 20
-139.9632052601481
 30
0.0
 10
100.8427679869421
 20
-139.9611382028569
 30
0.0
 10
100.8344997577775
 20
-140.0731038061276
 30
0.0
 10
100.8303656431952
 20
-140.1809352948159
 30
0.0
 10
100.8303656431952
 20
-140.3228732288082
 30
0.0
  0
POLYLINE
  5
157
330
144
100
AcDbEntity
  8
_U+30EC_U+30A4_U+30E4_U+30FC 1
370
     0
100
AcDb2dPolyline
 66
     1
 10
0.0
 20
0.0
 30
0.0
  0
VERTEX
  5
158
330
157
100
AcDbEntity
  8
_U+30EC_U+30A4_U+30E4_U+30FC 1
370
     0
100
AcDbVertex
100
AcDb2dVertex
 10
100.6398518628609
 20
-140.1327039580224
 30
0.0
  0
VERTEX
  5
159
330
157
100
AcDbEntity
  8
_U+30EC_U+30A4_U+30E4_U+30FC 1
370
     0
100
AcDbVertex
100
AcDb2dVertex
 10
99.87194007919868
 20
-140.1333929771194
 30
0.0
  0
VERTEX
  5
15A
330
157
100
AcDbEntity
  8
_U+30EC_U+30A4_U+30E4_U+30FC 1
370
     0
100
AcDbVertex
100
AcDb2dVertex
 10
99.8722845887472
 20
-140.3618028077915
 30
0.0
  0
VERTEX
  5
15B
330
157
100
AcDbEntity
  8
_U+30EC_U+30A4_U+30E4_U+30FC 1
370
     0
100
AcDbVertex
100
AcDb2dVertex
 10
100.6401963724094
 20
-140.3611137886944
 30
0.0
  0
VERTEX
  5
15C
330
157
100
AcDbEntity
  8
_U+30EC_U+30A4_U+30E4_U+30FC 1
370
     0
100
AcDbVertex
100
AcDb2dVertex
 10
100.6398518628609
 20
-140.1327039580224
 30
0.0
  0
SEQEND
  5
15D
330
157
100
AcDbEntity
  8
_U+30EC_U+30A4_U+30E4_U+30FC 1
370
     0
  0
POLYLINE
  5
15E
330
144
100
AcDbEntity
  8
_U+30EC_U+30A4_U+30E4_U+30FC 1
370
     0
100
AcDb2dPolyline
 66
     1
 10
0.0
 20
0.0
 30
0.0
  0
VERTEX
  5
15F
330
15E
100
AcDbEntity
  8
_U+30EC_U+30A4_U+30E4_U+30FC 1
370
     0
100
AcDbVertex
100
AcDb2dVertex
 10
100.6401963724094
 20
-140.5133870091425
 30
0.0
  0
VERTEX
  5
160
330
15E
100
AcDbEntity
  8
_U+30EC_U+30A4_U+30E4_U+30FC 1
370
     0
100
AcDbVertex
100
AcDb2dVertex
 10
99.8722845887472
 20
-140.5140760282395
 30
0.0
  0
VERTEX
  5
161
330
15E
100
AcDbEntity
  8
_U+30EC_U+30A4_U+30E4_U+30FC 1
370
     0
100
AcDbVertex
100
AcDb2dVertex
 10
99.87262909829573
 20
-140.7510985976247
 30
0.0
  0
VERTEX
  5
162
330
15E
100
AcDbEntity
  8
_U+30EC_U+30A4_U+30E4_U+30FC 1
370
     0
100
AcDbVertex
100
AcDb2dVertex
 10
100.6405408819579
 20
-140.7504095785277
 30
0.0
  0
VERTEX
  5
163
330
15E
100
AcDbEntity
  8
_U+30EC_U+30A4_U+30E4_U+30FC 1
370
     0
100
AcDbVertex
100
AcDb2dVertex
 10
100.6401963724094
 20
-140.5133870091425
 30
0.0
  0
SEQEND
  5
164
330
15E
100
AcDbEntity
  8
_U+30EC_U+30A4_U+30E4_U+30FC 1
370
     0
  0
HATCH
  5
165
330
144
100
AcDbEntity
  8
_U+30EC_U+30A4_U+30E4_U+30FC 1
 62
   179
420
  2234388
100
AcDbHatch
 10
0.0
 20
0.0
 30
0.0
210
0.0
220
0.0
230
1.0
  2
SOLID
 70
     1
 71
     0
 91
        7
 92
        1
 93
        1
 72
     4
 94
        3
 73
     0
 74
     1
 95
      104
 96
      100
 40
0.0
 40
0.0
 40
0.0
 40
0.0
 40
1.0
 40
1.0
 40
1.0
 40
2.0
 40
2.0
 40
2.0
 40
3.0
 40
3.0
 40
3.0
 40
4.0
 40
4.0
 40
4.0
 40
5.0
 40
5.0
 40
5.0
 40
6.0
 40
6.0
 40
6.0
 40
7.0
 40
7.0
 40
7.0
 40
8.0
 40
8.0
 40
8.0
 40
9.0
 40
9.0
 40
9.0
 40
10.0
 40
10.0
 40
10.0
 40
11.0
 40
11.0
 40
11.0
 40
12.0
 40
12.0
 40
12.0
 40
13.0
 40
13.0
 40
13.0
 40
14.0
 40
14.0
 40
14.0
 40
15.0
 40
15.0
 40
15.0
 40
16.0
 40
16.0
 40
16.0
 40
17.0
 40
17.0
 40
17.0
 40
18.0
 40
18.0
 40
18.0
 40
19.0
 40
19.0
 40
19.0
 40
20.0
 40
20.0
 40
20.0
 40
21.0
 40
21.0
 40
21.0
 40
22.0
 40
22.0
 40
22.0
 40
23.0
 40
23.0
 40
23.0
 40
24.0
 40
24.0
 40
24.0
 40
25.0
 40
25.0
 40
25.0
 40
26.0
 40
26.0
 40
26.0
 40
27.0
 40
27.0
 40
27.0
 40
28.0
 40
28.0
 40
28.0
 40
29.0
 40
29.0
 40
29.0
 40
30.0
 40
30.0
 40
30.0
 40
31.0
 40
31.0
 40
31.0
 40
32.0
 40
32.0
 40
32.0
 40
33.0
 40
33.0
 40
33.0
 40
33.0
 10
100.5399440937886
 20
-139.5425591013991
 10
100.5716389722529
 20
-139.5994031769057
 10
100.6012667934261
 20
-139.6755397871297
 10
100.6184922708523
 20
-139.7602891360669
 10
100.6184922708523
 20
-139.7602891360669
 10
100.4365912292311
 20
-139.8281575171263
 10
100.4365912292311
 20
-139.8281575171263
 10
100.4110975226403
 20
-139.713780347016
 10
100.3962836120537
 20
-139.6483235327963
 10
100.3370279697074
 20
-139.5425591013991
 10
100.3370279697074
 20
-139.5425591013991
 10
100.2164496277237
 20
-139.5425591013991
 10
100.2164496277237
 20
-139.5425591013991
 10
100.1275661642042
 20
-139.7079236846911
 10
100.0896701138665
 20
-139.7502983591596
 10
100.0600422926933
 20
-139.7840602949151
 10
100.0600422926933
 20
-139.7840602949151
 10
99.85678165906359
 20
-139.7124023088219
 10
99.85678165906359
 20
-139.7124023088219
 10
99.897089276241
 20
-139.6762288062268
 10
99.96254609046076
 20
-139.6190402211716
 10
100.0090548795116
 20
-139.5515163496607
 10
99.95393335174764
 20
-139.5494492923696
 10
99.78271210613072
 20
-139.5494492923696
 10
99.71932234920212
 20
-139.5494492923696
 10
99.71932234920212
 20
-139.5494492923696
 10
99.68969452802897
 20
-139.5494492923696
 10
99.68969452802897
 20
-139.5494492923696
 10
99.72552352107557
 20
-139.6193847307202
 10
99.76996525283529
 20
-139.7165364234042
 10
99.79545895942614
 20
-139.7968071482105
 10
99.79545895942614
 20
-139.7968071482105
 10
99.61355791780495
 20
-139.8712212106919
 10
99.61355791780495
 20
-139.8712212106919
 10
99.59667694992723
 20
-139.8119655683456
 10
99.56291501417178
 20
-139.6979329077839
 10
99.48643389439923
 20
-139.5497938019181
 10
99.48643389439923
 20
-139.5497938019181
 10
99.37653534841976
 20
-139.5497938019181
 10
99.37653534841976
 20
-139.5497938019181
 10
99.36998966699778
 20
-139.5563394833401
 10
99.27490503160489
 20
-139.6662380293195
 10
99.179820396212
 20
-139.7489203209656
 10
99.179820396212
 20
-139.7489203209656
 10
98.98723955858652
 20
-139.6497015709903
 10
98.98723955858652
 20
-139.6497015709903
 10
99.08025713668827
 20
-139.5966471005175
 10
99.1605278614946
 20
-139.5225775475846
 10
99.23046329984517
 20
-139.4398952559386
 10
99.31693519652494
 20
-139.3361978818326
 10
99.35724281370236
 20
-139.2345675650178
 10
99.3910047494578
 20
-139.1394829296248
 10
99.3910047494578
 20
-139.1394829296248
 10
99.58358558708328
 20
-139.2218207117223
 10
99.58358558708328
 20
-139.2218207117223
 10
99.59839949766985
 20
-139.2280218835958
 10
99.6087347841256
 20
-139.2366346223089
 10
99.6087347841256
 20
-139.2469699087646
 10
99.6087347841256
 20
-139.2683295007732
 10
99.58358558708328
 20
-139.2724636153555
 10
99.55395776591013
 20
-139.2769422394863
 10
99.51812877286353
 20
-139.3382649391238
 10
99.50538191956811
 20
-139.3592800215838
 10
99.48643389439923
 20
-139.3889078427569
 10
99.48643389439923
 20
-139.3889078427569
 10
99.71897783965359
 20
-139.3889078427569
 10
99.71897783965359
 20
-139.3889078427569
 10
99.76755368599562
 20
-139.3885633332084
 10
99.9770154914988
 20
-139.3820176517864
 10
100.0214572232585
 20
-139.3799505944953
 10
100.0214572232585
 20
-139.3799505944953
 10
100.021801732807
 20
-139.5322238149433
 10
100.021801732807
 20
-139.5322238149433
 10
100.0638318977271
 20
-139.4626328861413
 10
100.1399685079511
 20
-139.2762532203893
 10
100.1630506477023
 20
-139.1491291969836
 10
100.1630506477023
 20
-139.1491291969836
 10
100.3576985426189
 20
-139.2145860112033
 10
100.3576985426189
 20
-139.2145860112033
 10
100.3745795104966
 20
-139.2211316926253
 10
100.3893934210832
 20
-139.2252658072076
 10
100.3893934210832
 20
-139.2400797177941
 10
100.3893934210832
 20
-139.2610948002542
 10
100.3618326572012
 20
-139.265573424385
 10
100.33875051745
 20
-139.2697075389673
 10
100.3260036641546
 20
-139.3014024174316
 10
100.311189753568
 20
-139.3351643531871
 10
100.2881076138169
 20
-139.390285880951
 10
100.2881076138169
 20
-139.390285880951
 10
100.5568250616664
 20
-139.3899413714025
 10
100.5568250616664
 20
-139.3899413714025
 10
100.6181477613038
 20
-139.3899413714025
 10
100.8951334383179
 20
-139.3771945181071
 10
100.952322023373
 20
-139.3747829512674
 10
100.952322023373
 20
-139.3747829512674
 10
100.952322023373
 20
-139.5546169355975
 10
100.952322023373
 20
-139.5546169355975
 10
100.8954779478664
 20
-139.5504828210152
 10
100.7111653394055
 20
-139.5422145918506
 10
100.5399440937886
 20
-139.5425591013991
 97
        0
 97
        0
 92
        1
 93
        1
 72
     4
 94
        3
 73
     0
 74
     1
 95
       17
 96
       13
 40
0.0
 40
0.0
 40
0.0
 40
0.0
 40
1.0
 40
1.0
 40
1.0
 40
2.0
 40
2.0
 40
2.0
 40
3.0
 40
3.0
 40
3.0
 40
4.0
 40
4.0
 40
4.0
 40
4.0
 10
99.24389917223765
 20
-140.4406954944037
 10
99.16982961930476
 20
-140.3580132027577
 10
99.10643986237618
 20
-140.3073702991246
 10
98.99619680684818
 20
-140.2419134849048
 10
98.99619680684818
 20
-140.2419134849048
 10
99.11677514883192
 20
-140.1044541750433
 10
99.11677514883192
 20
-140.1044541750433
 10
99.2142713510645
 20
-140.1657768746808
 10
99.27766110799308
 20
-140.2184868356051
 10
99.35379771821711
 20
-140.2946234458291
 10
99.35379771821711
 20
-140.2946234458291
 10
99.24389917223765
 20
-140.4406954944037
 10
99.24389917223765
 20
-140.4406954944037
 97
        0
 97
        0
 92
        1
 93
        1
 72
     4
 94
        3
 73
     0
 74
     1
 95
       29
 96
       25
 40
0.0
 40
0.0
 40
0.0
 40
0.0
 40
1.0
 40
1.0
 40
1.0
 40
2.0
 40
2.0
 40
2.0
 40
3.0
 40
3.0
 40
3.0
 40
4.0
 40
4.0
 40
4.0
 40
5.0
 40
5.0
 40
5.0
 40
6.0
 40
6.0
 40
6.0
 40
7.0
 40
7.0
 40
7.0
 40
8.0
 40
8.0
 40
8.0
 40
8.0
 10
99.47472056974938
 20
-140.7049343181224
 10
99.45370548728935
 20
-140.7493760498821
 10
99.35035262273186
 20
-140.9250759196298
 10
99.29109698038556
 20
-141.0267062364447
 10
99.29729815225902
 20
-141.0391085801916
 10
99.30384383368099
 20
-141.0539224907782
 10
99.30384383368099
 20
-141.0687364013648
 10
99.30384383368099
 20
-141.0773491400779
 10
99.29970971909869
 20
-141.0900959933733
 10
99.28282875122096
 20
-141.0900959933733
 10
99.2721489552167
 20
-141.0900959933733
 10
99.25940210192127
 20
-141.0835503119513
 10
99.25526798733897
 20
-141.0814832546602
 10
99.25526798733897
 20
-141.0814832546602
 10
99.08576928946468
 20
-140.9781303901027
 10
99.08576928946468
 20
-140.9781303901027
 10
99.21702742745269
 20
-140.8299912842369
 10
99.39651690223421
 20
-140.4913383980369
 10
99.46404077374511
 20
-140.286010707116
 10
99.46404077374511
 20
-140.286010707116
 10
99.60563419818888
 20
-140.4210584501378
 10
99.60563419818888
 20
-140.4210584501378
 10
99.58048500114656
 20
-140.4889268311972
 10
99.52122935880026
 20
-140.6115722304721
 10
99.47472056974938
 20
-140.7049343181224
 97
        0
 97
        0
 92
        1
 93
        1
 72
     4
 94
        3
 73
     0
 74
     1
 95
       17
 96
       13
 40
0.0
 40
0.0
 40
0.0
 40
0.0
 40
1.0
 40
1.0
 40
1.0
 40
2.0
 40
2.0
 40
2.0
 40
3.0
 40
3.0
 40
3.0
 40
4.0
 40
4.0
 40
4.0
 40
4.0
 10
99.46369626419659
 20
-140.1144449519506
 10
99.37894691525943
 20
-140.0193603165577
 10
99.30487736232656
 20
-139.9580376169202
 10
99.19704587363825
 20
-139.8884466881182
 10
99.19704587363825
 20
-139.8884466881182
 10
99.3152126487823
 20
-139.7530544355479
 10
99.3152126487823
 20
-139.7530544355479
 10
99.39582788313716
 20
-139.8057643964722
 10
99.51020505324745
 20
-139.8925808027005
 10
99.57772892475835
 20
-139.9749185847979
 10
99.57772892475835
 20
-139.9749185847979
 10
99.46369626419659
 20
-140.1144449519506
 10
99.46369626419659
 20
-140.1144449519506
 97
        0
 97
        0
 92
        1
 93
        1
 72
     4
 94
        3
 73
     0
 74
     1
 95
       71
 96
       67
 40
0.0
 40
0.0
 40
0.0
 40
0.0
 40
1.0
 40
1.0
 40
1.0
 40
2.0
 40
2.0
 40
2.0
 40
3.0
 40
3.0
 40
3.0
 40
4.0
 40
4.0
 40
4.0
 40
5.0
 40
5.0
 40
5.0
 40
6.0
 40
6.0
 40
6.0
 40
7.0
 40
7.0
 40
7.0
 40
8.0
 40
8.0
 40
8.0
 40
9.0
 40
9.0
 40
9.0
 40
10.0
 40
10.0
 40
10.0
 40
11.0
 40
11.0
 40
11.0
 40
12.0
 40
12.0
 40
12.0
 40
13.0
 40
13.0
 40
13.0
 40
14.0
 40
14.0
 40
14.0
 40
15.0
 40
15.0
 40
15.0
 40
16.0
 40
16.0
 40
16.0
 40
17.0
 40
17.0
 40
17.0
 40
18.0
 40
18.0
 40
18.0
 40
19.0
 40
19.0
 40
19.0
 40
20.0
 40
20.0
 40
20.0
 40
21.0
 40
21.0
 40
21.0
 40
22.0
 40
22.0
 40
22.0
 40
22.0
 10
100.8303656431952
 20
-140.3228732288082
 10
100.8303656431952
 20
-140.3228732288082
 10
100.8307101527437
 20
-140.7097574518017
 10
100.8307101527437
 20
-140.7097574518017
 10
100.8307101527437
 20
-140.7097574518017
 10
100.8310546622922
 20
-140.7648789795657
 10
100.8310546622922
 20
-140.7648789795657
 10
100.8310546622922
 20
-140.79657385803
 10
100.8351887768745
 20
-140.9784748996512
 10
100.8396674010054
 20
-141.071492477753
 10
100.8396674010054
 20
-141.071492477753
 10
100.6260714809199
 20
-141.0718369873015
 10
100.6260714809199
 20
-141.0718369873015
 10
100.6302055955022
 20
-141.0063801730817
 10
100.6302055955022
 20
-140.9977674343686
 10
100.6343397100845
 20
-140.9257649387269
 10
100.6343397100845
 20
-140.9257649387269
 10
99.87710772242656
 20
-140.926453957824
 10
99.87710772242656
 20
-140.926453957824
 10
99.87710772242656
 20
-140.926453957824
 10
99.88365340384854
 20
-141.085272859694
 10
99.88365340384854
 20
-141.085272859694
 10
99.88365340384854
 20
-141.085272859694
 10
99.6762586556365
 20
-141.085272859694
 10
99.6762586556365
 20
-141.085272859694
 10
99.67832571292764
 20
-141.0556450385208
 10
99.6803927702188
 20
-141.0408311279342
 10
99.6845268848011
 20
-140.9202527859505
 10
99.68659394209224
 20
-140.8844237929039
 10
99.6886609993834
 20
-140.7214707764516
 10
99.68831648983488
 20
-140.6877088406961
 10
99.68831648983488
 20
-140.6877088406961
 10
99.68797198028635
 20
-140.3090928468672
 10
99.68797198028635
 20
-140.3090928468672
 10
99.68797198028635
 20
-140.1905815621746
 10
99.68142629886437
 20
-140.0128146351357
 10
99.67935924157322
 20
-139.9621717315025
 10
99.74929467992379
 20
-139.968372903376
 10
99.96495765730043
 20
-139.9725070179583
 10
100.0431613248156
 20
-139.9721625084098
 10
100.0431613248156
 20
-139.9721625084098
 10
100.0855359992842
 20
-139.9721625084098
 10
100.0855359992842
 20
-139.9721625084098
 10
100.1065510817442
 20
-139.9025715796077
 10
100.1296332214954
 20
-139.8071424346663
 10
100.1361789029174
 20
-139.7351399390245
 10
100.1361789029174
 20
-139.7351399390245
 10
100.3222140591208
 20
-139.7881944094974
 10
100.3222140591208
 20
-139.7881944094974
 10
100.358387561716
 20
-139.7985296959532
 10
100.3666557908806
 20
-139.7985296959532
 10
100.3666557908806
 20
-139.817477721122
 10
100.3666557908806
 20
-139.8367702558394
 10
100.3394395365471
 20
-139.8471055422952
 10
100.3139458299562
 20
-139.8577853382994
 10
100.303266033952
 20
-139.900160012768
 10
100.2949978047874
 20
-139.92772077665
 10
100.2760497796185
 20
-139.9721625084098
 10
100.2760497796185
 20
-139.9721625084098
 10
100.4472710252354
 20
-139.9718179988612
 10
100.4472710252354
 20
-139.9718179988612
 10
100.510660782164
 20
-139.9718179988612
 10
100.7814452873046
 20
-139.9632052601481
 10
100.8427679869421
 20
-139.9611382028569
 10
100.8344997577775
 20
-140.0731038061276
 10
100.8303656431952
 20
-140.1809352948159
 10
100.8303656431952
 20
-140.3228732288082
 97
        0
 97
        0
 92
        1
 93
        4
 72
     1
 10
100.6398518628609
 20
-140.1327039580224
 11
99.87194007919868
 21
-140.1333929771194
 72
     1
 10
99.87194007919868
 20
-140.1333929771194
 11
99.8722845887472
 21
-140.3618028077915
 72
     1
 10
99.8722845887472
 20
-140.3618028077915
 11
100.6401963724094
 21
-140.3611137886944
 72
     1
 10
100.6401963724094
 20
-140.3611137886944
 11
100.6398518628609
 21
-140.1327039580224
 97
        0
 92
        1
 93
        4
 72
     1
 10
100.6401963724094
 20
-140.5133870091425
 11
99.8722845887472
 21
-140.5140760282395
 72
     1
 10
99.8722845887472
 20
-140.5140760282395
 11
99.87262909829573
 21
-140.7510985976247
 72
     1
 10
99.87262909829573
 20
-140.7510985976247
 11
100.6405408819579
 21
-140.7504095785277
 72
     1
 10
100.6405408819579
 20
-140.7504095785277
 11
100.6401963724094
 21
-140.5133870091425
 97
        0
 75
     2
 76
     1
 98
        0
  0
ENDBLK
  5
147
330
144
100
AcDbEntity
  8
0
100
AcDbBlockEnd
  0
ENDSEC
  0
SECTION
  2
ENTITIES
  0
SPLINE
  5
41
330
1F
100
AcDbEntity
  8
_U+30EC_U+30A4_U+30E4_U+30FC 1
 62
   179
420
  2234388
370
    25
100
AcDbSpline
210
0.0
220
0.0
230
1.0
 70
    11
 71
     3
 72
    38
 73
    34
 74
     0
 42
0.0000000001
 43
0.0000000001
 12
1.0
 22
0.0
 32
0.0
 13
1.0
 23
0.0
 33
0.0
 40
0.0
 40
0.0
 40
0.0
 40
0.0
 40
1.0
 40
1.0
 40
1.0
 40
2.0
 40
2.0
 40
2.0
 40
3.0
 40
3.0
 40
3.0
 40
4.0
 40
4.0
 40
4.0
 40
5.0
 40
5.0
 40
5.0
 40
6.0
 40
6.0
 40
6.0
 40
7.0
 40
7.0
 40
7.0
 40
8.0
 40
8.0
 40
8.0
 40
9.0
 40
9.0
 40
9.0
 40
10.0
 40
10.0
 40
10.0
 40
11.0
 40
11.0
 40
11.0
 40
11.0
 10
80.6967151634775
 20
-135.6416796883119
 30
0.0
 10
80.6967151634775
 20
-135.6416796883119
 30
0.0
 10
80.6967151634775
 20
-124.6463019132828
 30
0.0
 10
80.6967151634775
 20
-124.6463019132828
 30
0.0
 10
80.6967151634775
 20
-124.6463019132828
 30
0.0
 10
99.19740441370782
 20
-124.6463019132828
 30
0.0
 10
99.19740441370782
 20
-124.6463019132828
 30
0.0
 10
99.47369996221448
 20
-124.6463019132828
 30
0.0
 10
99.69760801205767
 20
-124.4223938577833
 30
0.0
 10
99.69760801205767
 20
-124.1467685800743
 30
0.0
 10
99.69760801205767
 20
-124.1467685800743
 30
0.0
 10
99.69760801205767
 20
-123.6465296913106
 30
0.0
 10
99.69760801205767
 20
-123.6465296913106
 30
0.0
 10
99.69760801205767
 20
-123.6465296913106
 30
0.0
 10
78.69664160339252
 20
-123.6465296913106
 30
0.0
 10
78.69664160339252
 20
-123.6465296913106
 30
0.0
 10
78.69664160339252
 20
-123.6465296913106
 30
0.0
 10
78.69664160339252
 20
-137.6418944100337
 30
0.0
 10
78.69664160339252
 20
-137.6418944100337
 30
0.0
 10
78.69664160339252
 20
-137.6418944100337
 30
0.0
 10
88.69690357048681
 20
-137.6418944100337
 30
0.0
 10
88.69690357048681
 20
-137.6418944100337
 30
0.0
 10
88.69690357048681
 20
-137.6418944100337
 30
0.0
 10
88.69690357048681
 20
-134.6419074663394
 30
0.0
 10
88.69690357048681
 20
-134.6419074663394
 30
0.0
 10
88.69690357048681
 20
-134.6419074663394
 30
0.0
 10
86.69668889929432
 20
-134.6419074663394
 30
0.0
 10
86.69668889929432
 20
-134.6419074663394
 30
0.0
 10
86.69668889929432
 20
-134.6419074663394
 30
0.0
 10
86.69668889929432
 20
-135.6416796883119
 30
0.0
 10
86.69668889929432
 20
-135.6416796883119
 30
0.0
 10
86.69668889929432
 20
-135.6416796883119
 30
0.0
 10
80.6967151634775
 20
-135.6416796883119
 30
0.0
 10
80.6967151634775
 20
-135.6416796883119
 30
0.0
  0
HATCH
  5
42
330
1F
100
AcDbEntity
  8
_U+30EC_U+30A4_U+30E4_U+30FC 1
 62
     9
420
 13224394
100
AcDbHatch
 10
0.0
 20
0.0
 30
0.0
210
0.0
220
0.0
230
1.0
  2
SOLID
 70
     1
 71
     0
 91
        1
 92
        1
 93
        1
 72
     4
 94
        3
 73
     0
 74
     1
 95
       38
 96
       34
 40
0.0
 40
0.0
 40
0.0
 40
0.0
 40
1.0
 40
1.0
 40
1.0
 40
2.0
 40
2.0
 40
2.0
 40
3.0
 40
3.0
 40
3.0
 40
4.0
 40
4.0
 40
4.0
 40
5.0
 40
5.0
 40
5.0
 40
6.0
 40
6.0
 40
6.0
 40
7.0
 40
7.0
 40
7.0
 40
8.0
 40
8.0
 40
8.0
 40
9.0
 40
9.0
 40
9.0
 40
10.0
 40
10.0
 40
10.0
 40
11.0
 40
11.0
 40
11.0
 40
11.0
 10
80.6967151634775
 20
-135.6416796883119
 10
80.6967151634775
 20
-135.6416796883119
 10
80.6967151634775
 20
-124.6463019132828
 10
80.6967151634775
 20
-124.6463019132828
 10
80.6967151634775
 20
-124.6463019132828
 10
99.19740441370782
 20
-124.6463019132828
 10
99.19740441370782
 20
-124.6463019132828
 10
99.47369996221448
 20
-124.6463019132828
 10
99.69760801205767
 20
-124.4223938577833
 10
99.69760801205767
 20
-124.1467685800743
 10
99.69760801205767
 20
-124.1467685800743
 10
99.69760801205767
 20
-123.6465296913106
 10
99.69760801205767
 20
-123.6465296913106
 10
99.69760801205767
 20
-123.6465296913106
 10
78.69664160339252
 20
-123.6465296913106
 10
78.69664160339252
 20
-123.6465296913106
 10
78.69664160339252
 20
-123.6465296913106
 10
78.69664160339252
 20
-137.6418944100337
 10
78.69664160339252
 20
-137.6418944100337
 10
78.69664160339252
 20
-137.6418944100337
 10
88.69690357048681
 20
-137.6418944100337
 10
88.69690357048681
 20
-137.6418944100337
 10
88.69690357048681
 20
-137.6418944100337
 10
88.69690357048681
 20
-134.6419074663394
 10
88.69690357048681
 20
-134.6419074663394
 10
88.69690357048681
 20
-134.6419074663394
 10
86.69668889929432
 20
-134.6419074663394
 10
86.69668889929432
 20
-134.6419074663394
 10
86.69668889929432
 20
-134.6419074663394
 10
86.69668889929432
 20
-135.6416796883119
 10
86.69668889929432
 20
-135.6416796883119
 10
86.69668889929432
 20
-135.6416796883119
 10
80.6967151634775
 20
-135.6416796883119
 10
80.6967151634775
 20
-135.6416796883119
 97
        0
 97
        0
 75
     2
 76
     1
 98
        0
  0
POLYLINE
  5
43
330
1F
100
AcDbEntity
  8
_U+30EC_U+30A4_U+30E4_U+30FC 1
 62
   179
420
  2234388
370
     9
100
AcDb2dPolyline
 66
     1
 10
0.0
 20
0.0
 30
0.0
  0
VERTEX
  5
44
330
43
100
AcDbEntity
  8
_U+30EC_U+30A4_U+30E4_U+30FC 1
 62
   179
420
  2234388
370
     9
100
AcDbVertex
100
AcDb2dVertex
 10
79.89777935052672
 20
-135.7567557993941
 30
0.0
  0
VERTEX
  5
45
330
43
100
AcDbEntity
  8
_U+30EC_U+30A4_U+30E4_U+30FC 1
 62
   179
420
  2234388
370
     9
100
AcDbVertex
100
AcDb2dVertex
 10
79.4273501958617
 20
-135.7567557993941
 30
0.0
  0
VERTEX
  5
46
330
43
100
AcDbEntity
  8
_U+30EC_U+30A4_U+30E4_U+30FC 1
 62
   179
420
  2234388
370
     9
100
AcDbVertex
100
AcDb2dVertex
 10
79.4273501958617
 20
-125.702589135241
 30
0.0
  0
VERTEX
  5
47
330
43
100
AcDbEntity
  8
_U+30EC_U+30A4_U+30E4_U+30FC 1
 62
   179
420
  2234388
370
     9
100
AcDbVertex
100
AcDb2dVertex
 10
79.89777935052672
 20
-125.702589135241
 30
0.0
  0
VERTEX
  5
48
330
43
100
AcDbEntity
  8
_U+30EC_U+30A4_U+30E4_U+30FC 1
 62
   179
420
  2234388
370
     9
100
AcDbVertex
100
AcDb2dVertex
 10
79.89777935052672
 20
-135.7567557993941
 30
0.0
  0
SEQEND
  5
4A
330
43
100
AcDbEntity
  8
_U+30EC_U+30A4_U+30E4_U+30FC 1
 62
   179
420
  2234388
370
     9
  0
HATCH
  5
49
330
1F
100
AcDbEntity
  8
_U+30EC_U+30A4_U+30E4_U+30FC 1
 62
   179
420
  2234388
100
AcDbHatch
 10
0.0
 20
0.0
 30
0.0
210
0.0
220
0.0
230
1.0
  2
SOLID
 70
     1
 71
     0
 91
        1
 92
        1
 93
        4
 72
     1
 10
79.89777935052672
 20
-135.7567557993941
 11
79.4273501958617
 21
-135.7567557993941
 72
     1
 10
79.4273501958617
 20
-135.7567557993941
 11
79.4273501958617
 21
-125.702589135241
 72
     1
 10
79.4273501958617
 20
-125.702589135241
 11
79.89777935052672
 21
-125.702589135241
 72
     1
 10
79.89777935052672
 20
-125.702589135241
 11
79.89777935052672
 21
-135.7567557993941
 97
        0
 75
     2
 76
     1
 98
        0
  0
POLYLINE
  5
4B
330
1F
100
AcDbEntity
  8
_U+30EC_U+30A4_U+30E4_U+30FC 1
 62
   179
420
  2234388
370
    25
100
AcDb2dPolyline
 66
     1
 10
0.0
 20
0.0
 30
0.0
  0
VERTEX
  5
4C
330
4B
100
AcDbEntity
  8
_U+30EC_U+30A4_U+30E4_U+30FC 1
 62
   179
420
  2234388
370
    25
100
AcDbVertex
100
AcDb2dVertex
 10
79.43546408454358
 20
-125.66607663525
 30
0.0
  0
VERTEX
  5
4D
330
4B
100
AcDbEntity
  8
_U+30EC_U+30A4_U+30E4_U+30FC 1
 62
   179
420
  2234388
370
    25
100
AcDbVertex
100
AcDb2dVertex
 10
79.93552657178593
 20
-125.6653710796948
 30
0.0
  0
SEQEND
  5
4E
330
4B
100
AcDbEntity
  8
_U+30EC_U+30A4_U+30E4_U+30FC 1
 62
   179
420
  2234388
370
    25
  0
POLYLINE
  5
4F
330
1F
100
AcDbEntity
  8
_U+30EC_U+30A4_U+30E4_U+30FC 1
 62
   179
420
  2234388
370
    25
100
AcDb2dPolyline
 66
     1
 10
0.0
 20
0.0
 30
0.0
  0
VERTEX
  5
50
330
4F
100
AcDbEntity
  8
_U+30EC_U+30A4_U+30E4_U+30FC 1
 62
   179
420
  2234388
370
    25
100
AcDbVertex
100
AcDb2dVertex
 10
79.93552657178593
 20
-125.6653710796948
 30
0.0
  0
VERTEX
  5
51
330
4F
100
AcDbEntity
  8
_U+30EC_U+30A4_U+30E4_U+30FC 1
 62
   179
420
  2234388
370
    25
100
AcDbVertex
100
AcDb2dVertex
 10
79.94480462710479
 20
-135.6651041327504
 30
0.0
  0
SEQEND
  5
52
330
4F
100
AcDbEntity
  8
_U+30EC_U+30A4_U+30E4_U+30FC 1
 62
   179
420
  2234388
370
    25
  0
POLYLINE
  5
53
330
1F
100
AcDbEntity
  8
_U+30EC_U+30A4_U+30E4_U+30FC 1
 62
   179
420
  2234388
370
    25
100
AcDb2dPolyline
 66
     1
 10
0.0
 20
0.0
 30
0.0
  0
VERTEX
  5
54
330
53
100
AcDbEntity
  8
_U+30EC_U+30A4_U+30E4_U+30FC 1
 62
   179
420
  2234388
370
    25
100
AcDbVertex
100
AcDb2dVertex
 10
79.43546408454358
 20
-125.66607663525
 30
0.0
  0
VERTEX
  5
55
330
53
100
AcDbEntity
  8
_U+30EC_U+30A4_U+30E4_U+30FC 1
 62
   179
420
  2234388
370
    25
100
AcDbVertex
100
AcDb2dVertex
 10
79.44477741763932
 20
-135.6658096883059
 30
0.0
  0
SEQEND
  5
56
330
53
100
AcDbEntity
  8
_U+30EC_U+30A4_U+30E4_U+30FC 1
 62
   179
420
  2234388
370
    25
  0
POLYLINE
  5
57
330
1F
100
AcDbEntity
  8
_U+30EC_U+30A4_U+30E4_U+30FC 1
 62
   179
420
  2234388
370
    25
100
AcDb2dPolyline
 66
     1
 10
0.0
 20
0.0
 30
0.0
  0
VERTEX
  5
58
330
57
100
AcDbEntity
  8
_U+30EC_U+30A4_U+30E4_U+30FC 1
 62
   179
420
  2234388
370
    25
100
AcDbVertex
100
AcDb2dVertex
 10
79.44477741763932
 20
-135.6658096883059
 30
0.0
  0
VERTEX
  5
59
330
57
100
AcDbEntity
  8
_U+30EC_U+30A4_U+30E4_U+30FC 1
 62
   179
420
  2234388
370
    25
100
AcDbVertex
100
AcDb2dVertex
 10
79.94480462710479
 20
-135.6651041327504
 30
0.0
  0
SEQEND
  5
5A
330
57
100
AcDbEntity
  8
_U+30EC_U+30A4_U+30E4_U+30FC 1
 62
   179
420
  2234388
370
    25
  0
POLYLINE
  5
5B
330
1F
100
AcDbEntity
  8
_U+30EC_U+30A4_U+30E4_U+30FC 1
 62
   179
420
  2234388
370
     9
100
AcDb2dPolyline
 66
     1
 10
0.0
 20
0.0
 30
0.0
  0
VERTEX
  5
5C
330
5B
100
AcDbEntity
  8
_U+30EC_U+30A4_U+30E4_U+30FC 1
 62
   179
420
  2234388
370
     9
100
AcDbVertex
100
AcDb2dVertex
 10
82.42303317499102
 20
-132.4405035780008
 30
0.0
  0
VERTEX
  5
5D
330
5B
100
AcDbEntity
  8
_U+30EC_U+30A4_U+30E4_U+30FC 1
 62
   179
420
  2234388
370
     9
100
AcDbVertex
100
AcDb2dVertex
 10
98.22518416073345
 20
-132.4260396891158
 30
0.0
  0
SEQEND
  5
5E
330
5B
100
AcDbEntity
  8
_U+30EC_U+30A4_U+30E4_U+30FC 1
 62
   179
420
  2234388
370
     9
  0
POLYLINE
  5
5F
330
1F
100
AcDbEntity
  8
_U+30EC_U+30A4_U+30E4_U+30FC 1
 62
   179
420
  2234388
370
     9
100
AcDb2dPolyline
 66
     1
 10
0.0
 20
0.0
 30
0.0
  0
VERTEX
  5
60
330
5F
100
AcDbEntity
  8
_U+30EC_U+30A4_U+30E4_U+30FC 1
 62
   179
420
  2234388
370
     9
100
AcDbVertex
100
AcDb2dVertex
 10
79.94311129381465
 20
-133.8757094109756
 30
0.0
  0
VERTEX
  5
61
330
5F
100
AcDbEntity
  8
_U+30EC_U+30A4_U+30E4_U+30FC 1
 62
   179
420
  2234388
370
     9
100
AcDbVertex
100
AcDb2dVertex
 10
82.42303317499102
 20
-132.4405035780008
 30
0.0
  0
SEQEND
  5
62
330
5F
100
AcDbEntity
  8
_U+30EC_U+30A4_U+30E4_U+30FC 1
 62
   179
420
  2234388
370
     9
  0
POLYLINE
  5
63
330
1F
100
AcDbEntity
  8
_U+30EC_U+30A4_U+30E4_U+30FC 1
 62
   179
420
  2234388
370
     9
100
AcDb2dPolyline
 66
     1
 10
0.0
 20
0.0
 30
0.0
  0
VERTEX
  5
64
330
63
100
AcDbEntity
  8
_U+30EC_U+30A4_U+30E4_U+30FC 1
 62
   179
420
  2234388
370
     9
100
AcDbVertex
100
AcDb2dVertex
 10
79.94311129381465
 20
-133.8757094109756
 30
0.0
  0
VERTEX
  5
65
330
63
100
AcDbEntity
  8
_U+30EC_U+30A4_U+30E4_U+30FC 1
 62
   179
420
  2234388
370
     9
100
AcDbVertex
100
AcDb2dVertex
 10
80.29620656258422
 20
-133.5215557999531
 30
0.0
  0
SEQEND
  5
66
330
63
100
AcDbEntity
  8
_U+30EC_U+30A4_U+30E4_U+30FC 1
 62
   179
420
  2234388
370
     9
  0
POLYLINE
  5
67
330
1F
100
AcDbEntity
  8
_U+30EC_U+30A4_U+30E4_U+30FC 1
 62
   179
420
  2234388
370
     9
100
AcDb2dPolyline
 66
     1
 10
0.0
 20
0.0
 30
0.0
  0
VERTEX
  5
68
330
67
100
AcDbEntity
  8
_U+30EC_U+30A4_U+30E4_U+30FC 1
 62
   179
420
  2234388
370
     9
100
AcDbVertex
100
AcDb2dVertex
 10
79.94311129381465
 20
-133.8757094109756
 30
0.0
  0
VERTEX
  5
69
330
67
100
AcDbEntity
  8
_U+30EC_U+30A4_U+30E4_U+30FC 1
 62
   179
420
  2234388
370
     9
100
AcDbVertex
100
AcDb2dVertex
 10
80.42574655927937
 20
-133.7454991332304
 30
0.0
  0
SEQEND
  5
6A
330
67
100
AcDbEntity
  8
_U+30EC_U+30A4_U+30E4_U+30FC 1
 62
   179
420
  2234388
370
     9
  0
POLYLINE
  5
6B
330
1F
100
AcDbEntity
  8
_U+30EC_U+30A4_U+30E4_U+30FC 1
 62
   154
420
    23468
370
    25
100
AcDb2dPolyline
 66
     1
 10
0.0
 20
0.0
 30
0.0
  0
VERTEX
  5
6C
330
6B
100
AcDbEntity
  8
_U+30EC_U+30A4_U+30E4_U+30FC 1
 62
   154
420
    23468
370
    25
100
AcDbVertex
100
AcDb2dVertex
 10
89.69392410060625
 20
-134.656371355225
 30
0.0
  0
VERTEX
  5
6D
330
6B
100
AcDbEntity
  8
_U+30EC_U+30A4_U+30E4_U+30FC 1
 62
   154
420
    23468
370
    25
100
AcDbVertex
100
AcDb2dVertex
 10
89.69769882273216
 20
-138.6561305208913
 30
0.0
  0
SEQEND
  5
6E
330
6B
100
AcDbEntity
  8
_U+30EC_U+30A4_U+30E4_U+30FC 1
 62
   154
420
    23468
370
    25
  0
POLYLINE
  5
6F
330
1F
100
AcDbEntity
  8
_U+30EC_U+30A4_U+30E4_U+30FC 1
 62
   154
420
    23468
370
    25
100
AcDb2dPolyline
 66
     1
 10
0.0
 20
0.0
 30
0.0
  0
VERTEX
  5
70
330
6F
100
AcDbEntity
  8
_U+30EC_U+30A4_U+30E4_U+30FC 1
 62
   154
420
    23468
370
    25
100
AcDbVertex
100
AcDb2dVertex
 10
78.19746106057212
 20
-138.6664669097776
 30
0.0
  0
VERTEX
  5
71
330
6F
100
AcDbEntity
  8
_U+30EC_U+30A4_U+30E4_U+30FC 1
 62
   154
420
    23468
370
    25
100
AcDbVertex
100
AcDb2dVertex
 10
89.69769882273216
 20
-138.6561305208913
 30
0.0
  0
SEQEND
  5
72
330
6F
100
AcDbEntity
  8
_U+30EC_U+30A4_U+30E4_U+30FC 1
 62
   154
420
    23468
370
    25
  0
POLYLINE
  5
73
330
1F
100
AcDbEntity
  8
_U+30EC_U+30A4_U+30E4_U+30FC 1
 62
   154
420
    23468
370
    25
100
AcDb2dPolyline
 66
     1
 10
0.0
 20
0.0
 30
0.0
  0
VERTEX
  5
74
330
73
100
AcDbEntity
  8
_U+30EC_U+30A4_U+30E4_U+30FC 1
 62
   154
420
    23468
370
    25
100
AcDbVertex
100
AcDb2dVertex
 10
78.19506217174444
 20
-125.0657546909558
 30
0.0
  0
VERTEX
  5
75
330
73
100
AcDbEntity
  8
_U+30EC_U+30A4_U+30E4_U+30FC 1
 62
   154
420
    23468
370
    25
100
AcDbVertex
100
AcDb2dVertex
 10
78.19746106057212
 20
-138.6664669097776
 30
0.0
  0
SEQEND
  5
76
330
73
100
AcDbEntity
  8
_U+30EC_U+30A4_U+30E4_U+30FC 1
 62
   154
420
    23468
370
    25
  0
POLYLINE
  5
77
330
1F
100
AcDbEntity
  8
_U+30EC_U+30A4_U+30E4_U+30FC 1
 62
   179
420
  2234388
370
     9
100
AcDb2dPolyline
 66
     1
 10
0.0
 20
0.0
 30
0.0
  0
VERTEX
  5
78
330
77
100
AcDbEntity
  8
_U+30EC_U+30A4_U+30E4_U+30FC 1
 62
   179
420
  2234388
370
     9
100
AcDbVertex
100
AcDb2dVertex
 10
91.32139378130826
 20
-139.5918382984354
 30
0.0
  0
VERTEX
  5
79
330
77
100
AcDbEntity
  8
_U+30EC_U+30A4_U+30E4_U+30FC 1
 62
   179
420
  2234388
370
     9
100
AcDbVertex
100
AcDb2dVertex
 10
91.67537099449977
 20
-139.944616076125
 30
0.0
  0
SEQEND
  5
7A
330
77
100
AcDbEntity
  8
_U+30EC_U+30A4_U+30E4_U+30FC 1
 62
   179
420
  2234388
370
     9
  0
POLYLINE
  5
7B
330
1F
100
AcDbEntity
  8
_U+30EC_U+30A4_U+30E4_U+30FC 1
 62
   179
420
  2234388
370
     9
100
AcDb2dPolyline
 66
     1
 10
0.0
 20
0.0
 30
0.0
  0
VERTEX
  5
7C
330
7B
100
AcDbEntity
  8
_U+30EC_U+30A4_U+30E4_U+30FC 1
 62
   179
420
  2234388
370
     9
100
AcDbVertex
100
AcDb2dVertex
 10
91.32139378130826
 20
-139.5918382984354
 30
0.0
  0
VERTEX
  5
7D
330
7B
100
AcDbEntity
  8
_U+30EC_U+30A4_U+30E4_U+30FC 1
 62
   179
420
  2234388
370
     9
100
AcDbVertex
100
AcDb2dVertex
 10
93.80442010684986
 20
-141.0215407980781
 30
0.0
  0
SEQEND
  5
7E
330
7B
100
AcDbEntity
  8
_U+30EC_U+30A4_U+30E4_U+30FC 1
 62
   179
420
  2234388
370
     9
  0
POLYLINE
  5
7F
330
1F
100
AcDbEntity
  8
_U+30EC_U+30A4_U+30E4_U+30FC 1
 62
   179
420
  2234388
370
     9
100
AcDb2dPolyline
 66
     1
 10
0.0
 20
0.0
 30
0.0
  0
VERTEX
  5
80
330
7F
100
AcDbEntity
  8
_U+30EC_U+30A4_U+30E4_U+30FC 1
 62
   179
420
  2234388
370
     9
100
AcDbVertex
100
AcDb2dVertex
 10
93.80442010684986
 20
-141.0215407980781
 30
0.0
  0
VERTEX
  5
81
330
7F
100
AcDbEntity
  8
_U+30EC_U+30A4_U+30E4_U+30FC 1
 62
   179
420
  2234388
370
     9
100
AcDbVertex
100
AcDb2dVertex
 10
101.1562735303996
 20
-141.014661631413
 30
0.0
  0
SEQEND
  5
82
330
7F
100
AcDbEntity
  8
_U+30EC_U+30A4_U+30E4_U+30FC 1
 62
   179
420
  2234388
370
     9
  0
POLYLINE
  5
83
330
1F
100
AcDbEntity
  8
_U+30EC_U+30A4_U+30E4_U+30FC 1
 62
   179
420
  2234388
370
     9
100
AcDb2dPolyline
 66
     1
 10
0.0
 20
0.0
 30
0.0
  0
VERTEX
  5
84
330
83
100
AcDbEntity
  8
_U+30EC_U+30A4_U+30E4_U+30FC 1
 62
   179
420
  2234388
370
     9
100
AcDbVertex
100
AcDb2dVertex
 10
91.32139378130826
 20
-139.5918382984354
 30
0.0
  0
VERTEX
  5
85
330
83
100
AcDbEntity
  8
_U+30EC_U+30A4_U+30E4_U+30FC 1
 62
   179
420
  2234388
370
     9
100
AcDbVertex
100
AcDb2dVertex
 10
91.80491099119493
 20
-139.7206727428477
 30
0.0
  0
SEQEND
  5
86
330
83
100
AcDbEntity
  8
_U+30EC_U+30A4_U+30E4_U+30FC 1
 62
   179
420
  2234388
370
     9
  0
SPLINE
  5
87
330
1F
100
AcDbEntity
  8
_U+30EC_U+30A4_U+30E4_U+30FC 1
 62
   179
420
  2234388
370
     9
100
AcDbSpline
210
0.0
220
0.0
230
1.0
 70
    11
 71
     3
 72
    17
 73
    13
 74
     0
 42
0.0000000001
 43
0.0000000001
 12
1.0
 22
0.0
 32
0.0
 13
1.0
 23
0.0
 33
0.0
 40
0.0
 40
0.0
 40
0.0
 40
0.0
 40
1.0
 40
1.0
 40
1.0
 40
2.0
 40
2.0
 40
2.0
 40
3.0
 40
3.0
 40
3.0
 40
4.0
 40
4.0
 40
4.0
 40
4.0
 10
78.77591076803687
 20
-115.6663083044166
 30
0.0
 10
78.77591076803687
 20
-115.6112044155417
 30
0.0
 10
78.73128438028648
 20
-115.566401637775
 30
0.0
 10
78.67600410391903
 20
-115.566401637775
 30
0.0
 10
78.62068854977468
 20
-115.566401637775
 30
0.0
 10
78.5759210509168
 20
-115.6112044155417
 30
0.0
 10
78.5759210509168
 20
-115.6663083044166
 30
0.0
 10
78.57609743980119
 20
-115.7214474710697
 30
0.0
 10
78.62086493865908
 20
-115.7662502488361
 30
0.0
 10
78.67614720255327
 20
-115.7662502488361
 30
0.0
 10
78.73146076917088
 20
-115.7662502488361
 30
0.0
 10
78.77605187914438
 20
-115.7214474710697
 30
0.0
 10
78.77591076803687
 20
-115.6663083044166
 30
0.0
  0
SPLINE
  5
88
330
1F
100
AcDbEntity
  8
_U+30EC_U+30A4_U+30E4_U+30FC 1
 62
   179
420
  2234388
370
     9
100
AcDbSpline
210
0.0
220
0.0
230
1.0
 70
    11
 71
     3
 72
    17
 73
    13
 74
     0
 42
0.0000000001
 43
0.0000000001
 12
1.0
 22
0.0
 32
0.0
 13
1.0
 23
0.0
 33
0.0
 40
0.0
 40
0.0
 40
0.0
 40
0.0
 40
1.0
 40
1.0
 40
1.0
 40
2.0
 40
2.0
 40
2.0
 40
3.0
 40
3.0
 40
3.0
 40
4.0
 40
4.0
 40
4.0
 40
4.0
 10
99.77684441950035
 20
-115.6463410821994
 30
0.0
 10
99.77684441950035
 20
-115.5912371933245
 30
0.0
 10
99.73207440006725
 20
-115.5464344155578
 30
0.0
 10
99.6769352348073
 20
-115.5471399711133
 30
0.0
 10
99.62183134732423
 20
-115.5471399711133
 30
0.0
 10
99.57702857068946
 20
-115.5919074711019
 30
0.0
 10
99.57702857068946
 20
-115.647046637755
 30
0.0
 10
99.57702857068946
 20
-115.7021505266299
 30
0.0
 10
99.62183134732423
 20
-115.7469533043966
 30
0.0
 10
99.6769352348073
 20
-115.7469533043966
 30
0.0
 10
99.73274719728916
 20
-115.7469533043966
 30
0.0
 10
99.77684441950035
 20
-115.7021505266299
 30
0.0
 10
99.77684441950035
 20
-115.6463410821994
 30
0.0
  0
SPLINE
  5
89
330
1F
100
AcDbEntity
  8
_U+30EC_U+30A4_U+30E4_U+30FC 1
 62
   179
420
  2234388
370
     9
100
AcDbSpline
210
0.0
220
0.0
230
1.0
 70
    11
 71
     3
 72
    17
 73
    13
 74
     0
 42
0.0000000001
 43
0.0000000001
 12
1.0
 22
0.0
 32
0.0
 13
1.0
 23
0.0
 33
0.0
 40
0.0
 40
0.0
 40
0.0
 40
0.0
 40
1.0
 40
1.0
 40
1.0
 40
2.0
 40
2.0
 40
2.0
 40
3.0
 40
3.0
 40
3.0
 40
4.0
 40
4.0
 40
4.0
 40
4.0
 10
78.77968549016278
 20
-119.666773025639
 30
0.0
 10
78.77968549016278
 20
-119.6109635812083
 30
0.0
 10
78.73488271352802
 20
-119.5661608034419
 30
0.0
 10
78.67960243716055
 20
-119.5661608034419
 30
0.0
 10
78.6243221607931
 20
-119.5661608034419
 30
0.0
 10
78.57969577304273
 20
-119.6109635812083
 30
0.0
 10
78.57969577304273
 20
-119.666773025639
 30
0.0
 10
78.57969577304273
 20
-119.7218769145139
 30
0.0
 10
78.62464164701036
 20
-119.7666796922807
 30
0.0
 10
78.67995521492934
 20
-119.7666796922807
 30
0.0
 10
78.73523549129679
 20
-119.7666796922807
 30
0.0
 10
78.77968549016278
 20
-119.7218769145139
 30
0.0
 10
78.77968549016278
 20
-119.666773025639
 30
0.0
  0
SPLINE
  5
8A
330
1F
100
AcDbEntity
  8
_U+30EC_U+30A4_U+30E4_U+30FC 1
 62
   179
420
  2234388
370
     9
100
AcDbSpline
210
0.0
220
0.0
230
1.0
 70
    11
 71
     3
 72
    17
 73
    13
 74
     0
 42
0.0000000001
 43
0.0000000001
 12
1.0
 22
0.0
 32
0.0
 13
1.0
 23
0.0
 33
0.0
 40
0.0
 40
0.0
 40
0.0
 40
0.0
 40
1.0
 40
1.0
 40
1.0
 40
2.0
 40
2.0
 40
2.0
 40
3.0
 40
3.0
 40
3.0
 40
4.0
 40
4.0
 40
4.0
 40
4.0
 10
80.77972377247089
 20
-119.6646916367506
 30
0.0
 10
80.77972377247089
 20
-119.6088821923202
 30
0.0
 10
80.73477988472861
 20
-119.5641146923313
 30
0.0
 10
80.67964071946867
 20
-119.564784970109
 30
0.0
 10
80.62436044310121
 20
-119.564784970109
 30
0.0
 10
80.57973609096616
 20
-119.6095877478754
 30
0.0
 10
80.57973609096616
 20
-119.6646916367506
 30
0.0
 10
80.57973609096616
 20
-119.7198308034034
 30
0.0
 10
80.62471322086998
 20
-119.7645983033923
 30
0.0
 10
80.67999349723745
 20
-119.7645983033923
 30
0.0
 10
80.73513266249739
 20
-119.7645983033923
 30
0.0
 10
80.77972377247089
 20
-119.7198308034034
 30
0.0
 10
80.77972377247089
 20
-119.6646916367506
 30
0.0
  0
SPLINE
  5
8B
330
1F
100
AcDbEntity
  8
_U+30EC_U+30A4_U+30E4_U+30FC 1
 62
   179
420
  2234388
370
     9
100
AcDbSpline
210
0.0
220
0.0
230
1.0
 70
    11
 71
     3
 72
    17
 73
    13
 74
     0
 42
0.0000000001
 43
0.0000000001
 12
1.0
 22
0.0
 32
0.0
 13
1.0
 23
0.0
 33
0.0
 40
0.0
 40
0.0
 40
0.0
 40
0.0
 40
1.0
 40
1.0
 40
1.0
 40
2.0
 40
2.0
 40
2.0
 40
3.0
 40
3.0
 40
3.0
 40
4.0
 40
4.0
 40
4.0
 40
4.0
 10
103.7848912411157
 20
-123.6431077468671
 30
0.0
 10
103.7841856855782
 20
-123.587968580214
 30
0.0
 10
103.7394181867203
 20
-123.5432010802255
 30
0.0
 10
103.6842790214603
 20
-123.5432010802255
 30
0.0
 10
103.6291777518706
 20
-123.5432010802255
 30
0.0
 10
103.5843749741039
 20
-123.587968580214
 30
0.0
 10
103.5850805296594
 20
-123.6431077468671
 30
0.0
 10
103.5850805296594
 20
-123.698211635742
 30
0.0
 10
103.6298454117379
 20
-123.7430144135087
 30
0.0
 10
103.6849845769979
 20
-123.7430144135087
 30
0.0
 10
103.740088464481
 20
-123.7430144135087
 30
0.0
 10
103.7848912411157
 20
-123.698211635742
 30
0.0
 10
103.7848912411157
 20
-123.6431077468671
 30
0.0
  0
SPLINE
  5
8C
330
1F
100
AcDbEntity
  8
_U+30EC_U+30A4_U+30E4_U+30FC 1
 62
   179
420
  2234388
370
     9
100
AcDbSpline
210
0.0
220
0.0
230
1.0
 70
    11
 71
     3
 72
    17
 73
    13
 74
     0
 42
0.0000000001
 43
0.0000000001
 12
1.0
 22
0.0
 32
0.0
 13
1.0
 23
0.0
 33
0.0
 40
0.0
 40
0.0
 40
0.0
 40
0.0
 40
1.0
 40
1.0
 40
1.0
 40
2.0
 40
2.0
 40
2.0
 40
3.0
 40
3.0
 40
3.0
 40
4.0
 40
4.0
 40
4.0
 40
4.0
 10
88.80129051226811
 20
-142.657265519891
 30
0.0
 10
88.80129051226811
 20
-142.6021616310161
 30
0.0
 10
88.75652301341023
 20
-142.5573588532494
 30
0.0
 10
88.70138608893573
 20
-142.5573588532494
 30
0.0
 10
88.64627996066721
 20
-142.5573588532494
 30
0.0
 10
88.60147718403245
 20
-142.6021616310161
 30
0.0
 10
88.60147718403245
 20
-142.657265519891
 30
0.0
 10
88.60147718403245
 20
-142.7124046865441
 30
0.0
 10
88.64627996066721
 20
-142.7571721865327
 30
0.0
 10
88.70138608893573
 20
-142.7571721865327
 30
0.0
 10
88.75652301341023
 20
-142.7571721865327
 30
0.0
 10
88.80129051226811
 20
-142.7124046865441
 30
0.0
 10
88.80129051226811
 20
-142.657265519891
 30
0.0
  0
SPLINE
  5
8D
330
1F
100
AcDbEntity
  8
_U+30EC_U+30A4_U+30E4_U+30FC 1
 62
   179
420
  2234388
370
     9
100
AcDbSpline
210
0.0
220
0.0
230
1.0
 70
    11
 71
     3
 72
    17
 73
    13
 74
     0
 42
0.0000000001
 43
0.0000000001
 12
1.0
 22
0.0
 32
0.0
 13
1.0
 23
0.0
 33
0.0
 40
0.0
 40
0.0
 40
0.0
 40
0.0
 40
1.0
 40
1.0
 40
1.0
 40
2.0
 40
2.0
 40
2.0
 40
3.0
 40
3.0
 40
3.0
 40
4.0
 40
4.0
 40
4.0
 40
4.0
 10
78.80120493405822
 20
-142.6662260754445
 30
0.0
 10
78.80103053585516
 20
-142.6111221865696
 30
0.0
 10
78.75643743520034
 20
-142.5663194088029
 30
0.0
 10
78.701121881056
 20
-142.5663194088029
 30
0.0
 10
78.64584160468854
 20
-142.5663194088029
 30
0.0
 10
78.60107410583065
 20
-142.6111221865696
 30
0.0
 10
78.60121521693816
 20
-142.6662260754445
 30
0.0
 10
78.60121521693816
 20
-142.7213652420976
 30
0.0
 10
78.64601799357293
 20
-142.7661327420861
 30
0.0
 10
78.70129826994038
 20
-142.7661327420861
 30
0.0
 10
78.75661382408472
 20
-142.7661327420861
 30
0.0
 10
78.80120493405822
 20
-142.7213652420976
 30
0.0
 10
78.80120493405822
 20
-142.6662260754445
 30
0.0
  0
SPLINE
  5
8E
330
1F
100
AcDbEntity
  8
_U+30EC_U+30A4_U+30E4_U+30FC 1
 62
   179
420
  2234388
370
     9
100
AcDbSpline
210
0.0
220
0.0
230
1.0
 70
    11
 71
     3
 72
    17
 73
    13
 74
     0
 42
0.0000000001
 43
0.0000000001
 12
1.0
 22
0.0
 32
0.0
 13
1.0
 23
0.0
 33
0.0
 40
0.0
 40
0.0
 40
0.0
 40
0.0
 40
1.0
 40
1.0
 40
1.0
 40
2.0
 40
2.0
 40
2.0
 40
3.0
 40
3.0
 40
3.0
 40
4.0
 40
4.0
 40
4.0
 40
4.0
 10
103.7855615188764
 20
-124.6428799688393
 30
0.0
 10
103.7855615188764
 20
-124.5877408021862
 30
0.0
 10
103.7407940200185
 20
-124.5429733021977
 30
0.0
 10
103.6856548547586
 20
-124.5429733021977
 30
0.0
 10
103.6305509672755
 20
-124.5429733021977
 30
0.0
 10
103.5857481906407
 20
-124.5877408021862
 30
0.0
 10
103.5857481906407
 20
-124.643550246617
 30
0.0
 10
103.5857481906407
 20
-124.6986894132698
 30
0.0
 10
103.6305509672755
 20
-124.742786635481
 30
0.0
 10
103.6856548547586
 20
-124.742786635481
 30
0.0
 10
103.7407940200185
 20
-124.742786635481
 30
0.0
 10
103.7855615188764
 20
-124.6979838577142
 30
0.0
 10
103.7855615188764
 20
-124.6428799688393
 30
0.0
  0
SPLINE
  5
8F
330
1F
100
AcDbEntity
  8
_U+30EC_U+30A4_U+30E4_U+30FC 1
 62
   179
420
  2234388
370
     9
100
AcDbSpline
210
0.0
220
0.0
230
1.0
 70
    11
 71
     3
 72
    17
 73
    13
 74
     0
 42
0.0000000001
 43
0.0000000001
 12
1.0
 22
0.0
 32
0.0
 13
1.0
 23
0.0
 33
0.0
 40
0.0
 40
0.0
 40
0.0
 40
0.0
 40
1.0
 40
1.0
 40
1.0
 40
2.0
 40
2.0
 40
2.0
 40
3.0
 40
3.0
 40
3.0
 40
4.0
 40
4.0
 40
4.0
 40
4.0
 10
103.7945220742034
 20
-134.6432832996722
 30
0.0
 10
103.7945220742034
 20
-134.5874738552418
 30
0.0
 10
103.7497545753455
 20
-134.5427063552532
 30
0.0
 10
103.6946154100855
 20
-134.5427063552532
 30
0.0
 10
103.6395115226024
 20
-134.5427063552532
 30
0.0
 10
103.5947087459677
 20
-134.5881794107974
 30
0.0
 10
103.5947087459677
 20
-134.6432832996722
 30
0.0
 10
103.5954143015052
 20
-134.6984224663253
 30
0.0
 10
103.6401818003631
 20
-134.7431899663139
 30
0.0
 10
103.6953209656231
 20
-134.7431899663139
 30
0.0
 10
103.7504248531062
 20
-134.7431899663139
 30
0.0
 10
103.7952276297409
 20
-134.6984224663253
 30
0.0
 10
103.7945220742034
 20
-134.6432832996722
 30
0.0
  0
SPLINE
  5
90
330
1F
100
AcDbEntity
  8
_U+30EC_U+30A4_U+30E4_U+30FC 1
 62
   179
420
  2234388
370
     9
100
AcDbSpline
210
0.0
220
0.0
230
1.0
 70
    11
 71
     3
 72
    17
 73
    13
 74
     0
 42
0.0000000001
 43
0.0000000001
 12
1.0
 22
0.0
 32
0.0
 13
1.0
 23
0.0
 33
0.0
 40
0.0
 40
0.0
 40
0.0
 40
0.0
 40
1.0
 40
1.0
 40
1.0
 40
2.0
 40
2.0
 40
2.0
 40
3.0
 40
3.0
 40
3.0
 40
4.0
 40
4.0
 40
4.0
 40
4.0
 10
103.7979792963374
 20
-137.6432702433673
 30
0.0
 10
103.7972737407998
 20
-137.5874607989361
 30
0.0
 10
103.7525062419419
 20
-137.5426932989476
 30
0.0
 10
103.697367076682
 20
-137.5426932989476
 30
0.0
 10
103.6422631891989
 20
-137.5426932989476
 30
0.0
 10
103.5974604125641
 20
-137.5881663544917
 30
0.0
 10
103.5981659681017
 20
-137.6432702433673
 30
0.0
 10
103.5981659681017
 20
-137.6984094100197
 30
0.0
 10
103.6429360852001
 20
-137.7431769100089
 30
0.0
 10
103.6980726322195
 20
-137.7431769100089
 30
0.0
 10
103.7531765197026
 20
-137.7431769100089
 30
0.0
 10
103.7979792963374
 20
-137.6984094100197
 30
0.0
 10
103.7979792963374
 20
-137.6432702433673
 30
0.0
  0
POLYLINE
  5
91
330
1F
100
AcDbEntity
  8
_U+30EC_U+30A4_U+30E4_U+30FC 1
 62
   179
420
  2234388
370
     9
100
AcDb2dPolyline
 66
     1
 10
0.0
 20
0.0
 30
0.0
  0
VERTEX
  5
92
330
91
100
AcDbEntity
  8
_U+30EC_U+30A4_U+30E4_U+30FC 1
 62
   179
420
  2234388
370
     9
100
AcDbVertex
100
AcDb2dVertex
 10
103.6849845769979
 20
-123.6431077468671
 30
0.0
  0
VERTEX
  5
93
330
91
100
AcDbEntity
  8
_U+30EC_U+30A4_U+30E4_U+30FC 1
 62
   179
420
  2234388
370
     9
100
AcDbVertex
100
AcDb2dVertex
 10
103.6808217993263
 20
-119.8727952478097
 30
0.0
  0
SEQEND
  5
94
330
91
100
AcDbEntity
  8
_U+30EC_U+30A4_U+30E4_U+30FC 1
 62
   179
420
  2234388
370
     9
  0
POLYLINE
  5
95
330
1F
100
AcDbEntity
  8
_U+30EC_U+30A4_U+30E4_U+30FC 1
 62
   179
420
  2234388
370
     9
100
AcDb2dPolyline
 66
     1
 10
0.0
 20
0.0
 30
0.0
  0
VERTEX
  5
96
330
95
100
AcDbEntity
  8
_U+30EC_U+30A4_U+30E4_U+30FC 1
 62
   179
420
  2234388
370
     9
100
AcDbVertex
100
AcDb2dVertex
 10
103.6849845769979
 20
-123.6431077468671
 30
0.0
  0
VERTEX
  5
97
330
95
100
AcDbEntity
  8
_U+30EC_U+30A4_U+30E4_U+30FC 1
 62
   179
420
  2234388
370
     9
100
AcDbVertex
100
AcDb2dVertex
 10
103.6856548547586
 20
-124.6428799688393
 30
0.0
  0
SEQEND
  5
98
330
95
100
AcDbEntity
  8
_U+30EC_U+30A4_U+30E4_U+30FC 1
 62
   179
420
  2234388
370
     9
  0
POLYLINE
  5
99
330
1F
100
AcDbEntity
  8
_U+30EC_U+30A4_U+30E4_U+30FC 1
 62
   179
420
  2234388
370
     9
100
AcDb2dPolyline
 66
     1
 10
0.0
 20
0.0
 30
0.0
  0
VERTEX
  5
9A
330
99
100
AcDbEntity
  8
_U+30EC_U+30A4_U+30E4_U+30FC 1
 62
   179
420
  2234388
370
     9
100
AcDbVertex
100
AcDb2dVertex
 10
102.2249432253578
 20
-123.6444835802
 30
0.0
  0
VERTEX
  5
9B
330
99
100
AcDbEntity
  8
_U+30EC_U+30A4_U+30E4_U+30FC 1
 62
   179
420
  2234388
370
     9
100
AcDbVertex
100
AcDb2dVertex
 10
104.6847214959369
 20
-123.6424021913116
 30
0.0
  0
SEQEND
  5
9C
330
99
100
AcDbEntity
  8
_U+30EC_U+30A4_U+30E4_U+30FC 1
 62
   179
420
  2234388
370
     9
  0
POLYLINE
  5
9D
330
1F
100
AcDbEntity
  8
_U+30EC_U+30A4_U+30E4_U+30FC 1
 62
   179
420
  2234388
370
     9
100
AcDb2dPolyline
 66
     1
 10
0.0
 20
0.0
 30
0.0
  0
VERTEX
  5
9E
330
9D
100
AcDbEntity
  8
_U+30EC_U+30A4_U+30E4_U+30FC 1
 62
   179
420
  2234388
370
     9
100
AcDbVertex
100
AcDb2dVertex
 10
101.7254099047686
 20
-124.6449260799499
 30
0.0
  0
VERTEX
  5
9F
330
9D
100
AcDbEntity
  8
_U+30EC_U+30A4_U+30E4_U+30FC 1
 62
   179
420
  2234388
370
     9
100
AcDbVertex
100
AcDb2dVertex
 10
104.6860999738283
 20
-124.6421744132838
 30
0.0
  0
SEQEND
  5
A0
330
9D
100
AcDbEntity
  8
_U+30EC_U+30A4_U+30E4_U+30FC 1
 62
   179
420
  2234388
370
     9
  0
INSERT
  5
A2
330
1F
100
AcDbEntity
  8
_U+30EC_U+30A4_U+30E4_U+30FC 1
100
AcDbBlockReference
  2
block 2
 10
0.0
 20
0.0
 30
0.0
  0
POLYLINE
  5
A7
330
1F
100
AcDbEntity
  8
_U+30EC_U+30A4_U+30E4_U+30FC 1
 62
   179
420
  2234388
370
     9
100
AcDb2dPolyline
 66
     1
 10
0.0
 20
0.0
 30
0.0
  0
VERTEX
  5
A8
330
A7
100
AcDbEntity
  8
_U+30EC_U+30A4_U+30E4_U+30FC 1
 62
   179
420
  2234388
370
     9
100
AcDbVertex
100
AcDb2dVertex
 10
103.6946154100855
 20
-134.6432832996722
 30
0.0
  0
VERTEX
  5
A9
330
A7
100
AcDbEntity
  8
_U+30EC_U+30A4_U+30E4_U+30FC 1
 62
   179
420
  2234388
370
     9
100
AcDbVertex
100
AcDb2dVertex
 10
103.6980726322195
 20
-137.6432702433673
 30
0.0
  0
SEQEND
  5
AA
330
A7
100
AcDbEntity
  8
_U+30EC_U+30A4_U+30E4_U+30FC 1
 62
   179
420
  2234388
370
     9
  0
POLYLINE
  5
AB
330
1F
100
AcDbEntity
  8
_U+30EC_U+30A4_U+30E4_U+30FC 1
 62
   179
420
  2234388
370
     9
100
AcDb2dPolyline
 66
     1
 10
0.0
 20
0.0
 30
0.0
  0
VERTEX
  5
AC
330
AB
100
AcDbEntity
  8
_U+30EC_U+30A4_U+30E4_U+30FC 1
 62
   179
420
  2234388
370
     9
100
AcDbVertex
100
AcDb2dVertex
 10
92.23692497694104
 20
-137.6536066322529
 30
0.0
  0
VERTEX
  5
AD
330
AB
100
AcDbEntity
  8
_U+30EC_U+30A4_U+30E4_U+30FC 1
 62
   179
420
  2234388
370
     9
100
AcDbVertex
100
AcDb2dVertex
 10
104.6978448289354
 20
-137.6425999655892
 30
0.0
  0
SEQEND
  5
AE
330
AB
100
AcDbEntity
  8
_U+30EC_U+30A4_U+30E4_U+30FC 1
 62
   179
420
  2234388
370
     9
  0
INSERT
  5
B0
330
1F
100
AcDbEntity
  8
_U+30EC_U+30A4_U+30E4_U+30FC 1
100
AcDbBlockReference
  2
block 3
 10
0.0
 20
0.0
 30
0.0
  0
POLYLINE
  5
B5
330
1F
100
AcDbEntity
  8
_U+30EC_U+30A4_U+30E4_U+30FC 1
 62
   179
420
  2234388
370
     9
100
AcDb2dPolyline
 66
     1
 10
0.0
 20
0.0
 30
0.0
  0
VERTEX
  5
B6
330
B5
100
AcDbEntity
  8
_U+30EC_U+30A4_U+30E4_U+30FC 1
 62
   179
420
  2234388
370
     9
100
AcDbVertex
100
AcDb2dVertex
 10
80.67981710835305
 20
-119.6646916367506
 30
0.0
  0
VERTEX
  5
B7
330
B5
100
AcDbEntity
  8
_U+30EC_U+30A4_U+30E4_U+30FC 1
 62
   179
420
  2234388
370
     9
100
AcDbVertex
100
AcDb2dVertex
 10
84.44995312327998
 20
-119.6612696923068
 30
0.0
  0
SEQEND
  5
B8
330
B5
100
AcDbEntity
  8
_U+30EC_U+30A4_U+30E4_U+30FC 1
 62
   179
420
  2234388
370
     9
  0
POLYLINE
  5
B9
330
1F
100
AcDbEntity
  8
_U+30EC_U+30A4_U+30E4_U+30FC 1
 62
   179
420
  2234388
370
     9
100
AcDb2dPolyline
 66
     1
 10
0.0
 20
0.0
 30
0.0
  0
VERTEX
  5
BA
330
B9
100
AcDbEntity
  8
_U+30EC_U+30A4_U+30E4_U+30FC 1
 62
   179
420
  2234388
370
     9
100
AcDbVertex
100
AcDb2dVertex
 10
77.67983024044464
 20
-119.6674433034164
 30
0.0
  0
VERTEX
  5
BB
330
B9
100
AcDbEntity
  8
_U+30EC_U+30A4_U+30E4_U+30FC 1
 62
   179
420
  2234388
370
     9
100
AcDbVertex
100
AcDb2dVertex
 10
80.67981710835305
 20
-119.6646916367506
 30
0.0
  0
SEQEND
  5
BC
330
B9
100
AcDbEntity
  8
_U+30EC_U+30A4_U+30E4_U+30FC 1
 62
   179
420
  2234388
370
     9
  0
POLYLINE
  5
BD
330
1F
100
AcDbEntity
  8
_U+30EC_U+30A4_U+30E4_U+30FC 1
 62
   179
420
  2234388
370
     9
100
AcDb2dPolyline
 66
     1
 10
0.0
 20
0.0
 30
0.0
  0
VERTEX
  5
BE
330
BD
100
AcDbEntity
  8
_U+30EC_U+30A4_U+30E4_U+30FC 1
 62
   179
420
  2234388
370
     9
100
AcDbVertex
100
AcDb2dVertex
 10
78.68115465934318
 20
-121.1268144141627
 30
0.0
  0
VERTEX
  5
BF
330
BD
100
AcDbEntity
  8
_U+30EC_U+30A4_U+30E4_U+30FC 1
 62
   179
420
  2234388
370
     9
100
AcDbVertex
100
AcDb2dVertex
 10
78.67893215939988
 20
-118.6663305258891
 30
0.0
  0
SEQEND
  5
C0
330
BD
100
AcDbEntity
  8
_U+30EC_U+30A4_U+30E4_U+30FC 1
 62
   179
420
  2234388
370
     9
  0
POLYLINE
  5
C1
330
1F
100
AcDbEntity
  8
_U+30EC_U+30A4_U+30E4_U+30FC 1
 62
   179
420
  2234388
370
     9
100
AcDb2dPolyline
 66
     1
 10
0.0
 20
0.0
 30
0.0
  0
VERTEX
  5
C2
330
C1
100
AcDbEntity
  8
_U+30EC_U+30A4_U+30E4_U+30FC 1
 62
   179
420
  2234388
370
     9
100
AcDbVertex
100
AcDb2dVertex
 10
80.68207488607322
 20
-122.1245052472465
 30
0.0
  0
VERTEX
  5
C3
330
C1
100
AcDbEntity
  8
_U+30EC_U+30A4_U+30E4_U+30FC 1
 62
   179
420
  2234388
370
     9
100
AcDbVertex
100
AcDb2dVertex
 10
80.67897044170799
 20
-118.6642491370007
 30
0.0
  0
SEQEND
  5
C4
330
C1
100
AcDbEntity
  8
_U+30EC_U+30A4_U+30E4_U+30FC 1
 62
   179
420
  2234388
370
     9
  0
INSERT
  5
C6
330
1F
100
AcDbEntity
  8
_U+30EC_U+30A4_U+30E4_U+30FC 1
100
AcDbBlockReference
  2
block 4
 10
0.0
 20
0.0
 30
0.0
  0
POLYLINE
  5
CB
330
1F
100
AcDbEntity
  8
_U+30EC_U+30A4_U+30E4_U+30FC 1
 62
   179
420
  2234388
370
     9
100
AcDb2dPolyline
 66
     1
 10
0.0
 20
0.0
 30
0.0
  0
VERTEX
  5
CC
330
CB
100
AcDbEntity
  8
_U+30EC_U+30A4_U+30E4_U+30FC 1
 62
   179
420
  2234388
370
     9
100
AcDbVertex
100
AcDb2dVertex
 10
78.67600410391903
 20
-115.6663083044166
 30
0.0
  0
VERTEX
  5
CD
330
CB
100
AcDbEntity
  8
_U+30EC_U+30A4_U+30E4_U+30FC 1
 62
   179
420
  2234388
370
     9
100
AcDbVertex
100
AcDb2dVertex
 10
99.6769352348073
 20
-115.647046637755
 30
0.0
  0
SEQEND
  5
CE
330
CB
100
AcDbEntity
  8
_U+30EC_U+30A4_U+30E4_U+30FC 1
 62
   179
420
  2234388
370
     9
  0
POLYLINE
  5
CF
330
1F
100
AcDbEntity
  8
_U+30EC_U+30A4_U+30E4_U+30FC 1
 62
   179
420
  2234388
370
     9
100
AcDb2dPolyline
 66
     1
 10
0.0
 20
0.0
 30
0.0
  0
VERTEX
  5
D0
330
CF
100
AcDbEntity
  8
_U+30EC_U+30A4_U+30E4_U+30FC 1
 62
   179
420
  2234388
370
     9
100
AcDbVertex
100
AcDb2dVertex
 10
78.68115465934318
 20
-121.1268144141627
 30
0.0
  0
VERTEX
  5
D1
330
CF
100
AcDbEntity
  8
_U+30EC_U+30A4_U+30E4_U+30FC 1
 62
   179
420
  2234388
370
     9
100
AcDbVertex
100
AcDb2dVertex
 10
78.67512215949708
 20
-114.6665713602222
 30
0.0
  0
SEQEND
  5
D2
330
CF
100
AcDbEntity
  8
_U+30EC_U+30A4_U+30E4_U+30FC 1
 62
   179
420
  2234388
370
     9
  0
POLYLINE
  5
D3
330
1F
100
AcDbEntity
  8
_U+30EC_U+30A4_U+30E4_U+30FC 1
 62
   179
420
  2234388
370
     9
100
AcDb2dPolyline
 66
     1
 10
0.0
 20
0.0
 30
0.0
  0
VERTEX
  5
D4
330
D3
100
AcDbEntity
  8
_U+30EC_U+30A4_U+30E4_U+30FC 1
 62
   179
420
  2234388
370
     9
100
AcDbVertex
100
AcDb2dVertex
 10
99.68176829023956
 20
-121.1068119141677
 30
0.0
  0
VERTEX
  5
D5
330
D3
100
AcDbEntity
  8
_U+30EC_U+30A4_U+30E4_U+30FC 1
 62
   179
420
  2234388
370
     9
100
AcDbVertex
100
AcDb2dVertex
 10
99.67626495704663
 20
-114.6465688602272
 30
0.0
  0
SEQEND
  5
D6
330
D3
100
AcDbEntity
  8
_U+30EC_U+30A4_U+30E4_U+30FC 1
 62
   179
420
  2234388
370
     9
  0
INSERT
  5
D8
330
1F
100
AcDbEntity
  8
_U+30EC_U+30A4_U+30E4_U+30FC 1
100
AcDbBlockReference
  2
block 5
 10
0.0
 20
0.0
 30
0.0
  0
POLYLINE
  5
DF
330
1F
100
AcDbEntity
  8
_U+30EC_U+30A4_U+30E4_U+30FC 1
 62
   179
420
  2234388
370
     9
100
AcDb2dPolyline
 66
     1
 10
0.0
 20
0.0
 30
0.0
  0
VERTEX
  5
E0
330
DF
100
AcDbEntity
  8
_U+30EC_U+30A4_U+30E4_U+30FC 1
 62
   179
420
  2234388
370
     9
100
AcDbVertex
100
AcDb2dVertex
 10
78.70129826994038
 20
-142.6662260754445
 30
0.0
  0
VERTEX
  5
E1
330
DF
100
AcDbEntity
  8
_U+30EC_U+30A4_U+30E4_U+30FC 1
 62
   179
420
  2234388
370
     9
100
AcDbVertex
100
AcDb2dVertex
 10
88.70138608893573
 20
-142.657265519891
 30
0.0
  0
SEQEND
  5
E2
330
DF
100
AcDbEntity
  8
_U+30EC_U+30A4_U+30E4_U+30FC 1
 62
   179
420
  2234388
370
     9
  0
POLYLINE
  5
E3
330
1F
100
AcDbEntity
  8
_U+30EC_U+30A4_U+30E4_U+30FC 1
 62
   179
420
  2234388
370
     9
100
AcDb2dPolyline
 66
     1
 10
0.0
 20
0.0
 30
0.0
  0
VERTEX
  5
E4
330
E3
100
AcDbEntity
  8
_U+30EC_U+30A4_U+30E4_U+30FC 1
 62
   179
420
  2234388
370
     9
100
AcDbVertex
100
AcDb2dVertex
 10
78.69992243664215
 20
-141.2061846869208
 30
0.0
  0
VERTEX
  5
E5
330
E3
100
AcDbEntity
  8
_U+30EC_U+30A4_U+30E4_U+30FC 1
 62
   179
420
  2234388
370
     9
100
AcDbVertex
100
AcDb2dVertex
 10
78.70218021436233
 20
-143.6666685751944
 30
0.0
  0
SEQEND
  5
E6
330
E3
100
AcDbEntity
  8
_U+30EC_U+30A4_U+30E4_U+30FC 1
 62
   179
420
  2234388
370
     9
  0
POLYLINE
  5
E7
330
1F
100
AcDbEntity
  8
_U+30EC_U+30A4_U+30E4_U+30FC 1
 62
   179
420
  2234388
370
     9
100
AcDb2dPolyline
 66
     1
 10
0.0
 20
0.0
 30
0.0
  0
VERTEX
  5
E8
330
E7
100
AcDbEntity
  8
_U+30EC_U+30A4_U+30E4_U+30FC 1
 62
   179
420
  2234388
370
     9
100
AcDbVertex
100
AcDb2dVertex
 10
88.70000801485205
 20
-141.1972241313673
 30
0.0
  0
VERTEX
  5
E9
330
E7
100
AcDbEntity
  8
_U+30EC_U+30A4_U+30E4_U+30FC 1
 62
   179
420
  2234388
370
     9
100
AcDbVertex
100
AcDb2dVertex
 10
88.70240690367973
 20
-143.6570377418636
 30
0.0
  0
SEQEND
  5
EA
330
E7
100
AcDbEntity
  8
_U+30EC_U+30A4_U+30E4_U+30FC 1
 62
   179
420
  2234388
370
     9
  0
INSERT
  5
EC
330
1F
100
AcDbEntity
  8
_U+30EC_U+30A4_U+30E4_U+30FC 1
100
AcDbBlockReference
  2
block 6
 10
0.0
 20
0.0
 30
0.0
  0
POLYLINE
  5
F4
330
1F
100
AcDbEntity
  8
_U+30EC_U+30A4_U+30E4_U+30FC 1
 62
   179
420
  2234388
370
     9
100
AcDb2dPolyline
 66
     1
 10
0.0
 20
0.0
 30
0.0
  0
VERTEX
  5
F5
330
F4
100
AcDbEntity
  8
_U+30EC_U+30A4_U+30E4_U+30FC 1
 62
   179
420
  2234388
370
     9
100
AcDbVertex
100
AcDb2dVertex
 10
103.6856548547586
 20
-124.6428799688393
 30
0.0
  0
VERTEX
  5
F6
330
F4
100
AcDbEntity
  8
_U+30EC_U+30A4_U+30E4_U+30FC 1
 62
   179
420
  2234388
370
     9
100
AcDbVertex
100
AcDb2dVertex
 10
103.6946154100855
 20
-134.6432832996722
 30
0.0
  0
SEQEND
  5
F7
330
F4
100
AcDbEntity
  8
_U+30EC_U+30A4_U+30E4_U+30FC 1
 62
   179
420
  2234388
370
     9
  0
POLYLINE
  5
F8
330
1F
100
AcDbEntity
  8
_U+30EC_U+30A4_U+30E4_U+30FC 1
 62
   179
420
  2234388
370
     9
100
AcDb2dPolyline
 66
     1
 10
0.0
 20
0.0
 30
0.0
  0
VERTEX
  5
F9
330
F8
100
AcDbEntity
  8
_U+30EC_U+30A4_U+30E4_U+30FC 1
 62
   179
420
  2234388
370
     9
100
AcDbVertex
100
AcDb2dVertex
 10
101.7254099047686
 20
-124.6449260799499
 30
0.0
  0
VERTEX
  5
FA
330
F8
100
AcDbEntity
  8
_U+30EC_U+30A4_U+30E4_U+30FC 1
 62
   179
420
  2234388
370
     9
100
AcDbVertex
100
AcDb2dVertex
 10
104.6860999738283
 20
-124.6421744132838
 30
0.0
  0
SEQEND
  5
FB
330
F8
100
AcDbEntity
  8
_U+30EC_U+30A4_U+30E4_U+30FC 1
 62
   179
420
  2234388
370
     9
  0
POLYLINE
  5
FC
330
1F
100
AcDbEntity
  8
_U+30EC_U+30A4_U+30E4_U+30FC 1
 62
   179
420
  2234388
370
     9
100
AcDb2dPolyline
 66
     1
 10
0.0
 20
0.0
 30
0.0
  0
VERTEX
  5
FD
330
FC
100
AcDbEntity
  8
_U+30EC_U+30A4_U+30E4_U+30FC 1
 62
   179
420
  2234388
370
     9
100
AcDbVertex
100
AcDb2dVertex
 10
92.23417098024359
 20
-134.6536196885586
 30
0.0
  0
VERTEX
  5
FE
330
FC
100
AcDbEntity
  8
_U+30EC_U+30A4_U+30E4_U+30FC 1
 62
   179
420
  2234388
370
     9
100
AcDbVertex
100
AcDb2dVertex
 10
104.6950578845621
 20
-134.6426130218949
 30
0.0
  0
SEQEND
  5
FF
330
FC
100
AcDbEntity
  8
_U+30EC_U+30A4_U+30E4_U+30FC 1
 62
   179
420
  2234388
370
     9
  0
INSERT
  5
101
330
1F
100
AcDbEntity
  8
_U+30EC_U+30A4_U+30E4_U+30FC 1
100
AcDbBlockReference
  2
block 7
 10
0.0
 20
0.0
 30
0.0
  0
INSERT
  5
10A
330
1F
100
AcDbEntity
  8
_U+30EC_U+30A4_U+30E4_U+30FC 1
100
AcDbBlockReference
  2
block 8
 10
0.0
 20
0.0
 30
0.0
  0
INSERT
  5
145
330
1F
100
AcDbEntity
  8
_U+30EC_U+30A4_U+30E4_U+30FC 1
100
AcDbBlockReference
  2
block 9
 10
0.0
 20
0.0
 30
0.0
  0
ENDSEC
  0
SECTION
  2
OBJECTS
  0
DICTIONARY
  5
C
330
0
100
AcDbDictionary
281
     1
  3
ACAD_GROUP
350
D
  3
ACAD_LAYOUT
350
1A
  3
ACAD_MATERIAL
350
3B
  3
ACAD_MLEADERSTYLE
350
167
  3
ACAD_MLINESTYLE
350
17
  3
ACAD_PLOTSETTINGS
350
19
  3
ACAD_PLOTSTYLENAME
350
E
  3
ACAD_TABLESTYLE
350
166
  3
ACAD_VISUALSTYLE
350
2A
  0
SUN
  5
3F
330
29
100
AcDbSun
 90
        1
290
     0
 63
     7
421
 16777215
 40
1.0
291
     1
 91
  2455826
 92
 54000000
292
     0
 70
     2
 71
   256
280
     1
  0
DICTIONARY
  5
D
102
{ACAD_REACTORS
330
C
102
}
330
C
100
AcDbDictionary
281
     1
  0
DICTIONARY
  5
1A
102
{ACAD_REACTORS
330
C
102
}
330
C
100
AcDbDictionary
281
     1
  3
Layout1
350
1E
  3
Layout2
350
26
  3
Model
350
22
  0
DICTIONARY
  5
3B
102
{ACAD_REACTORS
330
C
102
}
330
C
100
AcDbDictionary
281
     1
  3
ByBlock
350
3D
  3
ByLayer
350
3C
  3
Global
350
3E
  0
DICTIONARY
  5
167
102
{ACAD_REACTORS
330
C
102
}
330
C
100
AcDbDictionary
281
     1
  0
DICTIONARY
  5
17
102
{ACAD_REACTORS
330
C
102
}
330
C
100
AcDbDictionary
281
     1
  3
Standard
350
18
  0
DICTIONARY
  5
19
102
{ACAD_REACTORS
330
C
102
}
330
C
100
AcDbDictionary
281
     1
  0
ACDBDICTIONARYWDFLT
  5
E
102
{ACAD_REACTORS
330
C
102
}
330
C
100
AcDbDictionary
281
     1
  3
Normal
350
F
100
AcDbDictionaryWithDefault
340
F
  0
DICTIONARY
  5
166
102
{ACAD_REACTORS
330
C
102
}
330
C
100
AcDbDictionary
281
     1
  0
DICTIONARY
  5
2A
102
{ACAD_REACTORS
330
C
102
}
330
C
100
AcDbDictionary
281
     1
  3
2dWireframe
350
2F
  3
3D Hidden
350
31
  3
3dWireframe
350
30
  3
Basic
350
32
  3
Brighten
350
36
  3
ColorChange
350
3A
  3
Conceptual
350
34
  3
Dim
350
35
  3
Facepattern
350
39
  3
Flat
350
2B
  3
FlatWithEdges
350
2C
  3
Gouraud
350
2D
  3
GouraudWithEdges
350
2E
  3
Linepattern
350
38
  3
Realistic
350
33
  3
Thicken
350
37
  0
LAYOUT
  5
1E
102
{ACAD_REACTORS
330
1A
102
}
330
1A
100
AcDbPlotSettings
  1

  2
none_device
  4

  6

 40
0.0
 41
0.0
 42
0.0
 43
0.0
 44
0.0
 45
0.0
 46
0.0
 47
0.0
 48
0.0
 49
0.0
140
0.0
141
0.0
142
1.0
143
1.0
 70
   688
 72
     0
 73
     0
 74
     5
  7

 75
    16
 76
     0
 77
     2
 78
   300
147
1.0
148
0.0
149
0.0
100
AcDbLayout
  1
Layout1
 70
     1
 71
     1
 10
0.0
 20
0.0
 11
12.0
 21
9.0
 12
0.0
 22
0.0
 32
0.0
 14
1.000000000000000E+20
 24
1.000000000000000E+20
 34
1.000000000000000E+20
 15
-1.000000000000000E+20
 25
-1.000000000000000E+20
 35
-1.000000000000000E+20
146
0.0
 13
0.0
 23
0.0
 33
0.0
 16
1.0
 26
0.0
 36
0.0
 17
0.0
 27
1.0
 37
0.0
 76
     0
330
1B
  0
LAYOUT
  5
26
102
{ACAD_REACTORS
330
1A
102
}
330
1A
100
AcDbPlotSettings
  1

  2
none_device
  4

  6

 40
0.0
 41
0.0
 42
0.0
 43
0.0
 44
0.0
 45
0.0
 46
0.0
 47
0.0
 48
0.0
 49
0.0
140
0.0
141
0.0
142
1.0
143
1.0
 70
   688
 72
     0
 73
     0
 74
     5
  7

 75
    16
 76
     0
 77
     2
 78
   300
147
1.0
148
0.0
149
0.0
100
AcDbLayout
  1
Layout2
 70
     1
 71
     2
 10
0.0
 20
0.0
 11
0.0
 21
0.0
 12
0.0
 22
0.0
 32
0.0
 14
0.0
 24
0.0
 34
0.0
 15
0.0
 25
0.0
 35
0.0
146
0.0
 13
0.0
 23
0.0
 33
0.0
 16
1.0
 26
0.0
 36
0.0
 17
0.0
 27
1.0
 37
0.0
 76
     0
330
23
  0
LAYOUT
  5
22
102
{ACAD_REACTORS
330
1A
102
}
330
1A
100
AcDbPlotSettings
  1

  2
none_device
  4

  6

 40
0.0
 41
0.0
 42
0.0
 43
0.0
 44
0.0
 45
0.0
 46
0.0
 47
0.0
 48
0.0
 49
0.0
140
0.0
141
0.0
142
1.0
143
1.0
 70
  1712
 72
     0
 73
     0
 74
     0
  7

 75
     0
 76
     0
 77
     2
 78
   300
147
1.0
148
0.0
149
0.0
100
AcDbLayout
  1
Model
 70
     1
 71
     0
 10
0.0
 20
0.0
 11
12.0
 21
9.0
 12
0.0
 22
0.0
 32
0.0
 14
1.000000000000000E+20
 24
1.000000000000000E+20
 34
1.000000000000000E+20
 15
-1.000000000000000E+20
 25
-1.000000000000000E+20
 35
-1.000000000000000E+20
146
0.0
 13
0.0
 23
0.0
 33
0.0
 16
1.0
 26
0.0
 36
0.0
 17
0.0
 27
1.0
 37
0.0
 76
     0
330
1F
331
29
  0
MATERIAL
  5
3D
102
{ACAD_REACTORS
330
3B
102
}
330
3B
100
AcDbMaterial
  1
ByBlock
 72
     1
 94
      127
  0
MATERIAL
  5
3C
102
{ACAD_REACTORS
330
3B
102
}
330
3B
100
AcDbMaterial
  1
ByLayer
 72
     1
 94
      127
  0
MATERIAL
  5
3E
102
{ACAD_REACTORS
330
3B
102
}
330
3B
100
AcDbMaterial
  1
Global
 72
     1
 94
      127
  0
MLINESTYLE
  5
18
102
{ACAD_REACTORS
330
17
102
}
330
17
100
AcDbMlineStyle
  2
Standard
 70
     0
  3

 62
   256
 51
90.0
 52
90.0
 71
     2
 49
0.5
 62
   256
  6
BYLAYER
 49
-0.5
 62
   256
  6
BYLAYER
  0
ACDBPLACEHOLDER
  5
F
102
{ACAD_REACTORS
330
E
102
}
330
E
  0
VISUALSTYLE
  5
2F
102
{ACAD_REACTORS
330
2A
102
}
330
2A
100
AcDbVisualStyle
  2
2dWireframe
 70
     4
177
     2
291
     0
 71
     0
176
     1
 72
     2
176
     1
 73
     0
176
     1
 90
        0
176
     1
 40
-0.6
176
     1
 41
-30.0
176
     1
 62
     5
 63
     7
421
 16777215
176
     1
 74
     1
176
     1
 91
        4
176
     1
 64
     7
176
     1
 65
   257
176
     1
 75
     1
176
     1
175
     1
176
     1
 42
1.0
176
     1
 92
        0
176
     1
 66
   257
176
     1
 43
1.0
176
     1
 76
     1
176
     1
 77
     6
176
     1
 78
     2
176
     1
 67
     7
176
     1
 79
     5
176
     1
170
     0
176
     1
171
     0
176
     1
290
     0
176
     1
 93
        1
176
     1
 44
0.0
176
     1
173
     0
176
     1
  0
VISUALSTYLE
  5
31
102
{ACAD_REACTORS
330
2A
102
}
330
2A
100
AcDbVisualStyle
  2
3D Hidden
 70
     6
177
     2
291
     0
 71
     1
176
     1
 72
     2
176
     1
 73
     2
176
     1
 90
        0
176
     1
 40
-0.6
176
     1
 41
-30.0
176
     1
 62
     5
 63
     7
421
 16777215
176
     1
 74
     2
176
     1
 91
        2
176
     1
 64
     7
176
     1
 65
   257
176
     1
 75
     2
176
     1
175
     1
176
     1
 42
40.0
176
     1
 92
        0
176
     1
 66
   257
176
     1
 43
1.0
176
     1
 76
     1
176
     1
 77
     6
176
     1
 78
     2
176
     1
 67
     7
176
     1
 79
     3
176
     1
170
     0
176
     1
171
     0
176
     1
290
     0
176
     1
 93
        1
176
     1
 44
0.0
176
     1
173
     0
176
     1
  0
VISUALSTYLE
  5
30
102
{ACAD_REACTORS
330
2A
102
}
330
2A
100
AcDbVisualStyle
  2
3dWireframe
 70
     5
177
     2
291
     0
 71
     0
176
     1
 72
     2
176
     1
 73
     0
176
     1
 90
        0
176
     1
 40
-0.6
176
     1
 41
-30.0
176
     1
 62
     5
 63
     7
421
 16777215
176
     1
 74
     1
176
     1
 91
        4
176
     1
 64
     7
176
     1
 65
   257
176
     1
 75
     1
176
     1
175
     1
176
     1
 42
1.0
176
     1
 92
        0
176
     1
 66
   257
176
     1
 43
1.0
176
     1
 76
     1
176
     1
 77
     6
176
     1
 78
     2
176
     1
 67
     7
176
     1
 79
     5
176
     1
170
     0
176
     1
171
     0
176
     1
290
     0
176
     1
 93
        1
176
     1
 44
0.0
176
     1
173
     0
176
     1
  0
VISUALSTYLE
  5
32
102
{ACAD_REACTORS
330
2A
102
}
330
2A
100
AcDbVisualStyle
  2
Basic
 70
     7
177
     2
291
     1
 71
     1
176
     1
 72
     0
176
     1
 73
     1
176
     1
 90
        0
176
     1
 40
-0.6
176
     1
 41
-30.0
176
     1
 62
     5
 63
     7
421
 16777215
176
     1
 74
     0
176
     1
 91
        4
176
     1
 64
     7
176
     1
 65
   257
176
     1
 75
     1
176
     1
175
     1
176
     1
 42
1.0
176
     1
 92
        8
176
     1
 66
     7
176
     1
 43
1.0
176
     1
 76
     1
176
     1
 77
     6
176
     1
 78
     2
176
     1
 67
     7
176
     1
 79
     5
176
     1
170
     0
176
     1
171
     0
176
     1
290
     0
176
     1
 93
        1
176
     1
 44
0.0
176
     1
173
     0
176
     1
  0
VISUALSTYLE
  5
36
102
{ACAD_REACTORS
330
2A
102
}
330
2A
100
AcDbVisualStyle
  2
Brighten
 70
    12
177
     2
291
     1
 71
     2
176
     1
 72
     2
176
     1
 73
     0
176
     1
 90
        0
176
     1
 40
-0.6
176
     1
 41
-30.0
176
     1
 62
     5
 63
     7
421
 16777215
176
     1
 74
     1
176
     1
 91
        4
176
     1
 64
     7
176
     1
 65
   257
176
     1
 75
     1
176
     1
175
     1
176
     1
 42
1.0
176
     1
 92
        8
176
     1
 66
     7
176
     1
 43
1.0
176
     1
 76
     1
176
     1
 77
     6
176
     1
 78
     2
176
     1
 67
     7
176
     1
 79
     5
176
     1
170
     0
176
     1
171
     0
176
     1
290
     0
176
     1
 93
        1
176
     1
 44
50.0
176
     1
173
     0
176
     1
  0
VISUALSTYLE
  5
3A
102
{ACAD_REACTORS
330
2A
102
}
330
2A
100
AcDbVisualStyle
  2
ColorChange
 70
    16
177
     2
291
     1
 71
     2
176
     1
 72
     2
176
     1
 73
     3
176
     1
 90
        0
176
     1
 40
-0.6
176
     1
 41
-30.0
176
     1
 62
     5
 63
     8
421
  8421504
176
     1
 74
     1
176
     1
 91
        4
176
     1
 64
     7
176
     1
 65
   257
176
     1
 75
     1
176
     1
175
     1
176
     1
 42
1.0
176
     1
 92
        8
176
     1
 66
     8
424
  8421504
176
     1
 43
1.0
176
     1
 76
     1
176
     1
 77
     6
176
     1
 78
     2
176
     1
 67
     7
176
     1
 79
     5
176
     1
170
     0
176
     1
171
     0
176
     1
290
     0
176
     1
 93
        1
176
     1
 44
0.0
176
     1
173
     0
176
     1
  0
VISUALSTYLE
  5
34
102
{ACAD_REACTORS
330
2A
102
}
330
2A
100
AcDbVisualStyle
  2
Conceptual
 70
     9
177
     2
291
     0
 71
     3
176
     1
 72
     2
176
     1
 73
     0
176
     1
 90
        0
176
     1
 40
-0.6
176
     1
 41
-30.0
176
     1
 62
     5
 63
     7
421
 16777215
176
     1
 74
     2
176
     1
 91
        2
176
     1
 64
     7
176
     1
 65
   257
176
     1
 75
     1
176
     1
175
     1
176
     1
 42
40.0
176
     1
 92
        8
176
     1
 66
     7
176
     1
 43
1.0
176
     1
 76
     1
176
     1
 77
     6
176
     1
 78
     2
176
     1
 67
     7
176
     1
 79
     3
176
     1
170
     0
176
     1
171
     0
176
     1
290
     0
176
     1
 93
        1
176
     1
 44
0.0
176
     1
173
     0
176
     1
  0
VISUALSTYLE
  5
35
102
{ACAD_REACTORS
330
2A
102
}
330
2A
100
AcDbVisualStyle
  2
Dim
 70
    11
177
     2
291
     1
 71
     2
176
     1
 72
     2
176
     1
 73
     0
176
     1
 90
        0
176
     1
 40
-0.6
176
     1
 41
-30.0
176
     1
 62
     5
 63
     7
421
 16777215
176
     1
 74
     1
176
     1
 91
        4
176
     1
 64
     7
176
     1
 65
   257
176
     1
 75
     1
176
     1
175
     1
176
     1
 42
1.0
176
     1
 92
        8
176
     1
 66
     7
176
     1
 43
1.0
176
     1
 76
     1
176
     1
 77
     6
176
     1
 78
     2
176
     1
 67
     7
176
     1
 79
     5
176
     1
170
     0
176
     1
171
     0
176
     1
290
     0
176
     1
 93
        1
176
     1
 44
-50.0
176
     1
173
     0
176
     1
  0
VISUALSTYLE
  5
39
102
{ACAD_REACTORS
330
2A
102
}
330
2A
100
AcDbVisualStyle
  2
Facepattern
 70
    15
177
     2
291
     1
 71
     2
176
     1
 72
     2
176
     1
 73
     0
176
     1
 90
        0
176
     1
 40
-0.6
176
     1
 41
-30.0
176
     1
 62
     5
 63
     7
421
 16777215
176
     1
 74
     1
176
     1
 91
        4
176
     1
 64
     7
176
     1
 65
   257
176
     1
 75
     1
176
     1
175
     1
176
     1
 42
1.0
176
     1
 92
        8
176
     1
 66
     7
176
     1
 43
1.0
176
     1
 76
     1
176
     1
 77
     6
176
     1
 78
     2
176
     1
 67
     7
176
     1
 79
     5
176
     1
170
     0
176
     1
171
     0
176
     1
290
     0
176
     1
 93
        1
176
     1
 44
0.0
176
     1
173
     0
176
     1
  0
VISUALSTYLE
  5
2B
102
{ACAD_REACTORS
330
2A
102
}
330
2A
100
AcDbVisualStyle
  2
Flat
 70
     0
177
     2
291
     1
 71
     2
176
     1
 72
     1
176
     1
 73
     1
176
     1
 90
        2
176
     1
 40
-0.6
176
     1
 41
30.0
176
     1
 62
     5
 63
     7
421
 16777215
176
     1
 74
     0
176
     1
 91
        4
176
     1
 64
     7
176
     1
 65
   257
176
     1
 75
     1
176
     1
175
     1
176
     1
 42
1.0
176
     1
 92
        8
176
     1
 66
     7
176
     1
 43
1.0
176
     1
 76
     1
176
     1
 77
     6
176
     1
 78
     2
176
     1
 67
     7
176
     1
 79
     5
176
     1
170
     0
176
     1
171
     0
176
     1
290
     0
176
     1
 93
       13
176
     1
 44
0.0
176
     1
173
     0
176
     1
  0
VISUALSTYLE
  5
2C
102
{ACAD_REACTORS
330
2A
102
}
330
2A
100
AcDbVisualStyle
  2
FlatWithEdges
 70
     1
177
     2
291
     1
 71
     2
176
     1
 72
     1
176
     1
 73
     1
176
     1
 90
        2
176
     1
 40
-0.6
176
     1
 41
30.0
176
     1
 62
     5
 63
     7
421
 16777215
176
     1
 74
     1
176
     1
 91
        4
176
     1
 64
     7
176
     1
 65
   257
176
     1
 75
     1
176
     1
175
     1
176
     1
 42
1.0
176
     1
 92
        0
176
     1
 66
   257
176
     1
 43
1.0
176
     1
 76
     1
176
     1
 77
     6
176
     1
 78
     2
176
     1
 67
     7
176
     1
 79
     5
176
     1
170
     0
176
     1
171
     0
176
     1
290
     0
176
     1
 93
       13
176
     1
 44
0.0
176
     1
173
     0
176
     1
  0
VISUALSTYLE
  5
2D
102
{ACAD_REACTORS
330
2A
102
}
330
2A
100
AcDbVisualStyle
  2
Gouraud
 70
     2
177
     2
291
     1
 71
     2
176
     1
 72
     2
176
     1
 73
     1
176
     1
 90
        2
176
     1
 40
-0.6
176
     1
 41
30.0
176
     1
 62
     5
 63
     7
421
 16777215
176
     1
 74
     0
176
     1
 91
        4
176
     1
 64
     7
176
     1
 65
   257
176
     1
 75
     1
176
     1
175
     1
176
     1
 42
1.0
176
     1
 92
        0
176
     1
 66
     7
176
     1
 43
1.0
176
     1
 76
     1
176
     1
 77
     6
176
     1
 78
     2
176
     1
 67
     7
176
     1
 79
     5
176
     1
170
     0
176
     1
171
     0
176
     1
290
     0
176
     1
 93
       13
176
     1
 44
0.0
176
     1
173
     0
176
     1
  0
VISUALSTYLE
  5
2E
102
{ACAD_REACTORS
330
2A
102
}
330
2A
100
AcDbVisualStyle
  2
GouraudWithEdges
 70
     3
177
     2
291
     1
 71
     2
176
     1
 72
     2
176
     1
 73
     1
176
     1
 90
        2
176
     1
 40
-0.6
176
     1
 41
30.0
176
     1
 62
     5
 63
     7
421
 16777215
176
     1
 74
     1
176
     1
 91
        4
176
     1
 64
     7
176
     1
 65
   257
176
     1
 75
     1
176
     1
175
     1
176
     1
 42
1.0
176
     1
 92
        0
176
     1
 66
   257
176
     1
 43
1.0
176
     1
 76
     1
176
     1
 77
     6
176
     1
 78
     2
176
     1
 67
     7
176
     1
 79
     5
176
     1
170
     0
176
     1
171
     0
176
     1
290
     0
176
     1
 93
       13
176
     1
 44
0.0
176
     1
173
     0
176
     1
  0
VISUALSTYLE
  5
38
102
{ACAD_REACTORS
330
2A
102
}
330
2A
100
AcDbVisualStyle
  2
Linepattern
 70
    14
177
     2
291
     1
 71
     2
176
     1
 72
     2
176
     1
 73
     0
176
     1
 90
        0
176
     1
 40
-0.6
176
     1
 41
-30.0
176
     1
 62
     5
 63
     7
421
 16777215
176
     1
 74
     1
176
     1
 91
        4
176
     1
 64
     7
176
     1
 65
   257
176
     1
 75
     7
176
     1
175
     7
176
     1
 42
1.0
176
     1
 92
        8
176
     1
 66
     7
176
     1
 43
1.0
176
     1
 76
     1
176
     1
 77
     6
176
     1
 78
     2
176
     1
 67
     7
176
     1
 79
     5
176
     1
170
     0
176
     1
171
     0
176
     1
290
     0
176
     1
 93
        1
176
     1
 44
0.0
176
     1
173
     0
176
     1
  0
VISUALSTYLE
  5
33
102
{ACAD_REACTORS
330
2A
102
}
330
2A
100
AcDbVisualStyle
  2
Realistic
 70
     8
177
     2
291
     0
 71
     2
176
     1
 72
     2
176
     1
 73
     0
176
     1
 90
        0
176
     1
 40
-0.6
176
     1
 41
-30.0
176
     1
 62
     5
 63
     7
421
 16777215
176
     1
 74
     1
176
     1
 91
        0
176
     1
 64
     7
176
     1
 65
   257
176
     1
 75
     1
176
     1
175
     1
176
     1
 42
1.0
176
     1
 92
        8
176
     1
 66
     8
424
  7895160
176
     1
 43
1.0
176
     1
 76
     1
176
     1
 77
     6
176
     1
 78
     2
176
     1
 67
     7
176
     1
 79
     5
176
     1
170
     0
176
     1
171
     0
176
     1
290
     0
176
     1
 93
       13
176
     1
 44
0.0
176
     1
173
     0
176
     1
  0
VISUALSTYLE
  5
37
102
{ACAD_REACTORS
330
2A
102
}
330
2A
100
AcDbVisualStyle
  2
Thicken
 70
    13
177
     2
291
     1
 71
     2
176
     1
 72
     2
176
     1
 73
     0
176
     1
 90
        0
176
     1
 40
-0.6
176
     1
 41
-30.0
176
     1
 62
     5
 63
     7
421
 16777215
176
     1
 74
     1
176
     1
 91
        4
176
     1
 64
     7
176
     1
 65
   257
176
     1
 75
     1
176
     1
175
     1
176
     1
 42
1.0
176
     1
 92
       12
176
     1
 66
     7
176
     1
 43
1.0
176
     1
 76
     1
176
     1
 77
     6
176
     1
 78
     2
176
     1
 67
     7
176
     1
 79
     5
176
     1
170
     0
176
     1
171
     0
176
     1
290
     0
176
     1
 93
        1
176
     1
 44
0.0
176
     1
173
     0
176
     1
  0
ENDSEC
  0
EOF
