  0
SECTION
  2
HEADER
  9
$ACADVER
  1
AC1024
  9
$ACADMAINTVER
 70
     6
  9
$DWGCODEPAGE
  3
UNDEFINED
  9
$INSBASE
 10
0.0
 20
0.0
 30
0.0
  9
$EXTMIN
 10
1.000000000000000E+20
 20
1.000000000000000E+20
 30
1.000000000000000E+20
  9
$EXTMAX
 10
-1.000000000000000E+20
 20
-1.000000000000000E+20
 30
-1.000000000000000E+20
  9
$LIMMIN
 10
0.0
 20
0.0
  9
$LIMMAX
 10
12.0
 20
9.0
  9
$ORTHOMODE
 70
     0
  9
$REGENMODE
 70
     1
  9
$FILLMODE
 70
     1
  9
$QTEXTMODE
 70
     0
  9
$MIRRTEXT
 70
     1
  9
$LTSCALE
 40
1.0
  9
$ATTMODE
 70
     1
  9
$TEXTSIZE
 40
0.2
  9
$TRACEWID
 40
0.05
  9
$TEXTSTYLE
  7
Standard
  9
$CLAYER
  8
0
  9
$CELTYPE
  6
ByLayer
  9
$CECOLOR
 62
   256
  9
$CELTSCALE
 40
1.0
  9
$DISPSILH
 70
     0
  9
$DIMSCALE
 40
1.0
  9
$DIMASZ
 40
0.18
  9
$DIMEXO
 40
0.0625
  9
$DIMDLI
 40
0.38
  9
$DIMRND
 40
0.0
  9
$DIMDLE
 40
0.0
  9
$DIMEXE
 40
0.18
  9
$DIMTP
 40
0.0
  9
$DIMTM
 40
0.0
  9
$DIMTXT
 40
0.18
  9
$DIMCEN
 40
0.09
  9
$DIMTSZ
 40
0.0
  9
$DIMTOL
 70
     0
  9
$DIMLIM
 70
     0
  9
$DIMTIH
 70
     1
  9
$DIMTOH
 70
     1
  9
$DIMSE1
 70
     0
  9
$DIMSE2
 70
     0
  9
$DIMTAD
 70
     0
  9
$DIMZIN
 70
     0
  9
$DIMBLK
  1

  9
$DIMASO
 70
     1
  9
$DIMSHO
 70
     1
  9
$DIMPOST
  1

  9
$DIMAPOST
  1

  9
$DIMALT
 70
     0
  9
$DIMALTD
 70
     2
  9
$DIMALTF
 40
25.4
  9
$DIMLFAC
 40
1.0
  9
$DIMTOFL
 70
     0
  9
$DIMTVP
 40
0.0
  9
$DIMTIX
 70
     0
  9
$DIMSOXD
 70
     0
  9
$DIMSAH
 70
     0
  9
$DIMBLK1
  1

  9
$DIMBLK2
  1

  9
$DIMSTYLE
  2
Standard
  9
$DIMCLRD
 70
     0
  9
$DIMCLRE
 70
     0
  9
$DIMCLRT
 70
     0
  9
$DIMTFAC
 40
1.0
  9
$DIMGAP
 40
0.09
  9
$DIMJUST
 70
     0
  9
$DIMSD1
 70
     0
  9
$DIMSD2
 70
     0
  9
$DIMTOLJ
 70
     1
  9
$DIMTZIN
 70
     0
  9
$DIMALTZ
 70
     0
  9
$DIMALTTZ
 70
     0
  9
$DIMUPT
 70
     0
  9
$DIMDEC
 70
     4
  9
$DIMTDEC
 70
     4
  9
$DIMALTU
 70
     2
  9
$DIMALTTD
 70
     2
  9
$DIMTXSTY
  7
Standard
  9
$DIMAUNIT
 70
     0
  9
$DIMADEC
 70
     0
  9
$DIMALTRND
 40
0.0
  9
$DIMAZIN
 70
     0
  9
$DIMDSEP
 70
    46
  9
$DIMATFIT
 70
     3
  9
$DIMFRAC
 70
     0
  9
$DIMLDRBLK
  1

  9
$DIMLUNIT
 70
     2
  9
$DIMLWD
 70
    -2
  9
$DIMLWE
 70
    -2
  9
$DIMTMOVE
 70
     0
  9
$DIMFXL
 40
1.0
  9
$DIMFXLON
 70
     0
  9
$DIMJOGANG
 40
0.7853981633974483
  9
$DIMTFILL
 70
     0
  9
$DIMTFILLCLR
 70
     0
  9
$DIMARCSYM
 70
     0
  9
$DIMLTYPE
  6

  9
$DIMLTEX1
  6

  9
$DIMLTEX2
  6

  9
$DIMTXTDIRECTION
 70
     0
  9
$LUNITS
 70
     2
  9
$LUPREC
 70
     4
  9
$SKETCHINC
 40
0.1
  9
$FILLETRAD
 40
0.5
  9
$AUNITS
 70
     0
  9
$AUPREC
 70
     0
  9
$MENU
  1
.
  9
$ELEVATION
 40
0.0
  9
$PELEVATION
 40
0.0
  9
$THICKNESS
 40
0.0
  9
$LIMCHECK
 70
     0
  9
$CHAMFERA
 40
0.5
  9
$CHAMFERB
 40
0.5
  9
$CHAMFERC
 40
1.0
  9
$CHAMFERD
 40
0.0
  9
$SKPOLY
 70
     0
  9
$TDCREATE
 40
2457917.591354155
  9
$TDUCREATE
 40
2457917.216354167
  9
$TDUPDATE
 40
2457917.591354155
  9
$TDUUPDATE
 40
2457917.216354167
  9
$TDINDWG
 40
0.0000000116
  9
$TDUSRTIMER
 40
0.0000000116
  9
$USRTIMER
 70
     1
  9
$ANGBASE
 50
0.0
  9
$ANGDIR
 70
     0
  9
$PDMODE
 70
     0
  9
$PDSIZE
 40
0.0
  9
$PLINEWID
 40
0.0
  9
$SPLFRAME
 70
     0
  9
$SPLINETYPE
 70
     6
  9
$SPLINESEGS
 70
     8
  9
$HANDSEED
  5
DA
  9
$SURFTAB1
 70
     6
  9
$SURFTAB2
 70
     6
  9
$SURFTYPE
 70
     6
  9
$SURFU
 70
     6
  9
$SURFV
 70
     6
  9
$UCSBASE
  2

  9
$UCSNAME
  2

  9
$UCSORG
 10
0.0
 20
0.0
 30
0.0
  9
$UCSXDIR
 10
1.0
 20
0.0
 30
0.0
  9
$UCSYDIR
 10
0.0
 20
1.0
 30
0.0
  9
$UCSORTHOREF
  2

  9
$UCSORTHOVIEW
 70
     0
  9
$UCSORGTOP
 10
0.0
 20
0.0
 30
0.0
  9
$UCSORGBOTTOM
 10
0.0
 20
0.0
 30
0.0
  9
$UCSORGLEFT
 10
0.0
 20
0.0
 30
0.0
  9
$UCSORGRIGHT
 10
0.0
 20
0.0
 30
0.0
  9
$UCSORGFRONT
 10
0.0
 20
0.0
 30
0.0
  9
$UCSORGBACK
 10
0.0
 20
0.0
 30
0.0
  9
$PUCSBASE
  2

  9
$PUCSNAME
  2

  9
$PUCSORG
 10
0.0
 20
0.0
 30
0.0
  9
$PUCSXDIR
 10
1.0
 20
0.0
 30
0.0
  9
$PUCSYDIR
 10
0.0
 20
1.0
 30
0.0
  9
$PUCSORTHOREF
  2

  9
$PUCSORTHOVIEW
 70
     0
  9
$PUCSORGTOP
 10
0.0
 20
0.0
 30
0.0
  9
$PUCSORGBOTTOM
 10
0.0
 20
0.0
 30
0.0
  9
$PUCSORGLEFT
 10
0.0
 20
0.0
 30
0.0
  9
$PUCSORGRIGHT
 10
0.0
 20
0.0
 30
0.0
  9
$PUCSORGFRONT
 10
0.0
 20
0.0
 30
0.0
  9
$PUCSORGBACK
 10
0.0
 20
0.0
 30
0.0
  9
$USERI1
 70
     0
  9
$USERI2
 70
     0
  9
$USERI3
 70
     0
  9
$USERI4
 70
     0
  9
$USERI5
 70
     0
  9
$USERR1
 40
0.0
  9
$USERR2
 40
0.0
  9
$USERR3
 40
0.0
  9
$USERR4
 40
0.0
  9
$USERR5
 40
0.0
  9
$WORLDVIEW
 70
     1
  9
$SHADEDGE
 70
     3
  9
$SHADEDIF
 70
    70
  9
$TILEMODE
 70
     1
  9
$MAXACTVP
 70
    64
  9
$PINSBASE
 10
0.0
 20
0.0
 30
0.0
  9
$PLIMCHECK
 70
     0
  9
$PEXTMIN
 10
1.000000000000000E+20
 20
1.000000000000000E+20
 30
1.000000000000000E+20
  9
$PEXTMAX
 10
-1.000000000000000E+20
 20
-1.000000000000000E+20
 30
-1.000000000000000E+20
  9
$PLIMMIN
 10
0.0
 20
0.0
  9
$PLIMMAX
 10
12.0
 20
9.0
  9
$UNITMODE
 70
     0
  9
$VISRETAIN
 70
     1
  9
$PLINEGEN
 70
     0
  9
$PSLTSCALE
 70
     1
  9
$TREEDEPTH
 70
  3020
  9
$CMLSTYLE
  2
Standard
  9
$CMLJUST
 70
     0
  9
$CMLSCALE
 40
1.0
  9
$PROXYGRAPHICS
 70
     1
  9
$MEASUREMENT
 70
     0
  9
$CELWEIGHT
370
    -1
  9
$ENDCAPS
280
     0
  9
$JOINSTYLE
280
     0
  9
$LWDISPLAY
290
     1
  9
$INSUNITS
 70
     1
  9
$HYPERLINKBASE
  1

  9
$STYLESHEET
  1

  9
$XEDIT
290
     1
  9
$CEPSNTYPE
380
     0
  9
$PSTYLEMODE
290
     1
  9
$FINGERPRINTGUID
  2
{22FB38B1-1563-B5D9-CE52-837999B525F7}
  9
$VERSIONGUID
  2
{FAEB1C32-E019-11D5-929B-00C0DF256EC4}
  9
$EXTNAMES
290
     1
  9
$PSVPSCALE
 40
0.0
  9
$OLESTARTUP
290
     0
  9
$SORTENTS
280
   127
  9
$INDEXCTL
280
     0
  9
$HIDETEXT
280
     1
  9
$XCLIPFRAME
280
     2
  9
$HALOGAP
280
     0
  9
$OBSCOLOR
 70
   257
  9
$OBSLTYPE
280
     0
  9
$INTERSECTIONDISPLAY
280
     0
  9
$INTERSECTIONCOLOR
 70
   257
  9
$DIMASSOC
280
     2
  9
$PROJECTNAME
  1

  9
$CAMERADISPLAY
290
     0
  9
$LENSLENGTH
 40
50.0
  9
$CAMERAHEIGHT
 40
0.0
  9
$STEPSPERSEC
 40
2.0
  9
$STEPSIZE
 40
6.0
  9
$3DDWFPREC
 40
2.0
  9
$PSOLWIDTH
 40
0.25
  9
$PSOLHEIGHT
 40
4.0
  9
$LOFTANG1
 40
1.570796326794897
  9
$LOFTANG2
 40
1.570796326794897
  9
$LOFTMAG1
 40
0.0
  9
$LOFTMAG2
 40
0.0
  9
$LOFTPARAM
 70
     7
  9
$LOFTNORMALS
280
     1
  9
$LATITUDE
 40
37.795
  9
$LONGITUDE
 40
-122.394
  9
$NORTHDIRECTION
 40
0.0
  9
$TIMEZONE
 70
 -8000
  9
$LIGHTGLYPHDISPLAY
280
     1
  9
$TILEMODELIGHTSYNCH
280
     1
  9
$CMATERIAL
347
3C
  9
$SOLIDHIST
280
     1
  9
$SHOWHIST
280
     1
  9
$DWFFRAME
280
     2
  9
$DGNFRAME
280
     2
  9
$REALWORLDSCALE
290
     1
  9
$INTERFERECOLOR
 62
   256
  9
$CSHADOW
280
     0
  9
$SHADOWPLANELOCATION
 40
0.0
  0
ENDSEC
  0
SECTION
  2
CLASSES
  0
CLASS
  1
ACDBDICTIONARYWDFLT
  2
AcDbDictionaryWithDefault
  3
ObjectDBX Classes
 90
        0
 91
        4
280
     0
281
     0
  0
CLASS
  1
VISUALSTYLE
  2
AcDbVisualStyle
  3
ObjectDBX Classes
 90
     4095
 91
        4
280
     0
281
     0
  0
CLASS
  1
MATERIAL
  2
AcDbMaterial
  3
ObjectDBX Classes
 90
     1153
 91
        4
280
     0
281
     0
  0
CLASS
  1
SUN
  2
AcDbSun
  3
SCENEOE
 90
     1024
 91
        4
280
     0
281
     0
  0
ENDSEC
  0
SECTION
  2
TABLES
  0
TABLE
  2
VPORT
  5
8
330
0
100
AcDbSymbolTable
 70
     1
  0
VPORT
  5
29
330
8
100
AcDbSymbolTableRecord
100
AcDbViewportTableRecord
  2
*Active
 70
     0
 10
0.0
 20
0.0
 11
1.0
 21
1.0
 12
0.0
 22
0.0
 13
0.0
 23
0.0
 14
0.5
 24
0.5
 15
0.5
 25
0.5
 16
0.0
 26
0.0
 36
1.0
 17
63.499999984125
 27
-89.00059456108309
 37
0.0
 40
178.0011891221662
 41
0.7134783795241226
 42
50.0
 43
0.0
 44
0.0
 50
0.0
 51
0.0
 71
     0
 72
   100
 73
     1
 74
     3
 75
     0
 76
     0
 77
     0
 78
     0
281
     0
 65
     1
110
0.0
120
0.0
130
0.0
111
1.0
121
0.0
131
0.0
112
0.0
122
1.0
132
0.0
 79
     0
146
0.0
 60
     3
 61
     5
292
     1
282
     1
141
0.0
142
0.0
 63
   250
361
3F
  0
ENDTAB
  0
TABLE
  2
LTYPE
  5
5
330
0
100
AcDbSymbolTable
 70
     1
  0
LTYPE
  5
14
330
5
100
AcDbSymbolTableRecord
100
AcDbLinetypeTableRecord
  2
ByBlock
 70
     0
  3

 72
    65
 73
     0
 40
0.0
  0
LTYPE
  5
15
330
5
100
AcDbSymbolTableRecord
100
AcDbLinetypeTableRecord
  2
ByLayer
 70
     0
  3

 72
    65
 73
     0
 40
0.0
  0
LTYPE
  5
16
330
5
100
AcDbSymbolTableRecord
100
AcDbLinetypeTableRecord
  2
Continuous
 70
     0
  3
Solid line
 72
    65
 73
     0
 40
0.0
  0
ENDTAB
  0
TABLE
  2
LAYER
  5
2
330
0
100
AcDbSymbolTable
 70
     2
  0
LAYER
  5
10
330
2
100
AcDbSymbolTableRecord
100
AcDbLayerTableRecord
  2
0
 70
     0
 62
     7
  6
Continuous
370
    -3
390
F
347
3E
  0
LAYER
  5
40
330
2
100
AcDbSymbolTableRecord
100
AcDbLayerTableRecord
  2
_U+30EC_U+30A4_U+30E4_U+30FC 1
 70
     0
 62
     7
  6
Continuous
370
    -3
390
F
347
3E
  0
ENDTAB
  0
TABLE
  2
STYLE
  5
3
330
0
100
AcDbSymbolTable
 70
     1
  0
STYLE
  5
11
330
3
100
AcDbSymbolTableRecord
100
AcDbTextStyleTableRecord
  2
Standard
 70
     0
 40
0.0
 41
1.0
 50
0.0
 71
     0
 42
0.2
  3
txt
  4

  0
ENDTAB
  0
TABLE
  2
VIEW
  5
6
330
0
100
AcDbSymbolTable
 70
     0
  0
ENDTAB
  0
TABLE
  2
UCS
  5
7
330
0
100
AcDbSymbolTable
 70
     0
  0
ENDTAB
  0
TABLE
  2
APPID
  5
9
330
0
100
AcDbSymbolTable
 70
     1
  0
APPID
  5
12
330
9
100
AcDbSymbolTableRecord
100
AcDbRegAppTableRecord
  2
ACAD
 70
     0
  0
ENDTAB
  0
TABLE
  2
DIMSTYLE
  5
A
330
0
100
AcDbSymbolTable
 70
     1
100
AcDbDimStyleTable
  0
DIMSTYLE
105
27
330
A
100
AcDbSymbolTableRecord
100
AcDbDimStyleTableRecord
  2
Standard
 70
     0
178
     0
340
11
  0
ENDTAB
  0
TABLE
  2
BLOCK_RECORD
  5
1
330
0
100
AcDbSymbolTable
 70
     6
  0
BLOCK_RECORD
  5
1F
330
1
100
AcDbSymbolTableRecord
100
AcDbBlockTableRecord
  2
*Model_Space
340
22
 70
     0
280
     1
281
     0
  0
BLOCK_RECORD
  5
1B
330
1
100
AcDbSymbolTableRecord
100
AcDbBlockTableRecord
  2
*Paper_Space
340
1E
 70
     0
280
     1
281
     0
  0
BLOCK_RECORD
  5
23
330
1
100
AcDbSymbolTableRecord
100
AcDbBlockTableRecord
  2
*Paper_Space0
340
26
 70
     0
280
     1
281
     0
  0
BLOCK_RECORD
  5
41
330
1
100
AcDbSymbolTableRecord
100
AcDbBlockTableRecord
  2
block 2
340
0
102
{BLKREFS
331
42
102
}
 70
     0
280
     1
281
     0
  0
BLOCK_RECORD
  5
92
330
1
100
AcDbSymbolTableRecord
100
AcDbBlockTableRecord
  2
block 3
340
0
102
{BLKREFS
331
93
102
}
 70
     0
280
     1
281
     0
  0
BLOCK_RECORD
  5
A4
330
1
100
AcDbSymbolTableRecord
100
AcDbBlockTableRecord
  2
block 4
340
0
102
{BLKREFS
331
A5
102
}
 70
     0
280
     1
281
     0
  0
BLOCK_RECORD
  5
B8
330
1
100
AcDbSymbolTableRecord
100
AcDbBlockTableRecord
  2
block 5
340
0
102
{BLKREFS
331
B9
102
}
 70
     0
280
     1
281
     0
  0
BLOCK_RECORD
  5
D0
330
1
100
AcDbSymbolTableRecord
100
AcDbBlockTableRecord
  2
block 6
340
0
102
{BLKREFS
331
D1
102
}
 70
     0
280
     1
281
     0
  0
ENDTAB
  0
ENDSEC
  0
SECTION
  2
BLOCKS
  0
BLOCK
  5
20
330
1F
100
AcDbEntity
  8
0
100
AcDbBlockBegin
  2
*Model_Space
 70
     0
 10
0.0
 20
0.0
 30
0.0
  3
*Model_Space
  1

  0
ENDBLK
  5
21
330
1F
100
AcDbEntity
  8
0
100
AcDbBlockEnd
  0
BLOCK
  5
1C
330
1B
100
AcDbEntity
 67
     1
  8
0
100
AcDbBlockBegin
  2
*Paper_Space
 70
     0
 10
0.0
 20
0.0
 30
0.0
  3
*Paper_Space
  1

  0
ENDBLK
  5
1D
330
1B
100
AcDbEntity
 67
     1
  8
0
100
AcDbBlockEnd
  0
BLOCK
  5
24
330
23
100
AcDbEntity
  8
0
100
AcDbBlockBegin
  2
*Paper_Space0
 70
     0
 10
0.0
 20
0.0
 30
0.0
  3
*Paper_Space0
  1

  0
ENDBLK
  5
25
330
23
100
AcDbEntity
  8
0
100
AcDbBlockEnd
  0
BLOCK
  5
43
330
41
100
AcDbEntity
  8
0
100
AcDbBlockBegin
  2
block 2
 70
     0
 10
0.0
 20
0.0
 30
0.0
  3
block 2
  1

  0
SPLINE
  5
45
330
41
100
AcDbEntity
  8
_U+30EC_U+30A4_U+30E4_U+30FC 1
370
     0
100
AcDbSpline
210
0.0
220
0.0
230
1.0
 70
    11
 71
     3
 72
    26
 73
    22
 74
     0
 42
0.0000000001
 43
0.0000000001
 12
1.0
 22
0.0
 32
0.0
 13
1.0
 23
0.0
 33
0.0
 40
0.0
 40
0.0
 40
0.0
 40
0.0
 40
1.0
 40
1.0
 40
1.0
 40
2.0
 40
2.0
 40
2.0
 40
3.0
 40
3.0
 40
3.0
 40
4.0
 40
4.0
 40
4.0
 40
5.0
 40
5.0
 40
5.0
 40
6.0
 40
6.0
 40
6.0
 40
7.0
 40
7.0
 40
7.0
 40
7.0
 10
57.50536158501603
 20
-99.95117727535943
 30
0.0
 10
57.50536158501603
 20
-99.95117727535943
 30
0.0
 10
57.50536158501603
 20
-98.84702417233686
 30
0.0
 10
57.50536158501603
 20
-98.84702417233686
 30
0.0
 10
57.50536158501603
 20
-98.84702417233686
 30
0.0
 10
57.17532143752909
 20
-98.84702417233686
 30
0.0
 10
57.17532143752909
 20
-98.84702417233686
 30
0.0
 10
57.17532143752909
 20
-98.84702417233686
 30
0.0
 10
57.17532143752909
 20
-98.69888506647112
 30
0.0
 10
57.17532143752909
 20
-98.69888506647112
 30
0.0
 10
57.50742864230718
 20
-98.68407115588454
 30
0.0
 10
57.55393743135804
 20
-98.52111813943222
 30
0.0
 10
57.58356525253119
 20
-98.40674096932193
 30
0.0
 10
57.58356525253119
 20
-98.40674096932193
 30
0.0
 10
57.72963730110579
 20
-98.40674096932193
 30
0.0
 10
57.72963730110579
 20
-98.40674096932193
 30
0.0
 10
57.72963730110579
 20
-98.40674096932193
 30
0.0
 10
57.72963730110579
 20
-99.95117727535943
 30
0.0
 10
57.72963730110579
 20
-99.95117727535943
 30
0.0
 10
57.72963730110579
 20
-99.95117727535943
 30
0.0
 10
57.50536158501603
 20
-99.95117727535943
 30
0.0
 10
57.50536158501603
 20
-99.95117727535943
 30
0.0
  0
HATCH
  5
46
330
41
100
AcDbEntity
  8
_U+30EC_U+30A4_U+30E4_U+30FC 1
 62
     7
420
 16777215
100
AcDbHatch
 10
0.0
 20
0.0
 30
0.0
210
0.0
220
0.0
230
1.0
  2
SOLID
 70
     1
 71
     0
 91
        1
 92
        1
 93
        1
 72
     4
 94
        3
 73
     0
 74
     1
 95
       26
 96
       22
 40
0.0
 40
0.0
 40
0.0
 40
0.0
 40
1.0
 40
1.0
 40
1.0
 40
2.0
 40
2.0
 40
2.0
 40
3.0
 40
3.0
 40
3.0
 40
4.0
 40
4.0
 40
4.0
 40
5.0
 40
5.0
 40
5.0
 40
6.0
 40
6.0
 40
6.0
 40
7.0
 40
7.0
 40
7.0
 40
7.0
 10
57.50536158501603
 20
-99.95117727535943
 10
57.50536158501603
 20
-99.95117727535943
 10
57.50536158501603
 20
-98.84702417233686
 10
57.50536158501603
 20
-98.84702417233686
 10
57.50536158501603
 20
-98.84702417233686
 10
57.17532143752909
 20
-98.84702417233686
 10
57.17532143752909
 20
-98.84702417233686
 10
57.17532143752909
 20
-98.84702417233686
 10
57.17532143752909
 20
-98.69888506647112
 10
57.17532143752909
 20
-98.69888506647112
 10
57.50742864230718
 20
-98.68407115588454
 10
57.55393743135804
 20
-98.52111813943222
 10
57.58356525253119
 20
-98.40674096932193
 10
57.58356525253119
 20
-98.40674096932193
 10
57.72963730110579
 20
-98.40674096932193
 10
57.72963730110579
 20
-98.40674096932193
 10
57.72963730110579
 20
-98.40674096932193
 10
57.72963730110579
 20
-99.95117727535943
 10
57.72963730110579
 20
-99.95117727535943
 10
57.72963730110579
 20
-99.95117727535943
 10
57.50536158501603
 20
-99.95117727535943
 10
57.50536158501603
 20
-99.95117727535943
 97
        0
 97
        0
 75
     2
 76
     1
 98
        0
  0
SPLINE
  5
47
330
41
100
AcDbEntity
  8
_U+30EC_U+30A4_U+30E4_U+30FC 1
370
     0
100
AcDbSpline
210
0.0
220
0.0
230
1.0
 70
    11
 71
     3
 72
    29
 73
    25
 74
     0
 42
0.0000000001
 43
0.0000000001
 12
1.0
 22
0.0
 32
0.0
 13
1.0
 23
0.0
 33
0.0
 40
0.0
 40
0.0
 40
0.0
 40
0.0
 40
1.0
 40
1.0
 40
1.0
 40
2.0
 40
2.0
 40
2.0
 40
3.0
 40
3.0
 40
3.0
 40
4.0
 40
4.0
 40
4.0
 40
5.0
 40
5.0
 40
5.0
 40
6.0
 40
6.0
 40
6.0
 40
7.0
 40
7.0
 40
7.0
 40
8.0
 40
8.0
 40
8.0
 40
8.0
 10
59.12869057766574
 20
-99.77341034832054
 30
0.0
 10
59.02051457942891
 20
-99.98287215382373
 30
0.0
 10
58.84722627652084
 20
-100.0018201789926
 30
0.0
 10
58.73078204911939
 20
-100.0018201789926
 30
0.0
 10
58.56989608995822
 20
-100.0018201789926
 30
0.0
 10
58.42830266551446
 20
-99.95531138994173
 30
0.0
 10
58.33321803012156
 20
-99.77341034832054
 30
0.0
 10
58.22952065601554
 20
-99.57876245340393
 30
0.0
 10
58.21022812129814
 20
-99.34173988401874
 30
0.0
 10
58.21022812129814
 20
-99.17913137711494
 30
0.0
 10
58.21022812129814
 20
-99.0351263858315
 30
0.0
 10
58.22745359872439
 20
-98.78328990585973
 30
0.0
 10
58.33321803012156
 20
-98.58450789636082
 30
0.0
 10
58.44104951880988
 20
-98.3815917722796
 30
0.0
 10
58.60193547797105
 20
-98.35816512297991
 30
0.0
 10
58.73078204911939
 20
-98.35816512297991
 30
0.0
 10
58.88960095098941
 20
-98.35816512297991
 30
0.0
 10
59.03326143272432
 20
-98.40260685473963
 30
0.0
 10
59.12869057766574
 20
-98.58450789636082
 30
0.0
 10
59.22790932764094
 20
-98.77708873398629
 30
0.0
 10
59.25133597694064
 20
-99.00549856465835
 30
0.0
 10
59.25133597694064
 20
-99.17913137711494
 30
0.0
 10
59.25133597694064
 20
-99.35035262273186
 30
0.0
 10
59.22997638493209
 20
-99.58082951069507
 30
0.0
 10
59.12869057766574
 20
-99.77341034832054
 30
0.0
  0
SPLINE
  5
48
330
41
100
AcDbEntity
  8
_U+30EC_U+30A4_U+30E4_U+30FC 1
370
     0
100
AcDbSpline
210
0.0
220
0.0
230
1.0
 70
    11
 71
     3
 72
    17
 73
    13
 74
     0
 42
0.0000000001
 43
0.0000000001
 12
1.0
 22
0.0
 32
0.0
 13
1.0
 23
0.0
 33
0.0
 40
0.0
 40
0.0
 40
0.0
 40
0.0
 40
1.0
 40
1.0
 40
1.0
 40
2.0
 40
2.0
 40
2.0
 40
3.0
 40
3.0
 40
3.0
 40
4.0
 40
4.0
 40
4.0
 40
4.0
 10
58.73078204911939
 20
-98.55074596060537
 30
0.0
 10
58.48101262643878
 20
-98.55074596060537
 30
0.0
 10
58.43450383738791
 20
-98.83427731904143
 30
0.0
 10
58.43450383738791
 20
-99.17913137711494
 30
0.0
 10
58.43450383738791
 20
-99.4984917285976
 30
0.0
 10
58.47067733998303
 20
-99.80717228407599
 30
0.0
 10
58.73078204911939
 20
-99.80717228407599
 30
0.0
 10
58.97848441450886
 20
-99.80717228407599
 30
0.0
 10
59.02706026085087
 20
-99.52605249247961
 30
0.0
 10
59.02706026085087
 20
-99.17913137711494
 30
0.0
 10
59.02706026085087
 20
-98.85942651608376
 30
0.0
 10
58.9888197009646
 20
-98.55074596060537
 30
0.0
 10
58.73078204911939
 20
-98.55074596060537
 30
0.0
  0
HATCH
  5
49
330
41
100
AcDbEntity
  8
_U+30EC_U+30A4_U+30E4_U+30FC 1
 62
     7
420
 16777215
100
AcDbHatch
 10
0.0
 20
0.0
 30
0.0
210
0.0
220
0.0
230
1.0
  2
SOLID
 70
     1
 71
     0
 91
        2
 92
        1
 93
        1
 72
     4
 94
        3
 73
     0
 74
     1
 95
       29
 96
       25
 40
0.0
 40
0.0
 40
0.0
 40
0.0
 40
1.0
 40
1.0
 40
1.0
 40
2.0
 40
2.0
 40
2.0
 40
3.0
 40
3.0
 40
3.0
 40
4.0
 40
4.0
 40
4.0
 40
5.0
 40
5.0
 40
5.0
 40
6.0
 40
6.0
 40
6.0
 40
7.0
 40
7.0
 40
7.0
 40
8.0
 40
8.0
 40
8.0
 40
8.0
 10
59.12869057766574
 20
-99.77341034832054
 10
59.02051457942891
 20
-99.98287215382373
 10
58.84722627652084
 20
-100.0018201789926
 10
58.73078204911939
 20
-100.0018201789926
 10
58.56989608995822
 20
-100.0018201789926
 10
58.42830266551446
 20
-99.95531138994173
 10
58.33321803012156
 20
-99.77341034832054
 10
58.22952065601554
 20
-99.57876245340393
 10
58.21022812129814
 20
-99.34173988401874
 10
58.21022812129814
 20
-99.17913137711494
 10
58.21022812129814
 20
-99.0351263858315
 10
58.22745359872439
 20
-98.78328990585973
 10
58.33321803012156
 20
-98.58450789636082
 10
58.44104951880988
 20
-98.3815917722796
 10
58.60193547797105
 20
-98.35816512297991
 10
58.73078204911939
 20
-98.35816512297991
 10
58.88960095098941
 20
-98.35816512297991
 10
59.03326143272432
 20
-98.40260685473963
 10
59.12869057766574
 20
-98.58450789636082
 10
59.22790932764094
 20
-98.77708873398629
 10
59.25133597694064
 20
-99.00549856465835
 10
59.25133597694064
 20
-99.17913137711494
 10
59.25133597694064
 20
-99.35035262273186
 10
59.22997638493209
 20
-99.58082951069507
 10
59.12869057766574
 20
-99.77341034832054
 97
        0
 97
        0
 92
        1
 93
        1
 72
     4
 94
        3
 73
     0
 74
     1
 95
       17
 96
       13
 40
0.0
 40
0.0
 40
0.0
 40
0.0
 40
1.0
 40
1.0
 40
1.0
 40
2.0
 40
2.0
 40
2.0
 40
3.0
 40
3.0
 40
3.0
 40
4.0
 40
4.0
 40
4.0
 40
4.0
 10
58.73078204911939
 20
-98.55074596060537
 10
58.48101262643878
 20
-98.55074596060537
 10
58.43450383738791
 20
-98.83427731904143
 10
58.43450383738791
 20
-99.17913137711494
 10
58.43450383738791
 20
-99.4984917285976
 10
58.47067733998303
 20
-99.80717228407599
 10
58.73078204911939
 20
-99.80717228407599
 10
58.97848441450886
 20
-99.80717228407599
 10
59.02706026085087
 20
-99.52605249247961
 10
59.02706026085087
 20
-99.17913137711494
 10
59.02706026085087
 20
-98.85942651608376
 10
58.9888197009646
 20
-98.55074596060537
 10
58.73078204911939
 20
-98.55074596060537
 97
        0
 97
        0
 75
     2
 76
     1
 98
        0
  0
ENDBLK
  5
44
330
41
100
AcDbEntity
  8
0
100
AcDbBlockEnd
  0
BLOCK
  5
94
330
92
100
AcDbEntity
  8
0
100
AcDbBlockBegin
  2
block 3
 70
     0
 10
0.0
 20
0.0
 30
0.0
  3
block 3
  1

  0
SPLINE
  5
96
330
92
100
AcDbEntity
  8
_U+30EC_U+30A4_U+30E4_U+30FC 1
370
     0
100
AcDbSpline
210
0.0
220
0.0
230
1.0
 70
    11
 71
     3
 72
    26
 73
    22
 74
     0
 42
0.0000000001
 43
0.0000000001
 12
1.0
 22
0.0
 32
0.0
 13
1.0
 23
0.0
 33
0.0
 40
0.0
 40
0.0
 40
0.0
 40
0.0
 40
1.0
 40
1.0
 40
1.0
 40
2.0
 40
2.0
 40
2.0
 40
3.0
 40
3.0
 40
3.0
 40
4.0
 40
4.0
 40
4.0
 40
5.0
 40
5.0
 40
5.0
 40
6.0
 40
6.0
 40
6.0
 40
7.0
 40
7.0
 40
7.0
 40
7.0
 10
80.74890405967389
 20
-80.1311984391686
 30
0.0
 10
80.74890405967389
 20
-80.1311984391686
 30
0.0
 10
79.64475095665132
 20
-80.1311984391686
 30
0.0
 10
79.64475095665132
 20
-80.1311984391686
 30
0.0
 10
79.64475095665132
 20
-80.1311984391686
 30
0.0
 10
79.64475095665132
 20
-80.46123858665553
 30
0.0
 10
79.64475095665132
 20
-80.46123858665553
 30
0.0
 10
79.64475095665132
 20
-80.46123858665553
 30
0.0
 10
79.49661185078557
 20
-80.46123858665553
 30
0.0
 10
79.49661185078557
 20
-80.46123858665553
 30
0.0
 10
79.481797940199
 20
-80.12913138187744
 30
0.0
 10
79.31884492374668
 20
-80.08262259282657
 30
0.0
 10
79.2044677536364
 20
-80.05299477165342
 30
0.0
 10
79.2044677536364
 20
-80.05299477165342
 30
0.0
 10
79.2044677536364
 20
-79.90692272307882
 30
0.0
 10
79.2044677536364
 20
-79.90692272307882
 30
0.0
 10
79.2044677536364
 20
-79.90692272307882
 30
0.0
 10
80.74890405967389
 20
-79.90692272307882
 30
0.0
 10
80.74890405967389
 20
-79.90692272307882
 30
0.0
 10
80.74890405967389
 20
-79.90692272307882
 30
0.0
 10
80.74890405967389
 20
-80.1311984391686
 30
0.0
 10
80.74890405967389
 20
-80.1311984391686
 30
0.0
  0
HATCH
  5
97
330
92
100
AcDbEntity
  8
_U+30EC_U+30A4_U+30E4_U+30FC 1
 62
     7
420
 16777215
100
AcDbHatch
 10
0.0
 20
0.0
 30
0.0
210
0.0
220
0.0
230
1.0
  2
SOLID
 70
     1
 71
     0
 91
        1
 92
        1
 93
        1
 72
     4
 94
        3
 73
     0
 74
     1
 95
       26
 96
       22
 40
0.0
 40
0.0
 40
0.0
 40
0.0
 40
1.0
 40
1.0
 40
1.0
 40
2.0
 40
2.0
 40
2.0
 40
3.0
 40
3.0
 40
3.0
 40
4.0
 40
4.0
 40
4.0
 40
5.0
 40
5.0
 40
5.0
 40
6.0
 40
6.0
 40
6.0
 40
7.0
 40
7.0
 40
7.0
 40
7.0
 10
80.74890405967389
 20
-80.1311984391686
 10
80.74890405967389
 20
-80.1311984391686
 10
79.64475095665132
 20
-80.1311984391686
 10
79.64475095665132
 20
-80.1311984391686
 10
79.64475095665132
 20
-80.1311984391686
 10
79.64475095665132
 20
-80.46123858665553
 10
79.64475095665132
 20
-80.46123858665553
 10
79.64475095665132
 20
-80.46123858665553
 10
79.49661185078557
 20
-80.46123858665553
 10
79.49661185078557
 20
-80.46123858665553
 10
79.481797940199
 20
-80.12913138187744
 10
79.31884492374668
 20
-80.08262259282657
 10
79.2044677536364
 20
-80.05299477165342
 10
79.2044677536364
 20
-80.05299477165342
 10
79.2044677536364
 20
-79.90692272307882
 10
79.2044677536364
 20
-79.90692272307882
 10
79.2044677536364
 20
-79.90692272307882
 10
80.74890405967389
 20
-79.90692272307882
 10
80.74890405967389
 20
-79.90692272307882
 10
80.74890405967389
 20
-79.90692272307882
 10
80.74890405967389
 20
-80.1311984391686
 10
80.74890405967389
 20
-80.1311984391686
 97
        0
 97
        0
 75
     2
 76
     1
 98
        0
  0
ENDBLK
  5
95
330
92
100
AcDbEntity
  8
0
100
AcDbBlockEnd
  0
BLOCK
  5
A6
330
A4
100
AcDbEntity
  8
0
100
AcDbBlockBegin
  2
block 4
 70
     0
 10
0.0
 20
0.0
 30
0.0
  3
block 4
  1

  0
SPLINE
  5
A8
330
A4
100
AcDbEntity
  8
_U+30EC_U+30A4_U+30E4_U+30FC 1
370
     0
100
AcDbSpline
210
0.0
220
0.0
230
1.0
 70
    11
 71
     3
 72
    62
 73
    58
 74
     0
 42
0.0000000001
 43
0.0000000001
 12
1.0
 22
0.0
 32
0.0
 13
1.0
 23
0.0
 33
0.0
 40
0.0
 40
0.0
 40
0.0
 40
0.0
 40
1.0
 40
1.0
 40
1.0
 40
2.0
 40
2.0
 40
2.0
 40
3.0
 40
3.0
 40
3.0
 40
4.0
 40
4.0
 40
4.0
 40
5.0
 40
5.0
 40
5.0
 40
6.0
 40
6.0
 40
6.0
 40
7.0
 40
7.0
 40
7.0
 40
8.0
 40
8.0
 40
8.0
 40
9.0
 40
9.0
 40
9.0
 40
10.0
 40
10.0
 40
10.0
 40
11.0
 40
11.0
 40
11.0
 40
12.0
 40
12.0
 40
12.0
 40
13.0
 40
13.0
 40
13.0
 40
14.0
 40
14.0
 40
14.0
 40
15.0
 40
15.0
 40
15.0
 40
16.0
 40
16.0
 40
16.0
 40
17.0
 40
17.0
 40
17.0
 40
18.0
 40
18.0
 40
18.0
 40
19.0
 40
19.0
 40
19.0
 40
19.0
 10
60.60198566193284
 20
-77.73031139549798
 30
0.0
 10
60.50655651699142
 20
-77.73031139549798
 30
0.0
 10
60.28882648232363
 20
-77.70929631303795
 30
0.0
 10
60.16376951620906
 20
-77.52326115683447
 30
0.0
 10
60.09004447282472
 20
-77.41095104401532
 30
0.0
 10
60.08556584869389
 20
-77.31173229404013
 30
0.0
 10
60.08143173411159
 20
-77.22698294510298
 30
0.0
 10
60.08143173411159
 20
-77.22698294510298
 30
0.0
 10
60.30157333561905
 20
-77.22698294510298
 30
0.0
 10
60.30157333561905
 20
-77.22698294510298
 30
0.0
 10
60.3036403929102
 20
-77.30105249803586
 30
0.0
 10
60.31397567936595
 20
-77.53566350058136
 30
0.0
 10
60.59750703780202
 20
-77.53566350058136
 30
0.0
 10
60.73496634766348
 20
-77.53566350058136
 30
0.0
 10
60.88758407766005
 20
-77.46607257177932
 30
0.0
 10
60.88758407766005
 20
-77.23766274110726
 30
0.0
 10
60.88758407766005
 20
-77.12121851370581
 30
0.0
 10
60.84934351777378
 20
-77.07264266736378
 30
0.0
 10
60.81764863930948
 20
-77.04094778889949
 30
0.0
 10
60.74357908637661
 20
-76.96687823596662
 30
0.0
 10
60.62713485897516
 20
-76.95413138267119
 30
0.0
 10
60.57235784075969
 20
-76.95413138267119
 30
0.0
 10
60.55306530604229
 20
-76.95413138267119
 30
0.0
 10
60.51723631299569
 20
-76.95619843996235
 30
0.0
 10
60.48967554911369
 20
-76.96033255454465
 30
0.0
 10
60.48967554911369
 20
-76.96033255454465
 30
0.0
 10
60.48967554911369
 20
-76.76568465962802
 30
0.0
 10
60.48967554911369
 20
-76.76568465962802
 30
0.0
 10
60.52791610899997
 20
-76.77205808627573
 30
0.0
 10
60.56994627392002
 20
-76.77429739834115
 30
0.0
 10
60.57649195534199
 20
-76.77429739834115
 30
0.0
 10
60.64194876956174
 20
-76.77429739834115
 30
0.0
 10
60.84073077906066
 20
-76.75311006110687
 30
0.0
 10
60.84073077906066
 20
-76.51608749172168
 30
0.0
 10
60.84073077906066
 20
-76.33849281945704
 30
0.0
 10
60.70981715062116
 20
-76.28337129169304
 30
0.0
 10
60.59957409509317
 20
-76.28337129169304
 30
0.0
 10
60.3353352713745
 20
-76.28337129169304
 30
0.0
 10
60.32672253266138
 20
-76.51608749172168
 30
0.0
 10
60.32258841807908
 20
-76.5880899873634
 30
0.0
 10
60.32258841807908
 20
-76.5880899873634
 30
0.0
 10
60.11932778444934
 20
-76.5880899873634
 30
0.0
 10
60.11932778444934
 20
-76.5880899873634
 30
0.0
 10
60.12794052316247
 20
-76.46320527602309
 30
0.0
 10
60.15550128704446
 20
-76.08665633948529
 30
0.0
 10
60.61232094838859
 20
-76.08665633948529
 30
0.0
 10
60.83659666447836
 20
-76.08665633948529
 30
0.0
 10
61.07775334844584
 20
-76.21360810811674
 30
0.0
 10
61.07775334844584
 20
-76.50971406507396
 30
0.0
 10
61.07775334844584
 20
-76.69592147605172
 30
0.0
 10
60.98266871305295
 20
-76.77843151292345
 30
0.0
 10
60.88310545352923
 20
-76.8397542125609
 30
0.0
 10
60.94442815316668
 20
-76.8673149764429
 30
0.0
 10
61.12632919478786
 20
-76.94758570124922
 30
0.0
 10
61.12632919478786
 20
-77.22491588781183
 30
0.0
 10
61.12632919478786
 20
-77.56322426446336
 30
0.0
 10
60.87897133894693
 20
-77.73031139549798
 30
0.0
 10
60.60198566193284
 20
-77.73031139549798
 30
0.0
  0
HATCH
  5
A9
330
A4
100
AcDbEntity
  8
_U+30EC_U+30A4_U+30E4_U+30FC 1
 62
     7
420
 16777215
100
AcDbHatch
 10
0.0
 20
0.0
 30
0.0
210
0.0
220
0.0
230
1.0
  2
SOLID
 70
     1
 71
     0
 91
        1
 92
        1
 93
        1
 72
     4
 94
        3
 73
     0
 74
     1
 95
       62
 96
       58
 40
0.0
 40
0.0
 40
0.0
 40
0.0
 40
1.0
 40
1.0
 40
1.0
 40
2.0
 40
2.0
 40
2.0
 40
3.0
 40
3.0
 40
3.0
 40
4.0
 40
4.0
 40
4.0
 40
5.0
 40
5.0
 40
5.0
 40
6.0
 40
6.0
 40
6.0
 40
7.0
 40
7.0
 40
7.0
 40
8.0
 40
8.0
 40
8.0
 40
9.0
 40
9.0
 40
9.0
 40
10.0
 40
10.0
 40
10.0
 40
11.0
 40
11.0
 40
11.0
 40
12.0
 40
12.0
 40
12.0
 40
13.0
 40
13.0
 40
13.0
 40
14.0
 40
14.0
 40
14.0
 40
15.0
 40
15.0
 40
15.0
 40
16.0
 40
16.0
 40
16.0
 40
17.0
 40
17.0
 40
17.0
 40
18.0
 40
18.0
 40
18.0
 40
19.0
 40
19.0
 40
19.0
 40
19.0
 10
60.60198566193284
 20
-77.73031139549798
 10
60.50655651699142
 20
-77.73031139549798
 10
60.28882648232363
 20
-77.70929631303795
 10
60.16376951620906
 20
-77.52326115683447
 10
60.09004447282472
 20
-77.41095104401532
 10
60.08556584869389
 20
-77.31173229404013
 10
60.08143173411159
 20
-77.22698294510298
 10
60.08143173411159
 20
-77.22698294510298
 10
60.30157333561905
 20
-77.22698294510298
 10
60.30157333561905
 20
-77.22698294510298
 10
60.3036403929102
 20
-77.30105249803586
 10
60.31397567936595
 20
-77.53566350058136
 10
60.59750703780202
 20
-77.53566350058136
 10
60.73496634766348
 20
-77.53566350058136
 10
60.88758407766005
 20
-77.46607257177932
 10
60.88758407766005
 20
-77.23766274110726
 10
60.88758407766005
 20
-77.12121851370581
 10
60.84934351777378
 20
-77.07264266736378
 10
60.81764863930948
 20
-77.04094778889949
 10
60.74357908637661
 20
-76.96687823596662
 10
60.62713485897516
 20
-76.95413138267119
 10
60.57235784075969
 20
-76.95413138267119
 10
60.55306530604229
 20
-76.95413138267119
 10
60.51723631299569
 20
-76.95619843996235
 10
60.48967554911369
 20
-76.96033255454465
 10
60.48967554911369
 20
-76.96033255454465
 10
60.48967554911369
 20
-76.76568465962802
 10
60.48967554911369
 20
-76.76568465962802
 10
60.52791610899997
 20
-76.77205808627573
 10
60.56994627392002
 20
-76.77429739834115
 10
60.57649195534199
 20
-76.77429739834115
 10
60.64194876956174
 20
-76.77429739834115
 10
60.84073077906066
 20
-76.75311006110687
 10
60.84073077906066
 20
-76.51608749172168
 10
60.84073077906066
 20
-76.33849281945704
 10
60.70981715062116
 20
-76.28337129169304
 10
60.59957409509317
 20
-76.28337129169304
 10
60.3353352713745
 20
-76.28337129169304
 10
60.32672253266138
 20
-76.51608749172168
 10
60.32258841807908
 20
-76.5880899873634
 10
60.32258841807908
 20
-76.5880899873634
 10
60.11932778444934
 20
-76.5880899873634
 10
60.11932778444934
 20
-76.5880899873634
 10
60.12794052316247
 20
-76.46320527602309
 10
60.15550128704446
 20
-76.08665633948529
 10
60.61232094838859
 20
-76.08665633948529
 10
60.83659666447836
 20
-76.08665633948529
 10
61.07775334844584
 20
-76.21360810811674
 10
61.07775334844584
 20
-76.50971406507396
 10
61.07775334844584
 20
-76.69592147605172
 10
60.98266871305295
 20
-76.77843151292345
 10
60.88310545352923
 20
-76.8397542125609
 10
60.94442815316668
 20
-76.8673149764429
 10
61.12632919478786
 20
-76.94758570124922
 10
61.12632919478786
 20
-77.22491588781183
 10
61.12632919478786
 20
-77.56322426446336
 10
60.87897133894693
 20
-77.73031139549798
 10
60.60198566193284
 20
-77.73031139549798
 97
        0
 97
        0
 75
     2
 76
     1
 98
        0
  0
SPLINE
  5
AA
330
A4
100
AcDbEntity
  8
_U+30EC_U+30A4_U+30E4_U+30FC 1
370
     0
100
AcDbSpline
210
0.0
220
0.0
230
1.0
 70
    11
 71
     3
 72
    44
 73
    40
 74
     0
 42
0.0000000001
 43
0.0000000001
 12
1.0
 22
0.0
 32
0.0
 13
1.0
 23
0.0
 33
0.0
 40
0.0
 40
0.0
 40
0.0
 40
0.0
 40
1.0
 40
1.0
 40
1.0
 40
2.0
 40
2.0
 40
2.0
 40
3.0
 40
3.0
 40
3.0
 40
4.0
 40
4.0
 40
4.0
 40
5.0
 40
5.0
 40
5.0
 40
6.0
 40
6.0
 40
6.0
 40
7.0
 40
7.0
 40
7.0
 40
8.0
 40
8.0
 40
8.0
 40
9.0
 40
9.0
 40
9.0
 40
10.0
 40
10.0
 40
10.0
 40
11.0
 40
11.0
 40
11.0
 40
12.0
 40
12.0
 40
12.0
 40
13.0
 40
13.0
 40
13.0
 40
13.0
 10
61.88011608696053
 20
-77.0977918644061
 30
0.0
 10
61.66238605229274
 20
-77.25661076627613
 30
0.0
 10
61.56936847419099
 20
-77.330680319209
 30
0.0
 10
61.52044811830044
 20
-77.47434080094392
 30
0.0
 10
61.52044811830044
 20
-77.47434080094392
 30
0.0
 10
62.29903969796691
 20
-77.47434080094392
 30
0.0
 10
62.29903969796691
 20
-77.47434080094392
 30
0.0
 10
62.29903969796691
 20
-77.47434080094392
 30
0.0
 10
62.29903969796691
 20
-77.6796684918648
 30
0.0
 10
62.29903969796691
 20
-77.6796684918648
 30
0.0
 10
62.29903969796691
 20
-77.6796684918648
 30
0.0
 10
61.27102320516835
 20
-77.6796684918648
 30
0.0
 10
61.27102320516835
 20
-77.6796684918648
 30
0.0
 10
61.30271808363266
 20
-77.32206758049587
 30
0.0
 10
61.36817489785241
 20
-77.2438639129807
 30
0.0
 10
61.75333657310333
 20
-76.94551864395807
 30
0.0
 10
62.0093071676574
 20
-76.74673663445915
 30
0.0
 10
62.07476398187715
 20
-76.679040508174
 30
0.0
 10
62.07476398187715
 20
-76.54158119831253
 30
0.0
 10
62.07476398187715
 20
-76.42306991361993
 30
0.0
 10
62.00276148623542
 20
-76.29198403040617
 30
0.0
 10
61.80604653402766
 20
-76.29198403040617
 30
0.0
 10
61.54594182489129
 20
-76.29198403040617
 30
0.0
 10
61.53767359572669
 20
-76.52246091836939
 30
0.0
 10
61.53319497159587
 20
-76.63890514577083
 30
0.0
 10
61.53319497159587
 20
-76.63890514577083
 30
0.0
 10
61.3089192555061
 20
-76.63890514577083
 30
0.0
 10
61.3089192555061
 20
-76.63890514577083
 30
0.0
 10
61.31753199421923
 20
-76.51195337713938
 30
0.0
 10
61.32821179022351
 20
-76.39981551909449
 30
0.0
 10
61.40848251502982
 20
-76.2813042344019
 30
0.0
 10
61.51838106100929
 20
-76.120590530015
 30
0.0
 10
61.70476072676131
 20
-76.08665633948529
 30
0.0
 10
61.82086044461423
 20
-76.08665633948529
 30
0.0
 10
62.09819063117684
 20
-76.08665633948529
 30
0.0
 10
62.30558537938889
 20
-76.27079669317189
 30
0.0
 10
62.30558537938889
 20
-76.54364825560367
 30
0.0
 10
62.30558537938889
 20
-76.77205808627573
 30
0.0
 10
62.18914115198744
 20
-76.8714490910252
 30
0.0
 10
61.88011608696053
 20
-77.0977918644061
 30
0.0
  0
HATCH
  5
AB
330
A4
100
AcDbEntity
  8
_U+30EC_U+30A4_U+30E4_U+30FC 1
 62
     7
420
 16777215
100
AcDbHatch
 10
0.0
 20
0.0
 30
0.0
210
0.0
220
0.0
230
1.0
  2
SOLID
 70
     1
 71
     0
 91
        1
 92
        1
 93
        1
 72
     4
 94
        3
 73
     0
 74
     1
 95
       44
 96
       40
 40
0.0
 40
0.0
 40
0.0
 40
0.0
 40
1.0
 40
1.0
 40
1.0
 40
2.0
 40
2.0
 40
2.0
 40
3.0
 40
3.0
 40
3.0
 40
4.0
 40
4.0
 40
4.0
 40
5.0
 40
5.0
 40
5.0
 40
6.0
 40
6.0
 40
6.0
 40
7.0
 40
7.0
 40
7.0
 40
8.0
 40
8.0
 40
8.0
 40
9.0
 40
9.0
 40
9.0
 40
10.0
 40
10.0
 40
10.0
 40
11.0
 40
11.0
 40
11.0
 40
12.0
 40
12.0
 40
12.0
 40
13.0
 40
13.0
 40
13.0
 40
13.0
 10
61.88011608696053
 20
-77.0977918644061
 10
61.66238605229274
 20
-77.25661076627613
 10
61.56936847419099
 20
-77.330680319209
 10
61.52044811830044
 20
-77.47434080094392
 10
61.52044811830044
 20
-77.47434080094392
 10
62.29903969796691
 20
-77.47434080094392
 10
62.29903969796691
 20
-77.47434080094392
 10
62.29903969796691
 20
-77.47434080094392
 10
62.29903969796691
 20
-77.6796684918648
 10
62.29903969796691
 20
-77.6796684918648
 10
62.29903969796691
 20
-77.6796684918648
 10
61.27102320516835
 20
-77.6796684918648
 10
61.27102320516835
 20
-77.6796684918648
 10
61.30271808363266
 20
-77.32206758049587
 10
61.36817489785241
 20
-77.2438639129807
 10
61.75333657310333
 20
-76.94551864395807
 10
62.0093071676574
 20
-76.74673663445915
 10
62.07476398187715
 20
-76.679040508174
 10
62.07476398187715
 20
-76.54158119831253
 10
62.07476398187715
 20
-76.42306991361993
 10
62.00276148623542
 20
-76.29198403040617
 10
61.80604653402766
 20
-76.29198403040617
 10
61.54594182489129
 20
-76.29198403040617
 10
61.53767359572669
 20
-76.52246091836939
 10
61.53319497159587
 20
-76.63890514577083
 10
61.53319497159587
 20
-76.63890514577083
 10
61.3089192555061
 20
-76.63890514577083
 10
61.3089192555061
 20
-76.63890514577083
 10
61.31753199421923
 20
-76.51195337713938
 10
61.32821179022351
 20
-76.39981551909449
 10
61.40848251502982
 20
-76.2813042344019
 10
61.51838106100929
 20
-76.120590530015
 10
61.70476072676131
 20
-76.08665633948529
 10
61.82086044461423
 20
-76.08665633948529
 10
62.09819063117684
 20
-76.08665633948529
 10
62.30558537938889
 20
-76.27079669317189
 10
62.30558537938889
 20
-76.54364825560367
 10
62.30558537938889
 20
-76.77205808627573
 10
62.18914115198744
 20
-76.8714490910252
 10
61.88011608696053
 20
-77.0977918644061
 97
        0
 97
        0
 75
     2
 76
     1
 98
        0
  0
ENDBLK
  5
A7
330
A4
100
AcDbEntity
  8
0
100
AcDbBlockEnd
  0
BLOCK
  5
BA
330
B8
100
AcDbEntity
  8
0
100
AcDbBlockBegin
  2
block 5
 70
     0
 10
0.0
 20
0.0
 30
0.0
  3
block 5
  1

  0
SPLINE
  5
BC
330
B8
100
AcDbEntity
  8
_U+30EC_U+30A4_U+30E4_U+30FC 1
370
     0
100
AcDbSpline
210
0.0
220
0.0
230
1.0
 70
    11
 71
     3
 72
    29
 73
    25
 74
     0
 42
0.0000000001
 43
0.0000000001
 12
1.0
 22
0.0
 32
0.0
 13
1.0
 23
0.0
 33
0.0
 40
0.0
 40
0.0
 40
0.0
 40
0.0
 40
1.0
 40
1.0
 40
1.0
 40
2.0
 40
2.0
 40
2.0
 40
3.0
 40
3.0
 40
3.0
 40
4.0
 40
4.0
 40
4.0
 40
5.0
 40
5.0
 40
5.0
 40
6.0
 40
6.0
 40
6.0
 40
7.0
 40
7.0
 40
7.0
 40
8.0
 40
8.0
 40
8.0
 40
8.0
 10
49.19837509620735
 20
-100.0018201789926
 30
0.0
 10
48.93189696042328
 20
-100.0018201789926
 30
0.0
 10
48.67799342316037
 20
-99.86436086913113
 30
0.0
 10
48.67799342316037
 20
-99.51537269647532
 30
0.0
 10
48.67799342316037
 20
-99.25940210192127
 30
0.0
 10
48.8197591023784
 20
-99.16431746652837
 30
0.0
 10
48.92552353377557
 20
-99.10299476689092
 30
0.0
 10
48.80063882243526
 20
-99.04373912454463
 30
0.0
 10
48.72450221221123
 20
-98.92936195443433
 30
0.0
 10
48.72450221221123
 20
-98.76847599527316
 30
0.0
 10
48.72450221221123
 20
-98.49355737555022
 30
0.0
 10
48.92345647648442
 20
-98.35816512297991
 30
0.0
 10
49.19837509620735
 20
-98.35816512297991
 30
0.0
 10
49.48190645464341
 20
-98.35816512297991
 30
0.0
 10
49.67224798020347
 20
-98.50217011426335
 30
0.0
 10
49.67224798020347
 20
-98.76847599527316
 30
0.0
 10
49.67224798020347
 20
-98.92936195443433
 30
0.0
 10
49.5940443126883
 20
-99.04373912454463
 30
0.0
 10
49.46915960134799
 20
-99.10299476689092
 30
0.0
 10
49.55804306486743
 20
-99.15363767052409
 30
0.0
 10
49.71668971196319
 20
-99.24872230591698
 30
0.0
 10
49.71668971196319
 20
-99.51123858189302
 30
0.0
 10
49.71668971196319
 20
-99.88572046113968
 30
0.0
 10
49.43746472288369
 20
-100.0018201789926
 30
0.0
 10
49.19837509620735
 20
-100.0018201789926
 30
0.0
  0
SPLINE
  5
BD
330
B8
100
AcDbEntity
  8
_U+30EC_U+30A4_U+30E4_U+30FC 1
370
     0
100
AcDbSpline
210
0.0
220
0.0
230
1.0
 70
    11
 71
     3
 72
    17
 73
    13
 74
     0
 42
0.0000000001
 43
0.0000000001
 12
1.0
 22
0.0
 32
0.0
 13
1.0
 23
0.0
 33
0.0
 40
0.0
 40
0.0
 40
0.0
 40
0.0
 40
1.0
 40
1.0
 40
1.0
 40
2.0
 40
2.0
 40
2.0
 40
3.0
 40
3.0
 40
3.0
 40
4.0
 40
4.0
 40
4.0
 40
4.0
 10
49.19837509620735
 20
-99.21082625557925
 30
0.0
 10
49.05454235969817
 20
-99.21082625557925
 30
0.0
 10
48.90226913925013
 20
-99.29764266180754
 30
0.0
 10
48.90226913925013
 20
-99.50055878588876
 30
0.0
 10
48.90226913925013
 20
-99.70588647680964
 30
0.0
 10
49.02922090788159
 20
-99.80717228407599
 30
0.0
 10
49.19837509620735
 20
-99.80717228407599
 30
0.0
 10
49.38458250718511
 20
-99.80717228407599
 30
0.0
 10
49.49465330793884
 20
-99.6845268848011
 30
0.0
 10
49.49465330793884
 20
-99.5067599577622
 30
0.0
 10
49.49465330793884
 20
-99.28489580851212
 30
0.0
 10
49.33170029148652
 20
-99.21082625557925
 30
0.0
 10
49.19837509620735
 20
-99.21082625557925
 30
0.0
  0
SPLINE
  5
BE
330
B8
100
AcDbEntity
  8
_U+30EC_U+30A4_U+30E4_U+30FC 1
370
     0
100
AcDbSpline
210
0.0
220
0.0
230
1.0
 70
    11
 71
     3
 72
    17
 73
    13
 74
     0
 42
0.0000000001
 43
0.0000000001
 12
1.0
 22
0.0
 32
0.0
 13
1.0
 23
0.0
 33
0.0
 40
0.0
 40
0.0
 40
0.0
 40
0.0
 40
1.0
 40
1.0
 40
1.0
 40
2.0
 40
2.0
 40
2.0
 40
3.0
 40
3.0
 40
3.0
 40
4.0
 40
4.0
 40
4.0
 40
4.0
 10
49.19837509620735
 20
-98.55074596060537
 30
0.0
 10
49.03335502246389
 20
-98.55074596060537
 30
0.0
 10
48.94877792830101
 20
-98.64583059599826
 30
0.0
 10
48.94877792830101
 20
-98.78122284856859
 30
0.0
 10
48.94877792830101
 20
-98.90386824784348
 30
0.0
 10
49.02078042394272
 20
-99.02237953253608
 30
0.0
 10
49.19837509620735
 20
-99.02237953253608
 30
0.0
 10
49.37614202324625
 20
-99.02237953253608
 30
0.0
 10
49.4479722641137
 20
-98.90386824784348
 30
0.0
 10
49.4479722641137
 20
-98.78122284856859
 30
0.0
 10
49.4479722641137
 20
-98.64583059599826
 30
0.0
 10
49.36132811265967
 20
-98.55074596060537
 30
0.0
 10
49.19837509620735
 20
-98.55074596060537
 30
0.0
  0
HATCH
  5
BF
330
B8
100
AcDbEntity
  8
_U+30EC_U+30A4_U+30E4_U+30FC 1
 62
     7
420
 16777215
100
AcDbHatch
 10
0.0
 20
0.0
 30
0.0
210
0.0
220
0.0
230
1.0
  2
SOLID
 70
     1
 71
     0
 91
        3
 92
        1
 93
        1
 72
     4
 94
        3
 73
     0
 74
     1
 95
       29
 96
       25
 40
0.0
 40
0.0
 40
0.0
 40
0.0
 40
1.0
 40
1.0
 40
1.0
 40
2.0
 40
2.0
 40
2.0
 40
3.0
 40
3.0
 40
3.0
 40
4.0
 40
4.0
 40
4.0
 40
5.0
 40
5.0
 40
5.0
 40
6.0
 40
6.0
 40
6.0
 40
7.0
 40
7.0
 40
7.0
 40
8.0
 40
8.0
 40
8.0
 40
8.0
 10
49.19837509620735
 20
-100.0018201789926
 10
48.93189696042328
 20
-100.0018201789926
 10
48.67799342316037
 20
-99.86436086913113
 10
48.67799342316037
 20
-99.51537269647532
 10
48.67799342316037
 20
-99.25940210192127
 10
48.8197591023784
 20
-99.16431746652837
 10
48.92552353377557
 20
-99.10299476689092
 10
48.80063882243526
 20
-99.04373912454463
 10
48.72450221221123
 20
-98.92936195443433
 10
48.72450221221123
 20
-98.76847599527316
 10
48.72450221221123
 20
-98.49355737555022
 10
48.92345647648442
 20
-98.35816512297991
 10
49.19837509620735
 20
-98.35816512297991
 10
49.48190645464341
 20
-98.35816512297991
 10
49.67224798020347
 20
-98.50217011426335
 10
49.67224798020347
 20
-98.76847599527316
 10
49.67224798020347
 20
-98.92936195443433
 10
49.5940443126883
 20
-99.04373912454463
 10
49.46915960134799
 20
-99.10299476689092
 10
49.55804306486743
 20
-99.15363767052409
 10
49.71668971196319
 20
-99.24872230591698
 10
49.71668971196319
 20
-99.51123858189302
 10
49.71668971196319
 20
-99.88572046113968
 10
49.43746472288369
 20
-100.0018201789926
 10
49.19837509620735
 20
-100.0018201789926
 97
        0
 97
        0
 92
        1
 93
        1
 72
     4
 94
        3
 73
     0
 74
     1
 95
       17
 96
       13
 40
0.0
 40
0.0
 40
0.0
 40
0.0
 40
1.0
 40
1.0
 40
1.0
 40
2.0
 40
2.0
 40
2.0
 40
3.0
 40
3.0
 40
3.0
 40
4.0
 40
4.0
 40
4.0
 40
4.0
 10
49.19837509620735
 20
-99.21082625557925
 10
49.05454235969817
 20
-99.21082625557925
 10
48.90226913925013
 20
-99.29764266180754
 10
48.90226913925013
 20
-99.50055878588876
 10
48.90226913925013
 20
-99.70588647680964
 10
49.02922090788159
 20
-99.80717228407599
 10
49.19837509620735
 20
-99.80717228407599
 10
49.38458250718511
 20
-99.80717228407599
 10
49.49465330793884
 20
-99.6845268848011
 10
49.49465330793884
 20
-99.5067599577622
 10
49.49465330793884
 20
-99.28489580851212
 10
49.33170029148652
 20
-99.21082625557925
 10
49.19837509620735
 20
-99.21082625557925
 97
        0
 97
        0
 92
        1
 93
        1
 72
     4
 94
        3
 73
     0
 74
     1
 95
       17
 96
       13
 40
0.0
 40
0.0
 40
0.0
 40
0.0
 40
1.0
 40
1.0
 40
1.0
 40
2.0
 40
2.0
 40
2.0
 40
3.0
 40
3.0
 40
3.0
 40
4.0
 40
4.0
 40
4.0
 40
4.0
 10
49.19837509620735
 20
-98.55074596060537
 10
49.03335502246389
 20
-98.55074596060537
 10
48.94877792830101
 20
-98.64583059599826
 10
48.94877792830101
 20
-98.78122284856859
 10
48.94877792830101
 20
-98.90386824784348
 10
49.02078042394272
 20
-99.02237953253608
 10
49.19837509620735
 20
-99.02237953253608
 10
49.37614202324625
 20
-99.02237953253608
 10
49.4479722641137
 20
-98.90386824784348
 10
49.4479722641137
 20
-98.78122284856859
 10
49.4479722641137
 20
-98.64583059599826
 10
49.36132811265967
 20
-98.55074596060537
 10
49.19837509620735
 20
-98.55074596060537
 97
        0
 97
        0
 75
     2
 76
     1
 98
        0
  0
ENDBLK
  5
BB
330
B8
100
AcDbEntity
  8
0
100
AcDbBlockEnd
  0
BLOCK
  5
D2
330
D0
100
AcDbEntity
  8
0
100
AcDbBlockBegin
  2
block 6
 70
     0
 10
0.0
 20
0.0
 30
0.0
  3
block 6
  1

  0
SPLINE
  5
D4
330
D0
100
AcDbEntity
  8
_U+30EC_U+30A4_U+30E4_U+30FC 1
370
     0
100
AcDbSpline
210
0.0
220
0.0
230
1.0
 70
    11
 71
     3
 72
    26
 73
    22
 74
     0
 42
0.0000000001
 43
0.0000000001
 12
1.0
 22
0.0
 32
0.0
 13
1.0
 23
0.0
 33
0.0
 40
0.0
 40
0.0
 40
0.0
 40
0.0
 40
1.0
 40
1.0
 40
1.0
 40
2.0
 40
2.0
 40
2.0
 40
3.0
 40
3.0
 40
3.0
 40
4.0
 40
4.0
 40
4.0
 40
5.0
 40
5.0
 40
5.0
 40
6.0
 40
6.0
 40
6.0
 40
7.0
 40
7.0
 40
7.0
 40
7.0
 10
80.74890405967389
 20
-90.21361488630076
 30
0.0
 10
80.74890405967389
 20
-90.21361488630076
 30
0.0
 10
79.64475095665132
 20
-90.21361488630076
 30
0.0
 10
79.64475095665132
 20
-90.21361488630076
 30
0.0
 10
79.64475095665132
 20
-90.21361488630076
 30
0.0
 10
79.64475095665132
 20
-90.5436550337877
 30
0.0
 10
79.64475095665132
 20
-90.5436550337877
 30
0.0
 10
79.64475095665132
 20
-90.5436550337877
 30
0.0
 10
79.49661185078557
 20
-90.5436550337877
 30
0.0
 10
79.49661185078557
 20
-90.5436550337877
 30
0.0
 10
79.481797940199
 20
-90.21154782900962
 30
0.0
 10
79.31884492374668
 20
-90.16503903995874
 30
0.0
 10
79.2044677536364
 20
-90.13541121878559
 30
0.0
 10
79.2044677536364
 20
-90.13541121878559
 30
0.0
 10
79.2044677536364
 20
-89.989339170211
 30
0.0
 10
79.2044677536364
 20
-89.989339170211
 30
0.0
 10
79.2044677536364
 20
-89.989339170211
 30
0.0
 10
80.74890405967389
 20
-89.989339170211
 30
0.0
 10
80.74890405967389
 20
-89.989339170211
 30
0.0
 10
80.74890405967389
 20
-89.989339170211
 30
0.0
 10
80.74890405967389
 20
-90.21361488630076
 30
0.0
 10
80.74890405967389
 20
-90.21361488630076
 30
0.0
  0
HATCH
  5
D5
330
D0
100
AcDbEntity
  8
_U+30EC_U+30A4_U+30E4_U+30FC 1
 62
     7
420
 16777215
100
AcDbHatch
 10
0.0
 20
0.0
 30
0.0
210
0.0
220
0.0
230
1.0
  2
SOLID
 70
     1
 71
     0
 91
        1
 92
        1
 93
        1
 72
     4
 94
        3
 73
     0
 74
     1
 95
       26
 96
       22
 40
0.0
 40
0.0
 40
0.0
 40
0.0
 40
1.0
 40
1.0
 40
1.0
 40
2.0
 40
2.0
 40
2.0
 40
3.0
 40
3.0
 40
3.0
 40
4.0
 40
4.0
 40
4.0
 40
5.0
 40
5.0
 40
5.0
 40
6.0
 40
6.0
 40
6.0
 40
7.0
 40
7.0
 40
7.0
 40
7.0
 10
80.74890405967389
 20
-90.21361488630076
 10
80.74890405967389
 20
-90.21361488630076
 10
79.64475095665132
 20
-90.21361488630076
 10
79.64475095665132
 20
-90.21361488630076
 10
79.64475095665132
 20
-90.21361488630076
 10
79.64475095665132
 20
-90.5436550337877
 10
79.64475095665132
 20
-90.5436550337877
 10
79.64475095665132
 20
-90.5436550337877
 10
79.49661185078557
 20
-90.5436550337877
 10
79.49661185078557
 20
-90.5436550337877
 10
79.481797940199
 20
-90.21154782900962
 10
79.31884492374668
 20
-90.16503903995874
 10
79.2044677536364
 20
-90.13541121878559
 10
79.2044677536364
 20
-90.13541121878559
 10
79.2044677536364
 20
-89.989339170211
 10
79.2044677536364
 20
-89.989339170211
 10
79.2044677536364
 20
-89.989339170211
 10
80.74890405967389
 20
-89.989339170211
 10
80.74890405967389
 20
-89.989339170211
 10
80.74890405967389
 20
-89.989339170211
 10
80.74890405967389
 20
-90.21361488630076
 10
80.74890405967389
 20
-90.21361488630076
 97
        0
 97
        0
 75
     2
 76
     1
 98
        0
  0
SPLINE
  5
D6
330
D0
100
AcDbEntity
  8
_U+30EC_U+30A4_U+30E4_U+30FC 1
370
     0
100
AcDbSpline
210
0.0
220
0.0
230
1.0
 70
    11
 71
     3
 72
    62
 73
    58
 74
     0
 42
0.0000000001
 43
0.0000000001
 12
1.0
 22
0.0
 32
0.0
 13
1.0
 23
0.0
 33
0.0
 40
0.0
 40
0.0
 40
0.0
 40
0.0
 40
1.0
 40
1.0
 40
1.0
 40
2.0
 40
2.0
 40
2.0
 40
3.0
 40
3.0
 40
3.0
 40
4.0
 40
4.0
 40
4.0
 40
5.0
 40
5.0
 40
5.0
 40
6.0
 40
6.0
 40
6.0
 40
7.0
 40
7.0
 40
7.0
 40
8.0
 40
8.0
 40
8.0
 40
9.0
 40
9.0
 40
9.0
 40
10.0
 40
10.0
 40
10.0
 40
11.0
 40
11.0
 40
11.0
 40
12.0
 40
12.0
 40
12.0
 40
13.0
 40
13.0
 40
13.0
 40
14.0
 40
14.0
 40
14.0
 40
15.0
 40
15.0
 40
15.0
 40
16.0
 40
16.0
 40
16.0
 40
17.0
 40
17.0
 40
17.0
 40
18.0
 40
18.0
 40
18.0
 40
19.0
 40
19.0
 40
19.0
 40
19.0
 10
80.79954696330707
 20
-88.996462651362
 30
0.0
 10
80.79954696330707
 20
-89.09189179630341
 30
0.0
 10
80.77853188084704
 20
-89.30962183097121
 30
0.0
 10
80.59249672464355
 20
-89.43467879708578
 30
0.0
 10
80.48018661182441
 20
-89.50874835001865
 30
0.0
 10
80.3809678618492
 20
-89.51288246460095
 30
0.0
 10
80.29621851291206
 20
-89.51701657918325
 30
0.0
 10
80.29621851291206
 20
-89.51701657918325
 30
0.0
 10
80.29621851291206
 20
-89.29687497767578
 30
0.0
 10
80.29621851291206
 20
-89.29687497767578
 30
0.0
 10
80.37028806584493
 20
-89.29480792038464
 30
0.0
 10
80.60489906839045
 20
-89.28447263392889
 30
0.0
 10
80.60489906839045
 20
-89.00094127549282
 30
0.0
 10
80.60489906839045
 20
-88.86348196563135
 30
0.0
 10
80.5353081395884
 20
-88.71086423563479
 30
0.0
 10
80.30689830891633
 20
-88.71086423563479
 30
0.0
 10
80.19045408151489
 20
-88.71086423563479
 30
0.0
 10
80.14187823517287
 20
-88.74910479552106
 30
0.0
 10
80.11018335670857
 20
-88.78079967398536
 30
0.0
 10
80.03611380377569
 20
-88.85486922691823
 30
0.0
 10
80.02336695048027
 20
-88.97131345431967
 30
0.0
 10
80.02336695048027
 20
-89.02609047253515
 30
0.0
 10
80.02336695048027
 20
-89.04538300725255
 30
0.0
 10
80.02543400777142
 20
-89.08121200029915
 30
0.0
 10
80.02956812235372
 20
-89.10877276418114
 30
0.0
 10
80.02956812235372
 20
-89.10877276418114
 30
0.0
 10
79.83492022743711
 20
-89.10877276418114
 30
0.0
 10
79.83492022743711
 20
-89.10877276418114
 30
0.0
 10
79.84146590885908
 20
-89.07053220429488
 30
0.0
 10
79.84353296615024
 20
-89.02850203937483
 30
0.0
 10
79.84353296615024
 20
-89.02195635795285
 30
0.0
 10
79.84353296615024
 20
-88.9564995437331
 30
0.0
 10
79.82217337414168
 20
-88.75771753423419
 30
0.0
 10
79.58549531430502
 20
-88.75771753423419
 30
0.0
 10
79.40772838726613
 20
-88.75771753423419
 30
0.0
 10
79.35260685950213
 20
-88.88863116267368
 30
0.0
 10
79.35260685950213
 20
-88.99887421820168
 30
0.0
 10
79.35260685950213
 20
-89.26311304192033
 30
0.0
 10
79.58549531430502
 20
-89.27172578063346
 30
0.0
 10
79.65715330039822
 20
-89.27585989521576
 30
0.0
 10
79.65715330039822
 20
-89.27585989521576
 30
0.0
 10
79.65715330039822
 20
-89.4791205288455
 30
0.0
 10
79.65715330039822
 20
-89.4791205288455
 30
0.0
 10
79.53244084383218
 20
-89.47050779013237
 30
0.0
 10
79.15589190729436
 20
-89.44294702625038
 30
0.0
 10
79.15589190729436
 20
-88.98612736490625
 30
0.0
 10
79.15589190729436
 20
-88.76185164881649
 30
0.0
 10
79.28301593070009
 20
-88.520694964849
 30
0.0
 10
79.57894963288304
 20
-88.520694964849
 30
0.0
 10
79.76532929863507
 20
-88.520694964849
 30
0.0
 10
79.84766708073253
 20
-88.6157796002419
 30
0.0
 10
79.90898978036998
 20
-88.71534285976561
 30
0.0
 10
79.93655054425197
 20
-88.65402016012817
 30
0.0
 10
80.0168212690583
 20
-88.47211911850698
 30
0.0
 10
80.2941514556209
 20
-88.47211911850698
 30
0.0
 10
80.63245983227245
 20
-88.47211911850698
 30
0.0
 10
80.79954696330707
 20
-88.71947697434791
 30
0.0
 10
80.79954696330707
 20
-88.996462651362
 30
0.0
  0
HATCH
  5
D7
330
D0
100
AcDbEntity
  8
_U+30EC_U+30A4_U+30E4_U+30FC 1
 62
     7
420
 16777215
100
AcDbHatch
 10
0.0
 20
0.0
 30
0.0
210
0.0
220
0.0
230
1.0
  2
SOLID
 70
     1
 71
     0
 91
        1
 92
        1
 93
        1
 72
     4
 94
        3
 73
     0
 74
     1
 95
       62
 96
       58
 40
0.0
 40
0.0
 40
0.0
 40
0.0
 40
1.0
 40
1.0
 40
1.0
 40
2.0
 40
2.0
 40
2.0
 40
3.0
 40
3.0
 40
3.0
 40
4.0
 40
4.0
 40
4.0
 40
5.0
 40
5.0
 40
5.0
 40
6.0
 40
6.0
 40
6.0
 40
7.0
 40
7.0
 40
7.0
 40
8.0
 40
8.0
 40
8.0
 40
9.0
 40
9.0
 40
9.0
 40
10.0
 40
10.0
 40
10.0
 40
11.0
 40
11.0
 40
11.0
 40
12.0
 40
12.0
 40
12.0
 40
13.0
 40
13.0
 40
13.0
 40
14.0
 40
14.0
 40
14.0
 40
15.0
 40
15.0
 40
15.0
 40
16.0
 40
16.0
 40
16.0
 40
17.0
 40
17.0
 40
17.0
 40
18.0
 40
18.0
 40
18.0
 40
19.0
 40
19.0
 40
19.0
 40
19.0
 10
80.79954696330707
 20
-88.996462651362
 10
80.79954696330707
 20
-89.09189179630341
 10
80.77853188084704
 20
-89.30962183097121
 10
80.59249672464355
 20
-89.43467879708578
 10
80.48018661182441
 20
-89.50874835001865
 10
80.3809678618492
 20
-89.51288246460095
 10
80.29621851291206
 20
-89.51701657918325
 10
80.29621851291206
 20
-89.51701657918325
 10
80.29621851291206
 20
-89.29687497767578
 10
80.29621851291206
 20
-89.29687497767578
 10
80.37028806584493
 20
-89.29480792038464
 10
80.60489906839045
 20
-89.28447263392889
 10
80.60489906839045
 20
-89.00094127549282
 10
80.60489906839045
 20
-88.86348196563135
 10
80.5353081395884
 20
-88.71086423563479
 10
80.30689830891633
 20
-88.71086423563479
 10
80.19045408151489
 20
-88.71086423563479
 10
80.14187823517287
 20
-88.74910479552106
 10
80.11018335670857
 20
-88.78079967398536
 10
80.03611380377569
 20
-88.85486922691823
 10
80.02336695048027
 20
-88.97131345431967
 10
80.02336695048027
 20
-89.02609047253515
 10
80.02336695048027
 20
-89.04538300725255
 10
80.02543400777142
 20
-89.08121200029915
 10
80.02956812235372
 20
-89.10877276418114
 10
80.02956812235372
 20
-89.10877276418114
 10
79.83492022743711
 20
-89.10877276418114
 10
79.83492022743711
 20
-89.10877276418114
 10
79.84146590885908
 20
-89.07053220429488
 10
79.84353296615024
 20
-89.02850203937483
 10
79.84353296615024
 20
-89.02195635795285
 10
79.84353296615024
 20
-88.9564995437331
 10
79.82217337414168
 20
-88.75771753423419
 10
79.58549531430502
 20
-88.75771753423419
 10
79.40772838726613
 20
-88.75771753423419
 10
79.35260685950213
 20
-88.88863116267368
 10
79.35260685950213
 20
-88.99887421820168
 10
79.35260685950213
 20
-89.26311304192033
 10
79.58549531430502
 20
-89.27172578063346
 10
79.65715330039822
 20
-89.27585989521576
 10
79.65715330039822
 20
-89.27585989521576
 10
79.65715330039822
 20
-89.4791205288455
 10
79.65715330039822
 20
-89.4791205288455
 10
79.53244084383218
 20
-89.47050779013237
 10
79.15589190729436
 20
-89.44294702625038
 10
79.15589190729436
 20
-88.98612736490625
 10
79.15589190729436
 20
-88.76185164881649
 10
79.28301593070009
 20
-88.520694964849
 10
79.57894963288304
 20
-88.520694964849
 10
79.76532929863507
 20
-88.520694964849
 10
79.84766708073253
 20
-88.6157796002419
 10
79.90898978036998
 20
-88.71534285976561
 10
79.93655054425197
 20
-88.65402016012817
 10
80.0168212690583
 20
-88.47211911850698
 10
80.2941514556209
 20
-88.47211911850698
 10
80.63245983227245
 20
-88.47211911850698
 10
80.79954696330707
 20
-88.71947697434791
 10
80.79954696330707
 20
-88.996462651362
 97
        0
 97
        0
 75
     2
 76
     1
 98
        0
  0
ENDBLK
  5
D3
330
D0
100
AcDbEntity
  8
0
100
AcDbBlockEnd
  0
ENDSEC
  0
SECTION
  2
ENTITIES
  0
INSERT
  5
42
330
1F
100
AcDbEntity
  8
_U+30EC_U+30A4_U+30E4_U+30FC 1
100
AcDbBlockReference
  2
block 2
 10
0.0
 20
0.0
 30
0.0
  0
POLYLINE
  5
4A
330
1F
100
AcDbEntity
  8
_U+30EC_U+30A4_U+30E4_U+30FC 1
 62
     7
420
 16777215
370
    25
100
AcDb2dPolyline
 66
     1
 10
0.0
 20
0.0
 30
0.0
  0
VERTEX
  5
4B
330
4A
100
AcDbEntity
  8
_U+30EC_U+30A4_U+30E4_U+30FC 1
 62
     7
420
 16777215
370
    25
100
AcDbVertex
100
AcDb2dVertex
 10
45.19862856910914
 20
-82.0762899794808
 30
0.0
  0
VERTEX
  5
4C
330
4A
100
AcDbEntity
  8
_U+30EC_U+30A4_U+30E4_U+30FC 1
 62
     7
420
 16777215
370
    25
100
AcDbVertex
100
AcDb2dVertex
 10
77.19839441939376
 20
-82.0762899794808
 30
0.0
  0
SEQEND
  5
4D
330
4A
100
AcDbEntity
  8
_U+30EC_U+30A4_U+30E4_U+30FC 1
 62
     7
420
 16777215
370
    25
  0
POLYLINE
  5
4E
330
1F
100
AcDbEntity
  8
_U+30EC_U+30A4_U+30E4_U+30FC 1
 62
     7
420
 16777215
370
    25
100
AcDb2dPolyline
 66
     1
 10
0.0
 20
0.0
 30
0.0
  0
VERTEX
  5
4F
330
4E
100
AcDbEntity
  8
_U+30EC_U+30A4_U+30E4_U+30FC 1
 62
     7
420
 16777215
370
    25
100
AcDbVertex
100
AcDb2dVertex
 10
45.19862856910914
 20
-83.07606220145335
 30
0.0
  0
VERTEX
  5
50
330
4E
100
AcDbEntity
  8
_U+30EC_U+30A4_U+30E4_U+30FC 1
 62
     7
420
 16777215
370
    25
100
AcDbVertex
100
AcDb2dVertex
 10
57.58356387449309
 20
-83.07606220145335
 30
0.0
  0
SEQEND
  5
51
330
4E
100
AcDbEntity
  8
_U+30EC_U+30A4_U+30E4_U+30FC 1
 62
     7
420
 16777215
370
    25
  0
POLYLINE
  5
52
330
1F
100
AcDbEntity
  8
_U+30EC_U+30A4_U+30E4_U+30FC 1
 62
     7
420
 16777215
370
    25
100
AcDb2dPolyline
 66
     1
 10
0.0
 20
0.0
 30
0.0
  0
VERTEX
  5
53
330
52
100
AcDbEntity
  8
_U+30EC_U+30A4_U+30E4_U+30FC 1
 62
     7
420
 16777215
370
    25
100
AcDbVertex
100
AcDb2dVertex
 10
58.69855183580852
 20
-83.07606220145335
 30
0.0
  0
VERTEX
  5
54
330
52
100
AcDbEntity
  8
_U+30EC_U+30A4_U+30E4_U+30FC 1
 62
     7
420
 16777215
370
    25
100
AcDbVertex
100
AcDb2dVertex
 10
77.19839441939376
 20
-83.07606220145335
 30
0.0
  0
SEQEND
  5
55
330
52
100
AcDbEntity
  8
_U+30EC_U+30A4_U+30E4_U+30FC 1
 62
     7
420
 16777215
370
    25
  0
POLYLINE
  5
56
330
1F
100
AcDbEntity
  8
_U+30EC_U+30A4_U+30E4_U+30FC 1
 62
     7
420
 16777215
370
    25
100
AcDb2dPolyline
 66
     1
 10
0.0
 20
0.0
 30
0.0
  0
VERTEX
  5
57
330
56
100
AcDbEntity
  8
_U+30EC_U+30A4_U+30E4_U+30FC 1
 62
     7
420
 16777215
370
    25
100
AcDbVertex
100
AcDb2dVertex
 10
45.19862856910914
 20
-82.0762899794808
 30
0.0
  0
VERTEX
  5
58
330
56
100
AcDbEntity
  8
_U+30EC_U+30A4_U+30E4_U+30FC 1
 62
     7
420
 16777215
370
    25
100
AcDbVertex
100
AcDb2dVertex
 10
45.19862856910914
 20
-83.07606220145335
 30
0.0
  0
SEQEND
  5
59
330
56
100
AcDbEntity
  8
_U+30EC_U+30A4_U+30E4_U+30FC 1
 62
     7
420
 16777215
370
    25
  0
POLYLINE
  5
5A
330
1F
100
AcDbEntity
  8
_U+30EC_U+30A4_U+30E4_U+30FC 1
 62
     7
420
 16777215
370
    25
100
AcDb2dPolyline
 66
     1
 10
0.0
 20
0.0
 30
0.0
  0
VERTEX
  5
5B
330
5A
100
AcDbEntity
  8
_U+30EC_U+30A4_U+30E4_U+30FC 1
 62
     7
420
 16777215
370
    25
100
AcDbVertex
100
AcDb2dVertex
 10
77.19839441939376
 20
-82.0762899794808
 30
0.0
  0
VERTEX
  5
5C
330
5A
100
AcDbEntity
  8
_U+30EC_U+30A4_U+30E4_U+30FC 1
 62
     7
420
 16777215
370
    25
100
AcDbVertex
100
AcDb2dVertex
 10
77.19839441939376
 20
-83.07606220145335
 30
0.0
  0
SEQEND
  5
5D
330
5A
100
AcDbEntity
  8
_U+30EC_U+30A4_U+30E4_U+30FC 1
 62
     7
420
 16777215
370
    25
  0
POLYLINE
  5
5E
330
1F
100
AcDbEntity
  8
_U+30EC_U+30A4_U+30E4_U+30FC 1
 62
     7
420
 16777215
370
    25
100
AcDb2dPolyline
 66
     1
 10
0.0
 20
0.0
 30
0.0
  0
VERTEX
  5
5F
330
5E
100
AcDbEntity
  8
_U+30EC_U+30A4_U+30E4_U+30FC 1
 62
     7
420
 16777215
370
    25
100
AcDbVertex
100
AcDb2dVertex
 10
58.69855183580852
 20
-96.07578219820326
 30
0.0
  0
VERTEX
  5
60
330
5E
100
AcDbEntity
  8
_U+30EC_U+30A4_U+30E4_U+30FC 1
 62
     7
420
 16777215
370
    25
100
AcDbVertex
100
AcDb2dVertex
 10
63.19872776197801
 20
-96.07578219820326
 30
0.0
  0
SEQEND
  5
61
330
5E
100
AcDbEntity
  8
_U+30EC_U+30A4_U+30E4_U+30FC 1
 62
     7
420
 16777215
370
    25
  0
POLYLINE
  5
62
330
1F
100
AcDbEntity
  8
_U+30EC_U+30A4_U+30E4_U+30FC 1
 62
     7
420
 16777215
370
    25
100
AcDb2dPolyline
 66
     1
 10
0.0
 20
0.0
 30
0.0
  0
VERTEX
  5
63
330
62
100
AcDbEntity
  8
_U+30EC_U+30A4_U+30E4_U+30FC 1
 62
     7
420
 16777215
370
    25
100
AcDbVertex
100
AcDb2dVertex
 10
53.19864058723405
 20
-96.07578219820326
 30
0.0
  0
VERTEX
  5
64
330
62
100
AcDbEntity
  8
_U+30EC_U+30A4_U+30E4_U+30FC 1
 62
     7
420
 16777215
370
    25
100
AcDbVertex
100
AcDb2dVertex
 10
57.69881491686949
 20
-96.07578219820326
 30
0.0
  0
SEQEND
  5
65
330
62
100
AcDbEntity
  8
_U+30EC_U+30A4_U+30E4_U+30FC 1
 62
     7
420
 16777215
370
    25
  0
POLYLINE
  5
66
330
1F
100
AcDbEntity
  8
_U+30EC_U+30A4_U+30E4_U+30FC 1
 62
     7
420
 16777215
370
    25
100
AcDb2dPolyline
 66
     1
 10
0.0
 20
0.0
 30
0.0
  0
VERTEX
  5
67
330
66
100
AcDbEntity
  8
_U+30EC_U+30A4_U+30E4_U+30FC 1
 62
     7
420
 16777215
370
    25
100
AcDbVertex
100
AcDb2dVertex
 10
53.19864058723405
 20
-97.07625997573068
 30
0.0
  0
VERTEX
  5
68
330
66
100
AcDbEntity
  8
_U+30EC_U+30A4_U+30E4_U+30FC 1
 62
     7
420
 16777215
370
    25
100
AcDbVertex
100
AcDb2dVertex
 10
63.19872776197801
 20
-97.07625997573068
 30
0.0
  0
SEQEND
  5
69
330
66
100
AcDbEntity
  8
_U+30EC_U+30A4_U+30E4_U+30FC 1
 62
     7
420
 16777215
370
    25
  0
POLYLINE
  5
6A
330
1F
100
AcDbEntity
  8
_U+30EC_U+30A4_U+30E4_U+30FC 1
 62
     7
420
 16777215
370
    25
100
AcDb2dPolyline
 66
     1
 10
0.0
 20
0.0
 30
0.0
  0
VERTEX
  5
6B
330
6A
100
AcDbEntity
  8
_U+30EC_U+30A4_U+30E4_U+30FC 1
 62
     7
420
 16777215
370
    25
100
AcDbVertex
100
AcDb2dVertex
 10
57.69881491686949
 20
-83.07676775700855
 30
0.0
  0
VERTEX
  5
6C
330
6A
100
AcDbEntity
  8
_U+30EC_U+30A4_U+30E4_U+30FC 1
 62
     7
420
 16777215
370
    25
100
AcDbVertex
100
AcDb2dVertex
 10
57.69881491686949
 20
-96.07648775375878
 30
0.0
  0
SEQEND
  5
6D
330
6A
100
AcDbEntity
  8
_U+30EC_U+30A4_U+30E4_U+30FC 1
 62
     7
420
 16777215
370
    25
  0
POLYLINE
  5
6E
330
1F
100
AcDbEntity
  8
_U+30EC_U+30A4_U+30E4_U+30FC 1
 62
     7
420
 16777215
370
    25
100
AcDb2dPolyline
 66
     1
 10
0.0
 20
0.0
 30
0.0
  0
VERTEX
  5
6F
330
6E
100
AcDbEntity
  8
_U+30EC_U+30A4_U+30E4_U+30FC 1
 62
     7
420
 16777215
370
    25
100
AcDbVertex
100
AcDb2dVertex
 10
53.19864058723405
 20
-96.07578219820326
 30
0.0
  0
VERTEX
  5
70
330
6E
100
AcDbEntity
  8
_U+30EC_U+30A4_U+30E4_U+30FC 1
 62
     7
420
 16777215
370
    25
100
AcDbVertex
100
AcDb2dVertex
 10
53.19864058723405
 20
-97.07625997573068
 30
0.0
  0
SEQEND
  5
71
330
6E
100
AcDbEntity
  8
_U+30EC_U+30A4_U+30E4_U+30FC 1
 62
     7
420
 16777215
370
    25
  0
POLYLINE
  5
72
330
1F
100
AcDbEntity
  8
_U+30EC_U+30A4_U+30E4_U+30FC 1
 62
     7
420
 16777215
370
    25
100
AcDb2dPolyline
 66
     1
 10
0.0
 20
0.0
 30
0.0
  0
VERTEX
  5
73
330
72
100
AcDbEntity
  8
_U+30EC_U+30A4_U+30E4_U+30FC 1
 62
     7
420
 16777215
370
    25
100
AcDbVertex
100
AcDb2dVertex
 10
63.19872776197801
 20
-96.07578219820326
 30
0.0
  0
VERTEX
  5
74
330
72
100
AcDbEntity
  8
_U+30EC_U+30A4_U+30E4_U+30FC 1
 62
     7
420
 16777215
370
    25
100
AcDbVertex
100
AcDb2dVertex
 10
63.19872776197801
 20
-97.07625997573068
 30
0.0
  0
SEQEND
  5
75
330
72
100
AcDbEntity
  8
_U+30EC_U+30A4_U+30E4_U+30FC 1
 62
     7
420
 16777215
370
    25
  0
POLYLINE
  5
76
330
1F
100
AcDbEntity
  8
_U+30EC_U+30A4_U+30E4_U+30FC 1
 62
     7
420
 16777215
370
    25
100
AcDb2dPolyline
 66
     1
 10
0.0
 20
0.0
 30
0.0
  0
VERTEX
  5
77
330
76
100
AcDbEntity
  8
_U+30EC_U+30A4_U+30E4_U+30FC 1
 62
     7
420
 16777215
370
    25
100
AcDbVertex
100
AcDb2dVertex
 10
58.69855183580852
 20
-83.07606220145335
 30
0.0
  0
VERTEX
  5
78
330
76
100
AcDbEntity
  8
_U+30EC_U+30A4_U+30E4_U+30FC 1
 62
     7
420
 16777215
370
    25
100
AcDbVertex
100
AcDb2dVertex
 10
58.69855183580852
 20
-96.07578219820326
 30
0.0
  0
SEQEND
  5
79
330
76
100
AcDbEntity
  8
_U+30EC_U+30A4_U+30E4_U+30FC 1
 62
     7
420
 16777215
370
    25
  0
SPLINE
  5
7A
330
1F
100
AcDbEntity
  8
_U+30EC_U+30A4_U+30E4_U+30FC 1
 62
     7
420
 16777215
370
     9
100
AcDbSpline
210
0.0
220
0.0
230
1.0
 70
    11
 71
     3
 72
    17
 73
    13
 74
     0
 42
0.0000000001
 43
0.0000000001
 12
1.0
 22
0.0
 32
0.0
 13
1.0
 23
0.0
 33
0.0
 40
0.0
 40
0.0
 40
0.0
 40
0.0
 40
1.0
 40
1.0
 40
1.0
 40
2.0
 40
2.0
 40
2.0
 40
3.0
 40
3.0
 40
3.0
 40
4.0
 40
4.0
 40
4.0
 40
4.0
 10
81.2580904269334
 20
-82.07699553503633
 30
0.0
 10
81.2580904269334
 20
-82.0211860906059
 30
0.0
 10
81.21328765029864
 20
-81.97638331283918
 30
0.0
 10
81.15818376281557
 20
-81.97638331283918
 30
0.0
 10
81.10304459755562
 20
-81.97638331283918
 30
0.0
 10
81.05827709869773
 20
-82.0211860906059
 30
0.0
 10
81.05827709869773
 20
-82.07699553503633
 30
0.0
 10
81.05827709869773
 20
-82.13209942391157
 30
0.0
 10
81.10304459755562
 20
-82.17690220167796
 30
0.0
 10
81.15818376281557
 20
-82.17690220167796
 30
0.0
 10
81.21328765029864
 20
-82.17690220167796
 30
0.0
 10
81.2580904269334
 20
-82.13209942391157
 30
0.0
 10
81.2580904269334
 20
-82.07699553503633
 30
0.0
  0
SPLINE
  5
7B
330
1F
100
AcDbEntity
  8
_U+30EC_U+30A4_U+30E4_U+30FC 1
 62
     7
420
 16777215
370
     9
100
AcDbSpline
210
0.0
220
0.0
230
1.0
 70
    11
 71
     3
 72
    17
 73
    13
 74
     0
 42
0.0000000001
 43
0.0000000001
 12
1.0
 22
0.0
 32
0.0
 13
1.0
 23
0.0
 33
0.0
 40
0.0
 40
0.0
 40
0.0
 40
0.0
 40
1.0
 40
1.0
 40
1.0
 40
2.0
 40
2.0
 40
2.0
 40
3.0
 40
3.0
 40
3.0
 40
4.0
 40
4.0
 40
4.0
 40
4.0
 10
81.2580904269334
 20
-83.07676775700855
 30
0.0
 10
81.2580904269334
 20
-83.02162859035579
 30
0.0
 10
81.21328765029864
 20
-82.97686109036691
 30
0.0
 10
81.15818376281557
 20
-82.97686109036691
 30
0.0
 10
81.10304459755562
 20
-82.97686109036691
 30
0.0
 10
81.05827709869773
 20
-83.02162859035579
 30
0.0
 10
81.05827709869773
 20
-83.07676775700855
 30
0.0
 10
81.05827709869773
 20
-83.13187164588379
 30
0.0
 10
81.10304459755562
 20
-83.17667442365018
 30
0.0
 10
81.15818376281557
 20
-83.17667442365018
 30
0.0
 10
81.21328765029864
 20
-83.17667442365018
 30
0.0
 10
81.2580904269334
 20
-83.13187164588379
 30
0.0
 10
81.2580904269334
 20
-83.07676775700855
 30
0.0
  0
SPLINE
  5
7C
330
1F
100
AcDbEntity
  8
_U+30EC_U+30A4_U+30E4_U+30FC 1
 62
     7
420
 16777215
370
     9
100
AcDbSpline
210
0.0
220
0.0
230
1.0
 70
    11
 71
     3
 72
    17
 73
    13
 74
     0
 42
0.0000000001
 43
0.0000000001
 12
1.0
 22
0.0
 32
0.0
 13
1.0
 23
0.0
 33
0.0
 40
0.0
 40
0.0
 40
0.0
 40
0.0
 40
1.0
 40
1.0
 40
1.0
 40
2.0
 40
2.0
 40
2.0
 40
3.0
 40
3.0
 40
3.0
 40
4.0
 40
4.0
 40
4.0
 40
4.0
 10
77.2983010835116
 20
-78.27567386931983
 30
0.0
 10
77.2983010835116
 20
-78.22053470266708
 30
0.0
 10
77.25349830687684
 20
-78.1757672026782
 30
0.0
 10
77.19839441939376
 20
-78.1757672026782
 30
0.0
 10
77.14325525413382
 20
-78.1757672026782
 30
0.0
 10
77.09848775527593
 20
-78.22053470266708
 30
0.0
 10
77.09848775527593
 20
-78.27567386931983
 30
0.0
 10
77.09848775527593
 20
-78.33113053597283
 30
0.0
 10
77.14325525413382
 20
-78.37593331373924
 30
0.0
 10
77.19839441939376
 20
-78.37593331373924
 30
0.0
 10
77.25349830687684
 20
-78.37593331373924
 30
0.0
 10
77.2983010835116
 20
-78.33113053597283
 30
0.0
 10
77.2983010835116
 20
-78.27567386931983
 30
0.0
  0
SPLINE
  5
7D
330
1F
100
AcDbEntity
  8
_U+30EC_U+30A4_U+30E4_U+30FC 1
 62
     7
420
 16777215
370
     9
100
AcDbSpline
210
0.0
220
0.0
230
1.0
 70
    11
 71
     3
 72
    17
 73
    13
 74
     0
 42
0.0000000001
 43
0.0000000001
 12
1.0
 22
0.0
 32
0.0
 13
1.0
 23
0.0
 33
0.0
 40
0.0
 40
0.0
 40
0.0
 40
0.0
 40
1.0
 40
1.0
 40
1.0
 40
2.0
 40
2.0
 40
2.0
 40
3.0
 40
3.0
 40
3.0
 40
4.0
 40
4.0
 40
4.0
 40
4.0
 10
45.29853523322698
 20
-78.27567386931983
 30
0.0
 10
45.29853523322698
 20
-78.22053470266708
 30
0.0
 10
45.25373245659221
 20
-78.1757672026782
 30
0.0
 10
45.19862856910914
 20
-78.1757672026782
 30
0.0
 10
45.14348940384919
 20
-78.1757672026782
 30
0.0
 10
45.09872190499131
 20
-78.22053470266708
 30
0.0
 10
45.09872190499131
 20
-78.27567386931983
 30
0.0
 10
45.09872190499131
 20
-78.33113053597283
 30
0.0
 10
45.14348940384919
 20
-78.37593331373924
 30
0.0
 10
45.19862856910914
 20
-78.37593331373924
 30
0.0
 10
45.25373245659221
 20
-78.37593331373924
 30
0.0
 10
45.29853523322698
 20
-78.33113053597283
 30
0.0
 10
45.29853523322698
 20
-78.27567386931983
 30
0.0
  0
SPLINE
  5
7E
330
1F
100
AcDbEntity
  8
_U+30EC_U+30A4_U+30E4_U+30FC 1
 62
     7
420
 16777215
370
     9
100
AcDbSpline
210
0.0
220
0.0
230
1.0
 70
    11
 71
     3
 72
    17
 73
    13
 74
     0
 42
0.0000000001
 43
0.0000000001
 12
1.0
 22
0.0
 32
0.0
 13
1.0
 23
0.0
 33
0.0
 40
0.0
 40
0.0
 40
0.0
 40
0.0
 40
1.0
 40
1.0
 40
1.0
 40
2.0
 40
2.0
 40
2.0
 40
3.0
 40
3.0
 40
3.0
 40
4.0
 40
4.0
 40
4.0
 40
4.0
 10
45.29853523322698
 20
-101.0759838636201
 30
0.0
 10
45.29853523322698
 20
-101.0208799747445
 30
0.0
 10
45.25373245659221
 20
-100.9760771969784
 30
0.0
 10
45.19862856910914
 20
-100.9760771969784
 30
0.0
 10
45.14348940384919
 20
-100.9760771969784
 30
0.0
 10
45.09872190499131
 20
-101.0208799747445
 30
0.0
 10
45.09872190499131
 20
-101.0759838636201
 30
0.0
 10
45.09872190499131
 20
-101.1311230302725
 30
0.0
 10
45.14348940384919
 20
-101.1759258080392
 30
0.0
 10
45.19862856910914
 20
-101.1759258080392
 30
0.0
 10
45.25373245659221
 20
-101.1759258080392
 30
0.0
 10
45.29853523322698
 20
-101.1311230302725
 30
0.0
 10
45.29853523322698
 20
-101.0759838636201
 30
0.0
  0
SPLINE
  5
7F
330
1F
100
AcDbEntity
  8
_U+30EC_U+30A4_U+30E4_U+30FC 1
 62
     7
420
 16777215
370
     9
100
AcDbSpline
210
0.0
220
0.0
230
1.0
 70
    11
 71
     3
 72
    17
 73
    13
 74
     0
 42
0.0000000001
 43
0.0000000001
 12
1.0
 22
0.0
 32
0.0
 13
1.0
 23
0.0
 33
0.0
 40
0.0
 40
0.0
 40
0.0
 40
0.0
 40
1.0
 40
1.0
 40
1.0
 40
2.0
 40
2.0
 40
2.0
 40
3.0
 40
3.0
 40
3.0
 40
4.0
 40
4.0
 40
4.0
 40
4.0
 10
53.29854725135189
 20
-101.0759838636201
 30
0.0
 10
53.29854725135189
 20
-101.0208799747445
 30
0.0
 10
53.253779752494
 20
-100.9760771969784
 30
0.0
 10
53.19864058723405
 20
-100.9760771969784
 30
0.0
 10
53.14353669975098
 20
-100.9760771969784
 30
0.0
 10
53.09873392311622
 20
-101.0208799747445
 30
0.0
 10
53.09873392311622
 20
-101.0759838636201
 30
0.0
 10
53.09873392311622
 20
-101.1311230302725
 30
0.0
 10
53.14353669975098
 20
-101.1759258080392
 30
0.0
 10
53.19864058723405
 20
-101.1759258080392
 30
0.0
 10
53.253779752494
 20
-101.1759258080392
 30
0.0
 10
53.29854725135189
 20
-101.1311230302725
 30
0.0
 10
53.29854725135189
 20
-101.0759838636201
 30
0.0
  0
SPLINE
  5
80
330
1F
100
AcDbEntity
  8
_U+30EC_U+30A4_U+30E4_U+30FC 1
 62
     7
420
 16777215
370
     9
100
AcDbSpline
210
0.0
220
0.0
230
1.0
 70
    11
 71
     3
 72
    17
 73
    13
 74
     0
 42
0.0000000001
 43
0.0000000001
 12
1.0
 22
0.0
 32
0.0
 13
1.0
 23
0.0
 33
0.0
 40
0.0
 40
0.0
 40
0.0
 40
0.0
 40
1.0
 40
1.0
 40
1.0
 40
2.0
 40
2.0
 40
2.0
 40
3.0
 40
3.0
 40
3.0
 40
4.0
 40
4.0
 40
4.0
 40
4.0
 10
63.29880921844617
 20
-101.0759838636201
 30
0.0
 10
63.29880921844617
 20
-101.0208799747445
 30
0.0
 10
63.25400644181141
 20
-100.9760771969784
 30
0.0
 10
63.19819699879078
 20
-100.9760771969784
 30
0.0
 10
63.14309311130771
 20
-100.9760771969784
 30
0.0
 10
63.09829033467295
 20
-101.0208799747445
 30
0.0
 10
63.09829033467295
 20
-101.0759838636201
 30
0.0
 10
63.09829033467295
 20
-101.1311230302725
 30
0.0
 10
63.14309311130771
 20
-101.1759258080392
 30
0.0
 10
63.19819699879078
 20
-101.1759258080392
 30
0.0
 10
63.25400644181141
 20
-101.1759258080392
 30
0.0
 10
63.29880921844617
 20
-101.1311230302725
 30
0.0
 10
63.29880921844617
 20
-101.0759838636201
 30
0.0
  0
SPLINE
  5
81
330
1F
100
AcDbEntity
  8
_U+30EC_U+30A4_U+30E4_U+30FC 1
 62
     7
420
 16777215
370
     9
100
AcDbSpline
210
0.0
220
0.0
230
1.0
 70
    11
 71
     3
 72
    17
 73
    13
 74
     0
 42
0.0000000001
 43
0.0000000001
 12
1.0
 22
0.0
 32
0.0
 13
1.0
 23
0.0
 33
0.0
 40
0.0
 40
0.0
 40
0.0
 40
0.0
 40
1.0
 40
1.0
 40
1.0
 40
2.0
 40
2.0
 40
2.0
 40
3.0
 40
3.0
 40
3.0
 40
4.0
 40
4.0
 40
4.0
 40
4.0
 10
81.2580904269334
 20
-96.07578219820326
 30
0.0
 10
81.2580904269334
 20
-96.02067830932835
 30
0.0
 10
81.21328765029864
 20
-95.97587553156163
 30
0.0
 10
81.15818376281557
 20
-95.97587553156163
 30
0.0
 10
81.10304459755562
 20
-95.97587553156163
 30
0.0
 10
81.05827709869773
 20
-96.02067830932835
 30
0.0
 10
81.05827709869773
 20
-96.07578219820326
 30
0.0
 10
81.05827709869773
 20
-96.13159164263371
 30
0.0
 10
81.10304459755562
 20
-96.17639442040043
 30
0.0
 10
81.15818376281557
 20
-96.17639442040043
 30
0.0
 10
81.21328765029864
 20
-96.17639442040043
 30
0.0
 10
81.2580904269334
 20
-96.13159164263371
 30
0.0
 10
81.2580904269334
 20
-96.07578219820326
 30
0.0
  0
POLYLINE
  5
82
330
1F
100
AcDbEntity
  8
_U+30EC_U+30A4_U+30E4_U+30FC 1
 62
     7
420
 16777215
370
     9
100
AcDb2dPolyline
 66
     1
 10
0.0
 20
0.0
 30
0.0
  0
VERTEX
  5
83
330
82
100
AcDbEntity
  8
_U+30EC_U+30A4_U+30E4_U+30FC 1
 62
     7
420
 16777215
370
     9
100
AcDbVertex
100
AcDb2dVertex
 10
81.15818376281557
 20
-82.0762899794808
 30
0.0
  0
VERTEX
  5
84
330
82
100
AcDbEntity
  8
_U+30EC_U+30A4_U+30E4_U+30FC 1
 62
     7
420
 16777215
370
     9
100
AcDbVertex
100
AcDb2dVertex
 10
81.15818376281557
 20
-78.30597748042338
 30
0.0
  0
SEQEND
  5
85
330
82
100
AcDbEntity
  8
_U+30EC_U+30A4_U+30E4_U+30FC 1
 62
     7
420
 16777215
370
     9
  0
POLYLINE
  5
86
330
1F
100
AcDbEntity
  8
_U+30EC_U+30A4_U+30E4_U+30FC 1
 62
     7
420
 16777215
370
     9
100
AcDb2dPolyline
 66
     1
 10
0.0
 20
0.0
 30
0.0
  0
VERTEX
  5
87
330
86
100
AcDbEntity
  8
_U+30EC_U+30A4_U+30E4_U+30FC 1
 62
     7
420
 16777215
370
     9
100
AcDbVertex
100
AcDb2dVertex
 10
81.15818376281557
 20
-82.07699553503633
 30
0.0
  0
VERTEX
  5
88
330
86
100
AcDbEntity
  8
_U+30EC_U+30A4_U+30E4_U+30FC 1
 62
     7
420
 16777215
370
     9
100
AcDbVertex
100
AcDb2dVertex
 10
81.15818376281557
 20
-83.07676775700855
 30
0.0
  0
SEQEND
  5
89
330
86
100
AcDbEntity
  8
_U+30EC_U+30A4_U+30E4_U+30FC 1
 62
     7
420
 16777215
370
     9
  0
POLYLINE
  5
8A
330
1F
100
AcDbEntity
  8
_U+30EC_U+30A4_U+30E4_U+30FC 1
 62
     7
420
 16777215
370
     9
100
AcDb2dPolyline
 66
     1
 10
0.0
 20
0.0
 30
0.0
  0
VERTEX
  5
8B
330
8A
100
AcDbEntity
  8
_U+30EC_U+30A4_U+30E4_U+30FC 1
 62
     7
420
 16777215
370
     9
100
AcDbVertex
100
AcDb2dVertex
 10
79.69814442451965
 20
-82.0762899794808
 30
0.0
  0
VERTEX
  5
8C
330
8A
100
AcDbEntity
  8
_U+30EC_U+30A4_U+30E4_U+30FC 1
 62
     7
420
 16777215
370
     9
100
AcDbVertex
100
AcDb2dVertex
 10
82.15795595953148
 20
-82.0762899794808
 30
0.0
  0
SEQEND
  5
8D
330
8A
100
AcDbEntity
  8
_U+30EC_U+30A4_U+30E4_U+30FC 1
 62
     7
420
 16777215
370
     9
  0
POLYLINE
  5
8E
330
1F
100
AcDbEntity
  8
_U+30EC_U+30A4_U+30E4_U+30FC 1
 62
     7
420
 16777215
370
     9
100
AcDb2dPolyline
 66
     1
 10
0.0
 20
0.0
 30
0.0
  0
VERTEX
  5
8F
330
8E
100
AcDbEntity
  8
_U+30EC_U+30A4_U+30E4_U+30FC 1
 62
     7
420
 16777215
370
     9
100
AcDbVertex
100
AcDb2dVertex
 10
79.69814442451965
 20
-83.07606220145335
 30
0.0
  0
VERTEX
  5
90
330
8E
100
AcDbEntity
  8
_U+30EC_U+30A4_U+30E4_U+30FC 1
 62
     7
420
 16777215
370
     9
100
AcDbVertex
100
AcDb2dVertex
 10
82.15795595953148
 20
-83.07606220145335
 30
0.0
  0
SEQEND
  5
91
330
8E
100
AcDbEntity
  8
_U+30EC_U+30A4_U+30E4_U+30FC 1
 62
     7
420
 16777215
370
     9
  0
INSERT
  5
93
330
1F
100
AcDbEntity
  8
_U+30EC_U+30A4_U+30E4_U+30FC 1
100
AcDbBlockReference
  2
block 3
 10
0.0
 20
0.0
 30
0.0
  0
POLYLINE
  5
98
330
1F
100
AcDbEntity
  8
_U+30EC_U+30A4_U+30E4_U+30FC 1
 62
     7
420
 16777215
370
     9
100
AcDb2dPolyline
 66
     1
 10
0.0
 20
0.0
 30
0.0
  0
VERTEX
  5
99
330
98
100
AcDbEntity
  8
_U+30EC_U+30A4_U+30E4_U+30FC 1
 62
     7
420
 16777215
370
     9
100
AcDbVertex
100
AcDb2dVertex
 10
45.19862856910914
 20
-78.27567386931983
 30
0.0
  0
VERTEX
  5
9A
330
98
100
AcDbEntity
  8
_U+30EC_U+30A4_U+30E4_U+30FC 1
 62
     7
420
 16777215
370
     9
100
AcDbVertex
100
AcDb2dVertex
 10
77.19839441939376
 20
-78.27567386931983
 30
0.0
  0
SEQEND
  5
9B
330
98
100
AcDbEntity
  8
_U+30EC_U+30A4_U+30E4_U+30FC 1
 62
     7
420
 16777215
370
     9
  0
POLYLINE
  5
9C
330
1F
100
AcDbEntity
  8
_U+30EC_U+30A4_U+30E4_U+30FC 1
 62
     7
420
 16777215
370
     9
100
AcDb2dPolyline
 66
     1
 10
0.0
 20
0.0
 30
0.0
  0
VERTEX
  5
9D
330
9C
100
AcDbEntity
  8
_U+30EC_U+30A4_U+30E4_U+30FC 1
 62
     7
420
 16777215
370
     9
100
AcDbVertex
100
AcDb2dVertex
 10
45.19862856910914
 20
-79.73571525784386
 30
0.0
  0
VERTEX
  5
9E
330
9C
100
AcDbEntity
  8
_U+30EC_U+30A4_U+30E4_U+30FC 1
 62
     7
420
 16777215
370
     9
100
AcDbVertex
100
AcDb2dVertex
 10
45.19862856910914
 20
-77.27590164734761
 30
0.0
  0
SEQEND
  5
9F
330
9C
100
AcDbEntity
  8
_U+30EC_U+30A4_U+30E4_U+30FC 1
 62
     7
420
 16777215
370
     9
  0
POLYLINE
  5
A0
330
1F
100
AcDbEntity
  8
_U+30EC_U+30A4_U+30E4_U+30FC 1
 62
     7
420
 16777215
370
     9
100
AcDb2dPolyline
 66
     1
 10
0.0
 20
0.0
 30
0.0
  0
VERTEX
  5
A1
330
A0
100
AcDbEntity
  8
_U+30EC_U+30A4_U+30E4_U+30FC 1
 62
     7
420
 16777215
370
     9
100
AcDbVertex
100
AcDb2dVertex
 10
77.19839441939376
 20
-79.73571525784386
 30
0.0
  0
VERTEX
  5
A2
330
A0
100
AcDbEntity
  8
_U+30EC_U+30A4_U+30E4_U+30FC 1
 62
     7
420
 16777215
370
     9
100
AcDbVertex
100
AcDb2dVertex
 10
77.19839441939376
 20
-77.27590164734761
 30
0.0
  0
SEQEND
  5
A3
330
A0
100
AcDbEntity
  8
_U+30EC_U+30A4_U+30E4_U+30FC 1
 62
     7
420
 16777215
370
     9
  0
INSERT
  5
A5
330
1F
100
AcDbEntity
  8
_U+30EC_U+30A4_U+30E4_U+30FC 1
100
AcDbBlockReference
  2
block 4
 10
0.0
 20
0.0
 30
0.0
  0
POLYLINE
  5
AC
330
1F
100
AcDbEntity
  8
_U+30EC_U+30A4_U+30E4_U+30FC 1
 62
     7
420
 16777215
370
     9
100
AcDb2dPolyline
 66
     1
 10
0.0
 20
0.0
 30
0.0
  0
VERTEX
  5
AD
330
AC
100
AcDbEntity
  8
_U+30EC_U+30A4_U+30E4_U+30FC 1
 62
     7
420
 16777215
370
     9
100
AcDbVertex
100
AcDb2dVertex
 10
45.19862856910914
 20
-101.0759838636201
 30
0.0
  0
VERTEX
  5
AE
330
AC
100
AcDbEntity
  8
_U+30EC_U+30A4_U+30E4_U+30FC 1
 62
     7
420
 16777215
370
     9
100
AcDbVertex
100
AcDb2dVertex
 10
53.19864058723405
 20
-101.0759838636201
 30
0.0
  0
SEQEND
  5
AF
330
AC
100
AcDbEntity
  8
_U+30EC_U+30A4_U+30E4_U+30FC 1
 62
     7
420
 16777215
370
     9
  0
POLYLINE
  5
B0
330
1F
100
AcDbEntity
  8
_U+30EC_U+30A4_U+30E4_U+30FC 1
 62
     7
420
 16777215
370
     9
100
AcDb2dPolyline
 66
     1
 10
0.0
 20
0.0
 30
0.0
  0
VERTEX
  5
B1
330
B0
100
AcDbEntity
  8
_U+30EC_U+30A4_U+30E4_U+30FC 1
 62
     7
420
 16777215
370
     9
100
AcDbVertex
100
AcDb2dVertex
 10
45.19862856910914
 20
-85.57651581193919
 30
0.0
  0
VERTEX
  5
B2
330
B0
100
AcDbEntity
  8
_U+30EC_U+30A4_U+30E4_U+30FC 1
 62
     7
420
 16777215
370
     9
100
AcDbVertex
100
AcDb2dVertex
 10
45.19862856910914
 20
-102.0757560855919
 30
0.0
  0
SEQEND
  5
B3
330
B0
100
AcDbEntity
  8
_U+30EC_U+30A4_U+30E4_U+30FC 1
 62
     7
420
 16777215
370
     9
  0
POLYLINE
  5
B4
330
1F
100
AcDbEntity
  8
_U+30EC_U+30A4_U+30E4_U+30FC 1
 62
     7
420
 16777215
370
     9
100
AcDb2dPolyline
 66
     1
 10
0.0
 20
0.0
 30
0.0
  0
VERTEX
  5
B5
330
B4
100
AcDbEntity
  8
_U+30EC_U+30A4_U+30E4_U+30FC 1
 62
     7
420
 16777215
370
     9
100
AcDbVertex
100
AcDb2dVertex
 10
53.19864058723405
 20
-99.61597775287386
 30
0.0
  0
VERTEX
  5
B6
330
B4
100
AcDbEntity
  8
_U+30EC_U+30A4_U+30E4_U+30FC 1
 62
     7
420
 16777215
370
     9
100
AcDbVertex
100
AcDb2dVertex
 10
53.19864058723405
 20
-102.0757560855919
 30
0.0
  0
SEQEND
  5
B7
330
B4
100
AcDbEntity
  8
_U+30EC_U+30A4_U+30E4_U+30FC 1
 62
     7
420
 16777215
370
     9
  0
INSERT
  5
B9
330
1F
100
AcDbEntity
  8
_U+30EC_U+30A4_U+30E4_U+30FC 1
100
AcDbBlockReference
  2
block 5
 10
0.0
 20
0.0
 30
0.0
  0
POLYLINE
  5
C0
330
1F
100
AcDbEntity
  8
_U+30EC_U+30A4_U+30E4_U+30FC 1
 62
     7
420
 16777215
370
     9
100
AcDb2dPolyline
 66
     1
 10
0.0
 20
0.0
 30
0.0
  0
VERTEX
  5
C1
330
C0
100
AcDbEntity
  8
_U+30EC_U+30A4_U+30E4_U+30FC 1
 62
     7
420
 16777215
370
     9
100
AcDbVertex
100
AcDb2dVertex
 10
53.19864058723405
 20
-101.0759838636201
 30
0.0
  0
VERTEX
  5
C2
330
C0
100
AcDbEntity
  8
_U+30EC_U+30A4_U+30E4_U+30FC 1
 62
     7
420
 16777215
370
     9
100
AcDbVertex
100
AcDb2dVertex
 10
63.19872776197801
 20
-101.0759838636201
 30
0.0
  0
SEQEND
  5
C3
330
C0
100
AcDbEntity
  8
_U+30EC_U+30A4_U+30E4_U+30FC 1
 62
     7
420
 16777215
370
     9
  0
POLYLINE
  5
C4
330
1F
100
AcDbEntity
  8
_U+30EC_U+30A4_U+30E4_U+30FC 1
 62
     7
420
 16777215
370
     9
100
AcDb2dPolyline
 66
     1
 10
0.0
 20
0.0
 30
0.0
  0
VERTEX
  5
C5
330
C4
100
AcDbEntity
  8
_U+30EC_U+30A4_U+30E4_U+30FC 1
 62
     7
420
 16777215
370
     9
100
AcDbVertex
100
AcDb2dVertex
 10
63.19854977655956
 20
-99.61597775287386
 30
0.0
  0
VERTEX
  5
C6
330
C4
100
AcDbEntity
  8
_U+30EC_U+30A4_U+30E4_U+30FC 1
 62
     7
420
 16777215
370
     9
100
AcDbVertex
100
AcDb2dVertex
 10
63.19854977655956
 20
-102.0757560855919
 30
0.0
  0
SEQEND
  5
C7
330
C4
100
AcDbEntity
  8
_U+30EC_U+30A4_U+30E4_U+30FC 1
 62
     7
420
 16777215
370
     9
  0
POLYLINE
  5
C8
330
1F
100
AcDbEntity
  8
_U+30EC_U+30A4_U+30E4_U+30FC 1
 62
     7
420
 16777215
370
     9
100
AcDb2dPolyline
 66
     1
 10
0.0
 20
0.0
 30
0.0
  0
VERTEX
  5
C9
330
C8
100
AcDbEntity
  8
_U+30EC_U+30A4_U+30E4_U+30FC 1
 62
     7
420
 16777215
370
     9
100
AcDbVertex
100
AcDb2dVertex
 10
81.15818376281557
 20
-83.07606220145335
 30
0.0
  0
VERTEX
  5
CA
330
C8
100
AcDbEntity
  8
_U+30EC_U+30A4_U+30E4_U+30FC 1
 62
     7
420
 16777215
370
     9
100
AcDbVertex
100
AcDb2dVertex
 10
81.15818376281557
 20
-96.07648775375878
 30
0.0
  0
SEQEND
  5
CB
330
C8
100
AcDbEntity
  8
_U+30EC_U+30A4_U+30E4_U+30FC 1
 62
     7
420
 16777215
370
     9
  0
POLYLINE
  5
CC
330
1F
100
AcDbEntity
  8
_U+30EC_U+30A4_U+30E4_U+30FC 1
 62
     7
420
 16777215
370
     9
100
AcDb2dPolyline
 66
     1
 10
0.0
 20
0.0
 30
0.0
  0
VERTEX
  5
CD
330
CC
100
AcDbEntity
  8
_U+30EC_U+30A4_U+30E4_U+30FC 1
 62
     7
420
 16777215
370
     9
100
AcDbVertex
100
AcDb2dVertex
 10
65.69865054611
 20
-96.07578219820326
 30
0.0
  0
VERTEX
  5
CE
330
CC
100
AcDbEntity
  8
_U+30EC_U+30A4_U+30E4_U+30FC 1
 62
     7
420
 16777215
370
     9
100
AcDbVertex
100
AcDb2dVertex
 10
82.15862623729215
 20
-96.07578219820326
 30
0.0
  0
SEQEND
  5
CF
330
CC
100
AcDbEntity
  8
_U+30EC_U+30A4_U+30E4_U+30FC 1
 62
     7
420
 16777215
370
     9
  0
INSERT
  5
D1
330
1F
100
AcDbEntity
  8
_U+30EC_U+30A4_U+30E4_U+30FC 1
100
AcDbBlockReference
  2
block 6
 10
0.0
 20
0.0
 30
0.0
  0
ENDSEC
  0
SECTION
  2
OBJECTS
  0
DICTIONARY
  5
C
330
0
100
AcDbDictionary
281
     1
  3
ACAD_GROUP
350
D
  3
ACAD_LAYOUT
350
1A
  3
ACAD_MATERIAL
350
3B
  3
ACAD_MLEADERSTYLE
350
D9
  3
ACAD_MLINESTYLE
350
17
  3
ACAD_PLOTSETTINGS
350
19
  3
ACAD_PLOTSTYLENAME
350
E
  3
ACAD_TABLESTYLE
350
D8
  3
ACAD_VISUALSTYLE
350
2A
  0
SUN
  5
3F
330
29
100
AcDbSun
 90
        1
290
     0
 63
     7
421
 16777215
 40
1.0
291
     1
 91
  2455826
 92
 54000000
292
     0
 70
     2
 71
   256
280
     1
  0
DICTIONARY
  5
D
102
{ACAD_REACTORS
330
C
102
}
330
C
100
AcDbDictionary
281
     1
  0
DICTIONARY
  5
1A
102
{ACAD_REACTORS
330
C
102
}
330
C
100
AcDbDictionary
281
     1
  3
Layout1
350
1E
  3
Layout2
350
26
  3
Model
350
22
  0
DICTIONARY
  5
3B
102
{ACAD_REACTORS
330
C
102
}
330
C
100
AcDbDictionary
281
     1
  3
ByBlock
350
3D
  3
ByLayer
350
3C
  3
Global
350
3E
  0
DICTIONARY
  5
D9
102
{ACAD_REACTORS
330
C
102
}
330
C
100
AcDbDictionary
281
     1
  0
DICTIONARY
  5
17
102
{ACAD_REACTORS
330
C
102
}
330
C
100
AcDbDictionary
281
     1
  3
Standard
350
18
  0
DICTIONARY
  5
19
102
{ACAD_REACTORS
330
C
102
}
330
C
100
AcDbDictionary
281
     1
  0
ACDBDICTIONARYWDFLT
  5
E
102
{ACAD_REACTORS
330
C
102
}
330
C
100
AcDbDictionary
281
     1
  3
Normal
350
F
100
AcDbDictionaryWithDefault
340
F
  0
DICTIONARY
  5
D8
102
{ACAD_REACTORS
330
C
102
}
330
C
100
AcDbDictionary
281
     1
  0
DICTIONARY
  5
2A
102
{ACAD_REACTORS
330
C
102
}
330
C
100
AcDbDictionary
281
     1
  3
2dWireframe
350
2F
  3
3D Hidden
350
31
  3
3dWireframe
350
30
  3
Basic
350
32
  3
Brighten
350
36
  3
ColorChange
350
3A
  3
Conceptual
350
34
  3
Dim
350
35
  3
Facepattern
350
39
  3
Flat
350
2B
  3
FlatWithEdges
350
2C
  3
Gouraud
350
2D
  3
GouraudWithEdges
350
2E
  3
Linepattern
350
38
  3
Realistic
350
33
  3
Thicken
350
37
  0
LAYOUT
  5
1E
102
{ACAD_REACTORS
330
1A
102
}
330
1A
100
AcDbPlotSettings
  1

  2
none_device
  4

  6

 40
0.0
 41
0.0
 42
0.0
 43
0.0
 44
0.0
 45
0.0
 46
0.0
 47
0.0
 48
0.0
 49
0.0
140
0.0
141
0.0
142
1.0
143
1.0
 70
   688
 72
     0
 73
     0
 74
     5
  7

 75
    16
 76
     0
 77
     2
 78
   300
147
1.0
148
0.0
149
0.0
100
AcDbLayout
  1
Layout1
 70
     1
 71
     1
 10
0.0
 20
0.0
 11
12.0
 21
9.0
 12
0.0
 22
0.0
 32
0.0
 14
1.000000000000000E+20
 24
1.000000000000000E+20
 34
1.000000000000000E+20
 15
-1.000000000000000E+20
 25
-1.000000000000000E+20
 35
-1.000000000000000E+20
146
0.0
 13
0.0
 23
0.0
 33
0.0
 16
1.0
 26
0.0
 36
0.0
 17
0.0
 27
1.0
 37
0.0
 76
     0
330
1B
  0
LAYOUT
  5
26
102
{ACAD_REACTORS
330
1A
102
}
330
1A
100
AcDbPlotSettings
  1

  2
none_device
  4

  6

 40
0.0
 41
0.0
 42
0.0
 43
0.0
 44
0.0
 45
0.0
 46
0.0
 47
0.0
 48
0.0
 49
0.0
140
0.0
141
0.0
142
1.0
143
1.0
 70
   688
 72
     0
 73
     0
 74
     5
  7

 75
    16
 76
     0
 77
     2
 78
   300
147
1.0
148
0.0
149
0.0
100
AcDbLayout
  1
Layout2
 70
     1
 71
     2
 10
0.0
 20
0.0
 11
0.0
 21
0.0
 12
0.0
 22
0.0
 32
0.0
 14
0.0
 24
0.0
 34
0.0
 15
0.0
 25
0.0
 35
0.0
146
0.0
 13
0.0
 23
0.0
 33
0.0
 16
1.0
 26
0.0
 36
0.0
 17
0.0
 27
1.0
 37
0.0
 76
     0
330
23
  0
LAYOUT
  5
22
102
{ACAD_REACTORS
330
1A
102
}
330
1A
100
AcDbPlotSettings
  1

  2
none_device
  4

  6

 40
0.0
 41
0.0
 42
0.0
 43
0.0
 44
0.0
 45
0.0
 46
0.0
 47
0.0
 48
0.0
 49
0.0
140
0.0
141
0.0
142
1.0
143
1.0
 70
  1712
 72
     0
 73
     0
 74
     0
  7

 75
     0
 76
     0
 77
     2
 78
   300
147
1.0
148
0.0
149
0.0
100
AcDbLayout
  1
Model
 70
     1
 71
     0
 10
0.0
 20
0.0
 11
12.0
 21
9.0
 12
0.0
 22
0.0
 32
0.0
 14
1.000000000000000E+20
 24
1.000000000000000E+20
 34
1.000000000000000E+20
 15
-1.000000000000000E+20
 25
-1.000000000000000E+20
 35
-1.000000000000000E+20
146
0.0
 13
0.0
 23
0.0
 33
0.0
 16
1.0
 26
0.0
 36
0.0
 17
0.0
 27
1.0
 37
0.0
 76
     0
330
1F
331
29
  0
MATERIAL
  5
3D
102
{ACAD_REACTORS
330
3B
102
}
330
3B
100
AcDbMaterial
  1
ByBlock
 72
     1
 94
      127
  0
MATERIAL
  5
3C
102
{ACAD_REACTORS
330
3B
102
}
330
3B
100
AcDbMaterial
  1
ByLayer
 72
     1
 94
      127
  0
MATERIAL
  5
3E
102
{ACAD_REACTORS
330
3B
102
}
330
3B
100
AcDbMaterial
  1
Global
 72
     1
 94
      127
  0
MLINESTYLE
  5
18
102
{ACAD_REACTORS
330
17
102
}
330
17
100
AcDbMlineStyle
  2
Standard
 70
     0
  3

 62
   256
 51
90.0
 52
90.0
 71
     2
 49
0.5
 62
   256
  6
BYLAYER
 49
-0.5
 62
   256
  6
BYLAYER
  0
ACDBPLACEHOLDER
  5
F
102
{ACAD_REACTORS
330
E
102
}
330
E
  0
VISUALSTYLE
  5
2F
102
{ACAD_REACTORS
330
2A
102
}
330
2A
100
AcDbVisualStyle
  2
2dWireframe
 70
     4
177
     2
291
     0
 71
     0
176
     1
 72
     2
176
     1
 73
     0
176
     1
 90
        0
176
     1
 40
-0.6
176
     1
 41
-30.0
176
     1
 62
     5
 63
     7
421
 16777215
176
     1
 74
     1
176
     1
 91
        4
176
     1
 64
     7
176
     1
 65
   257
176
     1
 75
     1
176
     1
175
     1
176
     1
 42
1.0
176
     1
 92
        0
176
     1
 66
   257
176
     1
 43
1.0
176
     1
 76
     1
176
     1
 77
     6
176
     1
 78
     2
176
     1
 67
     7
176
     1
 79
     5
176
     1
170
     0
176
     1
171
     0
176
     1
290
     0
176
     1
 93
        1
176
     1
 44
0.0
176
     1
173
     0
176
     1
  0
VISUALSTYLE
  5
31
102
{ACAD_REACTORS
330
2A
102
}
330
2A
100
AcDbVisualStyle
  2
3D Hidden
 70
     6
177
     2
291
     0
 71
     1
176
     1
 72
     2
176
     1
 73
     2
176
     1
 90
        0
176
     1
 40
-0.6
176
     1
 41
-30.0
176
     1
 62
     5
 63
     7
421
 16777215
176
     1
 74
     2
176
     1
 91
        2
176
     1
 64
     7
176
     1
 65
   257
176
     1
 75
     2
176
     1
175
     1
176
     1
 42
40.0
176
     1
 92
        0
176
     1
 66
   257
176
     1
 43
1.0
176
     1
 76
     1
176
     1
 77
     6
176
     1
 78
     2
176
     1
 67
     7
176
     1
 79
     3
176
     1
170
     0
176
     1
171
     0
176
     1
290
     0
176
     1
 93
        1
176
     1
 44
0.0
176
     1
173
     0
176
     1
  0
VISUALSTYLE
  5
30
102
{ACAD_REACTORS
330
2A
102
}
330
2A
100
AcDbVisualStyle
  2
3dWireframe
 70
     5
177
     2
291
     0
 71
     0
176
     1
 72
     2
176
     1
 73
     0
176
     1
 90
        0
176
     1
 40
-0.6
176
     1
 41
-30.0
176
     1
 62
     5
 63
     7
421
 16777215
176
     1
 74
     1
176
     1
 91
        4
176
     1
 64
     7
176
     1
 65
   257
176
     1
 75
     1
176
     1
175
     1
176
     1
 42
1.0
176
     1
 92
        0
176
     1
 66
   257
176
     1
 43
1.0
176
     1
 76
     1
176
     1
 77
     6
176
     1
 78
     2
176
     1
 67
     7
176
     1
 79
     5
176
     1
170
     0
176
     1
171
     0
176
     1
290
     0
176
     1
 93
        1
176
     1
 44
0.0
176
     1
173
     0
176
     1
  0
VISUALSTYLE
  5
32
102
{ACAD_REACTORS
330
2A
102
}
330
2A
100
AcDbVisualStyle
  2
Basic
 70
     7
177
     2
291
     1
 71
     1
176
     1
 72
     0
176
     1
 73
     1
176
     1
 90
        0
176
     1
 40
-0.6
176
     1
 41
-30.0
176
     1
 62
     5
 63
     7
421
 16777215
176
     1
 74
     0
176
     1
 91
        4
176
     1
 64
     7
176
     1
 65
   257
176
     1
 75
     1
176
     1
175
     1
176
     1
 42
1.0
176
     1
 92
        8
176
     1
 66
     7
176
     1
 43
1.0
176
     1
 76
     1
176
     1
 77
     6
176
     1
 78
     2
176
     1
 67
     7
176
     1
 79
     5
176
     1
170
     0
176
     1
171
     0
176
     1
290
     0
176
     1
 93
        1
176
     1
 44
0.0
176
     1
173
     0
176
     1
  0
VISUALSTYLE
  5
36
102
{ACAD_REACTORS
330
2A
102
}
330
2A
100
AcDbVisualStyle
  2
Brighten
 70
    12
177
     2
291
     1
 71
     2
176
     1
 72
     2
176
     1
 73
     0
176
     1
 90
        0
176
     1
 40
-0.6
176
     1
 41
-30.0
176
     1
 62
     5
 63
     7
421
 16777215
176
     1
 74
     1
176
     1
 91
        4
176
     1
 64
     7
176
     1
 65
   257
176
     1
 75
     1
176
     1
175
     1
176
     1
 42
1.0
176
     1
 92
        8
176
     1
 66
     7
176
     1
 43
1.0
176
     1
 76
     1
176
     1
 77
     6
176
     1
 78
     2
176
     1
 67
     7
176
     1
 79
     5
176
     1
170
     0
176
     1
171
     0
176
     1
290
     0
176
     1
 93
        1
176
     1
 44
50.0
176
     1
173
     0
176
     1
  0
VISUALSTYLE
  5
3A
102
{ACAD_REACTORS
330
2A
102
}
330
2A
100
AcDbVisualStyle
  2
ColorChange
 70
    16
177
     2
291
     1
 71
     2
176
     1
 72
     2
176
     1
 73
     3
176
     1
 90
        0
176
     1
 40
-0.6
176
     1
 41
-30.0
176
     1
 62
     5
 63
     8
421
  8421504
176
     1
 74
     1
176
     1
 91
        4
176
     1
 64
     7
176
     1
 65
   257
176
     1
 75
     1
176
     1
175
     1
176
     1
 42
1.0
176
     1
 92
        8
176
     1
 66
     8
424
  8421504
176
     1
 43
1.0
176
     1
 76
     1
176
     1
 77
     6
176
     1
 78
     2
176
     1
 67
     7
176
     1
 79
     5
176
     1
170
     0
176
     1
171
     0
176
     1
290
     0
176
     1
 93
        1
176
     1
 44
0.0
176
     1
173
     0
176
     1
  0
VISUALSTYLE
  5
34
102
{ACAD_REACTORS
330
2A
102
}
330
2A
100
AcDbVisualStyle
  2
Conceptual
 70
     9
177
     2
291
     0
 71
     3
176
     1
 72
     2
176
     1
 73
     0
176
     1
 90
        0
176
     1
 40
-0.6
176
     1
 41
-30.0
176
     1
 62
     5
 63
     7
421
 16777215
176
     1
 74
     2
176
     1
 91
        2
176
     1
 64
     7
176
     1
 65
   257
176
     1
 75
     1
176
     1
175
     1
176
     1
 42
40.0
176
     1
 92
        8
176
     1
 66
     7
176
     1
 43
1.0
176
     1
 76
     1
176
     1
 77
     6
176
     1
 78
     2
176
     1
 67
     7
176
     1
 79
     3
176
     1
170
     0
176
     1
171
     0
176
     1
290
     0
176
     1
 93
        1
176
     1
 44
0.0
176
     1
173
     0
176
     1
  0
VISUALSTYLE
  5
35
102
{ACAD_REACTORS
330
2A
102
}
330
2A
100
AcDbVisualStyle
  2
Dim
 70
    11
177
     2
291
     1
 71
     2
176
     1
 72
     2
176
     1
 73
     0
176
     1
 90
        0
176
     1
 40
-0.6
176
     1
 41
-30.0
176
     1
 62
     5
 63
     7
421
 16777215
176
     1
 74
     1
176
     1
 91
        4
176
     1
 64
     7
176
     1
 65
   257
176
     1
 75
     1
176
     1
175
     1
176
     1
 42
1.0
176
     1
 92
        8
176
     1
 66
     7
176
     1
 43
1.0
176
     1
 76
     1
176
     1
 77
     6
176
     1
 78
     2
176
     1
 67
     7
176
     1
 79
     5
176
     1
170
     0
176
     1
171
     0
176
     1
290
     0
176
     1
 93
        1
176
     1
 44
-50.0
176
     1
173
     0
176
     1
  0
VISUALSTYLE
  5
39
102
{ACAD_REACTORS
330
2A
102
}
330
2A
100
AcDbVisualStyle
  2
Facepattern
 70
    15
177
     2
291
     1
 71
     2
176
     1
 72
     2
176
     1
 73
     0
176
     1
 90
        0
176
     1
 40
-0.6
176
     1
 41
-30.0
176
     1
 62
     5
 63
     7
421
 16777215
176
     1
 74
     1
176
     1
 91
        4
176
     1
 64
     7
176
     1
 65
   257
176
     1
 75
     1
176
     1
175
     1
176
     1
 42
1.0
176
     1
 92
        8
176
     1
 66
     7
176
     1
 43
1.0
176
     1
 76
     1
176
     1
 77
     6
176
     1
 78
     2
176
     1
 67
     7
176
     1
 79
     5
176
     1
170
     0
176
     1
171
     0
176
     1
290
     0
176
     1
 93
        1
176
     1
 44
0.0
176
     1
173
     0
176
     1
  0
VISUALSTYLE
  5
2B
102
{ACAD_REACTORS
330
2A
102
}
330
2A
100
AcDbVisualStyle
  2
Flat
 70
     0
177
     2
291
     1
 71
     2
176
     1
 72
     1
176
     1
 73
     1
176
     1
 90
        2
176
     1
 40
-0.6
176
     1
 41
30.0
176
     1
 62
     5
 63
     7
421
 16777215
176
     1
 74
     0
176
     1
 91
        4
176
     1
 64
     7
176
     1
 65
   257
176
     1
 75
     1
176
     1
175
     1
176
     1
 42
1.0
176
     1
 92
        8
176
     1
 66
     7
176
     1
 43
1.0
176
     1
 76
     1
176
     1
 77
     6
176
     1
 78
     2
176
     1
 67
     7
176
     1
 79
     5
176
     1
170
     0
176
     1
171
     0
176
     1
290
     0
176
     1
 93
       13
176
     1
 44
0.0
176
     1
173
     0
176
     1
  0
VISUALSTYLE
  5
2C
102
{ACAD_REACTORS
330
2A
102
}
330
2A
100
AcDbVisualStyle
  2
FlatWithEdges
 70
     1
177
     2
291
     1
 71
     2
176
     1
 72
     1
176
     1
 73
     1
176
     1
 90
        2
176
     1
 40
-0.6
176
     1
 41
30.0
176
     1
 62
     5
 63
     7
421
 16777215
176
     1
 74
     1
176
     1
 91
        4
176
     1
 64
     7
176
     1
 65
   257
176
     1
 75
     1
176
     1
175
     1
176
     1
 42
1.0
176
     1
 92
        0
176
     1
 66
   257
176
     1
 43
1.0
176
     1
 76
     1
176
     1
 77
     6
176
     1
 78
     2
176
     1
 67
     7
176
     1
 79
     5
176
     1
170
     0
176
     1
171
     0
176
     1
290
     0
176
     1
 93
       13
176
     1
 44
0.0
176
     1
173
     0
176
     1
  0
VISUALSTYLE
  5
2D
102
{ACAD_REACTORS
330
2A
102
}
330
2A
100
AcDbVisualStyle
  2
Gouraud
 70
     2
177
     2
291
     1
 71
     2
176
     1
 72
     2
176
     1
 73
     1
176
     1
 90
        2
176
     1
 40
-0.6
176
     1
 41
30.0
176
     1
 62
     5
 63
     7
421
 16777215
176
     1
 74
     0
176
     1
 91
        4
176
     1
 64
     7
176
     1
 65
   257
176
     1
 75
     1
176
     1
175
     1
176
     1
 42
1.0
176
     1
 92
        0
176
     1
 66
     7
176
     1
 43
1.0
176
     1
 76
     1
176
     1
 77
     6
176
     1
 78
     2
176
     1
 67
     7
176
     1
 79
     5
176
     1
170
     0
176
     1
171
     0
176
     1
290
     0
176
     1
 93
       13
176
     1
 44
0.0
176
     1
173
     0
176
     1
  0
VISUALSTYLE
  5
2E
102
{ACAD_REACTORS
330
2A
102
}
330
2A
100
AcDbVisualStyle
  2
GouraudWithEdges
 70
     3
177
     2
291
     1
 71
     2
176
     1
 72
     2
176
     1
 73
     1
176
     1
 90
        2
176
     1
 40
-0.6
176
     1
 41
30.0
176
     1
 62
     5
 63
     7
421
 16777215
176
     1
 74
     1
176
     1
 91
        4
176
     1
 64
     7
176
     1
 65
   257
176
     1
 75
     1
176
     1
175
     1
176
     1
 42
1.0
176
     1
 92
        0
176
     1
 66
   257
176
     1
 43
1.0
176
     1
 76
     1
176
     1
 77
     6
176
     1
 78
     2
176
     1
 67
     7
176
     1
 79
     5
176
     1
170
     0
176
     1
171
     0
176
     1
290
     0
176
     1
 93
       13
176
     1
 44
0.0
176
     1
173
     0
176
     1
  0
VISUALSTYLE
  5
38
102
{ACAD_REACTORS
330
2A
102
}
330
2A
100
AcDbVisualStyle
  2
Linepattern
 70
    14
177
     2
291
     1
 71
     2
176
     1
 72
     2
176
     1
 73
     0
176
     1
 90
        0
176
     1
 40
-0.6
176
     1
 41
-30.0
176
     1
 62
     5
 63
     7
421
 16777215
176
     1
 74
     1
176
     1
 91
        4
176
     1
 64
     7
176
     1
 65
   257
176
     1
 75
     7
176
     1
175
     7
176
     1
 42
1.0
176
     1
 92
        8
176
     1
 66
     7
176
     1
 43
1.0
176
     1
 76
     1
176
     1
 77
     6
176
     1
 78
     2
176
     1
 67
     7
176
     1
 79
     5
176
     1
170
     0
176
     1
171
     0
176
     1
290
     0
176
     1
 93
        1
176
     1
 44
0.0
176
     1
173
     0
176
     1
  0
VISUALSTYLE
  5
33
102
{ACAD_REACTORS
330
2A
102
}
330
2A
100
AcDbVisualStyle
  2
Realistic
 70
     8
177
     2
291
     0
 71
     2
176
     1
 72
     2
176
     1
 73
     0
176
     1
 90
        0
176
     1
 40
-0.6
176
     1
 41
-30.0
176
     1
 62
     5
 63
     7
421
 16777215
176
     1
 74
     1
176
     1
 91
        0
176
     1
 64
     7
176
     1
 65
   257
176
     1
 75
     1
176
     1
175
     1
176
     1
 42
1.0
176
     1
 92
        8
176
     1
 66
     8
424
  7895160
176
     1
 43
1.0
176
     1
 76
     1
176
     1
 77
     6
176
     1
 78
     2
176
     1
 67
     7
176
     1
 79
     5
176
     1
170
     0
176
     1
171
     0
176
     1
290
     0
176
     1
 93
       13
176
     1
 44
0.0
176
     1
173
     0
176
     1
  0
VISUALSTYLE
  5
37
102
{ACAD_REACTORS
330
2A
102
}
330
2A
100
AcDbVisualStyle
  2
Thicken
 70
    13
177
     2
291
     1
 71
     2
176
     1
 72
     2
176
     1
 73
     0
176
     1
 90
        0
176
     1
 40
-0.6
176
     1
 41
-30.0
176
     1
 62
     5
 63
     7
421
 16777215
176
     1
 74
     1
176
     1
 91
        4
176
     1
 64
     7
176
     1
 65
   257
176
     1
 75
     1
176
     1
175
     1
176
     1
 42
1.0
176
     1
 92
       12
176
     1
 66
     7
176
     1
 43
1.0
176
     1
 76
     1
176
     1
 77
     6
176
     1
 78
     2
176
     1
 67
     7
176
     1
 79
     5
176
     1
170
     0
176
     1
171
     0
176
     1
290
     0
176
     1
 93
        1
176
     1
 44
0.0
176
     1
173
     0
176
     1
  0
ENDSEC
  0
EOF
