  0
SECTION
  2
HEADER
  9
$ACADVER
  1
AC1024
  9
$ACADMAINTVER
 70
     6
  9
$DWGCODEPAGE
  3
UNDEFINED
  9
$INSBASE
 10
0.0
 20
0.0
 30
0.0
  9
$EXTMIN
 10
1.000000000000000E+20
 20
1.000000000000000E+20
 30
1.000000000000000E+20
  9
$EXTMAX
 10
-1.000000000000000E+20
 20
-1.000000000000000E+20
 30
-1.000000000000000E+20
  9
$LIMMIN
 10
0.0
 20
0.0
  9
$LIMMAX
 10
12.0
 20
9.0
  9
$ORTHOMODE
 70
     0
  9
$REGENMODE
 70
     1
  9
$FILLMODE
 70
     1
  9
$QTEXTMODE
 70
     0
  9
$MIRRTEXT
 70
     1
  9
$LTSCALE
 40
1.0
  9
$ATTMODE
 70
     1
  9
$TEXTSIZE
 40
0.2
  9
$TRACEWID
 40
0.05
  9
$TEXTSTYLE
  7
Standard
  9
$CLAYER
  8
0
  9
$CELTYPE
  6
ByLayer
  9
$CECOLOR
 62
   256
  9
$CELTSCALE
 40
1.0
  9
$DISPSILH
 70
     0
  9
$DIMSCALE
 40
1.0
  9
$DIMASZ
 40
0.18
  9
$DIMEXO
 40
0.0625
  9
$DIMDLI
 40
0.38
  9
$DIMRND
 40
0.0
  9
$DIMDLE
 40
0.0
  9
$DIMEXE
 40
0.18
  9
$DIMTP
 40
0.0
  9
$DIMTM
 40
0.0
  9
$DIMTXT
 40
0.18
  9
$DIMCEN
 40
0.09
  9
$DIMTSZ
 40
0.0
  9
$DIMTOL
 70
     0
  9
$DIMLIM
 70
     0
  9
$DIMTIH
 70
     1
  9
$DIMTOH
 70
     1
  9
$DIMSE1
 70
     0
  9
$DIMSE2
 70
     0
  9
$DIMTAD
 70
     0
  9
$DIMZIN
 70
     0
  9
$DIMBLK
  1

  9
$DIMASO
 70
     1
  9
$DIMSHO
 70
     1
  9
$DIMPOST
  1

  9
$DIMAPOST
  1

  9
$DIMALT
 70
     0
  9
$DIMALTD
 70
     2
  9
$DIMALTF
 40
25.4
  9
$DIMLFAC
 40
1.0
  9
$DIMTOFL
 70
     0
  9
$DIMTVP
 40
0.0
  9
$DIMTIX
 70
     0
  9
$DIMSOXD
 70
     0
  9
$DIMSAH
 70
     0
  9
$DIMBLK1
  1

  9
$DIMBLK2
  1

  9
$DIMSTYLE
  2
Standard
  9
$DIMCLRD
 70
     0
  9
$DIMCLRE
 70
     0
  9
$DIMCLRT
 70
     0
  9
$DIMTFAC
 40
1.0
  9
$DIMGAP
 40
0.09
  9
$DIMJUST
 70
     0
  9
$DIMSD1
 70
     0
  9
$DIMSD2
 70
     0
  9
$DIMTOLJ
 70
     1
  9
$DIMTZIN
 70
     0
  9
$DIMALTZ
 70
     0
  9
$DIMALTTZ
 70
     0
  9
$DIMUPT
 70
     0
  9
$DIMDEC
 70
     4
  9
$DIMTDEC
 70
     4
  9
$DIMALTU
 70
     2
  9
$DIMALTTD
 70
     2
  9
$DIMTXSTY
  7
Standard
  9
$DIMAUNIT
 70
     0
  9
$DIMADEC
 70
     0
  9
$DIMALTRND
 40
0.0
  9
$DIMAZIN
 70
     0
  9
$DIMDSEP
 70
    46
  9
$DIMATFIT
 70
     3
  9
$DIMFRAC
 70
     0
  9
$DIMLDRBLK
  1

  9
$DIMLUNIT
 70
     2
  9
$DIMLWD
 70
    -2
  9
$DIMLWE
 70
    -2
  9
$DIMTMOVE
 70
     0
  9
$DIMFXL
 40
1.0
  9
$DIMFXLON
 70
     0
  9
$DIMJOGANG
 40
0.7853981633974483
  9
$DIMTFILL
 70
     0
  9
$DIMTFILLCLR
 70
     0
  9
$DIMARCSYM
 70
     0
  9
$DIMLTYPE
  6

  9
$DIMLTEX1
  6

  9
$DIMLTEX2
  6

  9
$DIMTXTDIRECTION
 70
     0
  9
$LUNITS
 70
     2
  9
$LUPREC
 70
     4
  9
$SKETCHINC
 40
0.1
  9
$FILLETRAD
 40
0.5
  9
$AUNITS
 70
     0
  9
$AUPREC
 70
     0
  9
$MENU
  1
.
  9
$ELEVATION
 40
0.0
  9
$PELEVATION
 40
0.0
  9
$THICKNESS
 40
0.0
  9
$LIMCHECK
 70
     0
  9
$CHAMFERA
 40
0.5
  9
$CHAMFERB
 40
0.5
  9
$CHAMFERC
 40
1.0
  9
$CHAMFERD
 40
0.0
  9
$SKPOLY
 70
     0
  9
$TDCREATE
 40
2457917.59153934
  9
$TDUCREATE
 40
2457917.216539352
  9
$TDUPDATE
 40
2457917.59153934
  9
$TDUUPDATE
 40
2457917.216539352
  9
$TDINDWG
 40
0.0000000116
  9
$TDUSRTIMER
 40
0.0000000116
  9
$USRTIMER
 70
     1
  9
$ANGBASE
 50
0.0
  9
$ANGDIR
 70
     0
  9
$PDMODE
 70
     0
  9
$PDSIZE
 40
0.0
  9
$PLINEWID
 40
0.0
  9
$SPLFRAME
 70
     0
  9
$SPLINETYPE
 70
     6
  9
$SPLINESEGS
 70
     8
  9
$HANDSEED
  5
102
  9
$SURFTAB1
 70
     6
  9
$SURFTAB2
 70
     6
  9
$SURFTYPE
 70
     6
  9
$SURFU
 70
     6
  9
$SURFV
 70
     6
  9
$UCSBASE
  2

  9
$UCSNAME
  2

  9
$UCSORG
 10
0.0
 20
0.0
 30
0.0
  9
$UCSXDIR
 10
1.0
 20
0.0
 30
0.0
  9
$UCSYDIR
 10
0.0
 20
1.0
 30
0.0
  9
$UCSORTHOREF
  2

  9
$UCSORTHOVIEW
 70
     0
  9
$UCSORGTOP
 10
0.0
 20
0.0
 30
0.0
  9
$UCSORGBOTTOM
 10
0.0
 20
0.0
 30
0.0
  9
$UCSORGLEFT
 10
0.0
 20
0.0
 30
0.0
  9
$UCSORGRIGHT
 10
0.0
 20
0.0
 30
0.0
  9
$UCSORGFRONT
 10
0.0
 20
0.0
 30
0.0
  9
$UCSORGBACK
 10
0.0
 20
0.0
 30
0.0
  9
$PUCSBASE
  2

  9
$PUCSNAME
  2

  9
$PUCSORG
 10
0.0
 20
0.0
 30
0.0
  9
$PUCSXDIR
 10
1.0
 20
0.0
 30
0.0
  9
$PUCSYDIR
 10
0.0
 20
1.0
 30
0.0
  9
$PUCSORTHOREF
  2

  9
$PUCSORTHOVIEW
 70
     0
  9
$PUCSORGTOP
 10
0.0
 20
0.0
 30
0.0
  9
$PUCSORGBOTTOM
 10
0.0
 20
0.0
 30
0.0
  9
$PUCSORGLEFT
 10
0.0
 20
0.0
 30
0.0
  9
$PUCSORGRIGHT
 10
0.0
 20
0.0
 30
0.0
  9
$PUCSORGFRONT
 10
0.0
 20
0.0
 30
0.0
  9
$PUCSORGBACK
 10
0.0
 20
0.0
 30
0.0
  9
$USERI1
 70
     0
  9
$USERI2
 70
     0
  9
$USERI3
 70
     0
  9
$USERI4
 70
     0
  9
$USERI5
 70
     0
  9
$USERR1
 40
0.0
  9
$USERR2
 40
0.0
  9
$USERR3
 40
0.0
  9
$USERR4
 40
0.0
  9
$USERR5
 40
0.0
  9
$WORLDVIEW
 70
     1
  9
$SHADEDGE
 70
     3
  9
$SHADEDIF
 70
    70
  9
$TILEMODE
 70
     1
  9
$MAXACTVP
 70
    64
  9
$PINSBASE
 10
0.0
 20
0.0
 30
0.0
  9
$PLIMCHECK
 70
     0
  9
$PEXTMIN
 10
1.000000000000000E+20
 20
1.000000000000000E+20
 30
1.000000000000000E+20
  9
$PEXTMAX
 10
-1.000000000000000E+20
 20
-1.000000000000000E+20
 30
-1.000000000000000E+20
  9
$PLIMMIN
 10
0.0
 20
0.0
  9
$PLIMMAX
 10
12.0
 20
9.0
  9
$UNITMODE
 70
     0
  9
$VISRETAIN
 70
     1
  9
$PLINEGEN
 70
     0
  9
$PSLTSCALE
 70
     1
  9
$TREEDEPTH
 70
  3020
  9
$CMLSTYLE
  2
Standard
  9
$CMLJUST
 70
     0
  9
$CMLSCALE
 40
1.0
  9
$PROXYGRAPHICS
 70
     1
  9
$MEASUREMENT
 70
     0
  9
$CELWEIGHT
370
    -1
  9
$ENDCAPS
280
     0
  9
$JOINSTYLE
280
     0
  9
$LWDISPLAY
290
     1
  9
$INSUNITS
 70
     1
  9
$HYPERLINKBASE
  1

  9
$STYLESHEET
  1

  9
$XEDIT
290
     1
  9
$CEPSNTYPE
380
     0
  9
$PSTYLEMODE
290
     1
  9
$FINGERPRINTGUID
  2
{F6053E34-E181-FE61-2A50-14A42000B4F7}
  9
$VERSIONGUID
  2
{FAEB1C32-E019-11D5-929B-00C0DF256EC4}
  9
$EXTNAMES
290
     1
  9
$PSVPSCALE
 40
0.0
  9
$OLESTARTUP
290
     0
  9
$SORTENTS
280
   127
  9
$INDEXCTL
280
     0
  9
$HIDETEXT
280
     1
  9
$XCLIPFRAME
280
     2
  9
$HALOGAP
280
     0
  9
$OBSCOLOR
 70
   257
  9
$OBSLTYPE
280
     0
  9
$INTERSECTIONDISPLAY
280
     0
  9
$INTERSECTIONCOLOR
 70
   257
  9
$DIMASSOC
280
     2
  9
$PROJECTNAME
  1

  9
$CAMERADISPLAY
290
     0
  9
$LENSLENGTH
 40
50.0
  9
$CAMERAHEIGHT
 40
0.0
  9
$STEPSPERSEC
 40
2.0
  9
$STEPSIZE
 40
6.0
  9
$3DDWFPREC
 40
2.0
  9
$PSOLWIDTH
 40
0.25
  9
$PSOLHEIGHT
 40
4.0
  9
$LOFTANG1
 40
1.570796326794897
  9
$LOFTANG2
 40
1.570796326794897
  9
$LOFTMAG1
 40
0.0
  9
$LOFTMAG2
 40
0.0
  9
$LOFTPARAM
 70
     7
  9
$LOFTNORMALS
280
     1
  9
$LATITUDE
 40
37.795
  9
$LONGITUDE
 40
-122.394
  9
$NORTHDIRECTION
 40
0.0
  9
$TIMEZONE
 70
 -8000
  9
$LIGHTGLYPHDISPLAY
280
     1
  9
$TILEMODELIGHTSYNCH
280
     1
  9
$CMATERIAL
347
3C
  9
$SOLIDHIST
280
     1
  9
$SHOWHIST
280
     1
  9
$DWFFRAME
280
     2
  9
$DGNFRAME
280
     2
  9
$REALWORLDSCALE
290
     1
  9
$INTERFERECOLOR
 62
   256
  9
$CSHADOW
280
     0
  9
$SHADOWPLANELOCATION
 40
0.0
  0
ENDSEC
  0
SECTION
  2
CLASSES
  0
CLASS
  1
ACDBDICTIONARYWDFLT
  2
AcDbDictionaryWithDefault
  3
ObjectDBX Classes
 90
        0
 91
        4
280
     0
281
     0
  0
CLASS
  1
VISUALSTYLE
  2
AcDbVisualStyle
  3
ObjectDBX Classes
 90
     4095
 91
        4
280
     0
281
     0
  0
CLASS
  1
MATERIAL
  2
AcDbMaterial
  3
ObjectDBX Classes
 90
     1153
 91
        4
280
     0
281
     0
  0
CLASS
  1
SUN
  2
AcDbSun
  3
SCENEOE
 90
     1024
 91
        4
280
     0
281
     0
  0
ENDSEC
  0
SECTION
  2
TABLES
  0
TABLE
  2
VPORT
  5
8
330
0
100
AcDbSymbolTable
 70
     1
  0
VPORT
  5
29
330
8
100
AcDbSymbolTableRecord
100
AcDbViewportTableRecord
  2
*Active
 70
     0
 10
0.0
 20
0.0
 11
1.0
 21
1.0
 12
0.0
 22
0.0
 13
0.0
 23
0.0
 14
0.5
 24
0.5
 15
0.5
 25
0.5
 16
0.0
 26
0.0
 36
1.0
 17
91.00082462281999
 27
-128.4993055234307
 37
0.0
 40
256.9986110468615
 41
0.7081814508812795
 42
50.0
 43
0.0
 44
0.0
 50
0.0
 51
0.0
 71
     0
 72
   100
 73
     1
 74
     3
 75
     0
 76
     0
 77
     0
 78
     0
281
     0
 65
     1
110
0.0
120
0.0
130
0.0
111
1.0
121
0.0
131
0.0
112
0.0
122
1.0
132
0.0
 79
     0
146
0.0
 60
     3
 61
     5
292
     1
282
     1
141
0.0
142
0.0
 63
   250
361
3F
  0
ENDTAB
  0
TABLE
  2
LTYPE
  5
5
330
0
100
AcDbSymbolTable
 70
     1
  0
LTYPE
  5
14
330
5
100
AcDbSymbolTableRecord
100
AcDbLinetypeTableRecord
  2
ByBlock
 70
     0
  3

 72
    65
 73
     0
 40
0.0
  0
LTYPE
  5
15
330
5
100
AcDbSymbolTableRecord
100
AcDbLinetypeTableRecord
  2
ByLayer
 70
     0
  3

 72
    65
 73
     0
 40
0.0
  0
LTYPE
  5
16
330
5
100
AcDbSymbolTableRecord
100
AcDbLinetypeTableRecord
  2
Continuous
 70
     0
  3
Solid line
 72
    65
 73
     0
 40
0.0
  0
ENDTAB
  0
TABLE
  2
LAYER
  5
2
330
0
100
AcDbSymbolTable
 70
     2
  0
LAYER
  5
10
330
2
100
AcDbSymbolTableRecord
100
AcDbLayerTableRecord
  2
0
 70
     0
 62
     7
  6
Continuous
370
    -3
390
F
347
3E
  0
LAYER
  5
40
330
2
100
AcDbSymbolTableRecord
100
AcDbLayerTableRecord
  2
_U+30EC_U+30A4_U+30E4_U+30FC 1
 70
     0
 62
     7
  6
Continuous
370
    -3
390
F
347
3E
  0
ENDTAB
  0
TABLE
  2
STYLE
  5
3
330
0
100
AcDbSymbolTable
 70
     1
  0
STYLE
  5
11
330
3
100
AcDbSymbolTableRecord
100
AcDbTextStyleTableRecord
  2
Standard
 70
     0
 40
0.0
 41
1.0
 50
0.0
 71
     0
 42
0.2
  3
txt
  4

  0
ENDTAB
  0
TABLE
  2
VIEW
  5
6
330
0
100
AcDbSymbolTable
 70
     0
  0
ENDTAB
  0
TABLE
  2
UCS
  5
7
330
0
100
AcDbSymbolTable
 70
     0
  0
ENDTAB
  0
TABLE
  2
APPID
  5
9
330
0
100
AcDbSymbolTable
 70
     1
  0
APPID
  5
12
330
9
100
AcDbSymbolTableRecord
100
AcDbRegAppTableRecord
  2
ACAD
 70
     0
  0
ENDTAB
  0
TABLE
  2
DIMSTYLE
  5
A
330
0
100
AcDbSymbolTable
 70
     1
100
AcDbDimStyleTable
  0
DIMSTYLE
105
27
330
A
100
AcDbSymbolTableRecord
100
AcDbDimStyleTableRecord
  2
Standard
 70
     0
178
     0
340
11
  0
ENDTAB
  0
TABLE
  2
BLOCK_RECORD
  5
1
330
0
100
AcDbSymbolTable
 70
     7
  0
BLOCK_RECORD
  5
1F
330
1
100
AcDbSymbolTableRecord
100
AcDbBlockTableRecord
  2
*Model_Space
340
22
 70
     0
280
     1
281
     0
  0
BLOCK_RECORD
  5
1B
330
1
100
AcDbSymbolTableRecord
100
AcDbBlockTableRecord
  2
*Paper_Space
340
1E
 70
     0
280
     1
281
     0
  0
BLOCK_RECORD
  5
23
330
1
100
AcDbSymbolTableRecord
100
AcDbBlockTableRecord
  2
*Paper_Space0
340
26
 70
     0
280
     1
281
     0
  0
BLOCK_RECORD
  5
8E
330
1
100
AcDbSymbolTableRecord
100
AcDbBlockTableRecord
  2
block 2
340
0
102
{BLKREFS
331
8F
102
}
 70
     0
280
     1
281
     0
  0
BLOCK_RECORD
  5
A6
330
1
100
AcDbSymbolTableRecord
100
AcDbBlockTableRecord
  2
block 3
340
0
102
{BLKREFS
331
A7
102
}
 70
     0
280
     1
281
     0
  0
BLOCK_RECORD
  5
C1
330
1
100
AcDbSymbolTableRecord
100
AcDbBlockTableRecord
  2
block 4
340
0
102
{BLKREFS
331
C2
102
}
 70
     0
280
     1
281
     0
  0
BLOCK_RECORD
  5
D3
330
1
100
AcDbSymbolTableRecord
100
AcDbBlockTableRecord
  2
block 5
340
0
102
{BLKREFS
331
D4
102
}
 70
     0
280
     1
281
     0
  0
BLOCK_RECORD
  5
E4
330
1
100
AcDbSymbolTableRecord
100
AcDbBlockTableRecord
  2
block 6
340
0
102
{BLKREFS
331
E5
102
}
 70
     0
280
     1
281
     0
  0
BLOCK_RECORD
  5
F8
330
1
100
AcDbSymbolTableRecord
100
AcDbBlockTableRecord
  2
block 7
340
0
102
{BLKREFS
331
F9
102
}
 70
     0
280
     1
281
     0
  0
ENDTAB
  0
ENDSEC
  0
SECTION
  2
BLOCKS
  0
BLOCK
  5
20
330
1F
100
AcDbEntity
  8
0
100
AcDbBlockBegin
  2
*Model_Space
 70
     0
 10
0.0
 20
0.0
 30
0.0
  3
*Model_Space
  1

  0
ENDBLK
  5
21
330
1F
100
AcDbEntity
  8
0
100
AcDbBlockEnd
  0
BLOCK
  5
1C
330
1B
100
AcDbEntity
 67
     1
  8
0
100
AcDbBlockBegin
  2
*Paper_Space
 70
     0
 10
0.0
 20
0.0
 30
0.0
  3
*Paper_Space
  1

  0
ENDBLK
  5
1D
330
1B
100
AcDbEntity
 67
     1
  8
0
100
AcDbBlockEnd
  0
BLOCK
  5
24
330
23
100
AcDbEntity
  8
0
100
AcDbBlockBegin
  2
*Paper_Space0
 70
     0
 10
0.0
 20
0.0
 30
0.0
  3
*Paper_Space0
  1

  0
ENDBLK
  5
25
330
23
100
AcDbEntity
  8
0
100
AcDbBlockEnd
  0
BLOCK
  5
90
330
8E
100
AcDbEntity
  8
0
100
AcDbBlockBegin
  2
block 2
 70
     0
 10
0.0
 20
0.0
 30
0.0
  3
block 2
  1

  0
SPLINE
  5
92
330
8E
100
AcDbEntity
  8
_U+30EC_U+30A4_U+30E4_U+30FC 1
370
     0
100
AcDbSpline
210
0.0
220
0.0
230
1.0
 70
    11
 71
     3
 72
    62
 73
    58
 74
     0
 42
0.0000000001
 43
0.0000000001
 12
1.0
 22
0.0
 32
0.0
 13
1.0
 23
0.0
 33
0.0
 40
0.0
 40
0.0
 40
0.0
 40
0.0
 40
1.0
 40
1.0
 40
1.0
 40
2.0
 40
2.0
 40
2.0
 40
3.0
 40
3.0
 40
3.0
 40
4.0
 40
4.0
 40
4.0
 40
5.0
 40
5.0
 40
5.0
 40
6.0
 40
6.0
 40
6.0
 40
7.0
 40
7.0
 40
7.0
 40
8.0
 40
8.0
 40
8.0
 40
9.0
 40
9.0
 40
9.0
 40
10.0
 40
10.0
 40
10.0
 40
11.0
 40
11.0
 40
11.0
 40
12.0
 40
12.0
 40
12.0
 40
13.0
 40
13.0
 40
13.0
 40
14.0
 40
14.0
 40
14.0
 40
15.0
 40
15.0
 40
15.0
 40
16.0
 40
16.0
 40
16.0
 40
17.0
 40
17.0
 40
17.0
 40
18.0
 40
18.0
 40
18.0
 40
19.0
 40
19.0
 40
19.0
 40
19.0
 10
87.61670190951943
 20
-116.9077649989849
 30
0.0
 10
87.52144501935229
 20
-116.9077649989849
 30
0.0
 10
87.30354272991023
 20
-116.8865776617506
 30
0.0
 10
87.17883027334419
 20
-116.7003702507728
 30
0.0
 10
87.10476072041132
 20
-116.5882323927279
 30
0.0
 10
87.10045435105475
 20
-116.4888413879785
 30
0.0
 10
87.09632023647245
 20
-116.4042642938156
 30
0.0
 10
87.09632023647245
 20
-116.4042642938156
 30
0.0
 10
87.31628958320566
 20
-116.4042642938156
 30
0.0
 10
87.31628958320566
 20
-116.4042642938156
 30
0.0
 10
87.3183566404968
 20
-116.4783338467485
 30
0.0
 10
87.32903643650108
 20
-116.7131171040683
 30
0.0
 10
87.61256779493714
 20
-116.7131171040683
 30
0.0
 10
87.7500271047986
 20
-116.7131171040683
 30
0.0
 10
87.90230032524666
 20
-116.6433539204919
 30
0.0
 10
87.90230032524666
 20
-116.4147718350456
 30
0.0
 10
87.90230032524666
 20
-116.2984998624184
 30
0.0
 10
87.86423202013464
 20
-116.2497517613022
 30
0.0
 10
87.83253714167034
 20
-116.2180568828379
 30
0.0
 10
87.75846758873747
 20
-116.143987329905
 30
0.0
 10
87.64202336133603
 20
-116.1314127313838
 30
0.0
 10
87.58707408834628
 20
-116.1314127313838
 30
0.0
 10
87.56812606317742
 20
-116.1314127313838
 30
0.0
 10
87.53212481535655
 20
-116.133479788675
 30
0.0
 10
87.50456405147456
 20
-116.1376139032573
 30
0.0
 10
87.50456405147456
 20
-116.1376139032573
 30
0.0
 10
87.50456405147456
 20
-115.9429660083406
 30
0.0
 10
87.50456405147456
 20
-115.9429660083406
 30
0.0
 10
87.54263235658657
 20
-115.9493394349884
 30
0.0
 10
87.58500703105514
 20
-115.9515787470538
 30
0.0
 10
87.59138045770285
 20
-115.9515787470538
 30
0.0
 10
87.6568372719226
 20
-115.9515787470538
 30
0.0
 10
87.85579153619578
 20
-115.9303914098195
 30
0.0
 10
87.85579153619578
 20
-115.6933688404343
 30
0.0
 10
87.85579153619578
 20
-115.5157741681697
 30
0.0
 10
87.72453339820775
 20
-115.4606526404057
 30
0.0
 10
87.61463485222829
 20
-115.4606526404057
 30
0.0
 10
87.35022377373537
 20
-115.4606526404057
 30
0.0
 10
87.3417832897965
 20
-115.6933688404343
 30
0.0
 10
87.33747692043994
 20
-115.765371336076
 30
0.0
 10
87.33747692043994
 20
-115.765371336076
 30
0.0
 10
87.13438854158446
 20
-115.765371336076
 30
0.0
 10
87.13438854158446
 20
-115.765371336076
 30
0.0
 10
87.14282902552333
 20
-115.6404866247357
 30
0.0
 10
87.17038978940532
 20
-115.2639376881979
 30
0.0
 10
87.62720945074945
 20
-115.2639376881979
 30
0.0
 10
87.85148516683921
 20
-115.2639376881979
 30
0.0
 10
88.0926418508067
 20
-115.3908894568294
 30
0.0
 10
88.0926418508067
 20
-115.6869954137866
 30
0.0
 10
88.0926418508067
 20
-115.8732028247643
 30
0.0
 10
87.9975572154138
 20
-115.9557128616361
 30
0.0
 10
87.89799395589009
 20
-116.0170355612735
 30
0.0
 10
87.9594889103018
 20
-116.0445963251555
 30
0.0
 10
88.14138995192299
 20
-116.1250393047361
 30
0.0
 10
88.14138995192299
 20
-116.4021972365245
 30
0.0
 10
88.14138995192299
 20
-116.7406778679503
 30
0.0
 10
87.89385984130779
 20
-116.9077649989849
 30
0.0
 10
87.61670190951943
 20
-116.9077649989849
 30
0.0
  0
HATCH
  5
93
330
8E
100
AcDbEntity
  8
_U+30EC_U+30A4_U+30E4_U+30FC 1
 62
   179
420
  2234388
100
AcDbHatch
 10
0.0
 20
0.0
 30
0.0
210
0.0
220
0.0
230
1.0
  2
SOLID
 70
     1
 71
     0
 91
        1
 92
        1
 93
        1
 72
     4
 94
        3
 73
     0
 74
     1
 95
       62
 96
       58
 40
0.0
 40
0.0
 40
0.0
 40
0.0
 40
1.0
 40
1.0
 40
1.0
 40
2.0
 40
2.0
 40
2.0
 40
3.0
 40
3.0
 40
3.0
 40
4.0
 40
4.0
 40
4.0
 40
5.0
 40
5.0
 40
5.0
 40
6.0
 40
6.0
 40
6.0
 40
7.0
 40
7.0
 40
7.0
 40
8.0
 40
8.0
 40
8.0
 40
9.0
 40
9.0
 40
9.0
 40
10.0
 40
10.0
 40
10.0
 40
11.0
 40
11.0
 40
11.0
 40
12.0
 40
12.0
 40
12.0
 40
13.0
 40
13.0
 40
13.0
 40
14.0
 40
14.0
 40
14.0
 40
15.0
 40
15.0
 40
15.0
 40
16.0
 40
16.0
 40
16.0
 40
17.0
 40
17.0
 40
17.0
 40
18.0
 40
18.0
 40
18.0
 40
19.0
 40
19.0
 40
19.0
 40
19.0
 10
87.61670190951943
 20
-116.9077649989849
 10
87.52144501935229
 20
-116.9077649989849
 10
87.30354272991023
 20
-116.8865776617506
 10
87.17883027334419
 20
-116.7003702507728
 10
87.10476072041132
 20
-116.5882323927279
 10
87.10045435105475
 20
-116.4888413879785
 10
87.09632023647245
 20
-116.4042642938156
 10
87.09632023647245
 20
-116.4042642938156
 10
87.31628958320566
 20
-116.4042642938156
 10
87.31628958320566
 20
-116.4042642938156
 10
87.3183566404968
 20
-116.4783338467485
 10
87.32903643650108
 20
-116.7131171040683
 10
87.61256779493714
 20
-116.7131171040683
 10
87.7500271047986
 20
-116.7131171040683
 10
87.90230032524666
 20
-116.6433539204919
 10
87.90230032524666
 20
-116.4147718350456
 10
87.90230032524666
 20
-116.2984998624184
 10
87.86423202013464
 20
-116.2497517613022
 10
87.83253714167034
 20
-116.2180568828379
 10
87.75846758873747
 20
-116.143987329905
 10
87.64202336133603
 20
-116.1314127313838
 10
87.58707408834628
 20
-116.1314127313838
 10
87.56812606317742
 20
-116.1314127313838
 10
87.53212481535655
 20
-116.133479788675
 10
87.50456405147456
 20
-116.1376139032573
 10
87.50456405147456
 20
-116.1376139032573
 10
87.50456405147456
 20
-115.9429660083406
 10
87.50456405147456
 20
-115.9429660083406
 10
87.54263235658657
 20
-115.9493394349884
 10
87.58500703105514
 20
-115.9515787470538
 10
87.59138045770285
 20
-115.9515787470538
 10
87.6568372719226
 20
-115.9515787470538
 10
87.85579153619578
 20
-115.9303914098195
 10
87.85579153619578
 20
-115.6933688404343
 10
87.85579153619578
 20
-115.5157741681697
 10
87.72453339820775
 20
-115.4606526404057
 10
87.61463485222829
 20
-115.4606526404057
 10
87.35022377373537
 20
-115.4606526404057
 10
87.3417832897965
 20
-115.6933688404343
 10
87.33747692043994
 20
-115.765371336076
 10
87.33747692043994
 20
-115.765371336076
 10
87.13438854158446
 20
-115.765371336076
 10
87.13438854158446
 20
-115.765371336076
 10
87.14282902552333
 20
-115.6404866247357
 10
87.17038978940532
 20
-115.2639376881979
 10
87.62720945074945
 20
-115.2639376881979
 10
87.85148516683921
 20
-115.2639376881979
 10
88.0926418508067
 20
-115.3908894568294
 10
88.0926418508067
 20
-115.6869954137866
 10
88.0926418508067
 20
-115.8732028247643
 10
87.9975572154138
 20
-115.9557128616361
 10
87.89799395589009
 20
-116.0170355612735
 10
87.9594889103018
 20
-116.0445963251555
 10
88.14138995192299
 20
-116.1250393047361
 10
88.14138995192299
 20
-116.4021972365245
 10
88.14138995192299
 20
-116.7406778679503
 10
87.89385984130779
 20
-116.9077649989849
 10
87.61670190951943
 20
-116.9077649989849
 97
        0
 97
        0
 75
     2
 76
     1
 98
        0
  0
SPLINE
  5
94
330
8E
100
AcDbEntity
  8
_U+30EC_U+30A4_U+30E4_U+30FC 1
370
     0
100
AcDbSpline
210
0.0
220
0.0
230
1.0
 70
    11
 71
     3
 72
    26
 73
    22
 74
     0
 42
0.0000000001
 43
0.0000000001
 12
1.0
 22
0.0
 32
0.0
 13
1.0
 23
0.0
 33
0.0
 40
0.0
 40
0.0
 40
0.0
 40
0.0
 40
1.0
 40
1.0
 40
1.0
 40
2.0
 40
2.0
 40
2.0
 40
3.0
 40
3.0
 40
3.0
 40
4.0
 40
4.0
 40
4.0
 40
5.0
 40
5.0
 40
5.0
 40
6.0
 40
6.0
 40
6.0
 40
7.0
 40
7.0
 40
7.0
 40
7.0
 10
88.75341116487762
 20
-116.8569498405774
 30
0.0
 10
88.75341116487762
 20
-116.8569498405774
 30
0.0
 10
88.75341116487762
 20
-115.7526244827806
 30
0.0
 10
88.75341116487762
 20
-115.7526244827806
 30
0.0
 10
88.75341116487762
 20
-115.7526244827806
 30
0.0
 10
88.42337101739069
 20
-115.7526244827806
 30
0.0
 10
88.42337101739069
 20
-115.7526244827806
 30
0.0
 10
88.42337101739069
 20
-115.7526244827806
 30
0.0
 10
88.42337101739069
 20
-115.6046576316891
 30
0.0
 10
88.42337101739069
 20
-115.6046576316891
 30
0.0
 10
88.75547822216878
 20
-115.5898437211025
 30
0.0
 10
88.80198701121965
 20
-115.4268907046502
 30
0.0
 10
88.8316148323928
 20
-115.3126857893142
 30
0.0
 10
88.8316148323928
 20
-115.3126857893142
 30
0.0
 10
88.97768688096738
 20
-115.3126857893142
 30
0.0
 10
88.97768688096738
 20
-115.3126857893142
 30
0.0
 10
88.97768688096738
 20
-115.3126857893142
 30
0.0
 10
88.97768688096738
 20
-116.8569498405774
 30
0.0
 10
88.97768688096738
 20
-116.8569498405774
 30
0.0
 10
88.97768688096738
 20
-116.8569498405774
 30
0.0
 10
88.75341116487762
 20
-116.8569498405774
 30
0.0
 10
88.75341116487762
 20
-116.8569498405774
 30
0.0
  0
HATCH
  5
95
330
8E
100
AcDbEntity
  8
_U+30EC_U+30A4_U+30E4_U+30FC 1
 62
   179
420
  2234388
100
AcDbHatch
 10
0.0
 20
0.0
 30
0.0
210
0.0
220
0.0
230
1.0
  2
SOLID
 70
     1
 71
     0
 91
        1
 92
        1
 93
        1
 72
     4
 94
        3
 73
     0
 74
     1
 95
       26
 96
       22
 40
0.0
 40
0.0
 40
0.0
 40
0.0
 40
1.0
 40
1.0
 40
1.0
 40
2.0
 40
2.0
 40
2.0
 40
3.0
 40
3.0
 40
3.0
 40
4.0
 40
4.0
 40
4.0
 40
5.0
 40
5.0
 40
5.0
 40
6.0
 40
6.0
 40
6.0
 40
7.0
 40
7.0
 40
7.0
 40
7.0
 10
88.75341116487762
 20
-116.8569498405774
 10
88.75341116487762
 20
-116.8569498405774
 10
88.75341116487762
 20
-115.7526244827806
 10
88.75341116487762
 20
-115.7526244827806
 10
88.75341116487762
 20
-115.7526244827806
 10
88.42337101739069
 20
-115.7526244827806
 10
88.42337101739069
 20
-115.7526244827806
 10
88.42337101739069
 20
-115.7526244827806
 10
88.42337101739069
 20
-115.6046576316891
 10
88.42337101739069
 20
-115.6046576316891
 10
88.75547822216878
 20
-115.5898437211025
 10
88.80198701121965
 20
-115.4268907046502
 10
88.8316148323928
 20
-115.3126857893142
 10
88.8316148323928
 20
-115.3126857893142
 10
88.97768688096738
 20
-115.3126857893142
 10
88.97768688096738
 20
-115.3126857893142
 10
88.97768688096738
 20
-115.3126857893142
 10
88.97768688096738
 20
-116.8569498405774
 10
88.97768688096738
 20
-116.8569498405774
 10
88.97768688096738
 20
-116.8569498405774
 10
88.75341116487762
 20
-116.8569498405774
 10
88.75341116487762
 20
-116.8569498405774
 97
        0
 97
        0
 75
     2
 76
     1
 98
        0
  0
ENDBLK
  5
91
330
8E
100
AcDbEntity
  8
0
100
AcDbBlockEnd
  0
BLOCK
  5
A8
330
A6
100
AcDbEntity
  8
0
100
AcDbBlockBegin
  2
block 3
 70
     0
 10
0.0
 20
0.0
 30
0.0
  3
block 3
  1

  0
SPLINE
  5
AA
330
A6
100
AcDbEntity
  8
_U+30EC_U+30A4_U+30E4_U+30FC 1
370
     0
100
AcDbSpline
210
0.0
220
0.0
230
1.0
 70
    11
 71
     3
 72
    29
 73
    25
 74
     0
 42
0.0000000001
 43
0.0000000001
 12
1.0
 22
0.0
 32
0.0
 13
1.0
 23
0.0
 33
0.0
 40
0.0
 40
0.0
 40
0.0
 40
0.0
 40
1.0
 40
1.0
 40
1.0
 40
2.0
 40
2.0
 40
2.0
 40
3.0
 40
3.0
 40
3.0
 40
4.0
 40
4.0
 40
4.0
 40
5.0
 40
5.0
 40
5.0
 40
6.0
 40
6.0
 40
6.0
 40
7.0
 40
7.0
 40
7.0
 40
8.0
 40
8.0
 40
8.0
 40
8.0
 10
106.8902886017497
 20
-120.0285047442984
 30
0.0
 10
107.0997504072528
 20
-120.1366807425353
 30
0.0
 10
107.1186984324217
 20
-120.3099690454434
 30
0.0
 10
107.1186984324217
 20
-120.4264132728448
 30
0.0
 10
107.1186984324217
 20
-120.587299232006
 30
0.0
 10
107.0721896433708
 20
-120.7288926564497
 30
0.0
 10
106.8902886017497
 20
-120.8239772918426
 30
0.0
 10
106.695640706833
 20
-120.9276746659486
 30
0.0
 10
106.4589626469964
 20
-120.946967200666
 30
0.0
 10
106.2960096305441
 20
-120.946967200666
 30
0.0
 10
106.1520046392606
 20
-120.946967200666
 30
0.0
 10
105.9001681592889
 20
-120.9297417232398
 30
0.0
 10
105.7013861497899
 20
-120.8239772918426
 30
0.0
 10
105.4984700257087
 20
-120.7161458031543
 30
0.0
 10
105.475043376409
 20
-120.5552598439931
 30
0.0
 10
105.475043376409
 20
-120.4264132728448
 30
0.0
 10
105.475043376409
 20
-120.2675943709748
 30
0.0
 10
105.5194851081688
 20
-120.1239338892399
 30
0.0
 10
105.7013861497899
 20
-120.0285047442984
 30
0.0
 10
105.8939669874154
 20
-119.9292859943232
 30
0.0
 10
106.1223768180875
 20
-119.9058593450235
 30
0.0
 10
106.2960096305441
 20
-119.9058593450235
 30
0.0
 10
106.467230876161
 20
-119.9058593450235
 30
0.0
 10
106.6977077641242
 20
-119.9272189370321
 30
0.0
 10
106.8902886017497
 20
-120.0285047442984
 30
0.0
  0
SPLINE
  5
AB
330
A6
100
AcDbEntity
  8
_U+30EC_U+30A4_U+30E4_U+30FC 1
370
     0
100
AcDbSpline
210
0.0
220
0.0
230
1.0
 70
    11
 71
     3
 72
    17
 73
    13
 74
     0
 42
0.0000000001
 43
0.0000000001
 12
1.0
 22
0.0
 32
0.0
 13
1.0
 23
0.0
 33
0.0
 40
0.0
 40
0.0
 40
0.0
 40
0.0
 40
1.0
 40
1.0
 40
1.0
 40
2.0
 40
2.0
 40
2.0
 40
3.0
 40
3.0
 40
3.0
 40
4.0
 40
4.0
 40
4.0
 40
4.0
 10
105.6676242140345
 20
-120.4264132728448
 30
0.0
 10
105.6676242140345
 20
-120.6761826955254
 30
0.0
 10
105.9511555724706
 20
-120.7226914845763
 30
0.0
 10
106.2960096305441
 20
-120.7226914845763
 30
0.0
 10
106.6153699820267
 20
-120.7226914845763
 30
0.0
 10
106.9240505375051
 20
-120.6865179819812
 30
0.0
 10
106.9240505375051
 20
-120.4264132728448
 30
0.0
 10
106.9240505375051
 20
-120.1787109074553
 30
0.0
 10
106.6429307459087
 20
-120.1301350611133
 30
0.0
 10
106.2960096305441
 20
-120.1301350611133
 30
0.0
 10
105.9763047695129
 20
-120.1301350611133
 30
0.0
 10
105.6676242140345
 20
-120.1683756209996
 30
0.0
 10
105.6676242140345
 20
-120.4264132728448
 30
0.0
  0
HATCH
  5
AC
330
A6
100
AcDbEntity
  8
_U+30EC_U+30A4_U+30E4_U+30FC 1
 62
   179
420
  2234388
100
AcDbHatch
 10
0.0
 20
0.0
 30
0.0
210
0.0
220
0.0
230
1.0
  2
SOLID
 70
     1
 71
     0
 91
        2
 92
        1
 93
        1
 72
     4
 94
        3
 73
     0
 74
     1
 95
       29
 96
       25
 40
0.0
 40
0.0
 40
0.0
 40
0.0
 40
1.0
 40
1.0
 40
1.0
 40
2.0
 40
2.0
 40
2.0
 40
3.0
 40
3.0
 40
3.0
 40
4.0
 40
4.0
 40
4.0
 40
5.0
 40
5.0
 40
5.0
 40
6.0
 40
6.0
 40
6.0
 40
7.0
 40
7.0
 40
7.0
 40
8.0
 40
8.0
 40
8.0
 40
8.0
 10
106.8902886017497
 20
-120.0285047442984
 10
107.0997504072528
 20
-120.1366807425353
 10
107.1186984324217
 20
-120.3099690454434
 10
107.1186984324217
 20
-120.4264132728448
 10
107.1186984324217
 20
-120.587299232006
 10
107.0721896433708
 20
-120.7288926564497
 10
106.8902886017497
 20
-120.8239772918426
 10
106.695640706833
 20
-120.9276746659486
 10
106.4589626469964
 20
-120.946967200666
 10
106.2960096305441
 20
-120.946967200666
 10
106.1520046392606
 20
-120.946967200666
 10
105.9001681592889
 20
-120.9297417232398
 10
105.7013861497899
 20
-120.8239772918426
 10
105.4984700257087
 20
-120.7161458031543
 10
105.475043376409
 20
-120.5552598439931
 10
105.475043376409
 20
-120.4264132728448
 10
105.475043376409
 20
-120.2675943709748
 10
105.5194851081688
 20
-120.1239338892399
 10
105.7013861497899
 20
-120.0285047442984
 10
105.8939669874154
 20
-119.9292859943232
 10
106.1223768180875
 20
-119.9058593450235
 10
106.2960096305441
 20
-119.9058593450235
 10
106.467230876161
 20
-119.9058593450235
 10
106.6977077641242
 20
-119.9272189370321
 10
106.8902886017497
 20
-120.0285047442984
 97
        0
 97
        0
 92
        1
 93
        1
 72
     4
 94
        3
 73
     0
 74
     1
 95
       17
 96
       13
 40
0.0
 40
0.0
 40
0.0
 40
0.0
 40
1.0
 40
1.0
 40
1.0
 40
2.0
 40
2.0
 40
2.0
 40
3.0
 40
3.0
 40
3.0
 40
4.0
 40
4.0
 40
4.0
 40
4.0
 10
105.6676242140345
 20
-120.4264132728448
 10
105.6676242140345
 20
-120.6761826955254
 10
105.9511555724706
 20
-120.7226914845763
 10
106.2960096305441
 20
-120.7226914845763
 10
106.6153699820267
 20
-120.7226914845763
 10
106.9240505375051
 20
-120.6865179819812
 10
106.9240505375051
 20
-120.4264132728448
 10
106.9240505375051
 20
-120.1787109074553
 10
106.6429307459087
 20
-120.1301350611133
 10
106.2960096305441
 20
-120.1301350611133
 10
105.9763047695129
 20
-120.1301350611133
 10
105.6676242140345
 20
-120.1683756209996
 10
105.6676242140345
 20
-120.4264132728448
 97
        0
 97
        0
 75
     2
 76
     1
 98
        0
  0
POLYLINE
  5
AD
330
A6
100
AcDbEntity
  8
_U+30EC_U+30A4_U+30E4_U+30FC 1
370
     0
100
AcDb2dPolyline
 66
     1
 10
0.0
 20
0.0
 30
0.0
  0
VERTEX
  5
AE
330
AD
100
AcDbEntity
  8
_U+30EC_U+30A4_U+30E4_U+30FC 1
370
     0
100
AcDbVertex
100
AcDb2dVertex
 10
107.0680555287885
 20
-119.6895073485499
 30
0.0
  0
VERTEX
  5
AF
330
AD
100
AcDbEntity
  8
_U+30EC_U+30A4_U+30E4_U+30FC 1
370
     0
100
AcDbVertex
100
AcDb2dVertex
 10
106.8162190488168
 20
-119.6895073485499
 30
0.0
  0
VERTEX
  5
B0
330
AD
100
AcDbEntity
  8
_U+30EC_U+30A4_U+30E4_U+30FC 1
370
     0
100
AcDbVertex
100
AcDb2dVertex
 10
106.8162190488168
 20
-119.4376708685781
 30
0.0
  0
VERTEX
  5
B1
330
AD
100
AcDbEntity
  8
_U+30EC_U+30A4_U+30E4_U+30FC 1
370
     0
100
AcDbVertex
100
AcDb2dVertex
 10
107.0680555287885
 20
-119.4376708685781
 30
0.0
  0
VERTEX
  5
B2
330
AD
100
AcDbEntity
  8
_U+30EC_U+30A4_U+30E4_U+30FC 1
370
     0
100
AcDbVertex
100
AcDb2dVertex
 10
107.0680555287885
 20
-119.6895073485499
 30
0.0
  0
SEQEND
  5
B3
330
AD
100
AcDbEntity
  8
_U+30EC_U+30A4_U+30E4_U+30FC 1
370
     0
  0
HATCH
  5
B4
330
A6
100
AcDbEntity
  8
_U+30EC_U+30A4_U+30E4_U+30FC 1
 62
   179
420
  2234388
100
AcDbHatch
 10
0.0
 20
0.0
 30
0.0
210
0.0
220
0.0
230
1.0
  2
SOLID
 70
     1
 71
     0
 91
        1
 92
        1
 93
        4
 72
     1
 10
107.0680555287885
 20
-119.6895073485499
 11
106.8162190488168
 21
-119.6895073485499
 72
     1
 10
106.8162190488168
 20
-119.6895073485499
 11
106.8162190488168
 21
-119.4376708685781
 72
     1
 10
106.8162190488168
 20
-119.4376708685781
 11
107.0680555287885
 21
-119.4376708685781
 72
     1
 10
107.0680555287885
 20
-119.4376708685781
 11
107.0680555287885
 21
-119.6895073485499
 97
        0
 75
     2
 76
     1
 98
        0
  0
SPLINE
  5
B5
330
A6
100
AcDbEntity
  8
_U+30EC_U+30A4_U+30E4_U+30FC 1
370
     0
100
AcDbSpline
210
0.0
220
0.0
230
1.0
 70
    11
 71
     3
 72
    29
 73
    25
 74
     0
 42
0.0000000001
 43
0.0000000001
 12
1.0
 22
0.0
 32
0.0
 13
1.0
 23
0.0
 33
0.0
 40
0.0
 40
0.0
 40
0.0
 40
0.0
 40
1.0
 40
1.0
 40
1.0
 40
2.0
 40
2.0
 40
2.0
 40
3.0
 40
3.0
 40
3.0
 40
4.0
 40
4.0
 40
4.0
 40
5.0
 40
5.0
 40
5.0
 40
6.0
 40
6.0
 40
6.0
 40
7.0
 40
7.0
 40
7.0
 40
8.0
 40
8.0
 40
8.0
 40
8.0
 10
107.1186984324217
 20
-118.7014539633802
 30
0.0
 10
107.1186984324217
 20
-118.9681043539385
 30
0.0
 10
106.9812391225603
 20
-119.2216633816529
 30
0.0
 10
106.6322509499044
 20
-119.2216633816529
 30
0.0
 10
106.3762803553504
 20
-119.2216633816529
 30
0.0
 10
106.2811957199575
 20
-119.0800699572092
 30
0.0
 10
106.21987302032
 20
-118.974305525812
 30
0.0
 10
106.1606173779737
 20
-119.099017982378
 30
0.0
 10
106.0462402078634
 20
-119.1751545926021
 30
0.0
 10
105.8853542487023
 20
-119.1751545926021
 30
0.0
 10
105.6104356289793
 20
-119.1751545926021
 30
0.0
 10
105.475043376409
 20
-118.9763725831031
 30
0.0
 10
105.475043376409
 20
-118.7014539633802
 30
0.0
 10
105.475043376409
 20
-118.4179226049441
 30
0.0
 10
105.6190483676925
 20
-118.2274088246098
 30
0.0
 10
105.8853542487023
 20
-118.2274088246098
 30
0.0
 10
106.0462402078634
 20
-118.2274088246098
 30
0.0
 10
106.1606173779737
 20
-118.3059570016735
 30
0.0
 10
106.21987302032
 20
-118.4306694582396
 30
0.0
 10
106.2705159239532
 20
-118.3417859947201
 30
0.0
 10
106.3656005593461
 20
-118.1829670928501
 30
0.0
 10
106.6281168353221
 20
-118.1829670928501
 30
0.0
 10
107.0025987145688
 20
-118.1829670928501
 30
0.0
 10
107.1186984324217
 20
-118.4623643367039
 30
0.0
 10
107.1186984324217
 20
-118.7014539633802
 30
0.0
  0
SPLINE
  5
B6
330
A6
100
AcDbEntity
  8
_U+30EC_U+30A4_U+30E4_U+30FC 1
370
     0
100
AcDbSpline
210
0.0
220
0.0
230
1.0
 70
    11
 71
     3
 72
    17
 73
    13
 74
     0
 42
0.0000000001
 43
0.0000000001
 12
1.0
 22
0.0
 32
0.0
 13
1.0
 23
0.0
 33
0.0
 40
0.0
 40
0.0
 40
0.0
 40
0.0
 40
1.0
 40
1.0
 40
1.0
 40
2.0
 40
2.0
 40
2.0
 40
3.0
 40
3.0
 40
3.0
 40
4.0
 40
4.0
 40
4.0
 40
4.0
 10
105.6676242140345
 20
-118.7014539633802
 30
0.0
 10
105.6676242140345
 20
-118.8664740371237
 30
0.0
 10
105.7627088494274
 20
-118.9508788765123
 30
0.0
 10
105.8981011019977
 20
-118.9508788765123
 30
0.0
 10
106.0207465012726
 20
-118.9508788765123
 30
0.0
 10
106.1392577859652
 20
-118.8792208904191
 30
0.0
 10
106.1392577859652
 20
-118.7014539633802
 30
0.0
 10
106.1392577859652
 20
-118.5236870363413
 30
0.0
 10
106.0207465012726
 20
-118.4516845406996
 30
0.0
 10
105.8981011019977
 20
-118.4516845406996
 30
0.0
 10
105.7627088494274
 20
-118.4516845406996
 30
0.0
 10
105.6676242140345
 20
-118.5385009469279
 30
0.0
 10
105.6676242140345
 20
-118.7014539633802
 30
0.0
  0
SPLINE
  5
B7
330
A6
100
AcDbEntity
  8
_U+30EC_U+30A4_U+30E4_U+30FC 1
370
     0
100
AcDbSpline
210
0.0
220
0.0
230
1.0
 70
    11
 71
     3
 72
    17
 73
    13
 74
     0
 42
0.0000000001
 43
0.0000000001
 12
1.0
 22
0.0
 32
0.0
 13
1.0
 23
0.0
 33
0.0
 40
0.0
 40
0.0
 40
0.0
 40
0.0
 40
1.0
 40
1.0
 40
1.0
 40
2.0
 40
2.0
 40
2.0
 40
3.0
 40
3.0
 40
3.0
 40
4.0
 40
4.0
 40
4.0
 40
4.0
 10
106.3277045090084
 20
-118.7014539633802
 30
0.0
 10
106.3277045090084
 20
-118.8451144451151
 30
0.0
 10
106.4145209152367
 20
-118.9977321751117
 30
0.0
 10
106.6174370393179
 20
-118.9977321751117
 30
0.0
 10
106.8227647302388
 20
-118.9977321751117
 30
0.0
 10
106.9240505375051
 20
-118.870608151706
 30
0.0
 10
106.9240505375051
 20
-118.7014539633802
 30
0.0
 10
106.9240505375051
 20
-118.5154188071767
 30
0.0
 10
106.8014051382302
 20
-118.4051757516487
 30
0.0
 10
106.6236382111913
 20
-118.4051757516487
 30
0.0
 10
106.4017740619412
 20
-118.4051757516487
 30
0.0
 10
106.3277045090084
 20
-118.568128768101
 30
0.0
 10
106.3277045090084
 20
-118.7014539633802
 30
0.0
  0
HATCH
  5
B8
330
A6
100
AcDbEntity
  8
_U+30EC_U+30A4_U+30E4_U+30FC 1
 62
   179
420
  2234388
100
AcDbHatch
 10
0.0
 20
0.0
 30
0.0
210
0.0
220
0.0
230
1.0
  2
SOLID
 70
     1
 71
     0
 91
        3
 92
        1
 93
        1
 72
     4
 94
        3
 73
     0
 74
     1
 95
       29
 96
       25
 40
0.0
 40
0.0
 40
0.0
 40
0.0
 40
1.0
 40
1.0
 40
1.0
 40
2.0
 40
2.0
 40
2.0
 40
3.0
 40
3.0
 40
3.0
 40
4.0
 40
4.0
 40
4.0
 40
5.0
 40
5.0
 40
5.0
 40
6.0
 40
6.0
 40
6.0
 40
7.0
 40
7.0
 40
7.0
 40
8.0
 40
8.0
 40
8.0
 40
8.0
 10
107.1186984324217
 20
-118.7014539633802
 10
107.1186984324217
 20
-118.9681043539385
 10
106.9812391225603
 20
-119.2216633816529
 10
106.6322509499044
 20
-119.2216633816529
 10
106.3762803553504
 20
-119.2216633816529
 10
106.2811957199575
 20
-119.0800699572092
 10
106.21987302032
 20
-118.974305525812
 10
106.1606173779737
 20
-119.099017982378
 10
106.0462402078634
 20
-119.1751545926021
 10
105.8853542487023
 20
-119.1751545926021
 10
105.6104356289793
 20
-119.1751545926021
 10
105.475043376409
 20
-118.9763725831031
 10
105.475043376409
 20
-118.7014539633802
 10
105.475043376409
 20
-118.4179226049441
 10
105.6190483676925
 20
-118.2274088246098
 10
105.8853542487023
 20
-118.2274088246098
 10
106.0462402078634
 20
-118.2274088246098
 10
106.1606173779737
 20
-118.3059570016735
 10
106.21987302032
 20
-118.4306694582396
 10
106.2705159239532
 20
-118.3417859947201
 10
106.3656005593461
 20
-118.1829670928501
 10
106.6281168353221
 20
-118.1829670928501
 10
107.0025987145688
 20
-118.1829670928501
 10
107.1186984324217
 20
-118.4623643367039
 10
107.1186984324217
 20
-118.7014539633802
 97
        0
 97
        0
 92
        1
 93
        1
 72
     4
 94
        3
 73
     0
 74
     1
 95
       17
 96
       13
 40
0.0
 40
0.0
 40
0.0
 40
0.0
 40
1.0
 40
1.0
 40
1.0
 40
2.0
 40
2.0
 40
2.0
 40
3.0
 40
3.0
 40
3.0
 40
4.0
 40
4.0
 40
4.0
 40
4.0
 10
105.6676242140345
 20
-118.7014539633802
 10
105.6676242140345
 20
-118.8664740371237
 10
105.7627088494274
 20
-118.9508788765123
 10
105.8981011019977
 20
-118.9508788765123
 10
106.0207465012726
 20
-118.9508788765123
 10
106.1392577859652
 20
-118.8792208904191
 10
106.1392577859652
 20
-118.7014539633802
 10
106.1392577859652
 20
-118.5236870363413
 10
106.0207465012726
 20
-118.4516845406996
 10
105.8981011019977
 20
-118.4516845406996
 10
105.7627088494274
 20
-118.4516845406996
 10
105.6676242140345
 20
-118.5385009469279
 10
105.6676242140345
 20
-118.7014539633802
 97
        0
 97
        0
 92
        1
 93
        1
 72
     4
 94
        3
 73
     0
 74
     1
 95
       17
 96
       13
 40
0.0
 40
0.0
 40
0.0
 40
0.0
 40
1.0
 40
1.0
 40
1.0
 40
2.0
 40
2.0
 40
2.0
 40
3.0
 40
3.0
 40
3.0
 40
4.0
 40
4.0
 40
4.0
 40
4.0
 10
106.3277045090084
 20
-118.7014539633802
 10
106.3277045090084
 20
-118.8451144451151
 10
106.4145209152367
 20
-118.9977321751117
 10
106.6174370393179
 20
-118.9977321751117
 10
106.8227647302388
 20
-118.9977321751117
 10
106.9240505375051
 20
-118.870608151706
 10
106.9240505375051
 20
-118.7014539633802
 10
106.9240505375051
 20
-118.5154188071767
 10
106.8014051382302
 20
-118.4051757516487
 10
106.6236382111913
 20
-118.4051757516487
 10
106.4017740619412
 20
-118.4051757516487
 10
106.3277045090084
 20
-118.568128768101
 10
106.3277045090084
 20
-118.7014539633802
 97
        0
 97
        0
 75
     2
 76
     1
 98
        0
  0
ENDBLK
  5
A9
330
A6
100
AcDbEntity
  8
0
100
AcDbBlockEnd
  0
BLOCK
  5
C3
330
C1
100
AcDbEntity
  8
0
100
AcDbBlockBegin
  2
block 4
 70
     0
 10
0.0
 20
0.0
 30
0.0
  3
block 4
  1

  0
SPLINE
  5
C5
330
C1
100
AcDbEntity
  8
_U+30EC_U+30A4_U+30E4_U+30FC 1
370
     0
100
AcDbSpline
210
0.0
220
0.0
230
1.0
 70
    11
 71
     3
 72
    62
 73
    58
 74
     0
 42
0.0000000001
 43
0.0000000001
 12
1.0
 22
0.0
 32
0.0
 13
1.0
 23
0.0
 33
0.0
 40
0.0
 40
0.0
 40
0.0
 40
0.0
 40
1.0
 40
1.0
 40
1.0
 40
2.0
 40
2.0
 40
2.0
 40
3.0
 40
3.0
 40
3.0
 40
4.0
 40
4.0
 40
4.0
 40
5.0
 40
5.0
 40
5.0
 40
6.0
 40
6.0
 40
6.0
 40
7.0
 40
7.0
 40
7.0
 40
8.0
 40
8.0
 40
8.0
 40
9.0
 40
9.0
 40
9.0
 40
10.0
 40
10.0
 40
10.0
 40
11.0
 40
11.0
 40
11.0
 40
12.0
 40
12.0
 40
12.0
 40
13.0
 40
13.0
 40
13.0
 40
14.0
 40
14.0
 40
14.0
 40
15.0
 40
15.0
 40
15.0
 40
16.0
 40
16.0
 40
16.0
 40
17.0
 40
17.0
 40
17.0
 40
18.0
 40
18.0
 40
18.0
 40
19.0
 40
19.0
 40
19.0
 40
19.0
 10
107.1186984324217
 20
-136.8136989675327
 30
0.0
 10
107.1186984324217
 20
-136.9091281124741
 30
0.0
 10
107.0976833499617
 20
-137.1268581471419
 30
0.0
 10
106.9116481937582
 20
-137.2519151132565
 30
0.0
 10
106.7993380809391
 20
-137.3256401566408
 30
0.0
 10
106.7001193309639
 20
-137.3301187807716
 30
0.0
 10
106.6153699820267
 20
-137.334252895354
 30
0.0
 10
106.6153699820267
 20
-137.334252895354
 30
0.0
 10
106.6153699820267
 20
-137.1141112938465
 30
0.0
 10
106.6153699820267
 20
-137.1141112938465
 30
0.0
 10
106.6894395349596
 20
-137.1120442365553
 30
0.0
 10
106.9240505375051
 20
-137.1017089500996
 30
0.0
 10
106.9240505375051
 20
-136.8181775916635
 30
0.0
 10
106.9240505375051
 20
-136.6807182818021
 30
0.0
 10
106.8544596087031
 20
-136.5281005518055
 30
0.0
 10
106.626049778031
 20
-136.5281005518055
 30
0.0
 10
106.5096055506295
 20
-136.5281005518055
 30
0.0
 10
106.4610297042875
 20
-136.5663411116917
 30
0.0
 10
106.4293348258232
 20
-136.5980359901561
 30
0.0
 10
106.3552652728903
 20
-136.6721055430889
 30
0.0
 10
106.3425184195949
 20
-136.7885497704904
 30
0.0
 10
106.3425184195949
 20
-136.8433267887058
 30
0.0
 10
106.3425184195949
 20
-136.8626193234232
 30
0.0
 10
106.3445854768861
 20
-136.8984483164698
 30
0.0
 10
106.3487195914684
 20
-136.9260090803518
 30
0.0
 10
106.3487195914684
 20
-136.9260090803518
 30
0.0
 10
106.1540716965518
 20
-136.9260090803518
 30
0.0
 10
106.1540716965518
 20
-136.9260090803518
 30
0.0
 10
106.1606173779737
 20
-136.8877685204656
 30
0.0
 10
106.1626844352649
 20
-136.8457383555455
 30
0.0
 10
106.1626844352649
 20
-136.8391926741236
 30
0.0
 10
106.1626844352649
 20
-136.7737358599038
 30
0.0
 10
106.1413248432563
 20
-136.5749538504049
 30
0.0
 10
105.9046467834197
 20
-136.5749538504049
 30
0.0
 10
105.7268798563808
 20
-136.5749538504049
 30
0.0
 10
105.6717583286168
 20
-136.7058674788444
 30
0.0
 10
105.6717583286168
 20
-136.8161105343724
 30
0.0
 10
105.6717583286168
 20
-137.080349358091
 30
0.0
 10
105.9046467834197
 20
-137.0889620968042
 30
0.0
 10
105.9763047695129
 20
-137.0930962113865
 30
0.0
 10
105.9763047695129
 20
-137.0930962113865
 30
0.0
 10
105.9763047695129
 20
-137.2963568450162
 30
0.0
 10
105.9763047695129
 20
-137.2963568450162
 30
0.0
 10
105.8515923129468
 20
-137.2877441063031
 30
0.0
 10
105.475043376409
 20
-137.2601833424211
 30
0.0
 10
105.475043376409
 20
-136.8033636810769
 30
0.0
 10
105.475043376409
 20
-136.5790879649872
 30
0.0
 10
105.6021673998147
 20
-136.3379312810197
 30
0.0
 10
105.8981011019977
 20
-136.3379312810197
 30
0.0
 10
106.0844807677497
 20
-136.3379312810197
 30
0.0
 10
106.1668185498472
 20
-136.4330159164126
 30
0.0
 10
106.2281412494846
 20
-136.5325791759363
 30
0.0
 10
106.2557020133666
 20
-136.4712564762989
 30
0.0
 10
106.335972738173
 20
-136.2893554346777
 30
0.0
 10
106.6133029247356
 20
-136.2893554346777
 30
0.0
 10
106.9516113013871
 20
-136.2893554346777
 30
0.0
 10
107.1186984324217
 20
-136.5367132905186
 30
0.0
 10
107.1186984324217
 20
-136.8136989675327
 30
0.0
  0
HATCH
  5
C6
330
C1
100
AcDbEntity
  8
_U+30EC_U+30A4_U+30E4_U+30FC 1
 62
   179
420
  2234388
100
AcDbHatch
 10
0.0
 20
0.0
 30
0.0
210
0.0
220
0.0
230
1.0
  2
SOLID
 70
     1
 71
     0
 91
        1
 92
        1
 93
        1
 72
     4
 94
        3
 73
     0
 74
     1
 95
       62
 96
       58
 40
0.0
 40
0.0
 40
0.0
 40
0.0
 40
1.0
 40
1.0
 40
1.0
 40
2.0
 40
2.0
 40
2.0
 40
3.0
 40
3.0
 40
3.0
 40
4.0
 40
4.0
 40
4.0
 40
5.0
 40
5.0
 40
5.0
 40
6.0
 40
6.0
 40
6.0
 40
7.0
 40
7.0
 40
7.0
 40
8.0
 40
8.0
 40
8.0
 40
9.0
 40
9.0
 40
9.0
 40
10.0
 40
10.0
 40
10.0
 40
11.0
 40
11.0
 40
11.0
 40
12.0
 40
12.0
 40
12.0
 40
13.0
 40
13.0
 40
13.0
 40
14.0
 40
14.0
 40
14.0
 40
15.0
 40
15.0
 40
15.0
 40
16.0
 40
16.0
 40
16.0
 40
17.0
 40
17.0
 40
17.0
 40
18.0
 40
18.0
 40
18.0
 40
19.0
 40
19.0
 40
19.0
 40
19.0
 10
107.1186984324217
 20
-136.8136989675327
 10
107.1186984324217
 20
-136.9091281124741
 10
107.0976833499617
 20
-137.1268581471419
 10
106.9116481937582
 20
-137.2519151132565
 10
106.7993380809391
 20
-137.3256401566408
 10
106.7001193309639
 20
-137.3301187807716
 10
106.6153699820267
 20
-137.334252895354
 10
106.6153699820267
 20
-137.334252895354
 10
106.6153699820267
 20
-137.1141112938465
 10
106.6153699820267
 20
-137.1141112938465
 10
106.6894395349596
 20
-137.1120442365553
 10
106.9240505375051
 20
-137.1017089500996
 10
106.9240505375051
 20
-136.8181775916635
 10
106.9240505375051
 20
-136.6807182818021
 10
106.8544596087031
 20
-136.5281005518055
 10
106.626049778031
 20
-136.5281005518055
 10
106.5096055506295
 20
-136.5281005518055
 10
106.4610297042875
 20
-136.5663411116917
 10
106.4293348258232
 20
-136.5980359901561
 10
106.3552652728903
 20
-136.6721055430889
 10
106.3425184195949
 20
-136.7885497704904
 10
106.3425184195949
 20
-136.8433267887058
 10
106.3425184195949
 20
-136.8626193234232
 10
106.3445854768861
 20
-136.8984483164698
 10
106.3487195914684
 20
-136.9260090803518
 10
106.3487195914684
 20
-136.9260090803518
 10
106.1540716965518
 20
-136.9260090803518
 10
106.1540716965518
 20
-136.9260090803518
 10
106.1606173779737
 20
-136.8877685204656
 10
106.1626844352649
 20
-136.8457383555455
 10
106.1626844352649
 20
-136.8391926741236
 10
106.1626844352649
 20
-136.7737358599038
 10
106.1413248432563
 20
-136.5749538504049
 10
105.9046467834197
 20
-136.5749538504049
 10
105.7268798563808
 20
-136.5749538504049
 10
105.6717583286168
 20
-136.7058674788444
 10
105.6717583286168
 20
-136.8161105343724
 10
105.6717583286168
 20
-137.080349358091
 10
105.9046467834197
 20
-137.0889620968042
 10
105.9763047695129
 20
-137.0930962113865
 10
105.9763047695129
 20
-137.0930962113865
 10
105.9763047695129
 20
-137.2963568450162
 10
105.9763047695129
 20
-137.2963568450162
 10
105.8515923129468
 20
-137.2877441063031
 10
105.475043376409
 20
-137.2601833424211
 10
105.475043376409
 20
-136.8033636810769
 10
105.475043376409
 20
-136.5790879649872
 10
105.6021673998147
 20
-136.3379312810197
 10
105.8981011019977
 20
-136.3379312810197
 10
106.0844807677497
 20
-136.3379312810197
 10
106.1668185498472
 20
-136.4330159164126
 10
106.2281412494846
 20
-136.5325791759363
 10
106.2557020133666
 20
-136.4712564762989
 10
106.335972738173
 20
-136.2893554346777
 10
106.6133029247356
 20
-136.2893554346777
 10
106.9516113013871
 20
-136.2893554346777
 10
107.1186984324217
 20
-136.5367132905186
 10
107.1186984324217
 20
-136.8136989675327
 97
        0
 97
        0
 75
     2
 76
     1
 98
        0
  0
ENDBLK
  5
C4
330
C1
100
AcDbEntity
  8
0
100
AcDbBlockEnd
  0
BLOCK
  5
D5
330
D3
100
AcDbEntity
  8
0
100
AcDbBlockBegin
  2
block 5
 70
     0
 10
0.0
 20
0.0
 30
0.0
  3
block 5
  1

  0
SPLINE
  5
D7
330
D3
100
AcDbEntity
  8
_U+30EC_U+30A4_U+30E4_U+30FC 1
370
     0
100
AcDbSpline
210
0.0
220
0.0
230
1.0
 70
    11
 71
     3
 72
    26
 73
    22
 74
     0
 42
0.0000000001
 43
0.0000000001
 12
1.0
 22
0.0
 32
0.0
 13
1.0
 23
0.0
 33
0.0
 40
0.0
 40
0.0
 40
0.0
 40
0.0
 40
1.0
 40
1.0
 40
1.0
 40
2.0
 40
2.0
 40
2.0
 40
3.0
 40
3.0
 40
3.0
 40
4.0
 40
4.0
 40
4.0
 40
5.0
 40
5.0
 40
5.0
 40
6.0
 40
6.0
 40
6.0
 40
7.0
 40
7.0
 40
7.0
 40
7.0
 10
89.07656112139406
 20
-141.6568142006969
 30
0.0
 10
89.07656112139406
 20
-141.6568142006969
 30
0.0
 10
89.07656112139406
 20
-140.5523165881258
 30
0.0
 10
89.07656112139406
 20
-140.5523165881258
 30
0.0
 10
89.07656112139406
 20
-140.5523165881258
 30
0.0
 10
88.74652097390712
 20
-140.5523165881258
 30
0.0
 10
88.74652097390712
 20
-140.5523165881258
 30
0.0
 10
88.74652097390712
 20
-140.5523165881258
 30
0.0
 10
88.74652097390712
 20
-140.4045219918086
 30
0.0
 10
88.74652097390712
 20
-140.4045219918086
 30
0.0
 10
89.07862817868521
 20
-140.389708081222
 30
0.0
 10
89.12513696773608
 20
-140.2267550647697
 30
0.0
 10
89.15476478890923
 20
-140.1127224042079
 30
0.0
 10
89.15476478890923
 20
-140.1127224042079
 30
0.0
 10
89.30083683748383
 20
-140.1127224042079
 30
0.0
 10
89.30083683748383
 20
-140.1127224042079
 30
0.0
 10
89.30083683748383
 20
-140.1127224042079
 30
0.0
 10
89.30083683748383
 20
-141.6568142006969
 30
0.0
 10
89.30083683748383
 20
-141.6568142006969
 30
0.0
 10
89.30083683748383
 20
-141.6568142006969
 30
0.0
 10
89.07656112139406
 20
-141.6568142006969
 30
0.0
 10
89.07656112139406
 20
-141.6568142006969
 30
0.0
  0
HATCH
  5
D8
330
D3
100
AcDbEntity
  8
_U+30EC_U+30A4_U+30E4_U+30FC 1
 62
   179
420
  2234388
100
AcDbHatch
 10
0.0
 20
0.0
 30
0.0
210
0.0
220
0.0
230
1.0
  2
SOLID
 70
     1
 71
     0
 91
        1
 92
        1
 93
        1
 72
     4
 94
        3
 73
     0
 74
     1
 95
       26
 96
       22
 40
0.0
 40
0.0
 40
0.0
 40
0.0
 40
1.0
 40
1.0
 40
1.0
 40
2.0
 40
2.0
 40
2.0
 40
3.0
 40
3.0
 40
3.0
 40
4.0
 40
4.0
 40
4.0
 40
5.0
 40
5.0
 40
5.0
 40
6.0
 40
6.0
 40
6.0
 40
7.0
 40
7.0
 40
7.0
 40
7.0
 10
89.07656112139406
 20
-141.6568142006969
 10
89.07656112139406
 20
-141.6568142006969
 10
89.07656112139406
 20
-140.5523165881258
 10
89.07656112139406
 20
-140.5523165881258
 10
89.07656112139406
 20
-140.5523165881258
 10
88.74652097390712
 20
-140.5523165881258
 10
88.74652097390712
 20
-140.5523165881258
 10
88.74652097390712
 20
-140.5523165881258
 10
88.74652097390712
 20
-140.4045219918086
 10
88.74652097390712
 20
-140.4045219918086
 10
89.07862817868521
 20
-140.389708081222
 10
89.12513696773608
 20
-140.2267550647697
 10
89.15476478890923
 20
-140.1127224042079
 10
89.15476478890923
 20
-140.1127224042079
 10
89.30083683748383
 20
-140.1127224042079
 10
89.30083683748383
 20
-140.1127224042079
 10
89.30083683748383
 20
-140.1127224042079
 10
89.30083683748383
 20
-141.6568142006969
 10
89.30083683748383
 20
-141.6568142006969
 10
89.30083683748383
 20
-141.6568142006969
 10
89.07656112139406
 20
-141.6568142006969
 10
89.07656112139406
 20
-141.6568142006969
 97
        0
 97
        0
 75
     2
 76
     1
 98
        0
  0
SPLINE
  5
D9
330
D3
100
AcDbEntity
  8
_U+30EC_U+30A4_U+30E4_U+30FC 1
370
     0
100
AcDbSpline
210
0.0
220
0.0
230
1.0
 70
    11
 71
     3
 72
    29
 73
    25
 74
     0
 42
0.0000000001
 43
0.0000000001
 12
1.0
 22
0.0
 32
0.0
 13
1.0
 23
0.0
 33
0.0
 40
0.0
 40
0.0
 40
0.0
 40
0.0
 40
1.0
 40
1.0
 40
1.0
 40
2.0
 40
2.0
 40
2.0
 40
3.0
 40
3.0
 40
3.0
 40
4.0
 40
4.0
 40
4.0
 40
5.0
 40
5.0
 40
5.0
 40
6.0
 40
6.0
 40
6.0
 40
7.0
 40
7.0
 40
7.0
 40
8.0
 40
8.0
 40
8.0
 40
8.0
 10
90.69971785926951
 20
-141.479047273658
 30
0.0
 10
90.5918863705812
 20
-141.6885090791612
 30
0.0
 10
90.41842581289887
 20
-141.7078016138786
 30
0.0
 10
90.30198158549743
 20
-141.7078016138786
 30
0.0
 10
90.14126788111052
 20
-141.7078016138786
 30
0.0
 10
89.99950220189248
 20
-141.6609483152792
 30
0.0
 10
89.90424531172533
 20
-141.479047273658
 30
0.0
 10
89.80072019239357
 20
-141.2843993787414
 30
0.0
 10
89.78159991245043
 20
-141.0477213189047
 30
0.0
 10
89.78159991245043
 20
-140.8844237929039
 30
0.0
 10
89.78159991245043
 20
-140.740763311169
 30
0.0
 10
89.79848088032816
 20
-140.4889268311972
 30
0.0
 10
89.90424531172533
 20
-140.2901448216983
 30
0.0
 10
90.01224905518791
 20
-140.0872286976171
 30
0.0
 10
90.17296275957482
 20
-140.0638020483174
 30
0.0
 10
90.30198158549743
 20
-140.0638020483174
 30
0.0
 10
90.46062823259318
 20
-140.0638020483174
 30
0.0
 10
90.60446096910236
 20
-140.1082437800771
 30
0.0
 10
90.69971785926951
 20
-140.2901448216983
 30
0.0
 10
90.79910886401898
 20
-140.4827256593238
 30
0.0
 10
90.82236325854441
 20
-140.7111354899958
 30
0.0
 10
90.82236325854441
 20
-140.8844237929039
 30
0.0
 10
90.82236325854441
 20
-141.0559895480693
 30
0.0
 10
90.80134817608439
 20
-141.2868109455811
 30
0.0
 10
90.69971785926951
 20
-141.479047273658
 30
0.0
  0
SPLINE
  5
DA
330
D3
100
AcDbEntity
  8
_U+30EC_U+30A4_U+30E4_U+30FC 1
370
     0
100
AcDbSpline
210
0.0
220
0.0
230
1.0
 70
    11
 71
     3
 72
    17
 73
    13
 74
     0
 42
0.0000000001
 43
0.0000000001
 12
1.0
 22
0.0
 32
0.0
 13
1.0
 23
0.0
 33
0.0
 40
0.0
 40
0.0
 40
0.0
 40
0.0
 40
1.0
 40
1.0
 40
1.0
 40
2.0
 40
2.0
 40
2.0
 40
3.0
 40
3.0
 40
3.0
 40
4.0
 40
4.0
 40
4.0
 40
4.0
 10
90.30198158549743
 20
-140.2563828859429
 30
0.0
 10
90.05238441759107
 20
-140.2563828859429
 30
0.0
 10
90.0058756285402
 20
-140.5399142443789
 30
0.0
 10
90.0058756285402
 20
-140.8844237929039
 30
0.0
 10
90.0058756285402
 20
-141.2041286539351
 30
0.0
 10
90.04187687636106
 20
-141.5128092094135
 30
0.0
 10
90.30198158549743
 20
-141.5128092094135
 30
0.0
 10
90.54951169611263
 20
-141.5128092094135
 30
0.0
 10
90.5982597972289
 20
-141.2316894178171
 30
0.0
 10
90.5982597972289
 20
-140.8844237929039
 30
0.0
 10
90.5982597972289
 20
-140.5654079509698
 30
0.0
 10
90.5601914921169
 20
-140.2563828859429
 30
0.0
 10
90.30198158549743
 20
-140.2563828859429
 30
0.0
  0
HATCH
  5
DB
330
D3
100
AcDbEntity
  8
_U+30EC_U+30A4_U+30E4_U+30FC 1
 62
   179
420
  2234388
100
AcDbHatch
 10
0.0
 20
0.0
 30
0.0
210
0.0
220
0.0
230
1.0
  2
SOLID
 70
     1
 71
     0
 91
        2
 92
        1
 93
        1
 72
     4
 94
        3
 73
     0
 74
     1
 95
       29
 96
       25
 40
0.0
 40
0.0
 40
0.0
 40
0.0
 40
1.0
 40
1.0
 40
1.0
 40
2.0
 40
2.0
 40
2.0
 40
3.0
 40
3.0
 40
3.0
 40
4.0
 40
4.0
 40
4.0
 40
5.0
 40
5.0
 40
5.0
 40
6.0
 40
6.0
 40
6.0
 40
7.0
 40
7.0
 40
7.0
 40
8.0
 40
8.0
 40
8.0
 40
8.0
 10
90.69971785926951
 20
-141.479047273658
 10
90.5918863705812
 20
-141.6885090791612
 10
90.41842581289887
 20
-141.7078016138786
 10
90.30198158549743
 20
-141.7078016138786
 10
90.14126788111052
 20
-141.7078016138786
 10
89.99950220189248
 20
-141.6609483152792
 10
89.90424531172533
 20
-141.479047273658
 10
89.80072019239357
 20
-141.2843993787414
 10
89.78159991245043
 20
-141.0477213189047
 10
89.78159991245043
 20
-140.8844237929039
 10
89.78159991245043
 20
-140.740763311169
 10
89.79848088032816
 20
-140.4889268311972
 10
89.90424531172533
 20
-140.2901448216983
 10
90.01224905518791
 20
-140.0872286976171
 10
90.17296275957482
 20
-140.0638020483174
 10
90.30198158549743
 20
-140.0638020483174
 10
90.46062823259318
 20
-140.0638020483174
 10
90.60446096910236
 20
-140.1082437800771
 10
90.69971785926951
 20
-140.2901448216983
 10
90.79910886401898
 20
-140.4827256593238
 10
90.82236325854441
 20
-140.7111354899958
 10
90.82236325854441
 20
-140.8844237929039
 10
90.82236325854441
 20
-141.0559895480693
 10
90.80134817608439
 20
-141.2868109455811
 10
90.69971785926951
 20
-141.479047273658
 97
        0
 97
        0
 92
        1
 93
        1
 72
     4
 94
        3
 73
     0
 74
     1
 95
       17
 96
       13
 40
0.0
 40
0.0
 40
0.0
 40
0.0
 40
1.0
 40
1.0
 40
1.0
 40
2.0
 40
2.0
 40
2.0
 40
3.0
 40
3.0
 40
3.0
 40
4.0
 40
4.0
 40
4.0
 40
4.0
 10
90.30198158549743
 20
-140.2563828859429
 10
90.05238441759107
 20
-140.2563828859429
 10
90.0058756285402
 20
-140.5399142443789
 10
90.0058756285402
 20
-140.8844237929039
 10
90.0058756285402
 20
-141.2041286539351
 10
90.04187687636106
 20
-141.5128092094135
 10
90.30198158549743
 20
-141.5128092094135
 10
90.54951169611263
 20
-141.5128092094135
 10
90.5982597972289
 20
-141.2316894178171
 10
90.5982597972289
 20
-140.8844237929039
 10
90.5982597972289
 20
-140.5654079509698
 10
90.5601914921169
 20
-140.2563828859429
 10
90.30198158549743
 20
-140.2563828859429
 97
        0
 97
        0
 75
     2
 76
     1
 98
        0
  0
ENDBLK
  5
D6
330
D3
100
AcDbEntity
  8
0
100
AcDbBlockEnd
  0
BLOCK
  5
E6
330
E4
100
AcDbEntity
  8
0
100
AcDbBlockBegin
  2
block 6
 70
     0
 10
0.0
 20
0.0
 30
0.0
  3
block 6
  1

  0
SPLINE
  5
E8
330
E4
100
AcDbEntity
  8
_U+30EC_U+30A4_U+30E4_U+30FC 1
370
     0
100
AcDbSpline
210
0.0
220
0.0
230
1.0
 70
    11
 71
     3
 72
    26
 73
    22
 74
     0
 42
0.0000000001
 43
0.0000000001
 12
1.0
 22
0.0
 32
0.0
 13
1.0
 23
0.0
 33
0.0
 40
0.0
 40
0.0
 40
0.0
 40
0.0
 40
1.0
 40
1.0
 40
1.0
 40
2.0
 40
2.0
 40
2.0
 40
3.0
 40
3.0
 40
3.0
 40
4.0
 40
4.0
 40
4.0
 40
5.0
 40
5.0
 40
5.0
 40
6.0
 40
6.0
 40
6.0
 40
7.0
 40
7.0
 40
7.0
 40
7.0
 10
78.07654349176559
 20
-141.6568142006969
 30
0.0
 10
78.07654349176559
 20
-141.6568142006969
 30
0.0
 10
78.07654349176559
 20
-140.5523165881258
 30
0.0
 10
78.07654349176559
 20
-140.5523165881258
 30
0.0
 10
78.07654349176559
 20
-140.5523165881258
 30
0.0
 10
77.74650334427865
 20
-140.5523165881258
 30
0.0
 10
77.74650334427865
 20
-140.5523165881258
 30
0.0
 10
77.74650334427865
 20
-140.5523165881258
 30
0.0
 10
77.74650334427865
 20
-140.4045219918086
 30
0.0
 10
77.74650334427865
 20
-140.4045219918086
 30
0.0
 10
78.07861054905673
 20
-140.389708081222
 30
0.0
 10
78.12511933810761
 20
-140.2267550647697
 30
0.0
 10
78.15474715928076
 20
-140.1127224042079
 30
0.0
 10
78.15474715928076
 20
-140.1127224042079
 30
0.0
 10
78.30081920785535
 20
-140.1127224042079
 30
0.0
 10
78.30081920785535
 20
-140.1127224042079
 30
0.0
 10
78.30081920785535
 20
-140.1127224042079
 30
0.0
 10
78.30081920785535
 20
-141.6568142006969
 30
0.0
 10
78.30081920785535
 20
-141.6568142006969
 30
0.0
 10
78.30081920785535
 20
-141.6568142006969
 30
0.0
 10
78.07654349176559
 20
-141.6568142006969
 30
0.0
 10
78.07654349176559
 20
-141.6568142006969
 30
0.0
  0
HATCH
  5
E9
330
E4
100
AcDbEntity
  8
_U+30EC_U+30A4_U+30E4_U+30FC 1
 62
   179
420
  2234388
100
AcDbHatch
 10
0.0
 20
0.0
 30
0.0
210
0.0
220
0.0
230
1.0
  2
SOLID
 70
     1
 71
     0
 91
        1
 92
        1
 93
        1
 72
     4
 94
        3
 73
     0
 74
     1
 95
       26
 96
       22
 40
0.0
 40
0.0
 40
0.0
 40
0.0
 40
1.0
 40
1.0
 40
1.0
 40
2.0
 40
2.0
 40
2.0
 40
3.0
 40
3.0
 40
3.0
 40
4.0
 40
4.0
 40
4.0
 40
5.0
 40
5.0
 40
5.0
 40
6.0
 40
6.0
 40
6.0
 40
7.0
 40
7.0
 40
7.0
 40
7.0
 10
78.07654349176559
 20
-141.6568142006969
 10
78.07654349176559
 20
-141.6568142006969
 10
78.07654349176559
 20
-140.5523165881258
 10
78.07654349176559
 20
-140.5523165881258
 10
78.07654349176559
 20
-140.5523165881258
 10
77.74650334427865
 20
-140.5523165881258
 10
77.74650334427865
 20
-140.5523165881258
 10
77.74650334427865
 20
-140.5523165881258
 10
77.74650334427865
 20
-140.4045219918086
 10
77.74650334427865
 20
-140.4045219918086
 10
78.07861054905673
 20
-140.389708081222
 10
78.12511933810761
 20
-140.2267550647697
 10
78.15474715928076
 20
-140.1127224042079
 10
78.15474715928076
 20
-140.1127224042079
 10
78.30081920785535
 20
-140.1127224042079
 10
78.30081920785535
 20
-140.1127224042079
 10
78.30081920785535
 20
-140.1127224042079
 10
78.30081920785535
 20
-141.6568142006969
 10
78.30081920785535
 20
-141.6568142006969
 10
78.30081920785535
 20
-141.6568142006969
 10
78.07654349176559
 20
-141.6568142006969
 10
78.07654349176559
 20
-141.6568142006969
 97
        0
 97
        0
 75
     2
 76
     1
 98
        0
  0
SPLINE
  5
EA
330
E4
100
AcDbEntity
  8
_U+30EC_U+30A4_U+30E4_U+30FC 1
370
     0
100
AcDbSpline
210
0.0
220
0.0
230
1.0
 70
    11
 71
     3
 72
    44
 73
    40
 74
     0
 42
0.0000000001
 43
0.0000000001
 12
1.0
 22
0.0
 32
0.0
 13
1.0
 23
0.0
 33
0.0
 40
0.0
 40
0.0
 40
0.0
 40
0.0
 40
1.0
 40
1.0
 40
1.0
 40
2.0
 40
2.0
 40
2.0
 40
3.0
 40
3.0
 40
3.0
 40
4.0
 40
4.0
 40
4.0
 40
5.0
 40
5.0
 40
5.0
 40
6.0
 40
6.0
 40
6.0
 40
7.0
 40
7.0
 40
7.0
 40
8.0
 40
8.0
 40
8.0
 40
9.0
 40
9.0
 40
9.0
 40
10.0
 40
10.0
 40
10.0
 40
11.0
 40
11.0
 40
11.0
 40
12.0
 40
12.0
 40
12.0
 40
13.0
 40
13.0
 40
13.0
 40
13.0
 10
79.39515378874496
 20
-141.0752820827867
 30
0.0
 10
79.17725149930291
 20
-141.2337564751082
 30
0.0
 10
79.0840616664269
 20
-141.3078260280411
 30
0.0
 10
79.03548582008489
 20
-141.451486509776
 30
0.0
 10
79.03548582008489
 20
-141.451486509776
 30
0.0
 10
79.81390514497708
 20
-141.451486509776
 30
0.0
 10
79.81390514497708
 20
-141.451486509776
 30
0.0
 10
79.81390514497708
 20
-141.451486509776
 30
0.0
 10
79.81390514497708
 20
-141.6568142006969
 30
0.0
 10
79.81390514497708
 20
-141.6568142006969
 30
0.0
 10
79.81390514497708
 20
-141.6568142006969
 30
0.0
 10
78.78588865217853
 20
-141.6568142006969
 30
0.0
 10
78.78588865217853
 20
-141.6568142006969
 30
0.0
 10
78.81758353064284
 20
-141.299213289328
 30
0.0
 10
78.88304034486258
 20
-141.2210096218128
 30
0.0
 10
79.2682020201135
 20
-140.9226643527902
 30
0.0
 10
79.52417261466758
 20
-140.7238823432913
 30
0.0
 10
79.58962942888732
 20
-140.6563584717804
 30
0.0
 10
79.58962942888732
 20
-140.5185546523704
 30
0.0
 10
79.58962942888732
 20
-140.4000433676778
 30
0.0
 10
79.51779918801986
 20
-140.2691297392383
 30
0.0
 10
79.3210842358121
 20
-140.2691297392383
 30
0.0
 10
79.06080727190147
 20
-140.2691297392383
 30
0.0
 10
79.05236678796261
 20
-140.4996066272015
 30
0.0
 10
79.04806041860604
 20
-140.6160508546029
 30
0.0
 10
79.04806041860604
 20
-140.6160508546029
 30
0.0
 10
78.82395695729055
 20
-140.6160508546029
 30
0.0
 10
78.82395695729055
 20
-140.6160508546029
 30
0.0
 10
78.8323974412294
 20
-140.4889268311972
 30
0.0
 10
78.84290498245942
 20
-140.3769612279266
 30
0.0
 10
78.92334796204
 20
-140.258449943234
 30
0.0
 10
79.03324650801947
 20
-140.0975639840728
 30
0.0
 10
79.21945391899722
 20
-140.0638020483174
 30
0.0
 10
79.33589814639866
 20
-140.0638020483174
 30
0.0
 10
79.61305607818701
 20
-140.0638020483174
 30
0.0
 10
79.8202785716248
 20
-140.2477701472297
 30
0.0
 10
79.8202785716248
 20
-140.5206217096615
 30
0.0
 10
79.8202785716248
 20
-140.7493760498821
 30
0.0
 10
79.70400659899761
 20
-140.8485947998573
 30
0.0
 10
79.39515378874496
 20
-141.0752820827867
 30
0.0
  0
HATCH
  5
EB
330
E4
100
AcDbEntity
  8
_U+30EC_U+30A4_U+30E4_U+30FC 1
 62
   179
420
  2234388
100
AcDbHatch
 10
0.0
 20
0.0
 30
0.0
210
0.0
220
0.0
230
1.0
  2
SOLID
 70
     1
 71
     0
 91
        1
 92
        1
 93
        1
 72
     4
 94
        3
 73
     0
 74
     1
 95
       44
 96
       40
 40
0.0
 40
0.0
 40
0.0
 40
0.0
 40
1.0
 40
1.0
 40
1.0
 40
2.0
 40
2.0
 40
2.0
 40
3.0
 40
3.0
 40
3.0
 40
4.0
 40
4.0
 40
4.0
 40
5.0
 40
5.0
 40
5.0
 40
6.0
 40
6.0
 40
6.0
 40
7.0
 40
7.0
 40
7.0
 40
8.0
 40
8.0
 40
8.0
 40
9.0
 40
9.0
 40
9.0
 40
10.0
 40
10.0
 40
10.0
 40
11.0
 40
11.0
 40
11.0
 40
12.0
 40
12.0
 40
12.0
 40
13.0
 40
13.0
 40
13.0
 40
13.0
 10
79.39515378874496
 20
-141.0752820827867
 10
79.17725149930291
 20
-141.2337564751082
 10
79.0840616664269
 20
-141.3078260280411
 10
79.03548582008489
 20
-141.451486509776
 10
79.03548582008489
 20
-141.451486509776
 10
79.81390514497708
 20
-141.451486509776
 10
79.81390514497708
 20
-141.451486509776
 10
79.81390514497708
 20
-141.451486509776
 10
79.81390514497708
 20
-141.6568142006969
 10
79.81390514497708
 20
-141.6568142006969
 10
79.81390514497708
 20
-141.6568142006969
 10
78.78588865217853
 20
-141.6568142006969
 10
78.78588865217853
 20
-141.6568142006969
 10
78.81758353064284
 20
-141.299213289328
 10
78.88304034486258
 20
-141.2210096218128
 10
79.2682020201135
 20
-140.9226643527902
 10
79.52417261466758
 20
-140.7238823432913
 10
79.58962942888732
 20
-140.6563584717804
 10
79.58962942888732
 20
-140.5185546523704
 10
79.58962942888732
 20
-140.4000433676778
 10
79.51779918801986
 20
-140.2691297392383
 10
79.3210842358121
 20
-140.2691297392383
 10
79.06080727190147
 20
-140.2691297392383
 10
79.05236678796261
 20
-140.4996066272015
 10
79.04806041860604
 20
-140.6160508546029
 10
79.04806041860604
 20
-140.6160508546029
 10
78.82395695729055
 20
-140.6160508546029
 10
78.82395695729055
 20
-140.6160508546029
 10
78.8323974412294
 20
-140.4889268311972
 10
78.84290498245942
 20
-140.3769612279266
 10
78.92334796204
 20
-140.258449943234
 10
79.03324650801947
 20
-140.0975639840728
 10
79.21945391899722
 20
-140.0638020483174
 10
79.33589814639866
 20
-140.0638020483174
 10
79.61305607818701
 20
-140.0638020483174
 10
79.8202785716248
 20
-140.2477701472297
 10
79.8202785716248
 20
-140.5206217096615
 10
79.8202785716248
 20
-140.7493760498821
 10
79.70400659899761
 20
-140.8485947998573
 10
79.39515378874496
 20
-141.0752820827867
 97
        0
 97
        0
 75
     2
 76
     1
 98
        0
  0
ENDBLK
  5
E7
330
E4
100
AcDbEntity
  8
0
100
AcDbBlockEnd
  0
BLOCK
  5
FA
330
F8
100
AcDbEntity
  8
0
100
AcDbBlockBegin
  2
block 7
 70
     0
 10
0.0
 20
0.0
 30
0.0
  3
block 7
  1

  0
SPLINE
  5
FC
330
F8
100
AcDbEntity
  8
_U+30EC_U+30A4_U+30E4_U+30FC 1
370
     0
100
AcDbSpline
210
0.0
220
0.0
230
1.0
 70
    11
 71
     3
 72
    26
 73
    22
 74
     0
 42
0.0000000001
 43
0.0000000001
 12
1.0
 22
0.0
 32
0.0
 13
1.0
 23
0.0
 33
0.0
 40
0.0
 40
0.0
 40
0.0
 40
0.0
 40
1.0
 40
1.0
 40
1.0
 40
2.0
 40
2.0
 40
2.0
 40
3.0
 40
3.0
 40
3.0
 40
4.0
 40
4.0
 40
4.0
 40
5.0
 40
5.0
 40
5.0
 40
6.0
 40
6.0
 40
6.0
 40
7.0
 40
7.0
 40
7.0
 40
7.0
 10
107.0680555287885
 20
-129.4422281577436
 30
0.0
 10
107.0680555287885
 20
-129.4422281577436
 30
0.0
 10
105.963902425766
 20
-129.4422281577436
 30
0.0
 10
105.963902425766
 20
-129.4422281577436
 30
0.0
 10
105.963902425766
 20
-129.4422281577436
 30
0.0
 10
105.963902425766
 20
-129.7722683052305
 30
0.0
 10
105.963902425766
 20
-129.7722683052305
 30
0.0
 10
105.963902425766
 20
-129.7722683052305
 30
0.0
 10
105.8157633199002
 20
-129.7722683052305
 30
0.0
 10
105.8157633199002
 20
-129.7722683052305
 30
0.0
 10
105.8009494093137
 20
-129.4401611004525
 30
0.0
 10
105.6379963928613
 20
-129.3936523114016
 30
0.0
 10
105.5236192227511
 20
-129.3640244902284
 30
0.0
 10
105.5236192227511
 20
-129.3640244902284
 30
0.0
 10
105.5236192227511
 20
-129.2179524416539
 30
0.0
 10
105.5236192227511
 20
-129.2179524416539
 30
0.0
 10
105.5236192227511
 20
-129.2179524416539
 30
0.0
 10
107.0680555287885
 20
-129.2179524416539
 30
0.0
 10
107.0680555287885
 20
-129.2179524416539
 30
0.0
 10
107.0680555287885
 20
-129.2179524416539
 30
0.0
 10
107.0680555287885
 20
-129.4422281577436
 30
0.0
 10
107.0680555287885
 20
-129.4422281577436
 30
0.0
  0
HATCH
  5
FD
330
F8
100
AcDbEntity
  8
_U+30EC_U+30A4_U+30E4_U+30FC 1
 62
   179
420
  2234388
100
AcDbHatch
 10
0.0
 20
0.0
 30
0.0
210
0.0
220
0.0
230
1.0
  2
SOLID
 70
     1
 71
     0
 91
        1
 92
        1
 93
        1
 72
     4
 94
        3
 73
     0
 74
     1
 95
       26
 96
       22
 40
0.0
 40
0.0
 40
0.0
 40
0.0
 40
1.0
 40
1.0
 40
1.0
 40
2.0
 40
2.0
 40
2.0
 40
3.0
 40
3.0
 40
3.0
 40
4.0
 40
4.0
 40
4.0
 40
5.0
 40
5.0
 40
5.0
 40
6.0
 40
6.0
 40
6.0
 40
7.0
 40
7.0
 40
7.0
 40
7.0
 10
107.0680555287885
 20
-129.4422281577436
 10
107.0680555287885
 20
-129.4422281577436
 10
105.963902425766
 20
-129.4422281577436
 10
105.963902425766
 20
-129.4422281577436
 10
105.963902425766
 20
-129.4422281577436
 10
105.963902425766
 20
-129.7722683052305
 10
105.963902425766
 20
-129.7722683052305
 10
105.963902425766
 20
-129.7722683052305
 10
105.8157633199002
 20
-129.7722683052305
 10
105.8157633199002
 20
-129.7722683052305
 10
105.8009494093137
 20
-129.4401611004525
 10
105.6379963928613
 20
-129.3936523114016
 10
105.5236192227511
 20
-129.3640244902284
 10
105.5236192227511
 20
-129.3640244902284
 10
105.5236192227511
 20
-129.2179524416539
 10
105.5236192227511
 20
-129.2179524416539
 10
105.5236192227511
 20
-129.2179524416539
 10
107.0680555287885
 20
-129.2179524416539
 10
107.0680555287885
 20
-129.2179524416539
 10
107.0680555287885
 20
-129.2179524416539
 10
107.0680555287885
 20
-129.4422281577436
 10
107.0680555287885
 20
-129.4422281577436
 97
        0
 97
        0
 75
     2
 76
     1
 98
        0
  0
SPLINE
  5
FE
330
F8
100
AcDbEntity
  8
_U+30EC_U+30A4_U+30E4_U+30FC 1
370
     0
100
AcDbSpline
210
0.0
220
0.0
230
1.0
 70
    11
 71
     3
 72
    62
 73
    58
 74
     0
 42
0.0000000001
 43
0.0000000001
 12
1.0
 22
0.0
 32
0.0
 13
1.0
 23
0.0
 33
0.0
 40
0.0
 40
0.0
 40
0.0
 40
0.0
 40
1.0
 40
1.0
 40
1.0
 40
2.0
 40
2.0
 40
2.0
 40
3.0
 40
3.0
 40
3.0
 40
4.0
 40
4.0
 40
4.0
 40
5.0
 40
5.0
 40
5.0
 40
6.0
 40
6.0
 40
6.0
 40
7.0
 40
7.0
 40
7.0
 40
8.0
 40
8.0
 40
8.0
 40
9.0
 40
9.0
 40
9.0
 40
10.0
 40
10.0
 40
10.0
 40
11.0
 40
11.0
 40
11.0
 40
12.0
 40
12.0
 40
12.0
 40
13.0
 40
13.0
 40
13.0
 40
14.0
 40
14.0
 40
14.0
 40
15.0
 40
15.0
 40
15.0
 40
16.0
 40
16.0
 40
16.0
 40
17.0
 40
17.0
 40
17.0
 40
18.0
 40
18.0
 40
18.0
 40
19.0
 40
19.0
 40
19.0
 40
19.0
 10
107.1186984324217
 20
-128.2250759228048
 30
0.0
 10
107.1186984324217
 20
-128.3205050677463
 30
0.0
 10
107.0976833499617
 20
-128.5382351024141
 30
0.0
 10
106.9116481937582
 20
-128.6632920685286
 30
0.0
 10
106.7993380809391
 20
-128.737017111913
 30
0.0
 10
106.7001193309639
 20
-128.7414957360438
 30
0.0
 10
106.6153699820267
 20
-128.7456298506261
 30
0.0
 10
106.6153699820267
 20
-128.7456298506261
 30
0.0
 10
106.6153699820267
 20
-128.5254882491186
 30
0.0
 10
106.6153699820267
 20
-128.5254882491186
 30
0.0
 10
106.6894395349596
 20
-128.5234211918275
 30
0.0
 10
106.9240505375051
 20
-128.5130859053717
 30
0.0
 10
106.9240505375051
 20
-128.2295545469357
 30
0.0
 10
106.9240505375051
 20
-128.0920952370742
 30
0.0
 10
106.8544596087031
 20
-127.9394775070776
 30
0.0
 10
106.626049778031
 20
-127.9394775070776
 30
0.0
 10
106.5096055506295
 20
-127.9394775070776
 30
0.0
 10
106.4610297042875
 20
-127.9777180669639
 30
0.0
 10
106.4293348258232
 20
-128.0094129454282
 30
0.0
 10
106.3552652728903
 20
-128.0834824983611
 30
0.0
 10
106.3425184195949
 20
-128.1999267257625
 30
0.0
 10
106.3425184195949
 20
-128.254703743978
 30
0.0
 10
106.3425184195949
 20
-128.2739962786954
 30
0.0
 10
106.3445854768861
 20
-128.309825271742
 30
0.0
 10
106.3487195914684
 20
-128.337386035624
 30
0.0
 10
106.3487195914684
 20
-128.337386035624
 30
0.0
 10
106.1540716965518
 20
-128.337386035624
 30
0.0
 10
106.1540716965518
 20
-128.337386035624
 30
0.0
 10
106.1606173779737
 20
-128.2991454757377
 30
0.0
 10
106.1626844352649
 20
-128.2571153108177
 30
0.0
 10
106.1626844352649
 20
-128.2505696293957
 30
0.0
 10
106.1626844352649
 20
-128.185112815176
 30
0.0
 10
106.1413248432563
 20
-127.986330805677
 30
0.0
 10
105.9046467834197
 20
-127.986330805677
 30
0.0
 10
105.7268798563808
 20
-127.986330805677
 30
0.0
 10
105.6717583286168
 20
-128.1172444341165
 30
0.0
 10
105.6717583286168
 20
-128.2274874896445
 30
0.0
 10
105.6717583286168
 20
-128.4917263133632
 30
0.0
 10
105.9046467834197
 20
-128.5003390520763
 30
0.0
 10
105.9763047695129
 20
-128.5044731666586
 30
0.0
 10
105.9763047695129
 20
-128.5044731666586
 30
0.0
 10
105.9763047695129
 20
-128.7077338002883
 30
0.0
 10
105.9763047695129
 20
-128.7077338002883
 30
0.0
 10
105.8515923129468
 20
-128.6991210615752
 30
0.0
 10
105.475043376409
 20
-128.6715602976932
 30
0.0
 10
105.475043376409
 20
-128.2147406363491
 30
0.0
 10
105.475043376409
 20
-127.9904649202593
 30
0.0
 10
105.6021673998147
 20
-127.7493082362918
 30
0.0
 10
105.8981011019977
 20
-127.7493082362918
 30
0.0
 10
106.0844807677497
 20
-127.7493082362918
 30
0.0
 10
106.1668185498472
 20
-127.8443928716847
 30
0.0
 10
106.2281412494846
 20
-127.9439561312085
 30
0.0
 10
106.2557020133666
 20
-127.882633431571
 30
0.0
 10
106.335972738173
 20
-127.7007323899498
 30
0.0
 10
106.6133029247356
 20
-127.7007323899498
 30
0.0
 10
106.9516113013871
 20
-127.7007323899498
 30
0.0
 10
107.1186984324217
 20
-127.9480902457908
 30
0.0
 10
107.1186984324217
 20
-128.2250759228048
 30
0.0
  0
HATCH
  5
FF
330
F8
100
AcDbEntity
  8
_U+30EC_U+30A4_U+30E4_U+30FC 1
 62
   179
420
  2234388
100
AcDbHatch
 10
0.0
 20
0.0
 30
0.0
210
0.0
220
0.0
230
1.0
  2
SOLID
 70
     1
 71
     0
 91
        1
 92
        1
 93
        1
 72
     4
 94
        3
 73
     0
 74
     1
 95
       62
 96
       58
 40
0.0
 40
0.0
 40
0.0
 40
0.0
 40
1.0
 40
1.0
 40
1.0
 40
2.0
 40
2.0
 40
2.0
 40
3.0
 40
3.0
 40
3.0
 40
4.0
 40
4.0
 40
4.0
 40
5.0
 40
5.0
 40
5.0
 40
6.0
 40
6.0
 40
6.0
 40
7.0
 40
7.0
 40
7.0
 40
8.0
 40
8.0
 40
8.0
 40
9.0
 40
9.0
 40
9.0
 40
10.0
 40
10.0
 40
10.0
 40
11.0
 40
11.0
 40
11.0
 40
12.0
 40
12.0
 40
12.0
 40
13.0
 40
13.0
 40
13.0
 40
14.0
 40
14.0
 40
14.0
 40
15.0
 40
15.0
 40
15.0
 40
16.0
 40
16.0
 40
16.0
 40
17.0
 40
17.0
 40
17.0
 40
18.0
 40
18.0
 40
18.0
 40
19.0
 40
19.0
 40
19.0
 40
19.0
 10
107.1186984324217
 20
-128.2250759228048
 10
107.1186984324217
 20
-128.3205050677463
 10
107.0976833499617
 20
-128.5382351024141
 10
106.9116481937582
 20
-128.6632920685286
 10
106.7993380809391
 20
-128.737017111913
 10
106.7001193309639
 20
-128.7414957360438
 10
106.6153699820267
 20
-128.7456298506261
 10
106.6153699820267
 20
-128.7456298506261
 10
106.6153699820267
 20
-128.5254882491186
 10
106.6153699820267
 20
-128.5254882491186
 10
106.6894395349596
 20
-128.5234211918275
 10
106.9240505375051
 20
-128.5130859053717
 10
106.9240505375051
 20
-128.2295545469357
 10
106.9240505375051
 20
-128.0920952370742
 10
106.8544596087031
 20
-127.9394775070776
 10
106.626049778031
 20
-127.9394775070776
 10
106.5096055506295
 20
-127.9394775070776
 10
106.4610297042875
 20
-127.9777180669639
 10
106.4293348258232
 20
-128.0094129454282
 10
106.3552652728903
 20
-128.0834824983611
 10
106.3425184195949
 20
-128.1999267257625
 10
106.3425184195949
 20
-128.254703743978
 10
106.3425184195949
 20
-128.2739962786954
 10
106.3445854768861
 20
-128.309825271742
 10
106.3487195914684
 20
-128.337386035624
 10
106.3487195914684
 20
-128.337386035624
 10
106.1540716965518
 20
-128.337386035624
 10
106.1540716965518
 20
-128.337386035624
 10
106.1606173779737
 20
-128.2991454757377
 10
106.1626844352649
 20
-128.2571153108177
 10
106.1626844352649
 20
-128.2505696293957
 10
106.1626844352649
 20
-128.185112815176
 10
106.1413248432563
 20
-127.986330805677
 10
105.9046467834197
 20
-127.986330805677
 10
105.7268798563808
 20
-127.986330805677
 10
105.6717583286168
 20
-128.1172444341165
 10
105.6717583286168
 20
-128.2274874896445
 10
105.6717583286168
 20
-128.4917263133632
 10
105.9046467834197
 20
-128.5003390520763
 10
105.9763047695129
 20
-128.5044731666586
 10
105.9763047695129
 20
-128.5044731666586
 10
105.9763047695129
 20
-128.7077338002883
 10
105.9763047695129
 20
-128.7077338002883
 10
105.8515923129468
 20
-128.6991210615752
 10
105.475043376409
 20
-128.6715602976932
 10
105.475043376409
 20
-128.2147406363491
 10
105.475043376409
 20
-127.9904649202593
 10
105.6021673998147
 20
-127.7493082362918
 10
105.8981011019977
 20
-127.7493082362918
 10
106.0844807677497
 20
-127.7493082362918
 10
106.1668185498472
 20
-127.8443928716847
 10
106.2281412494846
 20
-127.9439561312085
 10
106.2557020133666
 20
-127.882633431571
 10
106.335972738173
 20
-127.7007323899498
 10
106.6133029247356
 20
-127.7007323899498
 10
106.9516113013871
 20
-127.7007323899498
 10
107.1186984324217
 20
-127.9480902457908
 10
107.1186984324217
 20
-128.2250759228048
 97
        0
 97
        0
 75
     2
 76
     1
 98
        0
  0
ENDBLK
  5
FB
330
F8
100
AcDbEntity
  8
0
100
AcDbBlockEnd
  0
ENDSEC
  0
SECTION
  2
ENTITIES
  0
POLYLINE
  5
41
330
1F
100
AcDbEntity
  8
_U+30EC_U+30A4_U+30E4_U+30FC 1
 62
   179
420
  2234388
370
    25
100
AcDb2dPolyline
 66
     1
 10
0.0
 20
0.0
 30
0.0
  0
VERTEX
  5
42
330
41
100
AcDbEntity
  8
_U+30EC_U+30A4_U+30E4_U+30FC 1
 62
   179
420
  2234388
370
    25
100
AcDbVertex
100
AcDb2dVertex
 10
72.71356592270017
 20
-121.5040396918462
 30
0.0
  0
VERTEX
  5
43
330
41
100
AcDbEntity
  8
_U+30EC_U+30A4_U+30E4_U+30FC 1
 62
   179
420
  2234388
370
    25
100
AcDbVertex
100
AcDb2dVertex
 10
103.7139123540377
 20
-121.5040396918462
 30
0.0
  0
SEQEND
  5
44
330
41
100
AcDbEntity
  8
_U+30EC_U+30A4_U+30E4_U+30FC 1
 62
   179
420
  2234388
370
    25
  0
POLYLINE
  5
45
330
1F
100
AcDbEntity
  8
_U+30EC_U+30A4_U+30E4_U+30FC 1
 62
   179
420
  2234388
370
    25
100
AcDb2dPolyline
 66
     1
 10
0.0
 20
0.0
 30
0.0
  0
VERTEX
  5
46
330
45
100
AcDbEntity
  8
_U+30EC_U+30A4_U+30E4_U+30FC 1
 62
   179
420
  2234388
370
    25
100
AcDbVertex
100
AcDb2dVertex
 10
103.7139123540377
 20
-121.5040396918462
 30
0.0
  0
VERTEX
  5
47
330
45
100
AcDbEntity
  8
_U+30EC_U+30A4_U+30E4_U+30FC 1
 62
   179
420
  2234388
370
    25
100
AcDbVertex
100
AcDb2dVertex
 10
103.7139123540377
 20
-122.3039985805352
 30
0.0
  0
SEQEND
  5
48
330
45
100
AcDbEntity
  8
_U+30EC_U+30A4_U+30E4_U+30FC 1
 62
   179
420
  2234388
370
    25
  0
POLYLINE
  5
49
330
1F
100
AcDbEntity
  8
_U+30EC_U+30A4_U+30E4_U+30FC 1
 62
   179
420
  2234388
370
    25
100
AcDb2dPolyline
 66
     1
 10
0.0
 20
0.0
 30
0.0
  0
VERTEX
  5
4A
330
49
100
AcDbEntity
  8
_U+30EC_U+30A4_U+30E4_U+30FC 1
 62
   179
420
  2234388
370
    25
100
AcDbVertex
100
AcDb2dVertex
 10
72.71356592270017
 20
-122.3039985805352
 30
0.0
  0
VERTEX
  5
4B
330
49
100
AcDbEntity
  8
_U+30EC_U+30A4_U+30E4_U+30FC 1
 62
   179
420
  2234388
370
    25
100
AcDbVertex
100
AcDb2dVertex
 10
84.71351339433377
 20
-122.3039985805352
 30
0.0
  0
SEQEND
  5
4C
330
49
100
AcDbEntity
  8
_U+30EC_U+30A4_U+30E4_U+30FC 1
 62
   179
420
  2234388
370
    25
  0
POLYLINE
  5
4D
330
1F
100
AcDbEntity
  8
_U+30EC_U+30A4_U+30E4_U+30FC 1
 62
   179
420
  2234388
370
    25
100
AcDb2dPolyline
 66
     1
 10
0.0
 20
0.0
 30
0.0
  0
VERTEX
  5
4E
330
4D
100
AcDbEntity
  8
_U+30EC_U+30A4_U+30E4_U+30FC 1
 62
   179
420
  2234388
370
    25
100
AcDbVertex
100
AcDb2dVertex
 10
72.71356592270017
 20
-121.5040396918462
 30
0.0
  0
VERTEX
  5
4F
330
4D
100
AcDbEntity
  8
_U+30EC_U+30A4_U+30E4_U+30FC 1
 62
   179
420
  2234388
370
    25
100
AcDbVertex
100
AcDb2dVertex
 10
72.71356592270017
 20
-122.3039985805352
 30
0.0
  0
SEQEND
  5
50
330
4D
100
AcDbEntity
  8
_U+30EC_U+30A4_U+30E4_U+30FC 1
 62
   179
420
  2234388
370
    25
  0
POLYLINE
  5
51
330
1F
100
AcDbEntity
  8
_U+30EC_U+30A4_U+30E4_U+30FC 1
 62
   179
420
  2234388
370
    25
100
AcDb2dPolyline
 66
     1
 10
0.0
 20
0.0
 30
0.0
  0
VERTEX
  5
52
330
51
100
AcDbEntity
  8
_U+30EC_U+30A4_U+30E4_U+30FC 1
 62
   179
420
  2234388
370
    25
100
AcDbVertex
100
AcDb2dVertex
 10
84.71351339433377
 20
-122.3039985805352
 30
0.0
  0
VERTEX
  5
53
330
51
100
AcDbEntity
  8
_U+30EC_U+30A4_U+30E4_U+30FC 1
 62
   179
420
  2234388
370
    25
100
AcDbVertex
100
AcDb2dVertex
 10
84.71351339433377
 20
-138.3043757987575
 30
0.0
  0
SEQEND
  5
54
330
51
100
AcDbEntity
  8
_U+30EC_U+30A4_U+30E4_U+30FC 1
 62
   179
420
  2234388
370
    25
  0
POLYLINE
  5
55
330
1F
100
AcDbEntity
  8
_U+30EC_U+30A4_U+30E4_U+30FC 1
 62
   179
420
  2234388
370
    25
100
AcDb2dPolyline
 66
     1
 10
0.0
 20
0.0
 30
0.0
  0
VERTEX
  5
56
330
55
100
AcDbEntity
  8
_U+30EC_U+30A4_U+30E4_U+30FC 1
 62
   179
420
  2234388
370
    25
100
AcDbVertex
100
AcDb2dVertex
 10
94.71395175031245
 20
-135.3043888550631
 30
0.0
  0
VERTEX
  5
57
330
55
100
AcDbEntity
  8
_U+30EC_U+30A4_U+30E4_U+30FC 1
 62
   179
420
  2234388
370
    25
100
AcDbVertex
100
AcDb2dVertex
 10
94.71395175031245
 20
-138.3043757987575
 30
0.0
  0
SEQEND
  5
58
330
55
100
AcDbEntity
  8
_U+30EC_U+30A4_U+30E4_U+30FC 1
 62
   179
420
  2234388
370
    25
  0
POLYLINE
  5
59
330
1F
100
AcDbEntity
  8
_U+30EC_U+30A4_U+30E4_U+30FC 1
 62
   179
420
  2234388
370
    25
100
AcDb2dPolyline
 66
     1
 10
0.0
 20
0.0
 30
0.0
  0
VERTEX
  5
5A
330
59
100
AcDbEntity
  8
_U+30EC_U+30A4_U+30E4_U+30FC 1
 62
   179
420
  2234388
370
    25
100
AcDbVertex
100
AcDb2dVertex
 10
90.71348713015058
 20
-135.3043888550631
 30
0.0
  0
VERTEX
  5
5B
330
59
100
AcDbEntity
  8
_U+30EC_U+30A4_U+30E4_U+30FC 1
 62
   179
420
  2234388
370
    25
100
AcDbVertex
100
AcDb2dVertex
 10
94.71395175031245
 20
-135.3043888550631
 30
0.0
  0
SEQEND
  5
5C
330
59
100
AcDbEntity
  8
_U+30EC_U+30A4_U+30E4_U+30FC 1
 62
   179
420
  2234388
370
    25
  0
POLYLINE
  5
5D
330
1F
100
AcDbEntity
  8
_U+30EC_U+30A4_U+30E4_U+30FC 1
 62
   179
420
  2234388
370
    25
100
AcDb2dPolyline
 66
     1
 10
0.0
 20
0.0
 30
0.0
  0
VERTEX
  5
5E
330
5D
100
AcDbEntity
  8
_U+30EC_U+30A4_U+30E4_U+30FC 1
 62
   179
420
  2234388
370
    25
100
AcDbVertex
100
AcDb2dVertex
 10
84.71351339433377
 20
-138.3043757987575
 30
0.0
  0
VERTEX
  5
5F
330
5D
100
AcDbEntity
  8
_U+30EC_U+30A4_U+30E4_U+30FC 1
 62
   179
420
  2234388
370
    25
100
AcDbVertex
100
AcDb2dVertex
 10
94.71395175031245
 20
-138.3043757987575
 30
0.0
  0
SEQEND
  5
60
330
5D
100
AcDbEntity
  8
_U+30EC_U+30A4_U+30E4_U+30FC 1
 62
   179
420
  2234388
370
    25
  0
POLYLINE
  5
61
330
1F
100
AcDbEntity
  8
_U+30EC_U+30A4_U+30E4_U+30FC 1
 62
   179
420
  2234388
370
    25
100
AcDb2dPolyline
 66
     1
 10
0.0
 20
0.0
 30
0.0
  0
VERTEX
  5
62
330
61
100
AcDbEntity
  8
_U+30EC_U+30A4_U+30E4_U+30FC 1
 62
   179
420
  2234388
370
    25
100
AcDbVertex
100
AcDb2dVertex
 10
85.51347226281402
 20
-122.3039985805352
 30
0.0
  0
VERTEX
  5
63
330
61
100
AcDbEntity
  8
_U+30EC_U+30A4_U+30E4_U+30FC 1
 62
   179
420
  2234388
370
    25
100
AcDbVertex
100
AcDb2dVertex
 10
85.51347226281402
 20
-137.5044521878463
 30
0.0
  0
SEQEND
  5
64
330
61
100
AcDbEntity
  8
_U+30EC_U+30A4_U+30E4_U+30FC 1
 62
   179
420
  2234388
370
    25
  0
POLYLINE
  5
65
330
1F
100
AcDbEntity
  8
_U+30EC_U+30A4_U+30E4_U+30FC 1
 62
   179
420
  2234388
370
    25
100
AcDb2dPolyline
 66
     1
 10
0.0
 20
0.0
 30
0.0
  0
VERTEX
  5
66
330
65
100
AcDbEntity
  8
_U+30EC_U+30A4_U+30E4_U+30FC 1
 62
   179
420
  2234388
370
    25
100
AcDbVertex
100
AcDb2dVertex
 10
85.51347226281402
 20
-137.5044521878463
 30
0.0
  0
VERTEX
  5
67
330
65
100
AcDbEntity
  8
_U+30EC_U+30A4_U+30E4_U+30FC 1
 62
   179
420
  2234388
370
    25
100
AcDbVertex
100
AcDb2dVertex
 10
93.91399288183221
 20
-137.5044521878463
 30
0.0
  0
SEQEND
  5
68
330
65
100
AcDbEntity
  8
_U+30EC_U+30A4_U+30E4_U+30FC 1
 62
   179
420
  2234388
370
    25
  0
POLYLINE
  5
69
330
1F
100
AcDbEntity
  8
_U+30EC_U+30A4_U+30E4_U+30FC 1
 62
   179
420
  2234388
370
    25
100
AcDb2dPolyline
 66
     1
 10
0.0
 20
0.0
 30
0.0
  0
VERTEX
  5
6A
330
69
100
AcDbEntity
  8
_U+30EC_U+30A4_U+30E4_U+30FC 1
 62
   179
420
  2234388
370
    25
100
AcDbVertex
100
AcDb2dVertex
 10
85.51347226281402
 20
-122.3039985805352
 30
0.0
  0
VERTEX
  5
6B
330
69
100
AcDbEntity
  8
_U+30EC_U+30A4_U+30E4_U+30FC 1
 62
   179
420
  2234388
370
    25
100
AcDbVertex
100
AcDb2dVertex
 10
103.7139123540377
 20
-122.3039985805352
 30
0.0
  0
SEQEND
  5
6C
330
69
100
AcDbEntity
  8
_U+30EC_U+30A4_U+30E4_U+30FC 1
 62
   179
420
  2234388
370
    25
  0
POLYLINE
  5
6D
330
1F
100
AcDbEntity
  8
_U+30EC_U+30A4_U+30E4_U+30FC 1
 62
   179
420
  2234388
370
    25
100
AcDb2dPolyline
 66
     1
 10
0.0
 20
0.0
 30
0.0
  0
VERTEX
  5
6E
330
6D
100
AcDbEntity
  8
_U+30EC_U+30A4_U+30E4_U+30FC 1
 62
   179
420
  2234388
370
    25
100
AcDbVertex
100
AcDb2dVertex
 10
93.91399288183221
 20
-136.1043477437517
 30
0.0
  0
VERTEX
  5
6F
330
6D
100
AcDbEntity
  8
_U+30EC_U+30A4_U+30E4_U+30FC 1
 62
   179
420
  2234388
370
    25
100
AcDbVertex
100
AcDb2dVertex
 10
93.91399288183221
 20
-137.5044521878463
 30
0.0
  0
SEQEND
  5
70
330
6D
100
AcDbEntity
  8
_U+30EC_U+30A4_U+30E4_U+30FC 1
 62
   179
420
  2234388
370
    25
  0
POLYLINE
  5
71
330
1F
100
AcDbEntity
  8
_U+30EC_U+30A4_U+30E4_U+30FC 1
 62
   179
420
  2234388
370
    25
100
AcDb2dPolyline
 66
     1
 10
0.0
 20
0.0
 30
0.0
  0
VERTEX
  5
72
330
71
100
AcDbEntity
  8
_U+30EC_U+30A4_U+30E4_U+30FC 1
 62
   179
420
  2234388
370
    25
100
AcDbVertex
100
AcDb2dVertex
 10
90.71348713015058
 20
-136.1043477437517
 30
0.0
  0
VERTEX
  5
73
330
71
100
AcDbEntity
  8
_U+30EC_U+30A4_U+30E4_U+30FC 1
 62
   179
420
  2234388
370
    25
100
AcDbVertex
100
AcDb2dVertex
 10
93.91399288183221
 20
-136.1043477437517
 30
0.0
  0
SEQEND
  5
74
330
71
100
AcDbEntity
  8
_U+30EC_U+30A4_U+30E4_U+30FC 1
 62
   179
420
  2234388
370
    25
  0
POLYLINE
  5
75
330
1F
100
AcDbEntity
  8
_U+30EC_U+30A4_U+30E4_U+30FC 1
 62
   179
420
  2234388
370
    25
100
AcDb2dPolyline
 66
     1
 10
0.0
 20
0.0
 30
0.0
  0
VERTEX
  5
76
330
75
100
AcDbEntity
  8
_U+30EC_U+30A4_U+30E4_U+30FC 1
 62
   179
420
  2234388
370
    25
100
AcDbVertex
100
AcDb2dVertex
 10
90.71348713015058
 20
-135.3043888550631
 30
0.0
  0
VERTEX
  5
77
330
75
100
AcDbEntity
  8
_U+30EC_U+30A4_U+30E4_U+30FC 1
 62
   179
420
  2234388
370
    25
100
AcDbVertex
100
AcDb2dVertex
 10
90.71348713015058
 20
-136.1043477437517
 30
0.0
  0
SEQEND
  5
78
330
75
100
AcDbEntity
  8
_U+30EC_U+30A4_U+30E4_U+30FC 1
 62
   179
420
  2234388
370
    25
  0
SPLINE
  5
79
330
1F
100
AcDbEntity
  8
_U+30EC_U+30A4_U+30E4_U+30FC 1
 62
   179
420
  2234388
370
     9
100
AcDbSpline
210
0.0
220
0.0
230
1.0
 70
    11
 71
     3
 72
    17
 73
    13
 74
     0
 42
0.0000000001
 43
0.0000000001
 12
1.0
 22
0.0
 32
0.0
 13
1.0
 23
0.0
 33
0.0
 40
0.0
 40
0.0
 40
0.0
 40
0.0
 40
1.0
 40
1.0
 40
1.0
 40
2.0
 40
2.0
 40
2.0
 40
3.0
 40
3.0
 40
3.0
 40
4.0
 40
4.0
 40
4.0
 40
4.0
 10
107.8135780827798
 20
-121.5040396918462
 30
0.0
 10
107.8135780827798
 20
-121.4489005251935
 30
0.0
 10
107.768775306145
 20
-121.4041330252046
 30
0.0
 10
107.713671418662
 20
-121.4041330252046
 30
0.0
 10
107.658532253402
 20
-121.4041330252046
 30
0.0
 10
107.6137647545441
 20
-121.4489005251935
 30
0.0
 10
107.6137647545441
 20
-121.5040396918462
 30
0.0
 10
107.6137647545441
 20
-121.5591435807215
 30
0.0
 10
107.658532253402
 20
-121.6039463584879
 30
0.0
 10
107.713671418662
 20
-121.6039463584879
 30
0.0
 10
107.768775306145
 20
-121.6039463584879
 30
0.0
 10
107.8135780827798
 20
-121.5591435807215
 30
0.0
 10
107.8135780827798
 20
-121.5040396918462
 30
0.0
  0
SPLINE
  5
7A
330
1F
100
AcDbEntity
  8
_U+30EC_U+30A4_U+30E4_U+30FC 1
 62
   179
420
  2234388
370
     9
100
AcDbSpline
210
0.0
220
0.0
230
1.0
 70
    11
 71
     3
 72
    17
 73
    13
 74
     0
 42
0.0000000001
 43
0.0000000001
 12
1.0
 22
0.0
 32
0.0
 13
1.0
 23
0.0
 33
0.0
 40
0.0
 40
0.0
 40
0.0
 40
0.0
 40
1.0
 40
1.0
 40
1.0
 40
2.0
 40
2.0
 40
2.0
 40
3.0
 40
3.0
 40
3.0
 40
4.0
 40
4.0
 40
4.0
 40
4.0
 10
103.8138190181555
 20
-117.5042805261794
 30
0.0
 10
103.8138190181555
 20
-117.4491766373044
 30
0.0
 10
103.7690162415207
 20
-117.4043738595377
 30
0.0
 10
103.7139123540377
 20
-117.4043738595377
 30
0.0
 10
103.6587731887777
 20
-117.4043738595377
 30
0.0
 10
103.6140083074301
 20
-117.4491766373044
 30
0.0
 10
103.6140083074301
 20
-117.5042805261794
 30
0.0
 10
103.6140083074301
 20
-117.5594196928324
 30
0.0
 10
103.6587731887777
 20
-117.6041871928213
 30
0.0
 10
103.7139123540377
 20
-117.6041871928213
 30
0.0
 10
103.7690162415207
 20
-117.6041871928213
 30
0.0
 10
103.8138190181555
 20
-117.5594196928324
 30
0.0
 10
103.8138190181555
 20
-117.5042805261794
 30
0.0
  0
SPLINE
  5
7B
330
1F
100
AcDbEntity
  8
_U+30EC_U+30A4_U+30E4_U+30FC 1
 62
   179
420
  2234388
370
     9
100
AcDbSpline
210
0.0
220
0.0
230
1.0
 70
    11
 71
     3
 72
    17
 73
    13
 74
     0
 42
0.0000000001
 43
0.0000000001
 12
1.0
 22
0.0
 32
0.0
 13
1.0
 23
0.0
 33
0.0
 40
0.0
 40
0.0
 40
0.0
 40
0.0
 40
1.0
 40
1.0
 40
1.0
 40
2.0
 40
2.0
 40
2.0
 40
3.0
 40
3.0
 40
3.0
 40
4.0
 40
4.0
 40
4.0
 40
4.0
 10
72.81414286457867
 20
-117.5042805261794
 30
0.0
 10
72.81414286457867
 20
-117.4491766373044
 30
0.0
 10
72.76937536572079
 20
-117.4043738595377
 30
0.0
 10
72.71356592270017
 20
-117.4043738595377
 30
0.0
 10
72.65842675744021
 20
-117.4043738595377
 30
0.0
 10
72.61366109295764
 20
-117.4491766373044
 30
0.0
 10
72.61366109295764
 20
-117.5042805261794
 30
0.0
 10
72.61366109295764
 20
-117.5594196928324
 30
0.0
 10
72.65842675744021
 20
-117.6041871928213
 30
0.0
 10
72.71356592270017
 20
-117.6041871928213
 30
0.0
 10
72.76937536572079
 20
-117.6041871928213
 30
0.0
 10
72.81414286457867
 20
-117.5594196928324
 30
0.0
 10
72.81414286457867
 20
-117.5042805261794
 30
0.0
  0
SPLINE
  5
7C
330
1F
100
AcDbEntity
  8
_U+30EC_U+30A4_U+30E4_U+30FC 1
 62
   179
420
  2234388
370
     9
100
AcDbSpline
210
0.0
220
0.0
230
1.0
 70
    11
 71
     3
 72
    17
 73
    13
 74
     0
 42
0.0000000001
 43
0.0000000001
 12
1.0
 22
0.0
 32
0.0
 13
1.0
 23
0.0
 33
0.0
 40
0.0
 40
0.0
 40
0.0
 40
0.0
 40
1.0
 40
1.0
 40
1.0
 40
2.0
 40
2.0
 40
2.0
 40
3.0
 40
3.0
 40
3.0
 40
4.0
 40
4.0
 40
4.0
 40
4.0
 10
107.8135780827798
 20
-122.3039985805352
 30
0.0
 10
107.8135780827798
 20
-122.2488594138821
 30
0.0
 10
107.768775306145
 20
-122.2040919138935
 30
0.0
 10
107.713671418662
 20
-122.2040919138935
 30
0.0
 10
107.658532253402
 20
-122.2040919138935
 30
0.0
 10
107.6137647545441
 20
-122.2488594138821
 30
0.0
 10
107.6137647545441
 20
-122.3039985805352
 30
0.0
 10
107.6137647545441
 20
-122.3591024694101
 30
0.0
 10
107.658532253402
 20
-122.4039052471768
 30
0.0
 10
107.713671418662
 20
-122.4039052471768
 30
0.0
 10
107.768775306145
 20
-122.4039052471768
 30
0.0
 10
107.8135780827798
 20
-122.3591024694101
 30
0.0
 10
107.8135780827798
 20
-122.3039985805352
 30
0.0
  0
SPLINE
  5
7D
330
1F
100
AcDbEntity
  8
_U+30EC_U+30A4_U+30E4_U+30FC 1
 62
   179
420
  2234388
370
     9
100
AcDbSpline
210
0.0
220
0.0
230
1.0
 70
    11
 71
     3
 72
    17
 73
    13
 74
     0
 42
0.0000000001
 43
0.0000000001
 12
1.0
 22
0.0
 32
0.0
 13
1.0
 23
0.0
 33
0.0
 40
0.0
 40
0.0
 40
0.0
 40
0.0
 40
1.0
 40
1.0
 40
1.0
 40
2.0
 40
2.0
 40
2.0
 40
3.0
 40
3.0
 40
3.0
 40
4.0
 40
4.0
 40
4.0
 40
4.0
 10
107.8135780827798
 20
-135.3043888550631
 30
0.0
 10
107.8135780827798
 20
-135.2492849661876
 30
0.0
 10
107.768775306145
 20
-135.2044821884208
 30
0.0
 10
107.713671418662
 20
-135.2044821884208
 30
0.0
 10
107.658532253402
 20
-135.2044821884208
 30
0.0
 10
107.6137647545441
 20
-135.2492849661876
 30
0.0
 10
107.6137647545441
 20
-135.3043888550631
 30
0.0
 10
107.6137647545441
 20
-135.3595280217155
 30
0.0
 10
107.658532253402
 20
-135.4042955217047
 30
0.0
 10
107.713671418662
 20
-135.4042955217047
 30
0.0
 10
107.768775306145
 20
-135.4042955217047
 30
0.0
 10
107.8135780827798
 20
-135.3595280217155
 30
0.0
 10
107.8135780827798
 20
-135.3043888550631
 30
0.0
  0
SPLINE
  5
7E
330
1F
100
AcDbEntity
  8
_U+30EC_U+30A4_U+30E4_U+30FC 1
 62
   179
420
  2234388
370
     9
100
AcDbSpline
210
0.0
220
0.0
230
1.0
 70
    11
 71
     3
 72
    17
 73
    13
 74
     0
 42
0.0000000001
 43
0.0000000001
 12
1.0
 22
0.0
 32
0.0
 13
1.0
 23
0.0
 33
0.0
 40
0.0
 40
0.0
 40
0.0
 40
0.0
 40
1.0
 40
1.0
 40
1.0
 40
2.0
 40
2.0
 40
2.0
 40
3.0
 40
3.0
 40
3.0
 40
4.0
 40
4.0
 40
4.0
 40
4.0
 10
107.8135780827798
 20
-138.3043757987575
 30
0.0
 10
107.8135780827798
 20
-138.2492719098819
 30
0.0
 10
107.768775306145
 20
-138.2044691321158
 30
0.0
 10
107.713671418662
 20
-138.2044691321158
 30
0.0
 10
107.658532253402
 20
-138.2044691321158
 30
0.0
 10
107.6137647545441
 20
-138.2492719098819
 30
0.0
 10
107.6137647545441
 20
-138.3043757987575
 30
0.0
 10
107.6137647545441
 20
-138.3595149654099
 30
0.0
 10
107.658532253402
 20
-138.4042824653991
 30
0.0
 10
107.713671418662
 20
-138.4042824653991
 30
0.0
 10
107.768775306145
 20
-138.4042824653991
 30
0.0
 10
107.8135780827798
 20
-138.3595149654099
 30
0.0
 10
107.8135780827798
 20
-138.3043757987575
 30
0.0
  0
SPLINE
  5
7F
330
1F
100
AcDbEntity
  8
_U+30EC_U+30A4_U+30E4_U+30FC 1
 62
   179
420
  2234388
370
     9
100
AcDbSpline
210
0.0
220
0.0
230
1.0
 70
    11
 71
     3
 72
    17
 73
    13
 74
     0
 42
0.0000000001
 43
0.0000000001
 12
1.0
 22
0.0
 32
0.0
 13
1.0
 23
0.0
 33
0.0
 40
0.0
 40
0.0
 40
0.0
 40
0.0
 40
1.0
 40
1.0
 40
1.0
 40
2.0
 40
2.0
 40
2.0
 40
3.0
 40
3.0
 40
3.0
 40
4.0
 40
4.0
 40
4.0
 40
4.0
 10
94.81385841443029
 20
-142.3041349644237
 30
0.0
 10
94.81385841443029
 20
-142.2490310755488
 30
0.0
 10
94.76905563779552
 20
-142.2042282977821
 30
0.0
 10
94.71395175031245
 20
-142.2042282977821
 30
0.0
 10
94.6588125850525
 20
-142.2042282977821
 30
0.0
 10
94.61404508619461
 20
-142.2490310755488
 30
0.0
 10
94.61404508619461
 20
-142.3041349644237
 30
0.0
 10
94.61404508619461
 20
-142.3592741310768
 30
0.0
 10
94.6588125850525
 20
-142.404041631066
 30
0.0
 10
94.71395175031245
 20
-142.404041631066
 30
0.0
 10
94.76905563779552
 20
-142.404041631066
 30
0.0
 10
94.81385841443029
 20
-142.3592741310768
 30
0.0
 10
94.81385841443029
 20
-142.3041349644237
 30
0.0
  0
SPLINE
  5
80
330
1F
100
AcDbEntity
  8
_U+30EC_U+30A4_U+30E4_U+30FC 1
 62
   179
420
  2234388
370
     9
100
AcDbSpline
210
0.0
220
0.0
230
1.0
 70
    11
 71
     3
 72
    17
 73
    13
 74
     0
 42
0.0000000001
 43
0.0000000001
 12
1.0
 22
0.0
 32
0.0
 13
1.0
 23
0.0
 33
0.0
 40
0.0
 40
0.0
 40
0.0
 40
0.0
 40
1.0
 40
1.0
 40
1.0
 40
2.0
 40
2.0
 40
2.0
 40
3.0
 40
3.0
 40
3.0
 40
4.0
 40
4.0
 40
4.0
 40
4.0
 10
84.81342220101892
 20
-142.3041349644237
 30
0.0
 10
84.81342220101892
 20
-142.2490310755488
 30
0.0
 10
84.76865255959372
 20
-142.2042282977821
 30
0.0
 10
84.71351339433377
 20
-142.2042282977821
 30
0.0
 10
84.6584095068507
 20
-142.2042282977821
 30
0.0
 10
84.61360673021593
 20
-142.2490310755488
 30
0.0
 10
84.61360673021593
 20
-142.3041349644237
 30
0.0
 10
84.61360673021593
 20
-142.3592741310768
 30
0.0
 10
84.6584095068507
 20
-142.404041631066
 30
0.0
 10
84.71351339433377
 20
-142.404041631066
 30
0.0
 10
84.76865255959372
 20
-142.404041631066
 30
0.0
 10
84.81342220101892
 20
-142.3592741310768
 30
0.0
 10
84.81342220101892
 20
-142.3041349644237
 30
0.0
  0
SPLINE
  5
81
330
1F
100
AcDbEntity
  8
_U+30EC_U+30A4_U+30E4_U+30FC 1
 62
   179
420
  2234388
370
     9
100
AcDbSpline
210
0.0
220
0.0
230
1.0
 70
    11
 71
     3
 72
    17
 73
    13
 74
     0
 42
0.0000000001
 43
0.0000000001
 12
1.0
 22
0.0
 32
0.0
 13
1.0
 23
0.0
 33
0.0
 40
0.0
 40
0.0
 40
0.0
 40
0.0
 40
1.0
 40
1.0
 40
1.0
 40
2.0
 40
2.0
 40
2.0
 40
3.0
 40
3.0
 40
3.0
 40
4.0
 40
4.0
 40
4.0
 40
4.0
 10
72.81414286457867
 20
-142.3041349644237
 30
0.0
 10
72.81414286457867
 20
-142.2490310755488
 30
0.0
 10
72.76937536572079
 20
-142.2042282977821
 30
0.0
 10
72.71356592270017
 20
-142.2042282977821
 30
0.0
 10
72.65842675744021
 20
-142.2042282977821
 30
0.0
 10
72.61366109295764
 20
-142.2490310755488
 30
0.0
 10
72.61366109295764
 20
-142.3041349644237
 30
0.0
 10
72.61366109295764
 20
-142.3592741310768
 30
0.0
 10
72.65842675744021
 20
-142.404041631066
 30
0.0
 10
72.71356592270017
 20
-142.404041631066
 30
0.0
 10
72.76937536572079
 20
-142.404041631066
 30
0.0
 10
72.81414286457867
 20
-142.3592741310768
 30
0.0
 10
72.81414286457867
 20
-142.3041349644237
 30
0.0
  0
POLYLINE
  5
82
330
1F
100
AcDbEntity
  8
_U+30EC_U+30A4_U+30E4_U+30FC 1
 62
   179
420
  2234388
370
     9
100
AcDb2dPolyline
 66
     1
 10
0.0
 20
0.0
 30
0.0
  0
VERTEX
  5
83
330
82
100
AcDbEntity
  8
_U+30EC_U+30A4_U+30E4_U+30FC 1
 62
   179
420
  2234388
370
     9
100
AcDbVertex
100
AcDb2dVertex
 10
72.71356592270017
 20
-117.5042805261794
 30
0.0
  0
VERTEX
  5
84
330
82
100
AcDbEntity
  8
_U+30EC_U+30A4_U+30E4_U+30FC 1
 62
   179
420
  2234388
370
     9
100
AcDbVertex
100
AcDb2dVertex
 10
103.7139123540377
 20
-117.5042805261794
 30
0.0
  0
SEQEND
  5
85
330
82
100
AcDbEntity
  8
_U+30EC_U+30A4_U+30E4_U+30FC 1
 62
   179
420
  2234388
370
     9
  0
POLYLINE
  5
86
330
1F
100
AcDbEntity
  8
_U+30EC_U+30A4_U+30E4_U+30FC 1
 62
   179
420
  2234388
370
     9
100
AcDb2dPolyline
 66
     1
 10
0.0
 20
0.0
 30
0.0
  0
VERTEX
  5
87
330
86
100
AcDbEntity
  8
_U+30EC_U+30A4_U+30E4_U+30FC 1
 62
   179
420
  2234388
370
     9
100
AcDbVertex
100
AcDb2dVertex
 10
72.71356592270017
 20
-118.9643219147034
 30
0.0
  0
VERTEX
  5
88
330
86
100
AcDbEntity
  8
_U+30EC_U+30A4_U+30E4_U+30FC 1
 62
   179
420
  2234388
370
     9
100
AcDbVertex
100
AcDb2dVertex
 10
72.71356592270017
 20
-116.5038380264295
 30
0.0
  0
SEQEND
  5
89
330
86
100
AcDbEntity
  8
_U+30EC_U+30A4_U+30E4_U+30FC 1
 62
   179
420
  2234388
370
     9
  0
POLYLINE
  5
8A
330
1F
100
AcDbEntity
  8
_U+30EC_U+30A4_U+30E4_U+30FC 1
 62
   179
420
  2234388
370
     9
100
AcDb2dPolyline
 66
     1
 10
0.0
 20
0.0
 30
0.0
  0
VERTEX
  5
8B
330
8A
100
AcDbEntity
  8
_U+30EC_U+30A4_U+30E4_U+30FC 1
 62
   179
420
  2234388
370
     9
100
AcDbVertex
100
AcDb2dVertex
 10
103.7139123540377
 20
-118.9643219147034
 30
0.0
  0
VERTEX
  5
8C
330
8A
100
AcDbEntity
  8
_U+30EC_U+30A4_U+30E4_U+30FC 1
 62
   179
420
  2234388
370
     9
100
AcDbVertex
100
AcDb2dVertex
 10
103.7139123540377
 20
-116.5038380264295
 30
0.0
  0
SEQEND
  5
8D
330
8A
100
AcDbEntity
  8
_U+30EC_U+30A4_U+30E4_U+30FC 1
 62
   179
420
  2234388
370
     9
  0
INSERT
  5
8F
330
1F
100
AcDbEntity
  8
_U+30EC_U+30A4_U+30E4_U+30FC 1
100
AcDbBlockReference
  2
block 2
 10
0.0
 20
0.0
 30
0.0
  0
POLYLINE
  5
96
330
1F
100
AcDbEntity
  8
_U+30EC_U+30A4_U+30E4_U+30FC 1
 62
   179
420
  2234388
370
     9
100
AcDb2dPolyline
 66
     1
 10
0.0
 20
0.0
 30
0.0
  0
VERTEX
  5
97
330
96
100
AcDbEntity
  8
_U+30EC_U+30A4_U+30E4_U+30FC 1
 62
   179
420
  2234388
370
     9
100
AcDbVertex
100
AcDb2dVertex
 10
107.713671418662
 20
-121.5040396918462
 30
0.0
  0
VERTEX
  5
98
330
96
100
AcDbEntity
  8
_U+30EC_U+30A4_U+30E4_U+30FC 1
 62
   179
420
  2234388
370
     9
100
AcDbVertex
100
AcDb2dVertex
 10
107.713671418662
 20
-116.2461338598273
 30
0.0
  0
SEQEND
  5
99
330
96
100
AcDbEntity
  8
_U+30EC_U+30A4_U+30E4_U+30FC 1
 62
   179
420
  2234388
370
     9
  0
POLYLINE
  5
9A
330
1F
100
AcDbEntity
  8
_U+30EC_U+30A4_U+30E4_U+30FC 1
 62
   179
420
  2234388
370
     9
100
AcDb2dPolyline
 66
     1
 10
0.0
 20
0.0
 30
0.0
  0
VERTEX
  5
9B
330
9A
100
AcDbEntity
  8
_U+30EC_U+30A4_U+30E4_U+30FC 1
 62
   179
420
  2234388
370
     9
100
AcDbVertex
100
AcDb2dVertex
 10
107.713671418662
 20
-121.5040396918462
 30
0.0
  0
VERTEX
  5
9C
330
9A
100
AcDbEntity
  8
_U+30EC_U+30A4_U+30E4_U+30FC 1
 62
   179
420
  2234388
370
     9
100
AcDbVertex
100
AcDb2dVertex
 10
107.713671418662
 20
-122.3039985805352
 30
0.0
  0
SEQEND
  5
9D
330
9A
100
AcDbEntity
  8
_U+30EC_U+30A4_U+30E4_U+30FC 1
 62
   179
420
  2234388
370
     9
  0
POLYLINE
  5
9E
330
1F
100
AcDbEntity
  8
_U+30EC_U+30A4_U+30E4_U+30FC 1
 62
   179
420
  2234388
370
     9
100
AcDb2dPolyline
 66
     1
 10
0.0
 20
0.0
 30
0.0
  0
VERTEX
  5
9F
330
9E
100
AcDbEntity
  8
_U+30EC_U+30A4_U+30E4_U+30FC 1
 62
   179
420
  2234388
370
     9
100
AcDbVertex
100
AcDb2dVertex
 10
106.2536300670218
 20
-121.5040396918462
 30
0.0
  0
VERTEX
  5
A0
330
9E
100
AcDbEntity
  8
_U+30EC_U+30A4_U+30E4_U+30FC 1
 62
   179
420
  2234388
370
     9
100
AcDbVertex
100
AcDb2dVertex
 10
108.7141166394879
 20
-121.5040396918462
 30
0.0
  0
SEQEND
  5
A1
330
9E
100
AcDbEntity
  8
_U+30EC_U+30A4_U+30E4_U+30FC 1
 62
   179
420
  2234388
370
     9
  0
POLYLINE
  5
A2
330
1F
100
AcDbEntity
  8
_U+30EC_U+30A4_U+30E4_U+30FC 1
 62
   179
420
  2234388
370
     9
100
AcDb2dPolyline
 66
     1
 10
0.0
 20
0.0
 30
0.0
  0
VERTEX
  5
A3
330
A2
100
AcDbEntity
  8
_U+30EC_U+30A4_U+30E4_U+30FC 1
 62
   179
420
  2234388
370
     9
100
AcDbVertex
100
AcDb2dVertex
 10
106.2536300670218
 20
-122.3039985805352
 30
0.0
  0
VERTEX
  5
A4
330
A2
100
AcDbEntity
  8
_U+30EC_U+30A4_U+30E4_U+30FC 1
 62
   179
420
  2234388
370
     9
100
AcDbVertex
100
AcDb2dVertex
 10
108.7141166394879
 20
-122.3039985805352
 30
0.0
  0
SEQEND
  5
A5
330
A2
100
AcDbEntity
  8
_U+30EC_U+30A4_U+30E4_U+30FC 1
 62
   179
420
  2234388
370
     9
  0
INSERT
  5
A7
330
1F
100
AcDbEntity
  8
_U+30EC_U+30A4_U+30E4_U+30FC 1
100
AcDbBlockReference
  2
block 3
 10
0.0
 20
0.0
 30
0.0
  0
POLYLINE
  5
B9
330
1F
100
AcDbEntity
  8
_U+30EC_U+30A4_U+30E4_U+30FC 1
 62
   179
420
  2234388
370
     9
100
AcDb2dPolyline
 66
     1
 10
0.0
 20
0.0
 30
0.0
  0
VERTEX
  5
BA
330
B9
100
AcDbEntity
  8
_U+30EC_U+30A4_U+30E4_U+30FC 1
 62
   179
420
  2234388
370
     9
100
AcDbVertex
100
AcDb2dVertex
 10
107.713671418662
 20
-135.3043888550631
 30
0.0
  0
VERTEX
  5
BB
330
B9
100
AcDbEntity
  8
_U+30EC_U+30A4_U+30E4_U+30FC 1
 62
   179
420
  2234388
370
     9
100
AcDbVertex
100
AcDb2dVertex
 10
107.713671418662
 20
-138.3043757987575
 30
0.0
  0
SEQEND
  5
BC
330
B9
100
AcDbEntity
  8
_U+30EC_U+30A4_U+30E4_U+30FC 1
 62
   179
420
  2234388
370
     9
  0
POLYLINE
  5
BD
330
1F
100
AcDbEntity
  8
_U+30EC_U+30A4_U+30E4_U+30FC 1
 62
   179
420
  2234388
370
     9
100
AcDb2dPolyline
 66
     1
 10
0.0
 20
0.0
 30
0.0
  0
VERTEX
  5
BE
330
BD
100
AcDbEntity
  8
_U+30EC_U+30A4_U+30E4_U+30FC 1
 62
   179
420
  2234388
370
     9
100
AcDbVertex
100
AcDb2dVertex
 10
97.25366946329663
 20
-138.3043757987575
 30
0.0
  0
VERTEX
  5
BF
330
BD
100
AcDbEntity
  8
_U+30EC_U+30A4_U+30E4_U+30FC 1
 62
   179
420
  2234388
370
     9
100
AcDbVertex
100
AcDb2dVertex
 10
108.7141166394879
 20
-138.3043757987575
 30
0.0
  0
SEQEND
  5
C0
330
BD
100
AcDbEntity
  8
_U+30EC_U+30A4_U+30E4_U+30FC 1
 62
   179
420
  2234388
370
     9
  0
INSERT
  5
C2
330
1F
100
AcDbEntity
  8
_U+30EC_U+30A4_U+30E4_U+30FC 1
100
AcDbBlockReference
  2
block 4
 10
0.0
 20
0.0
 30
0.0
  0
POLYLINE
  5
C7
330
1F
100
AcDbEntity
  8
_U+30EC_U+30A4_U+30E4_U+30FC 1
 62
   179
420
  2234388
370
     9
100
AcDb2dPolyline
 66
     1
 10
0.0
 20
0.0
 30
0.0
  0
VERTEX
  5
C8
330
C7
100
AcDbEntity
  8
_U+30EC_U+30A4_U+30E4_U+30FC 1
 62
   179
420
  2234388
370
     9
100
AcDbVertex
100
AcDb2dVertex
 10
84.71351339433377
 20
-142.3041349644237
 30
0.0
  0
VERTEX
  5
C9
330
C7
100
AcDbEntity
  8
_U+30EC_U+30A4_U+30E4_U+30FC 1
 62
   179
420
  2234388
370
     9
100
AcDbVertex
100
AcDb2dVertex
 10
94.71395175031245
 20
-142.3041349644237
 30
0.0
  0
SEQEND
  5
CA
330
C7
100
AcDbEntity
  8
_U+30EC_U+30A4_U+30E4_U+30FC 1
 62
   179
420
  2234388
370
     9
  0
POLYLINE
  5
CB
330
1F
100
AcDbEntity
  8
_U+30EC_U+30A4_U+30E4_U+30FC 1
 62
   179
420
  2234388
370
     9
100
AcDb2dPolyline
 66
     1
 10
0.0
 20
0.0
 30
0.0
  0
VERTEX
  5
CC
330
CB
100
AcDbEntity
  8
_U+30EC_U+30A4_U+30E4_U+30FC 1
 62
   179
420
  2234388
370
     9
100
AcDbVertex
100
AcDb2dVertex
 10
84.71351339433377
 20
-140.8441288536781
 30
0.0
  0
VERTEX
  5
CD
330
CB
100
AcDbEntity
  8
_U+30EC_U+30A4_U+30E4_U+30FC 1
 62
   179
420
  2234388
370
     9
100
AcDbVertex
100
AcDb2dVertex
 10
84.71351339433377
 20
-143.3039071863962
 30
0.0
  0
SEQEND
  5
CE
330
CB
100
AcDbEntity
  8
_U+30EC_U+30A4_U+30E4_U+30FC 1
 62
   179
420
  2234388
370
     9
  0
POLYLINE
  5
CF
330
1F
100
AcDbEntity
  8
_U+30EC_U+30A4_U+30E4_U+30FC 1
 62
   179
420
  2234388
370
     9
100
AcDb2dPolyline
 66
     1
 10
0.0
 20
0.0
 30
0.0
  0
VERTEX
  5
D0
330
CF
100
AcDbEntity
  8
_U+30EC_U+30A4_U+30E4_U+30FC 1
 62
   179
420
  2234388
370
     9
100
AcDbVertex
100
AcDb2dVertex
 10
94.71395175031245
 20
-140.8441288536781
 30
0.0
  0
VERTEX
  5
D1
330
CF
100
AcDbEntity
  8
_U+30EC_U+30A4_U+30E4_U+30FC 1
 62
   179
420
  2234388
370
     9
100
AcDbVertex
100
AcDb2dVertex
 10
94.71395175031245
 20
-143.3039071863962
 30
0.0
  0
SEQEND
  5
D2
330
CF
100
AcDbEntity
  8
_U+30EC_U+30A4_U+30E4_U+30FC 1
 62
   179
420
  2234388
370
     9
  0
INSERT
  5
D4
330
1F
100
AcDbEntity
  8
_U+30EC_U+30A4_U+30E4_U+30FC 1
100
AcDbBlockReference
  2
block 5
 10
0.0
 20
0.0
 30
0.0
  0
POLYLINE
  5
DC
330
1F
100
AcDbEntity
  8
_U+30EC_U+30A4_U+30E4_U+30FC 1
 62
   179
420
  2234388
370
     9
100
AcDb2dPolyline
 66
     1
 10
0.0
 20
0.0
 30
0.0
  0
VERTEX
  5
DD
330
DC
100
AcDbEntity
  8
_U+30EC_U+30A4_U+30E4_U+30FC 1
 62
   179
420
  2234388
370
     9
100
AcDbVertex
100
AcDb2dVertex
 10
84.71351339433377
 20
-142.3041349644237
 30
0.0
  0
VERTEX
  5
DE
330
DC
100
AcDbEntity
  8
_U+30EC_U+30A4_U+30E4_U+30FC 1
 62
   179
420
  2234388
370
     9
100
AcDbVertex
100
AcDb2dVertex
 10
72.71356592270017
 20
-142.3041349644237
 30
0.0
  0
SEQEND
  5
DF
330
DC
100
AcDbEntity
  8
_U+30EC_U+30A4_U+30E4_U+30FC 1
 62
   179
420
  2234388
370
     9
  0
POLYLINE
  5
E0
330
1F
100
AcDbEntity
  8
_U+30EC_U+30A4_U+30E4_U+30FC 1
 62
   179
420
  2234388
370
     9
100
AcDb2dPolyline
 66
     1
 10
0.0
 20
0.0
 30
0.0
  0
VERTEX
  5
E1
330
E0
100
AcDbEntity
  8
_U+30EC_U+30A4_U+30E4_U+30FC 1
 62
   179
420
  2234388
370
     9
100
AcDbVertex
100
AcDb2dVertex
 10
72.71356592270017
 20
-124.8443866354557
 30
0.0
  0
VERTEX
  5
E2
330
E0
100
AcDbEntity
  8
_U+30EC_U+30A4_U+30E4_U+30FC 1
 62
   179
420
  2234388
370
     9
100
AcDbVertex
100
AcDb2dVertex
 10
72.71356592270017
 20
-143.3039071863962
 30
0.0
  0
SEQEND
  5
E3
330
E0
100
AcDbEntity
  8
_U+30EC_U+30A4_U+30E4_U+30FC 1
 62
   179
420
  2234388
370
     9
  0
INSERT
  5
E5
330
1F
100
AcDbEntity
  8
_U+30EC_U+30A4_U+30E4_U+30FC 1
100
AcDbBlockReference
  2
block 6
 10
0.0
 20
0.0
 30
0.0
  0
POLYLINE
  5
EC
330
1F
100
AcDbEntity
  8
_U+30EC_U+30A4_U+30E4_U+30FC 1
 62
   179
420
  2234388
370
     9
100
AcDb2dPolyline
 66
     1
 10
0.0
 20
0.0
 30
0.0
  0
VERTEX
  5
ED
330
EC
100
AcDbEntity
  8
_U+30EC_U+30A4_U+30E4_U+30FC 1
 62
   179
420
  2234388
370
     9
100
AcDbVertex
100
AcDb2dVertex
 10
107.713671418662
 20
-122.3039985805352
 30
0.0
  0
VERTEX
  5
EE
330
EC
100
AcDbEntity
  8
_U+30EC_U+30A4_U+30E4_U+30FC 1
 62
   179
420
  2234388
370
     9
100
AcDbVertex
100
AcDb2dVertex
 10
107.713671418662
 20
-135.3043888550631
 30
0.0
  0
SEQEND
  5
EF
330
EC
100
AcDbEntity
  8
_U+30EC_U+30A4_U+30E4_U+30FC 1
 62
   179
420
  2234388
370
     9
  0
POLYLINE
  5
F0
330
1F
100
AcDbEntity
  8
_U+30EC_U+30A4_U+30E4_U+30FC 1
 62
   179
420
  2234388
370
     9
100
AcDb2dPolyline
 66
     1
 10
0.0
 20
0.0
 30
0.0
  0
VERTEX
  5
F1
330
F0
100
AcDbEntity
  8
_U+30EC_U+30A4_U+30E4_U+30FC 1
 62
   179
420
  2234388
370
     9
100
AcDbVertex
100
AcDb2dVertex
 10
106.2536300670218
 20
-122.3039985805352
 30
0.0
  0
VERTEX
  5
F2
330
F0
100
AcDbEntity
  8
_U+30EC_U+30A4_U+30E4_U+30FC 1
 62
   179
420
  2234388
370
     9
100
AcDbVertex
100
AcDb2dVertex
 10
108.7141166394879
 20
-122.3039985805352
 30
0.0
  0
SEQEND
  5
F3
330
F0
100
AcDbEntity
  8
_U+30EC_U+30A4_U+30E4_U+30FC 1
 62
   179
420
  2234388
370
     9
  0
POLYLINE
  5
F4
330
1F
100
AcDbEntity
  8
_U+30EC_U+30A4_U+30E4_U+30FC 1
 62
   179
420
  2234388
370
     9
100
AcDb2dPolyline
 66
     1
 10
0.0
 20
0.0
 30
0.0
  0
VERTEX
  5
F5
330
F4
100
AcDbEntity
  8
_U+30EC_U+30A4_U+30E4_U+30FC 1
 62
   179
420
  2234388
370
     9
100
AcDbVertex
100
AcDb2dVertex
 10
97.25366946329663
 20
-135.3043888550631
 30
0.0
  0
VERTEX
  5
F6
330
F4
100
AcDbEntity
  8
_U+30EC_U+30A4_U+30E4_U+30FC 1
 62
   179
420
  2234388
370
     9
100
AcDbVertex
100
AcDb2dVertex
 10
108.7141166394879
 20
-135.3043888550631
 30
0.0
  0
SEQEND
  5
F7
330
F4
100
AcDbEntity
  8
_U+30EC_U+30A4_U+30E4_U+30FC 1
 62
   179
420
  2234388
370
     9
  0
INSERT
  5
F9
330
1F
100
AcDbEntity
  8
_U+30EC_U+30A4_U+30E4_U+30FC 1
100
AcDbBlockReference
  2
block 7
 10
0.0
 20
0.0
 30
0.0
  0
ENDSEC
  0
SECTION
  2
OBJECTS
  0
DICTIONARY
  5
C
330
0
100
AcDbDictionary
281
     1
  3
ACAD_GROUP
350
D
  3
ACAD_LAYOUT
350
1A
  3
ACAD_MATERIAL
350
3B
  3
ACAD_MLEADERSTYLE
350
101
  3
ACAD_MLINESTYLE
350
17
  3
ACAD_PLOTSETTINGS
350
19
  3
ACAD_PLOTSTYLENAME
350
E
  3
ACAD_TABLESTYLE
350
100
  3
ACAD_VISUALSTYLE
350
2A
  0
SUN
  5
3F
330
29
100
AcDbSun
 90
        1
290
     0
 63
     7
421
 16777215
 40
1.0
291
     1
 91
  2455826
 92
 54000000
292
     0
 70
     2
 71
   256
280
     1
  0
DICTIONARY
  5
D
102
{ACAD_REACTORS
330
C
102
}
330
C
100
AcDbDictionary
281
     1
  0
DICTIONARY
  5
1A
102
{ACAD_REACTORS
330
C
102
}
330
C
100
AcDbDictionary
281
     1
  3
Layout1
350
1E
  3
Layout2
350
26
  3
Model
350
22
  0
DICTIONARY
  5
3B
102
{ACAD_REACTORS
330
C
102
}
330
C
100
AcDbDictionary
281
     1
  3
ByBlock
350
3D
  3
ByLayer
350
3C
  3
Global
350
3E
  0
DICTIONARY
  5
101
102
{ACAD_REACTORS
330
C
102
}
330
C
100
AcDbDictionary
281
     1
  0
DICTIONARY
  5
17
102
{ACAD_REACTORS
330
C
102
}
330
C
100
AcDbDictionary
281
     1
  3
Standard
350
18
  0
DICTIONARY
  5
19
102
{ACAD_REACTORS
330
C
102
}
330
C
100
AcDbDictionary
281
     1
  0
ACDBDICTIONARYWDFLT
  5
E
102
{ACAD_REACTORS
330
C
102
}
330
C
100
AcDbDictionary
281
     1
  3
Normal
350
F
100
AcDbDictionaryWithDefault
340
F
  0
DICTIONARY
  5
100
102
{ACAD_REACTORS
330
C
102
}
330
C
100
AcDbDictionary
281
     1
  0
DICTIONARY
  5
2A
102
{ACAD_REACTORS
330
C
102
}
330
C
100
AcDbDictionary
281
     1
  3
2dWireframe
350
2F
  3
3D Hidden
350
31
  3
3dWireframe
350
30
  3
Basic
350
32
  3
Brighten
350
36
  3
ColorChange
350
3A
  3
Conceptual
350
34
  3
Dim
350
35
  3
Facepattern
350
39
  3
Flat
350
2B
  3
FlatWithEdges
350
2C
  3
Gouraud
350
2D
  3
GouraudWithEdges
350
2E
  3
Linepattern
350
38
  3
Realistic
350
33
  3
Thicken
350
37
  0
LAYOUT
  5
1E
102
{ACAD_REACTORS
330
1A
102
}
330
1A
100
AcDbPlotSettings
  1

  2
none_device
  4

  6

 40
0.0
 41
0.0
 42
0.0
 43
0.0
 44
0.0
 45
0.0
 46
0.0
 47
0.0
 48
0.0
 49
0.0
140
0.0
141
0.0
142
1.0
143
1.0
 70
   688
 72
     0
 73
     0
 74
     5
  7

 75
    16
 76
     0
 77
     2
 78
   300
147
1.0
148
0.0
149
0.0
100
AcDbLayout
  1
Layout1
 70
     1
 71
     1
 10
0.0
 20
0.0
 11
12.0
 21
9.0
 12
0.0
 22
0.0
 32
0.0
 14
1.000000000000000E+20
 24
1.000000000000000E+20
 34
1.000000000000000E+20
 15
-1.000000000000000E+20
 25
-1.000000000000000E+20
 35
-1.000000000000000E+20
146
0.0
 13
0.0
 23
0.0
 33
0.0
 16
1.0
 26
0.0
 36
0.0
 17
0.0
 27
1.0
 37
0.0
 76
     0
330
1B
  0
LAYOUT
  5
26
102
{ACAD_REACTORS
330
1A
102
}
330
1A
100
AcDbPlotSettings
  1

  2
none_device
  4

  6

 40
0.0
 41
0.0
 42
0.0
 43
0.0
 44
0.0
 45
0.0
 46
0.0
 47
0.0
 48
0.0
 49
0.0
140
0.0
141
0.0
142
1.0
143
1.0
 70
   688
 72
     0
 73
     0
 74
     5
  7

 75
    16
 76
     0
 77
     2
 78
   300
147
1.0
148
0.0
149
0.0
100
AcDbLayout
  1
Layout2
 70
     1
 71
     2
 10
0.0
 20
0.0
 11
0.0
 21
0.0
 12
0.0
 22
0.0
 32
0.0
 14
0.0
 24
0.0
 34
0.0
 15
0.0
 25
0.0
 35
0.0
146
0.0
 13
0.0
 23
0.0
 33
0.0
 16
1.0
 26
0.0
 36
0.0
 17
0.0
 27
1.0
 37
0.0
 76
     0
330
23
  0
LAYOUT
  5
22
102
{ACAD_REACTORS
330
1A
102
}
330
1A
100
AcDbPlotSettings
  1

  2
none_device
  4

  6

 40
0.0
 41
0.0
 42
0.0
 43
0.0
 44
0.0
 45
0.0
 46
0.0
 47
0.0
 48
0.0
 49
0.0
140
0.0
141
0.0
142
1.0
143
1.0
 70
  1712
 72
     0
 73
     0
 74
     0
  7

 75
     0
 76
     0
 77
     2
 78
   300
147
1.0
148
0.0
149
0.0
100
AcDbLayout
  1
Model
 70
     1
 71
     0
 10
0.0
 20
0.0
 11
12.0
 21
9.0
 12
0.0
 22
0.0
 32
0.0
 14
1.000000000000000E+20
 24
1.000000000000000E+20
 34
1.000000000000000E+20
 15
-1.000000000000000E+20
 25
-1.000000000000000E+20
 35
-1.000000000000000E+20
146
0.0
 13
0.0
 23
0.0
 33
0.0
 16
1.0
 26
0.0
 36
0.0
 17
0.0
 27
1.0
 37
0.0
 76
     0
330
1F
331
29
  0
MATERIAL
  5
3D
102
{ACAD_REACTORS
330
3B
102
}
330
3B
100
AcDbMaterial
  1
ByBlock
 72
     1
 94
      127
  0
MATERIAL
  5
3C
102
{ACAD_REACTORS
330
3B
102
}
330
3B
100
AcDbMaterial
  1
ByLayer
 72
     1
 94
      127
  0
MATERIAL
  5
3E
102
{ACAD_REACTORS
330
3B
102
}
330
3B
100
AcDbMaterial
  1
Global
 72
     1
 94
      127
  0
MLINESTYLE
  5
18
102
{ACAD_REACTORS
330
17
102
}
330
17
100
AcDbMlineStyle
  2
Standard
 70
     0
  3

 62
   256
 51
90.0
 52
90.0
 71
     2
 49
0.5
 62
   256
  6
BYLAYER
 49
-0.5
 62
   256
  6
BYLAYER
  0
ACDBPLACEHOLDER
  5
F
102
{ACAD_REACTORS
330
E
102
}
330
E
  0
VISUALSTYLE
  5
2F
102
{ACAD_REACTORS
330
2A
102
}
330
2A
100
AcDbVisualStyle
  2
2dWireframe
 70
     4
177
     2
291
     0
 71
     0
176
     1
 72
     2
176
     1
 73
     0
176
     1
 90
        0
176
     1
 40
-0.6
176
     1
 41
-30.0
176
     1
 62
     5
 63
     7
421
 16777215
176
     1
 74
     1
176
     1
 91
        4
176
     1
 64
     7
176
     1
 65
   257
176
     1
 75
     1
176
     1
175
     1
176
     1
 42
1.0
176
     1
 92
        0
176
     1
 66
   257
176
     1
 43
1.0
176
     1
 76
     1
176
     1
 77
     6
176
     1
 78
     2
176
     1
 67
     7
176
     1
 79
     5
176
     1
170
     0
176
     1
171
     0
176
     1
290
     0
176
     1
 93
        1
176
     1
 44
0.0
176
     1
173
     0
176
     1
  0
VISUALSTYLE
  5
31
102
{ACAD_REACTORS
330
2A
102
}
330
2A
100
AcDbVisualStyle
  2
3D Hidden
 70
     6
177
     2
291
     0
 71
     1
176
     1
 72
     2
176
     1
 73
     2
176
     1
 90
        0
176
     1
 40
-0.6
176
     1
 41
-30.0
176
     1
 62
     5
 63
     7
421
 16777215
176
     1
 74
     2
176
     1
 91
        2
176
     1
 64
     7
176
     1
 65
   257
176
     1
 75
     2
176
     1
175
     1
176
     1
 42
40.0
176
     1
 92
        0
176
     1
 66
   257
176
     1
 43
1.0
176
     1
 76
     1
176
     1
 77
     6
176
     1
 78
     2
176
     1
 67
     7
176
     1
 79
     3
176
     1
170
     0
176
     1
171
     0
176
     1
290
     0
176
     1
 93
        1
176
     1
 44
0.0
176
     1
173
     0
176
     1
  0
VISUALSTYLE
  5
30
102
{ACAD_REACTORS
330
2A
102
}
330
2A
100
AcDbVisualStyle
  2
3dWireframe
 70
     5
177
     2
291
     0
 71
     0
176
     1
 72
     2
176
     1
 73
     0
176
     1
 90
        0
176
     1
 40
-0.6
176
     1
 41
-30.0
176
     1
 62
     5
 63
     7
421
 16777215
176
     1
 74
     1
176
     1
 91
        4
176
     1
 64
     7
176
     1
 65
   257
176
     1
 75
     1
176
     1
175
     1
176
     1
 42
1.0
176
     1
 92
        0
176
     1
 66
   257
176
     1
 43
1.0
176
     1
 76
     1
176
     1
 77
     6
176
     1
 78
     2
176
     1
 67
     7
176
     1
 79
     5
176
     1
170
     0
176
     1
171
     0
176
     1
290
     0
176
     1
 93
        1
176
     1
 44
0.0
176
     1
173
     0
176
     1
  0
VISUALSTYLE
  5
32
102
{ACAD_REACTORS
330
2A
102
}
330
2A
100
AcDbVisualStyle
  2
Basic
 70
     7
177
     2
291
     1
 71
     1
176
     1
 72
     0
176
     1
 73
     1
176
     1
 90
        0
176
     1
 40
-0.6
176
     1
 41
-30.0
176
     1
 62
     5
 63
     7
421
 16777215
176
     1
 74
     0
176
     1
 91
        4
176
     1
 64
     7
176
     1
 65
   257
176
     1
 75
     1
176
     1
175
     1
176
     1
 42
1.0
176
     1
 92
        8
176
     1
 66
     7
176
     1
 43
1.0
176
     1
 76
     1
176
     1
 77
     6
176
     1
 78
     2
176
     1
 67
     7
176
     1
 79
     5
176
     1
170
     0
176
     1
171
     0
176
     1
290
     0
176
     1
 93
        1
176
     1
 44
0.0
176
     1
173
     0
176
     1
  0
VISUALSTYLE
  5
36
102
{ACAD_REACTORS
330
2A
102
}
330
2A
100
AcDbVisualStyle
  2
Brighten
 70
    12
177
     2
291
     1
 71
     2
176
     1
 72
     2
176
     1
 73
     0
176
     1
 90
        0
176
     1
 40
-0.6
176
     1
 41
-30.0
176
     1
 62
     5
 63
     7
421
 16777215
176
     1
 74
     1
176
     1
 91
        4
176
     1
 64
     7
176
     1
 65
   257
176
     1
 75
     1
176
     1
175
     1
176
     1
 42
1.0
176
     1
 92
        8
176
     1
 66
     7
176
     1
 43
1.0
176
     1
 76
     1
176
     1
 77
     6
176
     1
 78
     2
176
     1
 67
     7
176
     1
 79
     5
176
     1
170
     0
176
     1
171
     0
176
     1
290
     0
176
     1
 93
        1
176
     1
 44
50.0
176
     1
173
     0
176
     1
  0
VISUALSTYLE
  5
3A
102
{ACAD_REACTORS
330
2A
102
}
330
2A
100
AcDbVisualStyle
  2
ColorChange
 70
    16
177
     2
291
     1
 71
     2
176
     1
 72
     2
176
     1
 73
     3
176
     1
 90
        0
176
     1
 40
-0.6
176
     1
 41
-30.0
176
     1
 62
     5
 63
     8
421
  8421504
176
     1
 74
     1
176
     1
 91
        4
176
     1
 64
     7
176
     1
 65
   257
176
     1
 75
     1
176
     1
175
     1
176
     1
 42
1.0
176
     1
 92
        8
176
     1
 66
     8
424
  8421504
176
     1
 43
1.0
176
     1
 76
     1
176
     1
 77
     6
176
     1
 78
     2
176
     1
 67
     7
176
     1
 79
     5
176
     1
170
     0
176
     1
171
     0
176
     1
290
     0
176
     1
 93
        1
176
     1
 44
0.0
176
     1
173
     0
176
     1
  0
VISUALSTYLE
  5
34
102
{ACAD_REACTORS
330
2A
102
}
330
2A
100
AcDbVisualStyle
  2
Conceptual
 70
     9
177
     2
291
     0
 71
     3
176
     1
 72
     2
176
     1
 73
     0
176
     1
 90
        0
176
     1
 40
-0.6
176
     1
 41
-30.0
176
     1
 62
     5
 63
     7
421
 16777215
176
     1
 74
     2
176
     1
 91
        2
176
     1
 64
     7
176
     1
 65
   257
176
     1
 75
     1
176
     1
175
     1
176
     1
 42
40.0
176
     1
 92
        8
176
     1
 66
     7
176
     1
 43
1.0
176
     1
 76
     1
176
     1
 77
     6
176
     1
 78
     2
176
     1
 67
     7
176
     1
 79
     3
176
     1
170
     0
176
     1
171
     0
176
     1
290
     0
176
     1
 93
        1
176
     1
 44
0.0
176
     1
173
     0
176
     1
  0
VISUALSTYLE
  5
35
102
{ACAD_REACTORS
330
2A
102
}
330
2A
100
AcDbVisualStyle
  2
Dim
 70
    11
177
     2
291
     1
 71
     2
176
     1
 72
     2
176
     1
 73
     0
176
     1
 90
        0
176
     1
 40
-0.6
176
     1
 41
-30.0
176
     1
 62
     5
 63
     7
421
 16777215
176
     1
 74
     1
176
     1
 91
        4
176
     1
 64
     7
176
     1
 65
   257
176
     1
 75
     1
176
     1
175
     1
176
     1
 42
1.0
176
     1
 92
        8
176
     1
 66
     7
176
     1
 43
1.0
176
     1
 76
     1
176
     1
 77
     6
176
     1
 78
     2
176
     1
 67
     7
176
     1
 79
     5
176
     1
170
     0
176
     1
171
     0
176
     1
290
     0
176
     1
 93
        1
176
     1
 44
-50.0
176
     1
173
     0
176
     1
  0
VISUALSTYLE
  5
39
102
{ACAD_REACTORS
330
2A
102
}
330
2A
100
AcDbVisualStyle
  2
Facepattern
 70
    15
177
     2
291
     1
 71
     2
176
     1
 72
     2
176
     1
 73
     0
176
     1
 90
        0
176
     1
 40
-0.6
176
     1
 41
-30.0
176
     1
 62
     5
 63
     7
421
 16777215
176
     1
 74
     1
176
     1
 91
        4
176
     1
 64
     7
176
     1
 65
   257
176
     1
 75
     1
176
     1
175
     1
176
     1
 42
1.0
176
     1
 92
        8
176
     1
 66
     7
176
     1
 43
1.0
176
     1
 76
     1
176
     1
 77
     6
176
     1
 78
     2
176
     1
 67
     7
176
     1
 79
     5
176
     1
170
     0
176
     1
171
     0
176
     1
290
     0
176
     1
 93
        1
176
     1
 44
0.0
176
     1
173
     0
176
     1
  0
VISUALSTYLE
  5
2B
102
{ACAD_REACTORS
330
2A
102
}
330
2A
100
AcDbVisualStyle
  2
Flat
 70
     0
177
     2
291
     1
 71
     2
176
     1
 72
     1
176
     1
 73
     1
176
     1
 90
        2
176
     1
 40
-0.6
176
     1
 41
30.0
176
     1
 62
     5
 63
     7
421
 16777215
176
     1
 74
     0
176
     1
 91
        4
176
     1
 64
     7
176
     1
 65
   257
176
     1
 75
     1
176
     1
175
     1
176
     1
 42
1.0
176
     1
 92
        8
176
     1
 66
     7
176
     1
 43
1.0
176
     1
 76
     1
176
     1
 77
     6
176
     1
 78
     2
176
     1
 67
     7
176
     1
 79
     5
176
     1
170
     0
176
     1
171
     0
176
     1
290
     0
176
     1
 93
       13
176
     1
 44
0.0
176
     1
173
     0
176
     1
  0
VISUALSTYLE
  5
2C
102
{ACAD_REACTORS
330
2A
102
}
330
2A
100
AcDbVisualStyle
  2
FlatWithEdges
 70
     1
177
     2
291
     1
 71
     2
176
     1
 72
     1
176
     1
 73
     1
176
     1
 90
        2
176
     1
 40
-0.6
176
     1
 41
30.0
176
     1
 62
     5
 63
     7
421
 16777215
176
     1
 74
     1
176
     1
 91
        4
176
     1
 64
     7
176
     1
 65
   257
176
     1
 75
     1
176
     1
175
     1
176
     1
 42
1.0
176
     1
 92
        0
176
     1
 66
   257
176
     1
 43
1.0
176
     1
 76
     1
176
     1
 77
     6
176
     1
 78
     2
176
     1
 67
     7
176
     1
 79
     5
176
     1
170
     0
176
     1
171
     0
176
     1
290
     0
176
     1
 93
       13
176
     1
 44
0.0
176
     1
173
     0
176
     1
  0
VISUALSTYLE
  5
2D
102
{ACAD_REACTORS
330
2A
102
}
330
2A
100
AcDbVisualStyle
  2
Gouraud
 70
     2
177
     2
291
     1
 71
     2
176
     1
 72
     2
176
     1
 73
     1
176
     1
 90
        2
176
     1
 40
-0.6
176
     1
 41
30.0
176
     1
 62
     5
 63
     7
421
 16777215
176
     1
 74
     0
176
     1
 91
        4
176
     1
 64
     7
176
     1
 65
   257
176
     1
 75
     1
176
     1
175
     1
176
     1
 42
1.0
176
     1
 92
        0
176
     1
 66
     7
176
     1
 43
1.0
176
     1
 76
     1
176
     1
 77
     6
176
     1
 78
     2
176
     1
 67
     7
176
     1
 79
     5
176
     1
170
     0
176
     1
171
     0
176
     1
290
     0
176
     1
 93
       13
176
     1
 44
0.0
176
     1
173
     0
176
     1
  0
VISUALSTYLE
  5
2E
102
{ACAD_REACTORS
330
2A
102
}
330
2A
100
AcDbVisualStyle
  2
GouraudWithEdges
 70
     3
177
     2
291
     1
 71
     2
176
     1
 72
     2
176
     1
 73
     1
176
     1
 90
        2
176
     1
 40
-0.6
176
     1
 41
30.0
176
     1
 62
     5
 63
     7
421
 16777215
176
     1
 74
     1
176
     1
 91
        4
176
     1
 64
     7
176
     1
 65
   257
176
     1
 75
     1
176
     1
175
     1
176
     1
 42
1.0
176
     1
 92
        0
176
     1
 66
   257
176
     1
 43
1.0
176
     1
 76
     1
176
     1
 77
     6
176
     1
 78
     2
176
     1
 67
     7
176
     1
 79
     5
176
     1
170
     0
176
     1
171
     0
176
     1
290
     0
176
     1
 93
       13
176
     1
 44
0.0
176
     1
173
     0
176
     1
  0
VISUALSTYLE
  5
38
102
{ACAD_REACTORS
330
2A
102
}
330
2A
100
AcDbVisualStyle
  2
Linepattern
 70
    14
177
     2
291
     1
 71
     2
176
     1
 72
     2
176
     1
 73
     0
176
     1
 90
        0
176
     1
 40
-0.6
176
     1
 41
-30.0
176
     1
 62
     5
 63
     7
421
 16777215
176
     1
 74
     1
176
     1
 91
        4
176
     1
 64
     7
176
     1
 65
   257
176
     1
 75
     7
176
     1
175
     7
176
     1
 42
1.0
176
     1
 92
        8
176
     1
 66
     7
176
     1
 43
1.0
176
     1
 76
     1
176
     1
 77
     6
176
     1
 78
     2
176
     1
 67
     7
176
     1
 79
     5
176
     1
170
     0
176
     1
171
     0
176
     1
290
     0
176
     1
 93
        1
176
     1
 44
0.0
176
     1
173
     0
176
     1
  0
VISUALSTYLE
  5
33
102
{ACAD_REACTORS
330
2A
102
}
330
2A
100
AcDbVisualStyle
  2
Realistic
 70
     8
177
     2
291
     0
 71
     2
176
     1
 72
     2
176
     1
 73
     0
176
     1
 90
        0
176
     1
 40
-0.6
176
     1
 41
-30.0
176
     1
 62
     5
 63
     7
421
 16777215
176
     1
 74
     1
176
     1
 91
        0
176
     1
 64
     7
176
     1
 65
   257
176
     1
 75
     1
176
     1
175
     1
176
     1
 42
1.0
176
     1
 92
        8
176
     1
 66
     8
424
  7895160
176
     1
 43
1.0
176
     1
 76
     1
176
     1
 77
     6
176
     1
 78
     2
176
     1
 67
     7
176
     1
 79
     5
176
     1
170
     0
176
     1
171
     0
176
     1
290
     0
176
     1
 93
       13
176
     1
 44
0.0
176
     1
173
     0
176
     1
  0
VISUALSTYLE
  5
37
102
{ACAD_REACTORS
330
2A
102
}
330
2A
100
AcDbVisualStyle
  2
Thicken
 70
    13
177
     2
291
     1
 71
     2
176
     1
 72
     2
176
     1
 73
     0
176
     1
 90
        0
176
     1
 40
-0.6
176
     1
 41
-30.0
176
     1
 62
     5
 63
     7
421
 16777215
176
     1
 74
     1
176
     1
 91
        4
176
     1
 64
     7
176
     1
 65
   257
176
     1
 75
     1
176
     1
175
     1
176
     1
 42
1.0
176
     1
 92
       12
176
     1
 66
     7
176
     1
 43
1.0
176
     1
 76
     1
176
     1
 77
     6
176
     1
 78
     2
176
     1
 67
     7
176
     1
 79
     5
176
     1
170
     0
176
     1
171
     0
176
     1
290
     0
176
     1
 93
        1
176
     1
 44
0.0
176
     1
173
     0
176
     1
  0
ENDSEC
  0
EOF
