  0
SECTION
  2
HEADER
  9
$ACADVER
  1
AC1024
  9
$ACADMAINTVER
 70
     6
  9
$DWGCODEPAGE
  3
UNDEFINED
  9
$INSBASE
 10
0.0
 20
0.0
 30
0.0
  9
$EXTMIN
 10
1.000000000000000E+20
 20
1.000000000000000E+20
 30
1.000000000000000E+20
  9
$EXTMAX
 10
-1.000000000000000E+20
 20
-1.000000000000000E+20
 30
-1.000000000000000E+20
  9
$LIMMIN
 10
0.0
 20
0.0
  9
$LIMMAX
 10
12.0
 20
9.0
  9
$ORTHOMODE
 70
     0
  9
$REGENMODE
 70
     1
  9
$FILLMODE
 70
     1
  9
$QTEXTMODE
 70
     0
  9
$MIRRTEXT
 70
     1
  9
$LTSCALE
 40
1.0
  9
$ATTMODE
 70
     1
  9
$TEXTSIZE
 40
0.2
  9
$TRACEWID
 40
0.05
  9
$TEXTSTYLE
  7
Standard
  9
$CLAYER
  8
0
  9
$CELTYPE
  6
ByLayer
  9
$CECOLOR
 62
   256
  9
$CELTSCALE
 40
1.0
  9
$DISPSILH
 70
     0
  9
$DIMSCALE
 40
1.0
  9
$DIMASZ
 40
0.18
  9
$DIMEXO
 40
0.0625
  9
$DIMDLI
 40
0.38
  9
$DIMRND
 40
0.0
  9
$DIMDLE
 40
0.0
  9
$DIMEXE
 40
0.18
  9
$DIMTP
 40
0.0
  9
$DIMTM
 40
0.0
  9
$DIMTXT
 40
0.18
  9
$DIMCEN
 40
0.09
  9
$DIMTSZ
 40
0.0
  9
$DIMTOL
 70
     0
  9
$DIMLIM
 70
     0
  9
$DIMTIH
 70
     1
  9
$DIMTOH
 70
     1
  9
$DIMSE1
 70
     0
  9
$DIMSE2
 70
     0
  9
$DIMTAD
 70
     0
  9
$DIMZIN
 70
     0
  9
$DIMBLK
  1

  9
$DIMASO
 70
     1
  9
$DIMSHO
 70
     1
  9
$DIMPOST
  1

  9
$DIMAPOST
  1

  9
$DIMALT
 70
     0
  9
$DIMALTD
 70
     2
  9
$DIMALTF
 40
25.4
  9
$DIMLFAC
 40
1.0
  9
$DIMTOFL
 70
     0
  9
$DIMTVP
 40
0.0
  9
$DIMTIX
 70
     0
  9
$DIMSOXD
 70
     0
  9
$DIMSAH
 70
     0
  9
$DIMBLK1
  1

  9
$DIMBLK2
  1

  9
$DIMSTYLE
  2
Standard
  9
$DIMCLRD
 70
     0
  9
$DIMCLRE
 70
     0
  9
$DIMCLRT
 70
     0
  9
$DIMTFAC
 40
1.0
  9
$DIMGAP
 40
0.09
  9
$DIMJUST
 70
     0
  9
$DIMSD1
 70
     0
  9
$DIMSD2
 70
     0
  9
$DIMTOLJ
 70
     1
  9
$DIMTZIN
 70
     0
  9
$DIMALTZ
 70
     0
  9
$DIMALTTZ
 70
     0
  9
$DIMUPT
 70
     0
  9
$DIMDEC
 70
     4
  9
$DIMTDEC
 70
     4
  9
$DIMALTU
 70
     2
  9
$DIMALTTD
 70
     2
  9
$DIMTXSTY
  7
Standard
  9
$DIMAUNIT
 70
     0
  9
$DIMADEC
 70
     0
  9
$DIMALTRND
 40
0.0
  9
$DIMAZIN
 70
     0
  9
$DIMDSEP
 70
    46
  9
$DIMATFIT
 70
     3
  9
$DIMFRAC
 70
     0
  9
$DIMLDRBLK
  1

  9
$DIMLUNIT
 70
     2
  9
$DIMLWD
 70
    -2
  9
$DIMLWE
 70
    -2
  9
$DIMTMOVE
 70
     0
  9
$DIMFXL
 40
1.0
  9
$DIMFXLON
 70
     0
  9
$DIMJOGANG
 40
0.7853981633974483
  9
$DIMTFILL
 70
     0
  9
$DIMTFILLCLR
 70
     0
  9
$DIMARCSYM
 70
     0
  9
$DIMLTYPE
  6

  9
$DIMLTEX1
  6

  9
$DIMLTEX2
  6

  9
$DIMTXTDIRECTION
 70
     0
  9
$LUNITS
 70
     2
  9
$LUPREC
 70
     4
  9
$SKETCHINC
 40
0.1
  9
$FILLETRAD
 40
0.5
  9
$AUNITS
 70
     0
  9
$AUPREC
 70
     0
  9
$MENU
  1
.
  9
$ELEVATION
 40
0.0
  9
$PELEVATION
 40
0.0
  9
$THICKNESS
 40
0.0
  9
$LIMCHECK
 70
     0
  9
$CHAMFERA
 40
0.5
  9
$CHAMFERB
 40
0.5
  9
$CHAMFERC
 40
1.0
  9
$CHAMFERD
 40
0.0
  9
$SKPOLY
 70
     0
  9
$TDCREATE
 40
2457917.591458322
  9
$TDUCREATE
 40
2457917.216458333
  9
$TDUPDATE
 40
2457917.591458322
  9
$TDUUPDATE
 40
2457917.216458333
  9
$TDINDWG
 40
0.0000000116
  9
$TDUSRTIMER
 40
0.0000000116
  9
$USRTIMER
 70
     1
  9
$ANGBASE
 50
0.0
  9
$ANGDIR
 70
     0
  9
$PDMODE
 70
     0
  9
$PDSIZE
 40
0.0
  9
$PLINEWID
 40
0.0
  9
$SPLFRAME
 70
     0
  9
$SPLINETYPE
 70
     6
  9
$SPLINESEGS
 70
     8
  9
$HANDSEED
  5
103
  9
$SURFTAB1
 70
     6
  9
$SURFTAB2
 70
     6
  9
$SURFTYPE
 70
     6
  9
$SURFU
 70
     6
  9
$SURFV
 70
     6
  9
$UCSBASE
  2

  9
$UCSNAME
  2

  9
$UCSORG
 10
0.0
 20
0.0
 30
0.0
  9
$UCSXDIR
 10
1.0
 20
0.0
 30
0.0
  9
$UCSYDIR
 10
0.0
 20
1.0
 30
0.0
  9
$UCSORTHOREF
  2

  9
$UCSORTHOVIEW
 70
     0
  9
$UCSORGTOP
 10
0.0
 20
0.0
 30
0.0
  9
$UCSORGBOTTOM
 10
0.0
 20
0.0
 30
0.0
  9
$UCSORGLEFT
 10
0.0
 20
0.0
 30
0.0
  9
$UCSORGRIGHT
 10
0.0
 20
0.0
 30
0.0
  9
$UCSORGFRONT
 10
0.0
 20
0.0
 30
0.0
  9
$UCSORGBACK
 10
0.0
 20
0.0
 30
0.0
  9
$PUCSBASE
  2

  9
$PUCSNAME
  2

  9
$PUCSORG
 10
0.0
 20
0.0
 30
0.0
  9
$PUCSXDIR
 10
1.0
 20
0.0
 30
0.0
  9
$PUCSYDIR
 10
0.0
 20
1.0
 30
0.0
  9
$PUCSORTHOREF
  2

  9
$PUCSORTHOVIEW
 70
     0
  9
$PUCSORGTOP
 10
0.0
 20
0.0
 30
0.0
  9
$PUCSORGBOTTOM
 10
0.0
 20
0.0
 30
0.0
  9
$PUCSORGLEFT
 10
0.0
 20
0.0
 30
0.0
  9
$PUCSORGRIGHT
 10
0.0
 20
0.0
 30
0.0
  9
$PUCSORGFRONT
 10
0.0
 20
0.0
 30
0.0
  9
$PUCSORGBACK
 10
0.0
 20
0.0
 30
0.0
  9
$USERI1
 70
     0
  9
$USERI2
 70
     0
  9
$USERI3
 70
     0
  9
$USERI4
 70
     0
  9
$USERI5
 70
     0
  9
$USERR1
 40
0.0
  9
$USERR2
 40
0.0
  9
$USERR3
 40
0.0
  9
$USERR4
 40
0.0
  9
$USERR5
 40
0.0
  9
$WORLDVIEW
 70
     1
  9
$SHADEDGE
 70
     3
  9
$SHADEDIF
 70
    70
  9
$TILEMODE
 70
     1
  9
$MAXACTVP
 70
    64
  9
$PINSBASE
 10
0.0
 20
0.0
 30
0.0
  9
$PLIMCHECK
 70
     0
  9
$PEXTMIN
 10
1.000000000000000E+20
 20
1.000000000000000E+20
 30
1.000000000000000E+20
  9
$PEXTMAX
 10
-1.000000000000000E+20
 20
-1.000000000000000E+20
 30
-1.000000000000000E+20
  9
$PLIMMIN
 10
0.0
 20
0.0
  9
$PLIMMAX
 10
12.0
 20
9.0
  9
$UNITMODE
 70
     0
  9
$VISRETAIN
 70
     1
  9
$PLINEGEN
 70
     0
  9
$PSLTSCALE
 70
     1
  9
$TREEDEPTH
 70
  3020
  9
$CMLSTYLE
  2
Standard
  9
$CMLJUST
 70
     0
  9
$CMLSCALE
 40
1.0
  9
$PROXYGRAPHICS
 70
     1
  9
$MEASUREMENT
 70
     0
  9
$CELWEIGHT
370
    -1
  9
$ENDCAPS
280
     0
  9
$JOINSTYLE
280
     0
  9
$LWDISPLAY
290
     1
  9
$INSUNITS
 70
     1
  9
$HYPERLINKBASE
  1

  9
$STYLESHEET
  1

  9
$XEDIT
290
     1
  9
$CEPSNTYPE
380
     0
  9
$PSTYLEMODE
290
     1
  9
$FINGERPRINTGUID
  2
{098DEB7A-C9C1-D8E0-D541-9146B1454B0A}
  9
$VERSIONGUID
  2
{FAEB1C32-E019-11D5-929B-00C0DF256EC4}
  9
$EXTNAMES
290
     1
  9
$PSVPSCALE
 40
0.0
  9
$OLESTARTUP
290
     0
  9
$SORTENTS
280
   127
  9
$INDEXCTL
280
     0
  9
$HIDETEXT
280
     1
  9
$XCLIPFRAME
280
     2
  9
$HALOGAP
280
     0
  9
$OBSCOLOR
 70
   257
  9
$OBSLTYPE
280
     0
  9
$INTERSECTIONDISPLAY
280
     0
  9
$INTERSECTIONCOLOR
 70
   257
  9
$DIMASSOC
280
     2
  9
$PROJECTNAME
  1

  9
$CAMERADISPLAY
290
     0
  9
$LENSLENGTH
 40
50.0
  9
$CAMERAHEIGHT
 40
0.0
  9
$STEPSPERSEC
 40
2.0
  9
$STEPSIZE
 40
6.0
  9
$3DDWFPREC
 40
2.0
  9
$PSOLWIDTH
 40
0.25
  9
$PSOLHEIGHT
 40
4.0
  9
$LOFTANG1
 40
1.570796326794897
  9
$LOFTANG2
 40
1.570796326794897
  9
$LOFTMAG1
 40
0.0
  9
$LOFTMAG2
 40
0.0
  9
$LOFTPARAM
 70
     7
  9
$LOFTNORMALS
280
     1
  9
$LATITUDE
 40
37.795
  9
$LONGITUDE
 40
-122.394
  9
$NORTHDIRECTION
 40
0.0
  9
$TIMEZONE
 70
 -8000
  9
$LIGHTGLYPHDISPLAY
280
     1
  9
$TILEMODELIGHTSYNCH
280
     1
  9
$CMATERIAL
347
3C
  9
$SOLIDHIST
280
     1
  9
$SHOWHIST
280
     1
  9
$DWFFRAME
280
     2
  9
$DGNFRAME
280
     2
  9
$REALWORLDSCALE
290
     1
  9
$INTERFERECOLOR
 62
   256
  9
$CSHADOW
280
     0
  9
$SHADOWPLANELOCATION
 40
0.0
  0
ENDSEC
  0
SECTION
  2
CLASSES
  0
CLASS
  1
ACDBDICTIONARYWDFLT
  2
AcDbDictionaryWithDefault
  3
ObjectDBX Classes
 90
        0
 91
        4
280
     0
281
     0
  0
CLASS
  1
VISUALSTYLE
  2
AcDbVisualStyle
  3
ObjectDBX Classes
 90
     4095
 91
        4
280
     0
281
     0
  0
CLASS
  1
MATERIAL
  2
AcDbMaterial
  3
ObjectDBX Classes
 90
     1153
 91
        4
280
     0
281
     0
  0
CLASS
  1
SUN
  2
AcDbSun
  3
SCENEOE
 90
     1024
 91
        4
280
     0
281
     0
  0
ENDSEC
  0
SECTION
  2
TABLES
  0
TABLE
  2
VPORT
  5
8
330
0
100
AcDbSymbolTable
 70
     1
  0
VPORT
  5
29
330
8
100
AcDbSymbolTableRecord
100
AcDbViewportTableRecord
  2
*Active
 70
     0
 10
0.0
 20
0.0
 11
1.0
 21
1.0
 12
0.0
 22
0.0
 13
0.0
 23
0.0
 14
0.5
 24
0.5
 15
0.5
 25
0.5
 16
0.0
 26
0.0
 36
1.0
 17
91.00082462281999
 27
-128.4993055234307
 37
0.0
 40
256.9986110468615
 41
0.7081814508812795
 42
50.0
 43
0.0
 44
0.0
 50
0.0
 51
0.0
 71
     0
 72
   100
 73
     1
 74
     3
 75
     0
 76
     0
 77
     0
 78
     0
281
     0
 65
     1
110
0.0
120
0.0
130
0.0
111
1.0
121
0.0
131
0.0
112
0.0
122
1.0
132
0.0
 79
     0
146
0.0
 60
     3
 61
     5
292
     1
282
     1
141
0.0
142
0.0
 63
   250
361
3F
  0
ENDTAB
  0
TABLE
  2
LTYPE
  5
5
330
0
100
AcDbSymbolTable
 70
     1
  0
LTYPE
  5
14
330
5
100
AcDbSymbolTableRecord
100
AcDbLinetypeTableRecord
  2
ByBlock
 70
     0
  3

 72
    65
 73
     0
 40
0.0
  0
LTYPE
  5
15
330
5
100
AcDbSymbolTableRecord
100
AcDbLinetypeTableRecord
  2
ByLayer
 70
     0
  3

 72
    65
 73
     0
 40
0.0
  0
LTYPE
  5
16
330
5
100
AcDbSymbolTableRecord
100
AcDbLinetypeTableRecord
  2
Continuous
 70
     0
  3
Solid line
 72
    65
 73
     0
 40
0.0
  0
ENDTAB
  0
TABLE
  2
LAYER
  5
2
330
0
100
AcDbSymbolTable
 70
     2
  0
LAYER
  5
10
330
2
100
AcDbSymbolTableRecord
100
AcDbLayerTableRecord
  2
0
 70
     0
 62
     7
  6
Continuous
370
    -3
390
F
347
3E
  0
LAYER
  5
40
330
2
100
AcDbSymbolTableRecord
100
AcDbLayerTableRecord
  2
_U+30EC_U+30A4_U+30E4_U+30FC 1
 70
     0
 62
     7
  6
Continuous
370
    -3
390
F
347
3E
  0
ENDTAB
  0
TABLE
  2
STYLE
  5
3
330
0
100
AcDbSymbolTable
 70
     1
  0
STYLE
  5
11
330
3
100
AcDbSymbolTableRecord
100
AcDbTextStyleTableRecord
  2
Standard
 70
     0
 40
0.0
 41
1.0
 50
0.0
 71
     0
 42
0.2
  3
txt
  4

  0
ENDTAB
  0
TABLE
  2
VIEW
  5
6
330
0
100
AcDbSymbolTable
 70
     0
  0
ENDTAB
  0
TABLE
  2
UCS
  5
7
330
0
100
AcDbSymbolTable
 70
     0
  0
ENDTAB
  0
TABLE
  2
APPID
  5
9
330
0
100
AcDbSymbolTable
 70
     1
  0
APPID
  5
12
330
9
100
AcDbSymbolTableRecord
100
AcDbRegAppTableRecord
  2
ACAD
 70
     0
  0
ENDTAB
  0
TABLE
  2
DIMSTYLE
  5
A
330
0
100
AcDbSymbolTable
 70
     1
100
AcDbDimStyleTable
  0
DIMSTYLE
105
27
330
A
100
AcDbSymbolTableRecord
100
AcDbDimStyleTableRecord
  2
Standard
 70
     0
178
     0
340
11
  0
ENDTAB
  0
TABLE
  2
BLOCK_RECORD
  5
1
330
0
100
AcDbSymbolTable
 70
     7
  0
BLOCK_RECORD
  5
1F
330
1
100
AcDbSymbolTableRecord
100
AcDbBlockTableRecord
  2
*Model_Space
340
22
 70
     0
280
     1
281
     0
  0
BLOCK_RECORD
  5
1B
330
1
100
AcDbSymbolTableRecord
100
AcDbBlockTableRecord
  2
*Paper_Space
340
1E
 70
     0
280
     1
281
     0
  0
BLOCK_RECORD
  5
23
330
1
100
AcDbSymbolTableRecord
100
AcDbBlockTableRecord
  2
*Paper_Space0
340
26
 70
     0
280
     1
281
     0
  0
BLOCK_RECORD
  5
91
330
1
100
AcDbSymbolTableRecord
100
AcDbBlockTableRecord
  2
block 2
340
0
102
{BLKREFS
331
92
102
}
 70
     0
280
     1
281
     0
  0
BLOCK_RECORD
  5
A9
330
1
100
AcDbSymbolTableRecord
100
AcDbBlockTableRecord
  2
block 3
340
0
102
{BLKREFS
331
AA
102
}
 70
     0
280
     1
281
     0
  0
BLOCK_RECORD
  5
C4
330
1
100
AcDbSymbolTableRecord
100
AcDbBlockTableRecord
  2
block 4
340
0
102
{BLKREFS
331
C5
102
}
 70
     0
280
     1
281
     0
  0
BLOCK_RECORD
  5
D6
330
1
100
AcDbSymbolTableRecord
100
AcDbBlockTableRecord
  2
block 5
340
0
102
{BLKREFS
331
D7
102
}
 70
     0
280
     1
281
     0
  0
BLOCK_RECORD
  5
E7
330
1
100
AcDbSymbolTableRecord
100
AcDbBlockTableRecord
  2
block 6
340
0
102
{BLKREFS
331
E8
102
}
 70
     0
280
     1
281
     0
  0
BLOCK_RECORD
  5
FB
330
1
100
AcDbSymbolTableRecord
100
AcDbBlockTableRecord
  2
block 7
340
0
102
{BLKREFS
331
FC
102
}
 70
     0
280
     1
281
     0
  0
ENDTAB
  0
ENDSEC
  0
SECTION
  2
BLOCKS
  0
BLOCK
  5
20
330
1F
100
AcDbEntity
  8
0
100
AcDbBlockBegin
  2
*Model_Space
 70
     0
 10
0.0
 20
0.0
 30
0.0
  3
*Model_Space
  1

  0
ENDBLK
  5
21
330
1F
100
AcDbEntity
  8
0
100
AcDbBlockEnd
  0
BLOCK
  5
1C
330
1B
100
AcDbEntity
 67
     1
  8
0
100
AcDbBlockBegin
  2
*Paper_Space
 70
     0
 10
0.0
 20
0.0
 30
0.0
  3
*Paper_Space
  1

  0
ENDBLK
  5
1D
330
1B
100
AcDbEntity
 67
     1
  8
0
100
AcDbBlockEnd
  0
BLOCK
  5
24
330
23
100
AcDbEntity
  8
0
100
AcDbBlockBegin
  2
*Paper_Space0
 70
     0
 10
0.0
 20
0.0
 30
0.0
  3
*Paper_Space0
  1

  0
ENDBLK
  5
25
330
23
100
AcDbEntity
  8
0
100
AcDbBlockEnd
  0
BLOCK
  5
93
330
91
100
AcDbEntity
  8
0
100
AcDbBlockBegin
  2
block 2
 70
     0
 10
0.0
 20
0.0
 30
0.0
  3
block 2
  1

  0
SPLINE
  5
95
330
91
100
AcDbEntity
  8
_U+30EC_U+30A4_U+30E4_U+30FC 1
370
     0
100
AcDbSpline
210
0.0
220
0.0
230
1.0
 70
    11
 71
     3
 72
    62
 73
    58
 74
     0
 42
0.0000000001
 43
0.0000000001
 12
1.0
 22
0.0
 32
0.0
 13
1.0
 23
0.0
 33
0.0
 40
0.0
 40
0.0
 40
0.0
 40
0.0
 40
1.0
 40
1.0
 40
1.0
 40
2.0
 40
2.0
 40
2.0
 40
3.0
 40
3.0
 40
3.0
 40
4.0
 40
4.0
 40
4.0
 40
5.0
 40
5.0
 40
5.0
 40
6.0
 40
6.0
 40
6.0
 40
7.0
 40
7.0
 40
7.0
 40
8.0
 40
8.0
 40
8.0
 40
9.0
 40
9.0
 40
9.0
 40
10.0
 40
10.0
 40
10.0
 40
11.0
 40
11.0
 40
11.0
 40
12.0
 40
12.0
 40
12.0
 40
13.0
 40
13.0
 40
13.0
 40
14.0
 40
14.0
 40
14.0
 40
15.0
 40
15.0
 40
15.0
 40
16.0
 40
16.0
 40
16.0
 40
17.0
 40
17.0
 40
17.0
 40
18.0
 40
18.0
 40
18.0
 40
19.0
 40
19.0
 40
19.0
 40
19.0
 10
87.61670190951943
 20
-119.909476695283
 30
0.0
 10
87.52144501935229
 20
-119.909476695283
 30
0.0
 10
87.30354272991023
 20
-119.8882893580488
 30
0.0
 10
87.17883027334419
 20
-119.702081947071
 30
0.0
 10
87.10476072041132
 20
-119.5899440890261
 30
0.0
 10
87.10045435105475
 20
-119.4905530842767
 30
0.0
 10
87.09632023647245
 20
-119.4059759901138
 30
0.0
 10
87.09632023647245
 20
-119.4059759901138
 30
0.0
 10
87.31628958320566
 20
-119.4059759901138
 30
0.0
 10
87.31628958320566
 20
-119.4059759901138
 30
0.0
 10
87.3183566404968
 20
-119.4800455430467
 30
0.0
 10
87.32903643650108
 20
-119.7148288003664
 30
0.0
 10
87.61256779493714
 20
-119.7148288003664
 30
0.0
 10
87.7500271047986
 20
-119.7148288003664
 30
0.0
 10
87.90230032524666
 20
-119.6450656167901
 30
0.0
 10
87.90230032524666
 20
-119.4164835313438
 30
0.0
 10
87.90230032524666
 20
-119.3002115587166
 30
0.0
 10
87.86423202013464
 20
-119.2514634576003
 30
0.0
 10
87.83253714167034
 20
-119.219768579136
 30
0.0
 10
87.75846758873747
 20
-119.1456990262032
 30
0.0
 10
87.64202336133603
 20
-119.133124427682
 30
0.0
 10
87.58707408834628
 20
-119.133124427682
 30
0.0
 10
87.56812606317742
 20
-119.133124427682
 30
0.0
 10
87.53212481535655
 20
-119.1351914849731
 30
0.0
 10
87.50456405147456
 20
-119.1393255995554
 30
0.0
 10
87.50456405147456
 20
-119.1393255995554
 30
0.0
 10
87.50456405147456
 20
-118.9446777046388
 30
0.0
 10
87.50456405147456
 20
-118.9446777046388
 30
0.0
 10
87.54263235658657
 20
-118.9510511312865
 30
0.0
 10
87.58500703105514
 20
-118.953290443352
 30
0.0
 10
87.59138045770285
 20
-118.953290443352
 30
0.0
 10
87.6568372719226
 20
-118.953290443352
 30
0.0
 10
87.85579153619578
 20
-118.9321031061177
 30
0.0
 10
87.85579153619578
 20
-118.6950805367325
 30
0.0
 10
87.85579153619578
 20
-118.5174858644679
 30
0.0
 10
87.72453339820775
 20
-118.4623643367039
 30
0.0
 10
87.61463485222829
 20
-118.4623643367039
 30
0.0
 10
87.35022377373537
 20
-118.4623643367039
 30
0.0
 10
87.3417832897965
 20
-118.6950805367325
 30
0.0
 10
87.33747692043994
 20
-118.7670830323742
 30
0.0
 10
87.33747692043994
 20
-118.7670830323742
 30
0.0
 10
87.13438854158446
 20
-118.7670830323742
 30
0.0
 10
87.13438854158446
 20
-118.7670830323742
 30
0.0
 10
87.14282902552333
 20
-118.6421983210339
 30
0.0
 10
87.17038978940532
 20
-118.2656493844961
 30
0.0
 10
87.62720945074945
 20
-118.2656493844961
 30
0.0
 10
87.85148516683921
 20
-118.2656493844961
 30
0.0
 10
88.0926418508067
 20
-118.3926011531275
 30
0.0
 10
88.0926418508067
 20
-118.6887071100848
 30
0.0
 10
88.0926418508067
 20
-118.8749145210625
 30
0.0
 10
87.9975572154138
 20
-118.9574245579343
 30
0.0
 10
87.89799395589009
 20
-119.0187472575717
 30
0.0
 10
87.9594889103018
 20
-119.0463080214537
 30
0.0
 10
88.14138995192299
 20
-119.1267510010343
 30
0.0
 10
88.14138995192299
 20
-119.4039089328226
 30
0.0
 10
88.14138995192299
 20
-119.7423895642484
 30
0.0
 10
87.89385984130779
 20
-119.909476695283
 30
0.0
 10
87.61670190951943
 20
-119.909476695283
 30
0.0
  0
HATCH
  5
96
330
91
100
AcDbEntity
  8
_U+30EC_U+30A4_U+30E4_U+30FC 1
 62
   179
420
  2234388
100
AcDbHatch
 10
0.0
 20
0.0
 30
0.0
210
0.0
220
0.0
230
1.0
  2
SOLID
 70
     1
 71
     0
 91
        1
 92
        1
 93
        1
 72
     4
 94
        3
 73
     0
 74
     1
 95
       62
 96
       58
 40
0.0
 40
0.0
 40
0.0
 40
0.0
 40
1.0
 40
1.0
 40
1.0
 40
2.0
 40
2.0
 40
2.0
 40
3.0
 40
3.0
 40
3.0
 40
4.0
 40
4.0
 40
4.0
 40
5.0
 40
5.0
 40
5.0
 40
6.0
 40
6.0
 40
6.0
 40
7.0
 40
7.0
 40
7.0
 40
8.0
 40
8.0
 40
8.0
 40
9.0
 40
9.0
 40
9.0
 40
10.0
 40
10.0
 40
10.0
 40
11.0
 40
11.0
 40
11.0
 40
12.0
 40
12.0
 40
12.0
 40
13.0
 40
13.0
 40
13.0
 40
14.0
 40
14.0
 40
14.0
 40
15.0
 40
15.0
 40
15.0
 40
16.0
 40
16.0
 40
16.0
 40
17.0
 40
17.0
 40
17.0
 40
18.0
 40
18.0
 40
18.0
 40
19.0
 40
19.0
 40
19.0
 40
19.0
 10
87.61670190951943
 20
-119.909476695283
 10
87.52144501935229
 20
-119.909476695283
 10
87.30354272991023
 20
-119.8882893580488
 10
87.17883027334419
 20
-119.702081947071
 10
87.10476072041132
 20
-119.5899440890261
 10
87.10045435105475
 20
-119.4905530842767
 10
87.09632023647245
 20
-119.4059759901138
 10
87.09632023647245
 20
-119.4059759901138
 10
87.31628958320566
 20
-119.4059759901138
 10
87.31628958320566
 20
-119.4059759901138
 10
87.3183566404968
 20
-119.4800455430467
 10
87.32903643650108
 20
-119.7148288003664
 10
87.61256779493714
 20
-119.7148288003664
 10
87.7500271047986
 20
-119.7148288003664
 10
87.90230032524666
 20
-119.6450656167901
 10
87.90230032524666
 20
-119.4164835313438
 10
87.90230032524666
 20
-119.3002115587166
 10
87.86423202013464
 20
-119.2514634576003
 10
87.83253714167034
 20
-119.219768579136
 10
87.75846758873747
 20
-119.1456990262032
 10
87.64202336133603
 20
-119.133124427682
 10
87.58707408834628
 20
-119.133124427682
 10
87.56812606317742
 20
-119.133124427682
 10
87.53212481535655
 20
-119.1351914849731
 10
87.50456405147456
 20
-119.1393255995554
 10
87.50456405147456
 20
-119.1393255995554
 10
87.50456405147456
 20
-118.9446777046388
 10
87.50456405147456
 20
-118.9446777046388
 10
87.54263235658657
 20
-118.9510511312865
 10
87.58500703105514
 20
-118.953290443352
 10
87.59138045770285
 20
-118.953290443352
 10
87.6568372719226
 20
-118.953290443352
 10
87.85579153619578
 20
-118.9321031061177
 10
87.85579153619578
 20
-118.6950805367325
 10
87.85579153619578
 20
-118.5174858644679
 10
87.72453339820775
 20
-118.4623643367039
 10
87.61463485222829
 20
-118.4623643367039
 10
87.35022377373537
 20
-118.4623643367039
 10
87.3417832897965
 20
-118.6950805367325
 10
87.33747692043994
 20
-118.7670830323742
 10
87.33747692043994
 20
-118.7670830323742
 10
87.13438854158446
 20
-118.7670830323742
 10
87.13438854158446
 20
-118.7670830323742
 10
87.14282902552333
 20
-118.6421983210339
 10
87.17038978940532
 20
-118.2656493844961
 10
87.62720945074945
 20
-118.2656493844961
 10
87.85148516683921
 20
-118.2656493844961
 10
88.0926418508067
 20
-118.3926011531275
 10
88.0926418508067
 20
-118.6887071100848
 10
88.0926418508067
 20
-118.8749145210625
 10
87.9975572154138
 20
-118.9574245579343
 10
87.89799395589009
 20
-119.0187472575717
 10
87.9594889103018
 20
-119.0463080214537
 10
88.14138995192299
 20
-119.1267510010343
 10
88.14138995192299
 20
-119.4039089328226
 10
88.14138995192299
 20
-119.7423895642484
 10
87.89385984130779
 20
-119.909476695283
 10
87.61670190951943
 20
-119.909476695283
 97
        0
 97
        0
 75
     2
 76
     1
 98
        0
  0
SPLINE
  5
97
330
91
100
AcDbEntity
  8
_U+30EC_U+30A4_U+30E4_U+30FC 1
370
     0
100
AcDbSpline
210
0.0
220
0.0
230
1.0
 70
    11
 71
     3
 72
    26
 73
    22
 74
     0
 42
0.0000000001
 43
0.0000000001
 12
1.0
 22
0.0
 32
0.0
 13
1.0
 23
0.0
 33
0.0
 40
0.0
 40
0.0
 40
0.0
 40
0.0
 40
1.0
 40
1.0
 40
1.0
 40
2.0
 40
2.0
 40
2.0
 40
3.0
 40
3.0
 40
3.0
 40
4.0
 40
4.0
 40
4.0
 40
5.0
 40
5.0
 40
5.0
 40
6.0
 40
6.0
 40
6.0
 40
7.0
 40
7.0
 40
7.0
 40
7.0
 10
88.75341116487762
 20
-119.8586615368756
 30
0.0
 10
88.75341116487762
 20
-119.8586615368756
 30
0.0
 10
88.75341116487762
 20
-118.7543361790788
 30
0.0
 10
88.75341116487762
 20
-118.7543361790788
 30
0.0
 10
88.75341116487762
 20
-118.7543361790788
 30
0.0
 10
88.42337101739069
 20
-118.7543361790788
 30
0.0
 10
88.42337101739069
 20
-118.7543361790788
 30
0.0
 10
88.42337101739069
 20
-118.7543361790788
 30
0.0
 10
88.42337101739069
 20
-118.6063693279873
 30
0.0
 10
88.42337101739069
 20
-118.6063693279873
 30
0.0
 10
88.75547822216878
 20
-118.5915554174007
 30
0.0
 10
88.80198701121965
 20
-118.4286024009484
 30
0.0
 10
88.8316148323928
 20
-118.3143974856124
 30
0.0
 10
88.8316148323928
 20
-118.3143974856124
 30
0.0
 10
88.97768688096738
 20
-118.3143974856124
 30
0.0
 10
88.97768688096738
 20
-118.3143974856124
 30
0.0
 10
88.97768688096738
 20
-118.3143974856124
 30
0.0
 10
88.97768688096738
 20
-119.8586615368756
 30
0.0
 10
88.97768688096738
 20
-119.8586615368756
 30
0.0
 10
88.97768688096738
 20
-119.8586615368756
 30
0.0
 10
88.75341116487762
 20
-119.8586615368756
 30
0.0
 10
88.75341116487762
 20
-119.8586615368756
 30
0.0
  0
HATCH
  5
98
330
91
100
AcDbEntity
  8
_U+30EC_U+30A4_U+30E4_U+30FC 1
 62
   179
420
  2234388
100
AcDbHatch
 10
0.0
 20
0.0
 30
0.0
210
0.0
220
0.0
230
1.0
  2
SOLID
 70
     1
 71
     0
 91
        1
 92
        1
 93
        1
 72
     4
 94
        3
 73
     0
 74
     1
 95
       26
 96
       22
 40
0.0
 40
0.0
 40
0.0
 40
0.0
 40
1.0
 40
1.0
 40
1.0
 40
2.0
 40
2.0
 40
2.0
 40
3.0
 40
3.0
 40
3.0
 40
4.0
 40
4.0
 40
4.0
 40
5.0
 40
5.0
 40
5.0
 40
6.0
 40
6.0
 40
6.0
 40
7.0
 40
7.0
 40
7.0
 40
7.0
 10
88.75341116487762
 20
-119.8586615368756
 10
88.75341116487762
 20
-119.8586615368756
 10
88.75341116487762
 20
-118.7543361790788
 10
88.75341116487762
 20
-118.7543361790788
 10
88.75341116487762
 20
-118.7543361790788
 10
88.42337101739069
 20
-118.7543361790788
 10
88.42337101739069
 20
-118.7543361790788
 10
88.42337101739069
 20
-118.7543361790788
 10
88.42337101739069
 20
-118.6063693279873
 10
88.42337101739069
 20
-118.6063693279873
 10
88.75547822216878
 20
-118.5915554174007
 10
88.80198701121965
 20
-118.4286024009484
 10
88.8316148323928
 20
-118.3143974856124
 10
88.8316148323928
 20
-118.3143974856124
 10
88.97768688096738
 20
-118.3143974856124
 10
88.97768688096738
 20
-118.3143974856124
 10
88.97768688096738
 20
-118.3143974856124
 10
88.97768688096738
 20
-119.8586615368756
 10
88.97768688096738
 20
-119.8586615368756
 10
88.97768688096738
 20
-119.8586615368756
 10
88.75341116487762
 20
-119.8586615368756
 10
88.75341116487762
 20
-119.8586615368756
 97
        0
 97
        0
 75
     2
 76
     1
 98
        0
  0
ENDBLK
  5
94
330
91
100
AcDbEntity
  8
0
100
AcDbBlockEnd
  0
BLOCK
  5
AB
330
A9
100
AcDbEntity
  8
0
100
AcDbBlockBegin
  2
block 3
 70
     0
 10
0.0
 20
0.0
 30
0.0
  3
block 3
  1

  0
SPLINE
  5
AD
330
A9
100
AcDbEntity
  8
_U+30EC_U+30A4_U+30E4_U+30FC 1
370
     0
100
AcDbSpline
210
0.0
220
0.0
230
1.0
 70
    11
 71
     3
 72
    29
 73
    25
 74
     0
 42
0.0000000001
 43
0.0000000001
 12
1.0
 22
0.0
 32
0.0
 13
1.0
 23
0.0
 33
0.0
 40
0.0
 40
0.0
 40
0.0
 40
0.0
 40
1.0
 40
1.0
 40
1.0
 40
2.0
 40
2.0
 40
2.0
 40
3.0
 40
3.0
 40
3.0
 40
4.0
 40
4.0
 40
4.0
 40
5.0
 40
5.0
 40
5.0
 40
6.0
 40
6.0
 40
6.0
 40
7.0
 40
7.0
 40
7.0
 40
8.0
 40
8.0
 40
8.0
 40
8.0
 10
106.8902886017497
 20
-123.0298719310481
 30
0.0
 10
107.0997504072528
 20
-123.1380479292849
 30
0.0
 10
107.1186984324217
 20
-123.311336232193
 30
0.0
 10
107.1186984324217
 20
-123.4277804595944
 30
0.0
 10
107.1186984324217
 20
-123.5886664187556
 30
0.0
 10
107.0721896433708
 20
-123.7302598431994
 30
0.0
 10
106.8902886017497
 20
-123.8253444785923
 30
0.0
 10
106.695640706833
 20
-123.9290418526983
 30
0.0
 10
106.4589626469964
 20
-123.9483343874157
 30
0.0
 10
106.2960096305441
 20
-123.9483343874157
 30
0.0
 10
106.1520046392606
 20
-123.9483343874157
 30
0.0
 10
105.9001681592889
 20
-123.9311089099894
 30
0.0
 10
105.7013861497899
 20
-123.8253444785923
 30
0.0
 10
105.4984700257087
 20
-123.717512989904
 30
0.0
 10
105.475043376409
 20
-123.5566270307428
 30
0.0
 10
105.475043376409
 20
-123.4277804595944
 30
0.0
 10
105.475043376409
 20
-123.2689615577244
 30
0.0
 10
105.5194851081688
 20
-123.1253010759895
 30
0.0
 10
105.7013861497899
 20
-123.0298719310481
 30
0.0
 10
105.8939669874154
 20
-122.9306531810729
 30
0.0
 10
106.1223768180875
 20
-122.9072265317732
 30
0.0
 10
106.2960096305441
 20
-122.9072265317732
 30
0.0
 10
106.467230876161
 20
-122.9072265317732
 30
0.0
 10
106.6977077641242
 20
-122.9285861237817
 30
0.0
 10
106.8902886017497
 20
-123.0298719310481
 30
0.0
  0
SPLINE
  5
AE
330
A9
100
AcDbEntity
  8
_U+30EC_U+30A4_U+30E4_U+30FC 1
370
     0
100
AcDbSpline
210
0.0
220
0.0
230
1.0
 70
    11
 71
     3
 72
    17
 73
    13
 74
     0
 42
0.0000000001
 43
0.0000000001
 12
1.0
 22
0.0
 32
0.0
 13
1.0
 23
0.0
 33
0.0
 40
0.0
 40
0.0
 40
0.0
 40
0.0
 40
1.0
 40
1.0
 40
1.0
 40
2.0
 40
2.0
 40
2.0
 40
3.0
 40
3.0
 40
3.0
 40
4.0
 40
4.0
 40
4.0
 40
4.0
 10
105.6676242140345
 20
-123.4277804595944
 30
0.0
 10
105.6676242140345
 20
-123.6775498822751
 30
0.0
 10
105.9511555724706
 20
-123.7240586713259
 30
0.0
 10
106.2960096305441
 20
-123.7240586713259
 30
0.0
 10
106.6153699820267
 20
-123.7240586713259
 30
0.0
 10
106.9240505375051
 20
-123.6878851687308
 30
0.0
 10
106.9240505375051
 20
-123.4277804595944
 30
0.0
 10
106.9240505375051
 20
-123.180078094205
 30
0.0
 10
106.6429307459087
 20
-123.131502247863
 30
0.0
 10
106.2960096305441
 20
-123.131502247863
 30
0.0
 10
105.9763047695129
 20
-123.131502247863
 30
0.0
 10
105.6676242140345
 20
-123.1697428077492
 30
0.0
 10
105.6676242140345
 20
-123.4277804595944
 30
0.0
  0
HATCH
  5
AF
330
A9
100
AcDbEntity
  8
_U+30EC_U+30A4_U+30E4_U+30FC 1
 62
   179
420
  2234388
100
AcDbHatch
 10
0.0
 20
0.0
 30
0.0
210
0.0
220
0.0
230
1.0
  2
SOLID
 70
     1
 71
     0
 91
        2
 92
        1
 93
        1
 72
     4
 94
        3
 73
     0
 74
     1
 95
       29
 96
       25
 40
0.0
 40
0.0
 40
0.0
 40
0.0
 40
1.0
 40
1.0
 40
1.0
 40
2.0
 40
2.0
 40
2.0
 40
3.0
 40
3.0
 40
3.0
 40
4.0
 40
4.0
 40
4.0
 40
5.0
 40
5.0
 40
5.0
 40
6.0
 40
6.0
 40
6.0
 40
7.0
 40
7.0
 40
7.0
 40
8.0
 40
8.0
 40
8.0
 40
8.0
 10
106.8902886017497
 20
-123.0298719310481
 10
107.0997504072528
 20
-123.1380479292849
 10
107.1186984324217
 20
-123.311336232193
 10
107.1186984324217
 20
-123.4277804595944
 10
107.1186984324217
 20
-123.5886664187556
 10
107.0721896433708
 20
-123.7302598431994
 10
106.8902886017497
 20
-123.8253444785923
 10
106.695640706833
 20
-123.9290418526983
 10
106.4589626469964
 20
-123.9483343874157
 10
106.2960096305441
 20
-123.9483343874157
 10
106.1520046392606
 20
-123.9483343874157
 10
105.9001681592889
 20
-123.9311089099894
 10
105.7013861497899
 20
-123.8253444785923
 10
105.4984700257087
 20
-123.717512989904
 10
105.475043376409
 20
-123.5566270307428
 10
105.475043376409
 20
-123.4277804595944
 10
105.475043376409
 20
-123.2689615577244
 10
105.5194851081688
 20
-123.1253010759895
 10
105.7013861497899
 20
-123.0298719310481
 10
105.8939669874154
 20
-122.9306531810729
 10
106.1223768180875
 20
-122.9072265317732
 10
106.2960096305441
 20
-122.9072265317732
 10
106.467230876161
 20
-122.9072265317732
 10
106.6977077641242
 20
-122.9285861237817
 10
106.8902886017497
 20
-123.0298719310481
 97
        0
 97
        0
 92
        1
 93
        1
 72
     4
 94
        3
 73
     0
 74
     1
 95
       17
 96
       13
 40
0.0
 40
0.0
 40
0.0
 40
0.0
 40
1.0
 40
1.0
 40
1.0
 40
2.0
 40
2.0
 40
2.0
 40
3.0
 40
3.0
 40
3.0
 40
4.0
 40
4.0
 40
4.0
 40
4.0
 10
105.6676242140345
 20
-123.4277804595944
 10
105.6676242140345
 20
-123.6775498822751
 10
105.9511555724706
 20
-123.7240586713259
 10
106.2960096305441
 20
-123.7240586713259
 10
106.6153699820267
 20
-123.7240586713259
 10
106.9240505375051
 20
-123.6878851687308
 10
106.9240505375051
 20
-123.4277804595944
 10
106.9240505375051
 20
-123.180078094205
 10
106.6429307459087
 20
-123.131502247863
 10
106.2960096305441
 20
-123.131502247863
 10
105.9763047695129
 20
-123.131502247863
 10
105.6676242140345
 20
-123.1697428077492
 10
105.6676242140345
 20
-123.4277804595944
 97
        0
 97
        0
 75
     2
 76
     1
 98
        0
  0
POLYLINE
  5
B0
330
A9
100
AcDbEntity
  8
_U+30EC_U+30A4_U+30E4_U+30FC 1
370
     0
100
AcDb2dPolyline
 66
     1
 10
0.0
 20
0.0
 30
0.0
  0
VERTEX
  5
B1
330
B0
100
AcDbEntity
  8
_U+30EC_U+30A4_U+30E4_U+30FC 1
370
     0
100
AcDbVertex
100
AcDb2dVertex
 10
107.0680555287885
 20
-122.6908745352995
 30
0.0
  0
VERTEX
  5
B2
330
B0
100
AcDbEntity
  8
_U+30EC_U+30A4_U+30E4_U+30FC 1
370
     0
100
AcDbVertex
100
AcDb2dVertex
 10
106.8162190488168
 20
-122.6908745352995
 30
0.0
  0
VERTEX
  5
B3
330
B0
100
AcDbEntity
  8
_U+30EC_U+30A4_U+30E4_U+30FC 1
370
     0
100
AcDbVertex
100
AcDb2dVertex
 10
106.8162190488168
 20
-122.4390380553277
 30
0.0
  0
VERTEX
  5
B4
330
B0
100
AcDbEntity
  8
_U+30EC_U+30A4_U+30E4_U+30FC 1
370
     0
100
AcDbVertex
100
AcDb2dVertex
 10
107.0680555287885
 20
-122.4390380553277
 30
0.0
  0
VERTEX
  5
B5
330
B0
100
AcDbEntity
  8
_U+30EC_U+30A4_U+30E4_U+30FC 1
370
     0
100
AcDbVertex
100
AcDb2dVertex
 10
107.0680555287885
 20
-122.6908745352995
 30
0.0
  0
SEQEND
  5
B6
330
B0
100
AcDbEntity
  8
_U+30EC_U+30A4_U+30E4_U+30FC 1
370
     0
  0
HATCH
  5
B7
330
A9
100
AcDbEntity
  8
_U+30EC_U+30A4_U+30E4_U+30FC 1
 62
   179
420
  2234388
100
AcDbHatch
 10
0.0
 20
0.0
 30
0.0
210
0.0
220
0.0
230
1.0
  2
SOLID
 70
     1
 71
     0
 91
        1
 92
        1
 93
        4
 72
     1
 10
107.0680555287885
 20
-122.6908745352995
 11
106.8162190488168
 21
-122.6908745352995
 72
     1
 10
106.8162190488168
 20
-122.6908745352995
 11
106.8162190488168
 21
-122.4390380553277
 72
     1
 10
106.8162190488168
 20
-122.4390380553277
 11
107.0680555287885
 21
-122.4390380553277
 72
     1
 10
107.0680555287885
 20
-122.4390380553277
 11
107.0680555287885
 21
-122.6908745352995
 97
        0
 75
     2
 76
     1
 98
        0
  0
SPLINE
  5
B8
330
A9
100
AcDbEntity
  8
_U+30EC_U+30A4_U+30E4_U+30FC 1
370
     0
100
AcDbSpline
210
0.0
220
0.0
230
1.0
 70
    11
 71
     3
 72
    29
 73
    25
 74
     0
 42
0.0000000001
 43
0.0000000001
 12
1.0
 22
0.0
 32
0.0
 13
1.0
 23
0.0
 33
0.0
 40
0.0
 40
0.0
 40
0.0
 40
0.0
 40
1.0
 40
1.0
 40
1.0
 40
2.0
 40
2.0
 40
2.0
 40
3.0
 40
3.0
 40
3.0
 40
4.0
 40
4.0
 40
4.0
 40
5.0
 40
5.0
 40
5.0
 40
6.0
 40
6.0
 40
6.0
 40
7.0
 40
7.0
 40
7.0
 40
8.0
 40
8.0
 40
8.0
 40
8.0
 10
107.1186984324217
 20
-121.7028211501299
 30
0.0
 10
107.1186984324217
 20
-121.9694715406882
 30
0.0
 10
106.9812391225603
 20
-122.2230305684026
 30
0.0
 10
106.6322509499044
 20
-122.2230305684026
 30
0.0
 10
106.3762803553504
 20
-122.2230305684026
 30
0.0
 10
106.2811957199575
 20
-122.0814371439588
 30
0.0
 10
106.21987302032
 20
-121.9756727125616
 30
0.0
 10
106.1606173779737
 20
-122.1003851691277
 30
0.0
 10
106.0462402078634
 20
-122.1765217793517
 30
0.0
 10
105.8853542487023
 20
-122.1765217793517
 30
0.0
 10
105.6104356289793
 20
-122.1765217793517
 30
0.0
 10
105.475043376409
 20
-121.9777397698528
 30
0.0
 10
105.475043376409
 20
-121.7028211501299
 30
0.0
 10
105.475043376409
 20
-121.4192897916938
 30
0.0
 10
105.6190483676925
 20
-121.2287760113595
 30
0.0
 10
105.8853542487023
 20
-121.2287760113595
 30
0.0
 10
106.0462402078634
 20
-121.2287760113595
 30
0.0
 10
106.1606173779737
 20
-121.3073241884232
 30
0.0
 10
106.21987302032
 20
-121.4320366449892
 30
0.0
 10
106.2705159239532
 20
-121.3431531814698
 30
0.0
 10
106.3656005593461
 20
-121.1843342795998
 30
0.0
 10
106.6281168353221
 20
-121.1843342795998
 30
0.0
 10
107.0025987145688
 20
-121.1843342795998
 30
0.0
 10
107.1186984324217
 20
-121.4637315234535
 30
0.0
 10
107.1186984324217
 20
-121.7028211501299
 30
0.0
  0
SPLINE
  5
B9
330
A9
100
AcDbEntity
  8
_U+30EC_U+30A4_U+30E4_U+30FC 1
370
     0
100
AcDbSpline
210
0.0
220
0.0
230
1.0
 70
    11
 71
     3
 72
    17
 73
    13
 74
     0
 42
0.0000000001
 43
0.0000000001
 12
1.0
 22
0.0
 32
0.0
 13
1.0
 23
0.0
 33
0.0
 40
0.0
 40
0.0
 40
0.0
 40
0.0
 40
1.0
 40
1.0
 40
1.0
 40
2.0
 40
2.0
 40
2.0
 40
3.0
 40
3.0
 40
3.0
 40
4.0
 40
4.0
 40
4.0
 40
4.0
 10
105.6676242140345
 20
-121.7028211501299
 30
0.0
 10
105.6676242140345
 20
-121.8678412238733
 30
0.0
 10
105.7627088494274
 20
-121.9522460632619
 30
0.0
 10
105.8981011019977
 20
-121.9522460632619
 30
0.0
 10
106.0207465012726
 20
-121.9522460632619
 30
0.0
 10
106.1392577859652
 20
-121.8805880771688
 30
0.0
 10
106.1392577859652
 20
-121.7028211501299
 30
0.0
 10
106.1392577859652
 20
-121.525054223091
 30
0.0
 10
106.0207465012726
 20
-121.4530517274492
 30
0.0
 10
105.8981011019977
 20
-121.4530517274492
 30
0.0
 10
105.7627088494274
 20
-121.4530517274492
 30
0.0
 10
105.6676242140345
 20
-121.5398681336775
 30
0.0
 10
105.6676242140345
 20
-121.7028211501299
 30
0.0
  0
SPLINE
  5
BA
330
A9
100
AcDbEntity
  8
_U+30EC_U+30A4_U+30E4_U+30FC 1
370
     0
100
AcDbSpline
210
0.0
220
0.0
230
1.0
 70
    11
 71
     3
 72
    17
 73
    13
 74
     0
 42
0.0000000001
 43
0.0000000001
 12
1.0
 22
0.0
 32
0.0
 13
1.0
 23
0.0
 33
0.0
 40
0.0
 40
0.0
 40
0.0
 40
0.0
 40
1.0
 40
1.0
 40
1.0
 40
2.0
 40
2.0
 40
2.0
 40
3.0
 40
3.0
 40
3.0
 40
4.0
 40
4.0
 40
4.0
 40
4.0
 10
106.3277045090084
 20
-121.7028211501299
 30
0.0
 10
106.3277045090084
 20
-121.8464816318648
 30
0.0
 10
106.4145209152367
 20
-121.9990993618613
 30
0.0
 10
106.6174370393179
 20
-121.9990993618613
 30
0.0
 10
106.8227647302388
 20
-121.9990993618613
 30
0.0
 10
106.9240505375051
 20
-121.8719753384556
 30
0.0
 10
106.9240505375051
 20
-121.7028211501299
 30
0.0
 10
106.9240505375051
 20
-121.5167859939264
 30
0.0
 10
106.8014051382302
 20
-121.4065429383984
 30
0.0
 10
106.6236382111913
 20
-121.4065429383984
 30
0.0
 10
106.4017740619412
 20
-121.4065429383984
 30
0.0
 10
106.3277045090084
 20
-121.5694959548507
 30
0.0
 10
106.3277045090084
 20
-121.7028211501299
 30
0.0
  0
HATCH
  5
BB
330
A9
100
AcDbEntity
  8
_U+30EC_U+30A4_U+30E4_U+30FC 1
 62
   179
420
  2234388
100
AcDbHatch
 10
0.0
 20
0.0
 30
0.0
210
0.0
220
0.0
230
1.0
  2
SOLID
 70
     1
 71
     0
 91
        3
 92
        1
 93
        1
 72
     4
 94
        3
 73
     0
 74
     1
 95
       29
 96
       25
 40
0.0
 40
0.0
 40
0.0
 40
0.0
 40
1.0
 40
1.0
 40
1.0
 40
2.0
 40
2.0
 40
2.0
 40
3.0
 40
3.0
 40
3.0
 40
4.0
 40
4.0
 40
4.0
 40
5.0
 40
5.0
 40
5.0
 40
6.0
 40
6.0
 40
6.0
 40
7.0
 40
7.0
 40
7.0
 40
8.0
 40
8.0
 40
8.0
 40
8.0
 10
107.1186984324217
 20
-121.7028211501299
 10
107.1186984324217
 20
-121.9694715406882
 10
106.9812391225603
 20
-122.2230305684026
 10
106.6322509499044
 20
-122.2230305684026
 10
106.3762803553504
 20
-122.2230305684026
 10
106.2811957199575
 20
-122.0814371439588
 10
106.21987302032
 20
-121.9756727125616
 10
106.1606173779737
 20
-122.1003851691277
 10
106.0462402078634
 20
-122.1765217793517
 10
105.8853542487023
 20
-122.1765217793517
 10
105.6104356289793
 20
-122.1765217793517
 10
105.475043376409
 20
-121.9777397698528
 10
105.475043376409
 20
-121.7028211501299
 10
105.475043376409
 20
-121.4192897916938
 10
105.6190483676925
 20
-121.2287760113595
 10
105.8853542487023
 20
-121.2287760113595
 10
106.0462402078634
 20
-121.2287760113595
 10
106.1606173779737
 20
-121.3073241884232
 10
106.21987302032
 20
-121.4320366449892
 10
106.2705159239532
 20
-121.3431531814698
 10
106.3656005593461
 20
-121.1843342795998
 10
106.6281168353221
 20
-121.1843342795998
 10
107.0025987145688
 20
-121.1843342795998
 10
107.1186984324217
 20
-121.4637315234535
 10
107.1186984324217
 20
-121.7028211501299
 97
        0
 97
        0
 92
        1
 93
        1
 72
     4
 94
        3
 73
     0
 74
     1
 95
       17
 96
       13
 40
0.0
 40
0.0
 40
0.0
 40
0.0
 40
1.0
 40
1.0
 40
1.0
 40
2.0
 40
2.0
 40
2.0
 40
3.0
 40
3.0
 40
3.0
 40
4.0
 40
4.0
 40
4.0
 40
4.0
 10
105.6676242140345
 20
-121.7028211501299
 10
105.6676242140345
 20
-121.8678412238733
 10
105.7627088494274
 20
-121.9522460632619
 10
105.8981011019977
 20
-121.9522460632619
 10
106.0207465012726
 20
-121.9522460632619
 10
106.1392577859652
 20
-121.8805880771688
 10
106.1392577859652
 20
-121.7028211501299
 10
106.1392577859652
 20
-121.525054223091
 10
106.0207465012726
 20
-121.4530517274492
 10
105.8981011019977
 20
-121.4530517274492
 10
105.7627088494274
 20
-121.4530517274492
 10
105.6676242140345
 20
-121.5398681336775
 10
105.6676242140345
 20
-121.7028211501299
 97
        0
 97
        0
 92
        1
 93
        1
 72
     4
 94
        3
 73
     0
 74
     1
 95
       17
 96
       13
 40
0.0
 40
0.0
 40
0.0
 40
0.0
 40
1.0
 40
1.0
 40
1.0
 40
2.0
 40
2.0
 40
2.0
 40
3.0
 40
3.0
 40
3.0
 40
4.0
 40
4.0
 40
4.0
 40
4.0
 10
106.3277045090084
 20
-121.7028211501299
 10
106.3277045090084
 20
-121.8464816318648
 10
106.4145209152367
 20
-121.9990993618613
 10
106.6174370393179
 20
-121.9990993618613
 10
106.8227647302388
 20
-121.9990993618613
 10
106.9240505375051
 20
-121.8719753384556
 10
106.9240505375051
 20
-121.7028211501299
 10
106.9240505375051
 20
-121.5167859939264
 10
106.8014051382302
 20
-121.4065429383984
 10
106.6236382111913
 20
-121.4065429383984
 10
106.4017740619412
 20
-121.4065429383984
 10
106.3277045090084
 20
-121.5694959548507
 10
106.3277045090084
 20
-121.7028211501299
 97
        0
 97
        0
 75
     2
 76
     1
 98
        0
  0
ENDBLK
  5
AC
330
A9
100
AcDbEntity
  8
0
100
AcDbBlockEnd
  0
BLOCK
  5
C6
330
C4
100
AcDbEntity
  8
0
100
AcDbBlockBegin
  2
block 4
 70
     0
 10
0.0
 20
0.0
 30
0.0
  3
block 4
  1

  0
SPLINE
  5
C8
330
C4
100
AcDbEntity
  8
_U+30EC_U+30A4_U+30E4_U+30FC 1
370
     0
100
AcDbSpline
210
0.0
220
0.0
230
1.0
 70
    11
 71
     3
 72
    62
 73
    58
 74
     0
 42
0.0000000001
 43
0.0000000001
 12
1.0
 22
0.0
 32
0.0
 13
1.0
 23
0.0
 33
0.0
 40
0.0
 40
0.0
 40
0.0
 40
0.0
 40
1.0
 40
1.0
 40
1.0
 40
2.0
 40
2.0
 40
2.0
 40
3.0
 40
3.0
 40
3.0
 40
4.0
 40
4.0
 40
4.0
 40
5.0
 40
5.0
 40
5.0
 40
6.0
 40
6.0
 40
6.0
 40
7.0
 40
7.0
 40
7.0
 40
8.0
 40
8.0
 40
8.0
 40
9.0
 40
9.0
 40
9.0
 40
10.0
 40
10.0
 40
10.0
 40
11.0
 40
11.0
 40
11.0
 40
12.0
 40
12.0
 40
12.0
 40
13.0
 40
13.0
 40
13.0
 40
14.0
 40
14.0
 40
14.0
 40
15.0
 40
15.0
 40
15.0
 40
16.0
 40
16.0
 40
16.0
 40
17.0
 40
17.0
 40
17.0
 40
18.0
 40
18.0
 40
18.0
 40
19.0
 40
19.0
 40
19.0
 40
19.0
 10
107.1186984324217
 20
-133.8150878571712
 30
0.0
 10
107.1186984324217
 20
-133.9105170021126
 30
0.0
 10
107.0976833499617
 20
-134.1282470367804
 30
0.0
 10
106.9116481937582
 20
-134.253304002895
 30
0.0
 10
106.7993380809391
 20
-134.3270290462794
 30
0.0
 10
106.7001193309639
 20
-134.3315076704102
 30
0.0
 10
106.6153699820267
 20
-134.3356417849925
 30
0.0
 10
106.6153699820267
 20
-134.3356417849925
 30
0.0
 10
106.6153699820267
 20
-134.115500183485
 30
0.0
 10
106.6153699820267
 20
-134.115500183485
 30
0.0
 10
106.6894395349596
 20
-134.1134331261939
 30
0.0
 10
106.9240505375051
 20
-134.1030978397381
 30
0.0
 10
106.9240505375051
 20
-133.819566481302
 30
0.0
 10
106.9240505375051
 20
-133.6821071714406
 30
0.0
 10
106.8544596087031
 20
-133.529489441444
 30
0.0
 10
106.626049778031
 20
-133.529489441444
 30
0.0
 10
106.5096055506295
 20
-133.529489441444
 30
0.0
 10
106.4610297042875
 20
-133.5677300013303
 30
0.0
 10
106.4293348258232
 20
-133.5994248797946
 30
0.0
 10
106.3552652728903
 20
-133.6734944327275
 30
0.0
 10
106.3425184195949
 20
-133.7899386601289
 30
0.0
 10
106.3425184195949
 20
-133.8447156783444
 30
0.0
 10
106.3425184195949
 20
-133.8640082130618
 30
0.0
 10
106.3445854768861
 20
-133.8998372061084
 30
0.0
 10
106.3487195914684
 20
-133.9273979699904
 30
0.0
 10
106.3487195914684
 20
-133.9273979699904
 30
0.0
 10
106.1540716965518
 20
-133.9273979699904
 30
0.0
 10
106.1540716965518
 20
-133.9273979699904
 30
0.0
 10
106.1606173779737
 20
-133.8891574101041
 30
0.0
 10
106.1626844352649
 20
-133.8471272451841
 30
0.0
 10
106.1626844352649
 20
-133.8405815637621
 30
0.0
 10
106.1626844352649
 20
-133.7751247495423
 30
0.0
 10
106.1413248432563
 20
-133.5763427400434
 30
0.0
 10
105.9046467834197
 20
-133.5763427400434
 30
0.0
 10
105.7268798563808
 20
-133.5763427400434
 30
0.0
 10
105.6717583286168
 20
-133.7072563684829
 30
0.0
 10
105.6717583286168
 20
-133.8174994240109
 30
0.0
 10
105.6717583286168
 20
-134.0817382477296
 30
0.0
 10
105.9046467834197
 20
-134.0903509864427
 30
0.0
 10
105.9763047695129
 20
-134.094485101025
 30
0.0
 10
105.9763047695129
 20
-134.094485101025
 30
0.0
 10
105.9763047695129
 20
-134.2977457346547
 30
0.0
 10
105.9763047695129
 20
-134.2977457346547
 30
0.0
 10
105.8515923129468
 20
-134.2891329959416
 30
0.0
 10
105.475043376409
 20
-134.2615722320596
 30
0.0
 10
105.475043376409
 20
-133.8047525707155
 30
0.0
 10
105.475043376409
 20
-133.5804768546257
 30
0.0
 10
105.6021673998147
 20
-133.3393201706582
 30
0.0
 10
105.8981011019977
 20
-133.3393201706582
 30
0.0
 10
106.0844807677497
 20
-133.3393201706582
 30
0.0
 10
106.1668185498472
 20
-133.4344048060511
 30
0.0
 10
106.2281412494846
 20
-133.5339680655748
 30
0.0
 10
106.2557020133666
 20
-133.4726453659374
 30
0.0
 10
106.335972738173
 20
-133.2907443243162
 30
0.0
 10
106.6133029247356
 20
-133.2907443243162
 30
0.0
 10
106.9516113013871
 20
-133.2907443243162
 30
0.0
 10
107.1186984324217
 20
-133.5381021801572
 30
0.0
 10
107.1186984324217
 20
-133.8150878571712
 30
0.0
  0
HATCH
  5
C9
330
C4
100
AcDbEntity
  8
_U+30EC_U+30A4_U+30E4_U+30FC 1
 62
   179
420
  2234388
100
AcDbHatch
 10
0.0
 20
0.0
 30
0.0
210
0.0
220
0.0
230
1.0
  2
SOLID
 70
     1
 71
     0
 91
        1
 92
        1
 93
        1
 72
     4
 94
        3
 73
     0
 74
     1
 95
       62
 96
       58
 40
0.0
 40
0.0
 40
0.0
 40
0.0
 40
1.0
 40
1.0
 40
1.0
 40
2.0
 40
2.0
 40
2.0
 40
3.0
 40
3.0
 40
3.0
 40
4.0
 40
4.0
 40
4.0
 40
5.0
 40
5.0
 40
5.0
 40
6.0
 40
6.0
 40
6.0
 40
7.0
 40
7.0
 40
7.0
 40
8.0
 40
8.0
 40
8.0
 40
9.0
 40
9.0
 40
9.0
 40
10.0
 40
10.0
 40
10.0
 40
11.0
 40
11.0
 40
11.0
 40
12.0
 40
12.0
 40
12.0
 40
13.0
 40
13.0
 40
13.0
 40
14.0
 40
14.0
 40
14.0
 40
15.0
 40
15.0
 40
15.0
 40
16.0
 40
16.0
 40
16.0
 40
17.0
 40
17.0
 40
17.0
 40
18.0
 40
18.0
 40
18.0
 40
19.0
 40
19.0
 40
19.0
 40
19.0
 10
107.1186984324217
 20
-133.8150878571712
 10
107.1186984324217
 20
-133.9105170021126
 10
107.0976833499617
 20
-134.1282470367804
 10
106.9116481937582
 20
-134.253304002895
 10
106.7993380809391
 20
-134.3270290462794
 10
106.7001193309639
 20
-134.3315076704102
 10
106.6153699820267
 20
-134.3356417849925
 10
106.6153699820267
 20
-134.3356417849925
 10
106.6153699820267
 20
-134.115500183485
 10
106.6153699820267
 20
-134.115500183485
 10
106.6894395349596
 20
-134.1134331261939
 10
106.9240505375051
 20
-134.1030978397381
 10
106.9240505375051
 20
-133.819566481302
 10
106.9240505375051
 20
-133.6821071714406
 10
106.8544596087031
 20
-133.529489441444
 10
106.626049778031
 20
-133.529489441444
 10
106.5096055506295
 20
-133.529489441444
 10
106.4610297042875
 20
-133.5677300013303
 10
106.4293348258232
 20
-133.5994248797946
 10
106.3552652728903
 20
-133.6734944327275
 10
106.3425184195949
 20
-133.7899386601289
 10
106.3425184195949
 20
-133.8447156783444
 10
106.3425184195949
 20
-133.8640082130618
 10
106.3445854768861
 20
-133.8998372061084
 10
106.3487195914684
 20
-133.9273979699904
 10
106.3487195914684
 20
-133.9273979699904
 10
106.1540716965518
 20
-133.9273979699904
 10
106.1540716965518
 20
-133.9273979699904
 10
106.1606173779737
 20
-133.8891574101041
 10
106.1626844352649
 20
-133.8471272451841
 10
106.1626844352649
 20
-133.8405815637621
 10
106.1626844352649
 20
-133.7751247495423
 10
106.1413248432563
 20
-133.5763427400434
 10
105.9046467834197
 20
-133.5763427400434
 10
105.7268798563808
 20
-133.5763427400434
 10
105.6717583286168
 20
-133.7072563684829
 10
105.6717583286168
 20
-133.8174994240109
 10
105.6717583286168
 20
-134.0817382477296
 10
105.9046467834197
 20
-134.0903509864427
 10
105.9763047695129
 20
-134.094485101025
 10
105.9763047695129
 20
-134.094485101025
 10
105.9763047695129
 20
-134.2977457346547
 10
105.9763047695129
 20
-134.2977457346547
 10
105.8515923129468
 20
-134.2891329959416
 10
105.475043376409
 20
-134.2615722320596
 10
105.475043376409
 20
-133.8047525707155
 10
105.475043376409
 20
-133.5804768546257
 10
105.6021673998147
 20
-133.3393201706582
 10
105.8981011019977
 20
-133.3393201706582
 10
106.0844807677497
 20
-133.3393201706582
 10
106.1668185498472
 20
-133.4344048060511
 10
106.2281412494846
 20
-133.5339680655748
 10
106.2557020133666
 20
-133.4726453659374
 10
106.335972738173
 20
-133.2907443243162
 10
106.6133029247356
 20
-133.2907443243162
 10
106.9516113013871
 20
-133.2907443243162
 10
107.1186984324217
 20
-133.5381021801572
 10
107.1186984324217
 20
-133.8150878571712
 97
        0
 97
        0
 75
     2
 76
     1
 98
        0
  0
ENDBLK
  5
C7
330
C4
100
AcDbEntity
  8
0
100
AcDbBlockEnd
  0
BLOCK
  5
D8
330
D6
100
AcDbEntity
  8
0
100
AcDbBlockBegin
  2
block 5
 70
     0
 10
0.0
 20
0.0
 30
0.0
  3
block 5
  1

  0
SPLINE
  5
DA
330
D6
100
AcDbEntity
  8
_U+30EC_U+30A4_U+30E4_U+30FC 1
370
     0
100
AcDbSpline
210
0.0
220
0.0
230
1.0
 70
    11
 71
     3
 72
    26
 73
    22
 74
     0
 42
0.0000000001
 43
0.0000000001
 12
1.0
 22
0.0
 32
0.0
 13
1.0
 23
0.0
 33
0.0
 40
0.0
 40
0.0
 40
0.0
 40
0.0
 40
1.0
 40
1.0
 40
1.0
 40
2.0
 40
2.0
 40
2.0
 40
3.0
 40
3.0
 40
3.0
 40
4.0
 40
4.0
 40
4.0
 40
5.0
 40
5.0
 40
5.0
 40
6.0
 40
6.0
 40
6.0
 40
7.0
 40
7.0
 40
7.0
 40
7.0
 10
89.07656112139406
 20
-138.658547599884
 30
0.0
 10
89.07656112139406
 20
-138.658547599884
 30
0.0
 10
89.07656112139406
 20
-137.5543944968614
 30
0.0
 10
89.07656112139406
 20
-137.5543944968614
 30
0.0
 10
89.07656112139406
 20
-137.5543944968614
 30
0.0
 10
88.74652097390712
 20
-137.5543944968614
 30
0.0
 10
88.74652097390712
 20
-137.5543944968614
 30
0.0
 10
88.74652097390712
 20
-137.5543944968614
 30
0.0
 10
88.74652097390712
 20
-137.4062553909957
 30
0.0
 10
88.74652097390712
 20
-137.4062553909957
 30
0.0
 10
89.07862817868521
 20
-137.3914414804091
 30
0.0
 10
89.12513696773608
 20
-137.2284884639568
 30
0.0
 10
89.15476478890923
 20
-137.114455803395
 30
0.0
 10
89.15476478890923
 20
-137.114455803395
 30
0.0
 10
89.30083683748383
 20
-137.114455803395
 30
0.0
 10
89.30083683748383
 20
-137.114455803395
 30
0.0
 10
89.30083683748383
 20
-137.114455803395
 30
0.0
 10
89.30083683748383
 20
-138.658547599884
 30
0.0
 10
89.30083683748383
 20
-138.658547599884
 30
0.0
 10
89.30083683748383
 20
-138.658547599884
 30
0.0
 10
89.07656112139406
 20
-138.658547599884
 30
0.0
 10
89.07656112139406
 20
-138.658547599884
 30
0.0
  0
HATCH
  5
DB
330
D6
100
AcDbEntity
  8
_U+30EC_U+30A4_U+30E4_U+30FC 1
 62
   179
420
  2234388
100
AcDbHatch
 10
0.0
 20
0.0
 30
0.0
210
0.0
220
0.0
230
1.0
  2
SOLID
 70
     1
 71
     0
 91
        1
 92
        1
 93
        1
 72
     4
 94
        3
 73
     0
 74
     1
 95
       26
 96
       22
 40
0.0
 40
0.0
 40
0.0
 40
0.0
 40
1.0
 40
1.0
 40
1.0
 40
2.0
 40
2.0
 40
2.0
 40
3.0
 40
3.0
 40
3.0
 40
4.0
 40
4.0
 40
4.0
 40
5.0
 40
5.0
 40
5.0
 40
6.0
 40
6.0
 40
6.0
 40
7.0
 40
7.0
 40
7.0
 40
7.0
 10
89.07656112139406
 20
-138.658547599884
 10
89.07656112139406
 20
-138.658547599884
 10
89.07656112139406
 20
-137.5543944968614
 10
89.07656112139406
 20
-137.5543944968614
 10
89.07656112139406
 20
-137.5543944968614
 10
88.74652097390712
 20
-137.5543944968614
 10
88.74652097390712
 20
-137.5543944968614
 10
88.74652097390712
 20
-137.5543944968614
 10
88.74652097390712
 20
-137.4062553909957
 10
88.74652097390712
 20
-137.4062553909957
 10
89.07862817868521
 20
-137.3914414804091
 10
89.12513696773608
 20
-137.2284884639568
 10
89.15476478890923
 20
-137.114455803395
 10
89.15476478890923
 20
-137.114455803395
 10
89.30083683748383
 20
-137.114455803395
 10
89.30083683748383
 20
-137.114455803395
 10
89.30083683748383
 20
-137.114455803395
 10
89.30083683748383
 20
-138.658547599884
 10
89.30083683748383
 20
-138.658547599884
 10
89.30083683748383
 20
-138.658547599884
 10
89.07656112139406
 20
-138.658547599884
 10
89.07656112139406
 20
-138.658547599884
 97
        0
 97
        0
 75
     2
 76
     1
 98
        0
  0
SPLINE
  5
DC
330
D6
100
AcDbEntity
  8
_U+30EC_U+30A4_U+30E4_U+30FC 1
370
     0
100
AcDbSpline
210
0.0
220
0.0
230
1.0
 70
    11
 71
     3
 72
    29
 73
    25
 74
     0
 42
0.0000000001
 43
0.0000000001
 12
1.0
 22
0.0
 32
0.0
 13
1.0
 23
0.0
 33
0.0
 40
0.0
 40
0.0
 40
0.0
 40
0.0
 40
1.0
 40
1.0
 40
1.0
 40
2.0
 40
2.0
 40
2.0
 40
3.0
 40
3.0
 40
3.0
 40
4.0
 40
4.0
 40
4.0
 40
5.0
 40
5.0
 40
5.0
 40
6.0
 40
6.0
 40
6.0
 40
7.0
 40
7.0
 40
7.0
 40
8.0
 40
8.0
 40
8.0
 40
8.0
 10
90.69971785926951
 20
-138.4807806728451
 30
0.0
 10
90.5918863705812
 20
-138.6902424783483
 30
0.0
 10
90.41842581289887
 20
-138.7095350130657
 30
0.0
 10
90.30198158549743
 20
-138.7095350130657
 30
0.0
 10
90.14126788111052
 20
-138.7095350130657
 30
0.0
 10
89.99950220189248
 20
-138.6630262240148
 30
0.0
 10
89.90424531172533
 20
-138.4807806728451
 30
0.0
 10
89.80072019239357
 20
-138.2861327779285
 30
0.0
 10
89.78159991245043
 20
-138.0494547180918
 30
0.0
 10
89.78159991245043
 20
-137.8865017016395
 30
0.0
 10
89.78159991245043
 20
-137.7424967103561
 30
0.0
 10
89.79848088032816
 20
-137.4910047399328
 30
0.0
 10
89.90424531172533
 20
-137.2918782208854
 30
0.0
 10
90.01224905518791
 20
-137.0889620968042
 30
0.0
 10
90.17296275957482
 20
-137.0655354475045
 30
0.0
 10
90.30198158549743
 20
-137.0655354475045
 30
0.0
 10
90.46062823259318
 20
-137.0655354475045
 30
0.0
 10
90.60446096910236
 20
-137.1099771792642
 30
0.0
 10
90.69971785926951
 20
-137.2918782208854
 30
0.0
 10
90.79910886401898
 20
-137.4844590585108
 30
0.0
 10
90.82236325854441
 20
-137.7128688891829
 30
0.0
 10
90.82236325854441
 20
-137.8865017016395
 30
0.0
 10
90.82236325854441
 20
-138.0577229472564
 30
0.0
 10
90.80134817608439
 20
-138.2885443447682
 30
0.0
 10
90.69971785926951
 20
-138.4807806728451
 30
0.0
  0
SPLINE
  5
DD
330
D6
100
AcDbEntity
  8
_U+30EC_U+30A4_U+30E4_U+30FC 1
370
     0
100
AcDbSpline
210
0.0
220
0.0
230
1.0
 70
    11
 71
     3
 72
    17
 73
    13
 74
     0
 42
0.0000000001
 43
0.0000000001
 12
1.0
 22
0.0
 32
0.0
 13
1.0
 23
0.0
 33
0.0
 40
0.0
 40
0.0
 40
0.0
 40
0.0
 40
1.0
 40
1.0
 40
1.0
 40
2.0
 40
2.0
 40
2.0
 40
3.0
 40
3.0
 40
3.0
 40
4.0
 40
4.0
 40
4.0
 40
4.0
 10
90.30198158549743
 20
-137.2581162851299
 30
0.0
 10
90.05238441759107
 20
-137.2581162851299
 30
0.0
 10
90.0058756285402
 20
-137.541647643566
 30
0.0
 10
90.0058756285402
 20
-137.8865017016395
 30
0.0
 10
90.0058756285402
 20
-138.2058620531222
 30
0.0
 10
90.04187687636106
 20
-138.5148871181491
 30
0.0
 10
90.30198158549743
 20
-138.5148871181491
 30
0.0
 10
90.54951169611263
 20
-138.5148871181491
 30
0.0
 10
90.5982597972289
 20
-138.2334228170041
 30
0.0
 10
90.5982597972289
 20
-137.8865017016395
 30
0.0
 10
90.5982597972289
 20
-137.5671413501568
 30
0.0
 10
90.5601914921169
 20
-137.2581162851299
 30
0.0
 10
90.30198158549743
 20
-137.2581162851299
 30
0.0
  0
HATCH
  5
DE
330
D6
100
AcDbEntity
  8
_U+30EC_U+30A4_U+30E4_U+30FC 1
 62
   179
420
  2234388
100
AcDbHatch
 10
0.0
 20
0.0
 30
0.0
210
0.0
220
0.0
230
1.0
  2
SOLID
 70
     1
 71
     0
 91
        2
 92
        1
 93
        1
 72
     4
 94
        3
 73
     0
 74
     1
 95
       29
 96
       25
 40
0.0
 40
0.0
 40
0.0
 40
0.0
 40
1.0
 40
1.0
 40
1.0
 40
2.0
 40
2.0
 40
2.0
 40
3.0
 40
3.0
 40
3.0
 40
4.0
 40
4.0
 40
4.0
 40
5.0
 40
5.0
 40
5.0
 40
6.0
 40
6.0
 40
6.0
 40
7.0
 40
7.0
 40
7.0
 40
8.0
 40
8.0
 40
8.0
 40
8.0
 10
90.69971785926951
 20
-138.4807806728451
 10
90.5918863705812
 20
-138.6902424783483
 10
90.41842581289887
 20
-138.7095350130657
 10
90.30198158549743
 20
-138.7095350130657
 10
90.14126788111052
 20
-138.7095350130657
 10
89.99950220189248
 20
-138.6630262240148
 10
89.90424531172533
 20
-138.4807806728451
 10
89.80072019239357
 20
-138.2861327779285
 10
89.78159991245043
 20
-138.0494547180918
 10
89.78159991245043
 20
-137.8865017016395
 10
89.78159991245043
 20
-137.7424967103561
 10
89.79848088032816
 20
-137.4910047399328
 10
89.90424531172533
 20
-137.2918782208854
 10
90.01224905518791
 20
-137.0889620968042
 10
90.17296275957482
 20
-137.0655354475045
 10
90.30198158549743
 20
-137.0655354475045
 10
90.46062823259318
 20
-137.0655354475045
 10
90.60446096910236
 20
-137.1099771792642
 10
90.69971785926951
 20
-137.2918782208854
 10
90.79910886401898
 20
-137.4844590585108
 10
90.82236325854441
 20
-137.7128688891829
 10
90.82236325854441
 20
-137.8865017016395
 10
90.82236325854441
 20
-138.0577229472564
 10
90.80134817608439
 20
-138.2885443447682
 10
90.69971785926951
 20
-138.4807806728451
 97
        0
 97
        0
 92
        1
 93
        1
 72
     4
 94
        3
 73
     0
 74
     1
 95
       17
 96
       13
 40
0.0
 40
0.0
 40
0.0
 40
0.0
 40
1.0
 40
1.0
 40
1.0
 40
2.0
 40
2.0
 40
2.0
 40
3.0
 40
3.0
 40
3.0
 40
4.0
 40
4.0
 40
4.0
 40
4.0
 10
90.30198158549743
 20
-137.2581162851299
 10
90.05238441759107
 20
-137.2581162851299
 10
90.0058756285402
 20
-137.541647643566
 10
90.0058756285402
 20
-137.8865017016395
 10
90.0058756285402
 20
-138.2058620531222
 10
90.04187687636106
 20
-138.5148871181491
 10
90.30198158549743
 20
-138.5148871181491
 10
90.54951169611263
 20
-138.5148871181491
 10
90.5982597972289
 20
-138.2334228170041
 10
90.5982597972289
 20
-137.8865017016395
 10
90.5982597972289
 20
-137.5671413501568
 10
90.5601914921169
 20
-137.2581162851299
 10
90.30198158549743
 20
-137.2581162851299
 97
        0
 97
        0
 75
     2
 76
     1
 98
        0
  0
ENDBLK
  5
D9
330
D6
100
AcDbEntity
  8
0
100
AcDbBlockEnd
  0
BLOCK
  5
E9
330
E7
100
AcDbEntity
  8
0
100
AcDbBlockBegin
  2
block 6
 70
     0
 10
0.0
 20
0.0
 30
0.0
  3
block 6
  1

  0
SPLINE
  5
EB
330
E7
100
AcDbEntity
  8
_U+30EC_U+30A4_U+30E4_U+30FC 1
370
     0
100
AcDbSpline
210
0.0
220
0.0
230
1.0
 70
    11
 71
     3
 72
    26
 73
    22
 74
     0
 42
0.0000000001
 43
0.0000000001
 12
1.0
 22
0.0
 32
0.0
 13
1.0
 23
0.0
 33
0.0
 40
0.0
 40
0.0
 40
0.0
 40
0.0
 40
1.0
 40
1.0
 40
1.0
 40
2.0
 40
2.0
 40
2.0
 40
3.0
 40
3.0
 40
3.0
 40
4.0
 40
4.0
 40
4.0
 40
5.0
 40
5.0
 40
5.0
 40
6.0
 40
6.0
 40
6.0
 40
7.0
 40
7.0
 40
7.0
 40
7.0
 10
78.07654349176559
 20
-138.658547599884
 30
0.0
 10
78.07654349176559
 20
-138.658547599884
 30
0.0
 10
78.07654349176559
 20
-137.5543944968614
 30
0.0
 10
78.07654349176559
 20
-137.5543944968614
 30
0.0
 10
78.07654349176559
 20
-137.5543944968614
 30
0.0
 10
77.74650334427865
 20
-137.5543944968614
 30
0.0
 10
77.74650334427865
 20
-137.5543944968614
 30
0.0
 10
77.74650334427865
 20
-137.5543944968614
 30
0.0
 10
77.74650334427865
 20
-137.4062553909957
 30
0.0
 10
77.74650334427865
 20
-137.4062553909957
 30
0.0
 10
78.07861054905673
 20
-137.3914414804091
 30
0.0
 10
78.12511933810761
 20
-137.2284884639568
 30
0.0
 10
78.15474715928076
 20
-137.114455803395
 30
0.0
 10
78.15474715928076
 20
-137.114455803395
 30
0.0
 10
78.30081920785535
 20
-137.114455803395
 30
0.0
 10
78.30081920785535
 20
-137.114455803395
 30
0.0
 10
78.30081920785535
 20
-137.114455803395
 30
0.0
 10
78.30081920785535
 20
-138.658547599884
 30
0.0
 10
78.30081920785535
 20
-138.658547599884
 30
0.0
 10
78.30081920785535
 20
-138.658547599884
 30
0.0
 10
78.07654349176559
 20
-138.658547599884
 30
0.0
 10
78.07654349176559
 20
-138.658547599884
 30
0.0
  0
HATCH
  5
EC
330
E7
100
AcDbEntity
  8
_U+30EC_U+30A4_U+30E4_U+30FC 1
 62
   179
420
  2234388
100
AcDbHatch
 10
0.0
 20
0.0
 30
0.0
210
0.0
220
0.0
230
1.0
  2
SOLID
 70
     1
 71
     0
 91
        1
 92
        1
 93
        1
 72
     4
 94
        3
 73
     0
 74
     1
 95
       26
 96
       22
 40
0.0
 40
0.0
 40
0.0
 40
0.0
 40
1.0
 40
1.0
 40
1.0
 40
2.0
 40
2.0
 40
2.0
 40
3.0
 40
3.0
 40
3.0
 40
4.0
 40
4.0
 40
4.0
 40
5.0
 40
5.0
 40
5.0
 40
6.0
 40
6.0
 40
6.0
 40
7.0
 40
7.0
 40
7.0
 40
7.0
 10
78.07654349176559
 20
-138.658547599884
 10
78.07654349176559
 20
-138.658547599884
 10
78.07654349176559
 20
-137.5543944968614
 10
78.07654349176559
 20
-137.5543944968614
 10
78.07654349176559
 20
-137.5543944968614
 10
77.74650334427865
 20
-137.5543944968614
 10
77.74650334427865
 20
-137.5543944968614
 10
77.74650334427865
 20
-137.5543944968614
 10
77.74650334427865
 20
-137.4062553909957
 10
77.74650334427865
 20
-137.4062553909957
 10
78.07861054905673
 20
-137.3914414804091
 10
78.12511933810761
 20
-137.2284884639568
 10
78.15474715928076
 20
-137.114455803395
 10
78.15474715928076
 20
-137.114455803395
 10
78.30081920785535
 20
-137.114455803395
 10
78.30081920785535
 20
-137.114455803395
 10
78.30081920785535
 20
-137.114455803395
 10
78.30081920785535
 20
-138.658547599884
 10
78.30081920785535
 20
-138.658547599884
 10
78.30081920785535
 20
-138.658547599884
 10
78.07654349176559
 20
-138.658547599884
 10
78.07654349176559
 20
-138.658547599884
 97
        0
 97
        0
 75
     2
 76
     1
 98
        0
  0
SPLINE
  5
ED
330
E7
100
AcDbEntity
  8
_U+30EC_U+30A4_U+30E4_U+30FC 1
370
     0
100
AcDbSpline
210
0.0
220
0.0
230
1.0
 70
    11
 71
     3
 72
    44
 73
    40
 74
     0
 42
0.0000000001
 43
0.0000000001
 12
1.0
 22
0.0
 32
0.0
 13
1.0
 23
0.0
 33
0.0
 40
0.0
 40
0.0
 40
0.0
 40
0.0
 40
1.0
 40
1.0
 40
1.0
 40
2.0
 40
2.0
 40
2.0
 40
3.0
 40
3.0
 40
3.0
 40
4.0
 40
4.0
 40
4.0
 40
5.0
 40
5.0
 40
5.0
 40
6.0
 40
6.0
 40
6.0
 40
7.0
 40
7.0
 40
7.0
 40
8.0
 40
8.0
 40
8.0
 40
9.0
 40
9.0
 40
9.0
 40
10.0
 40
10.0
 40
10.0
 40
11.0
 40
11.0
 40
11.0
 40
12.0
 40
12.0
 40
12.0
 40
13.0
 40
13.0
 40
13.0
 40
13.0
 10
79.39515378874496
 20
-138.0770154819738
 30
0.0
 10
79.17725149930291
 20
-138.2354898742953
 30
0.0
 10
79.0840616664269
 20
-138.3095594272282
 30
0.0
 10
79.03548582008489
 20
-138.4535644185116
 30
0.0
 10
79.03548582008489
 20
-138.4535644185116
 30
0.0
 10
79.81390514497708
 20
-138.4535644185116
 30
0.0
 10
79.81390514497708
 20
-138.4535644185116
 30
0.0
 10
79.81390514497708
 20
-138.4535644185116
 30
0.0
 10
79.81390514497708
 20
-138.658547599884
 30
0.0
 10
79.81390514497708
 20
-138.658547599884
 30
0.0
 10
79.81390514497708
 20
-138.658547599884
 30
0.0
 10
78.78588865217853
 20
-138.658547599884
 30
0.0
 10
78.78588865217853
 20
-138.658547599884
 30
0.0
 10
78.81758353064284
 20
-138.300946688515
 30
0.0
 10
78.88304034486258
 20
-138.2227430209999
 30
0.0
 10
79.2682020201135
 20
-137.9243977519772
 30
0.0
 10
79.52417261466758
 20
-137.7256157424783
 30
0.0
 10
79.58962942888732
 20
-137.6580918709674
 30
0.0
 10
79.58962942888732
 20
-137.520632561106
 30
0.0
 10
79.58962942888732
 20
-137.4021212764134
 30
0.0
 10
79.51779918801986
 20
-137.2708631384253
 30
0.0
 10
79.3210842358121
 20
-137.2708631384253
 30
0.0
 10
79.06080727190147
 20
-137.2708631384253
 30
0.0
 10
79.05236678796261
 20
-137.5013400263886
 30
0.0
 10
79.04806041860604
 20
-137.61778425379
 30
0.0
 10
79.04806041860604
 20
-137.61778425379
 30
0.0
 10
78.82395695729055
 20
-137.61778425379
 30
0.0
 10
78.82395695729055
 20
-137.61778425379
 30
0.0
 10
78.8323974412294
 20
-137.4910047399328
 30
0.0
 10
78.84290498245942
 20
-137.3786946271137
 30
0.0
 10
78.92334796204
 20
-137.2601833424211
 30
0.0
 10
79.03324650801947
 20
-137.0996418928084
 30
0.0
 10
79.21945391899722
 20
-137.0655354475045
 30
0.0
 10
79.33589814639866
 20
-137.0655354475045
 30
0.0
 10
79.61305607818701
 20
-137.0655354475045
 30
0.0
 10
79.8202785716248
 20
-137.2498480559653
 30
0.0
 10
79.8202785716248
 20
-137.5226996183971
 30
0.0
 10
79.8202785716248
 20
-137.7511094490692
 30
0.0
 10
79.70400659899761
 20
-137.8506727085929
 30
0.0
 10
79.39515378874496
 20
-138.0770154819738
 30
0.0
  0
HATCH
  5
EE
330
E7
100
AcDbEntity
  8
_U+30EC_U+30A4_U+30E4_U+30FC 1
 62
   179
420
  2234388
100
AcDbHatch
 10
0.0
 20
0.0
 30
0.0
210
0.0
220
0.0
230
1.0
  2
SOLID
 70
     1
 71
     0
 91
        1
 92
        1
 93
        1
 72
     4
 94
        3
 73
     0
 74
     1
 95
       44
 96
       40
 40
0.0
 40
0.0
 40
0.0
 40
0.0
 40
1.0
 40
1.0
 40
1.0
 40
2.0
 40
2.0
 40
2.0
 40
3.0
 40
3.0
 40
3.0
 40
4.0
 40
4.0
 40
4.0
 40
5.0
 40
5.0
 40
5.0
 40
6.0
 40
6.0
 40
6.0
 40
7.0
 40
7.0
 40
7.0
 40
8.0
 40
8.0
 40
8.0
 40
9.0
 40
9.0
 40
9.0
 40
10.0
 40
10.0
 40
10.0
 40
11.0
 40
11.0
 40
11.0
 40
12.0
 40
12.0
 40
12.0
 40
13.0
 40
13.0
 40
13.0
 40
13.0
 10
79.39515378874496
 20
-138.0770154819738
 10
79.17725149930291
 20
-138.2354898742953
 10
79.0840616664269
 20
-138.3095594272282
 10
79.03548582008489
 20
-138.4535644185116
 10
79.03548582008489
 20
-138.4535644185116
 10
79.81390514497708
 20
-138.4535644185116
 10
79.81390514497708
 20
-138.4535644185116
 10
79.81390514497708
 20
-138.4535644185116
 10
79.81390514497708
 20
-138.658547599884
 10
79.81390514497708
 20
-138.658547599884
 10
79.81390514497708
 20
-138.658547599884
 10
78.78588865217853
 20
-138.658547599884
 10
78.78588865217853
 20
-138.658547599884
 10
78.81758353064284
 20
-138.300946688515
 10
78.88304034486258
 20
-138.2227430209999
 10
79.2682020201135
 20
-137.9243977519772
 10
79.52417261466758
 20
-137.7256157424783
 10
79.58962942888732
 20
-137.6580918709674
 10
79.58962942888732
 20
-137.520632561106
 10
79.58962942888732
 20
-137.4021212764134
 10
79.51779918801986
 20
-137.2708631384253
 10
79.3210842358121
 20
-137.2708631384253
 10
79.06080727190147
 20
-137.2708631384253
 10
79.05236678796261
 20
-137.5013400263886
 10
79.04806041860604
 20
-137.61778425379
 10
79.04806041860604
 20
-137.61778425379
 10
78.82395695729055
 20
-137.61778425379
 10
78.82395695729055
 20
-137.61778425379
 10
78.8323974412294
 20
-137.4910047399328
 10
78.84290498245942
 20
-137.3786946271137
 10
78.92334796204
 20
-137.2601833424211
 10
79.03324650801947
 20
-137.0996418928084
 10
79.21945391899722
 20
-137.0655354475045
 10
79.33589814639866
 20
-137.0655354475045
 10
79.61305607818701
 20
-137.0655354475045
 10
79.8202785716248
 20
-137.2498480559653
 10
79.8202785716248
 20
-137.5226996183971
 10
79.8202785716248
 20
-137.7511094490692
 10
79.70400659899761
 20
-137.8506727085929
 10
79.39515378874496
 20
-138.0770154819738
 97
        0
 97
        0
 75
     2
 76
     1
 98
        0
  0
ENDBLK
  5
EA
330
E7
100
AcDbEntity
  8
0
100
AcDbBlockEnd
  0
BLOCK
  5
FD
330
FB
100
AcDbEntity
  8
0
100
AcDbBlockBegin
  2
block 7
 70
     0
 10
0.0
 20
0.0
 30
0.0
  3
block 7
  1

  0
SPLINE
  5
FF
330
FB
100
AcDbEntity
  8
_U+30EC_U+30A4_U+30E4_U+30FC 1
370
     0
100
AcDbSpline
210
0.0
220
0.0
230
1.0
 70
    11
 71
     3
 72
    26
 73
    22
 74
     0
 42
0.0000000001
 43
0.0000000001
 12
1.0
 22
0.0
 32
0.0
 13
1.0
 23
0.0
 33
0.0
 40
0.0
 40
0.0
 40
0.0
 40
0.0
 40
1.0
 40
1.0
 40
1.0
 40
2.0
 40
2.0
 40
2.0
 40
3.0
 40
3.0
 40
3.0
 40
4.0
 40
4.0
 40
4.0
 40
5.0
 40
5.0
 40
5.0
 40
6.0
 40
6.0
 40
6.0
 40
7.0
 40
7.0
 40
7.0
 40
7.0
 10
107.0680555287885
 20
-128.8954915042345
 30
0.0
 10
107.0680555287885
 20
-128.8954915042345
 30
0.0
 10
107.0680555287885
 20
-129.1325140736197
 30
0.0
 10
107.0680555287885
 20
-129.1325140736197
 30
0.0
 10
106.7590304637616
 20
-129.1070203670288
 30
0.0
 10
106.2408881027801
 20
-128.9144395294034
 30
0.0
 10
105.7351480855454
 20
-128.5082627716924
 30
0.0
 10
105.7351480855454
 20
-128.5082627716924
 30
0.0
 10
105.7351480855454
 20
-129.3461099937051
 30
0.0
 10
105.7351480855454
 20
-129.3461099937051
 30
0.0
 10
105.7351480855454
 20
-129.3461099937051
 30
0.0
 10
105.5236192227511
 20
-129.3461099937051
 30
0.0
 10
105.5236192227511
 20
-129.3461099937051
 30
0.0
 10
105.5236192227511
 20
-129.3461099937051
 30
0.0
 10
105.5236192227511
 20
-128.2712402023072
 30
0.0
 10
105.5236192227511
 20
-128.2712402023072
 30
0.0
 10
105.5236192227511
 20
-128.2712402023072
 30
0.0
 10
105.7351480855454
 20
-128.2712402023072
 30
0.0
 10
105.7351480855454
 20
-128.2712402023072
 30
0.0
 10
106.0252251254034
 20
-128.5950791779207
 30
0.0
 10
106.6174370393179
 20
-128.861729568479
 30
0.0
 10
107.0680555287885
 20
-128.8954915042345
 30
0.0
  0
HATCH
  5
100
330
FB
100
AcDbEntity
  8
_U+30EC_U+30A4_U+30E4_U+30FC 1
 62
   179
420
  2234388
100
AcDbHatch
 10
0.0
 20
0.0
 30
0.0
210
0.0
220
0.0
230
1.0
  2
SOLID
 70
     1
 71
     0
 91
        1
 92
        1
 93
        1
 72
     4
 94
        3
 73
     0
 74
     1
 95
       26
 96
       22
 40
0.0
 40
0.0
 40
0.0
 40
0.0
 40
1.0
 40
1.0
 40
1.0
 40
2.0
 40
2.0
 40
2.0
 40
3.0
 40
3.0
 40
3.0
 40
4.0
 40
4.0
 40
4.0
 40
5.0
 40
5.0
 40
5.0
 40
6.0
 40
6.0
 40
6.0
 40
7.0
 40
7.0
 40
7.0
 40
7.0
 10
107.0680555287885
 20
-128.8954915042345
 10
107.0680555287885
 20
-128.8954915042345
 10
107.0680555287885
 20
-129.1325140736197
 10
107.0680555287885
 20
-129.1325140736197
 10
106.7590304637616
 20
-129.1070203670288
 10
106.2408881027801
 20
-128.9144395294034
 10
105.7351480855454
 20
-128.5082627716924
 10
105.7351480855454
 20
-128.5082627716924
 10
105.7351480855454
 20
-129.3461099937051
 10
105.7351480855454
 20
-129.3461099937051
 10
105.7351480855454
 20
-129.3461099937051
 10
105.5236192227511
 20
-129.3461099937051
 10
105.5236192227511
 20
-129.3461099937051
 10
105.5236192227511
 20
-129.3461099937051
 10
105.5236192227511
 20
-128.2712402023072
 10
105.5236192227511
 20
-128.2712402023072
 10
105.5236192227511
 20
-128.2712402023072
 10
105.7351480855454
 20
-128.2712402023072
 10
105.7351480855454
 20
-128.2712402023072
 10
106.0252251254034
 20
-128.5950791779207
 10
106.6174370393179
 20
-128.861729568479
 10
107.0680555287885
 20
-128.8954915042345
 97
        0
 97
        0
 75
     2
 76
     1
 98
        0
  0
ENDBLK
  5
FE
330
FB
100
AcDbEntity
  8
0
100
AcDbBlockEnd
  0
ENDSEC
  0
SECTION
  2
ENTITIES
  0
SPLINE
  5
41
330
1F
100
AcDbEntity
  8
_U+30EC_U+30A4_U+30E4_U+30FC 1
 62
   179
420
  2234388
370
     9
100
AcDbSpline
210
0.0
220
0.0
230
1.0
 70
    11
 71
     3
 72
    17
 73
    13
 74
     0
 42
0.0000000001
 43
0.0000000001
 12
1.0
 22
0.0
 32
0.0
 13
1.0
 23
0.0
 33
0.0
 40
0.0
 40
0.0
 40
0.0
 40
0.0
 40
1.0
 40
1.0
 40
1.0
 40
2.0
 40
2.0
 40
2.0
 40
3.0
 40
3.0
 40
3.0
 40
4.0
 40
4.0
 40
4.0
 40
4.0
 10
94.81385841443029
 20
-139.3055238540622
 30
0.0
 10
94.81385841443029
 20
-139.2504199651873
 30
0.0
 10
94.76905563779552
 20
-139.2056171874206
 30
0.0
 10
94.71395175031245
 20
-139.2056171874206
 30
0.0
 10
94.6588125850525
 20
-139.2056171874206
 30
0.0
 10
94.61404508619461
 20
-139.2504199651873
 30
0.0
 10
94.61404508619461
 20
-139.3055238540622
 30
0.0
 10
94.61404508619461
 20
-139.3606630207153
 30
0.0
 10
94.6588125850525
 20
-139.4054305207045
 30
0.0
 10
94.71395175031245
 20
-139.4054305207045
 30
0.0
 10
94.76905563779552
 20
-139.4054305207045
 30
0.0
 10
94.81385841443029
 20
-139.3606630207153
 30
0.0
 10
94.81385841443029
 20
-139.3055238540622
 30
0.0
  0
SPLINE
  5
42
330
1F
100
AcDbEntity
  8
_U+30EC_U+30A4_U+30E4_U+30FC 1
 62
   179
420
  2234388
370
     9
100
AcDbSpline
210
0.0
220
0.0
230
1.0
 70
    11
 71
     3
 72
    17
 73
    13
 74
     0
 42
0.0000000001
 43
0.0000000001
 12
1.0
 22
0.0
 32
0.0
 13
1.0
 23
0.0
 33
0.0
 40
0.0
 40
0.0
 40
0.0
 40
0.0
 40
1.0
 40
1.0
 40
1.0
 40
2.0
 40
2.0
 40
2.0
 40
3.0
 40
3.0
 40
3.0
 40
4.0
 40
4.0
 40
4.0
 40
4.0
 10
84.81412775657414
 20
-139.3055238540622
 30
0.0
 10
84.81412775657414
 20
-139.2504199651873
 30
0.0
 10
84.76932497880773
 20
-139.2056171874206
 30
0.0
 10
84.71421894987134
 20
-139.2056171874206
 30
0.0
 10
84.65907978461138
 20
-139.2056171874206
 30
0.0
 10
84.6143122857535
 20
-139.2504199651873
 30
0.0
 10
84.6143122857535
 20
-139.3055238540622
 30
0.0
 10
84.6143122857535
 20
-139.3606630207153
 30
0.0
 10
84.65907978461138
 20
-139.4054305207045
 30
0.0
 10
84.71421894987134
 20
-139.4054305207045
 30
0.0
 10
84.76932497880773
 20
-139.4054305207045
 30
0.0
 10
84.81412775657414
 20
-139.3606630207153
 30
0.0
 10
84.81412775657414
 20
-139.3055238540622
 30
0.0
  0
SPLINE
  5
43
330
1F
100
AcDbEntity
  8
_U+30EC_U+30A4_U+30E4_U+30FC 1
 62
   179
420
  2234388
370
     9
100
AcDbSpline
210
0.0
220
0.0
230
1.0
 70
    11
 71
     3
 72
    17
 73
    13
 74
     0
 42
0.0000000001
 43
0.0000000001
 12
1.0
 22
0.0
 32
0.0
 13
1.0
 23
0.0
 33
0.0
 40
0.0
 40
0.0
 40
0.0
 40
0.0
 40
1.0
 40
1.0
 40
1.0
 40
2.0
 40
2.0
 40
2.0
 40
3.0
 40
3.0
 40
3.0
 40
4.0
 40
4.0
 40
4.0
 40
4.0
 10
72.81414286457867
 20
-139.3055238540622
 30
0.0
 10
72.81414286457867
 20
-139.2504199651873
 30
0.0
 10
72.76937536572079
 20
-139.2056171874206
 30
0.0
 10
72.71423620046085
 20
-139.2056171874206
 30
0.0
 10
72.65913231297777
 20
-139.2056171874206
 30
0.0
 10
72.614329536343
 20
-139.2504199651873
 30
0.0
 10
72.614329536343
 20
-139.3055238540622
 30
0.0
 10
72.614329536343
 20
-139.3606630207153
 30
0.0
 10
72.65913231297777
 20
-139.4054305207045
 30
0.0
 10
72.71423620046085
 20
-139.4054305207045
 30
0.0
 10
72.76937536572079
 20
-139.4054305207045
 30
0.0
 10
72.81414286457867
 20
-139.3606630207153
 30
0.0
 10
72.81414286457867
 20
-139.3055238540622
 30
0.0
  0
POLYLINE
  5
44
330
1F
100
AcDbEntity
  8
_U+30EC_U+30A4_U+30E4_U+30FC 1
 62
   179
420
  2234388
370
    25
100
AcDb2dPolyline
 66
     1
 10
0.0
 20
0.0
 30
0.0
  0
VERTEX
  5
45
330
44
100
AcDbEntity
  8
_U+30EC_U+30A4_U+30E4_U+30FC 1
 62
   179
420
  2234388
370
    25
100
AcDbVertex
100
AcDb2dVertex
 10
72.71423620046085
 20
-124.5054024688738
 30
0.0
  0
VERTEX
  5
46
330
44
100
AcDbEntity
  8
_U+30EC_U+30A4_U+30E4_U+30FC 1
 62
   179
420
  2234388
370
    25
100
AcDbVertex
100
AcDb2dVertex
 10
103.7139123540377
 20
-124.5054024688738
 30
0.0
  0
SEQEND
  5
47
330
44
100
AcDbEntity
  8
_U+30EC_U+30A4_U+30E4_U+30FC 1
 62
   179
420
  2234388
370
    25
  0
POLYLINE
  5
48
330
1F
100
AcDbEntity
  8
_U+30EC_U+30A4_U+30E4_U+30FC 1
 62
   179
420
  2234388
370
    25
100
AcDb2dPolyline
 66
     1
 10
0.0
 20
0.0
 30
0.0
  0
VERTEX
  5
49
330
48
100
AcDbEntity
  8
_U+30EC_U+30A4_U+30E4_U+30FC 1
 62
   179
420
  2234388
370
    25
100
AcDbVertex
100
AcDb2dVertex
 10
103.7139123540377
 20
-124.5054024688738
 30
0.0
  0
VERTEX
  5
4A
330
48
100
AcDbEntity
  8
_U+30EC_U+30A4_U+30E4_U+30FC 1
 62
   179
420
  2234388
370
    25
100
AcDbVertex
100
AcDb2dVertex
 10
103.7139123540377
 20
-125.3053613575624
 30
0.0
  0
SEQEND
  5
4B
330
48
100
AcDbEntity
  8
_U+30EC_U+30A4_U+30E4_U+30FC 1
 62
   179
420
  2234388
370
    25
  0
POLYLINE
  5
4C
330
1F
100
AcDbEntity
  8
_U+30EC_U+30A4_U+30E4_U+30FC 1
 62
   179
420
  2234388
370
    25
100
AcDb2dPolyline
 66
     1
 10
0.0
 20
0.0
 30
0.0
  0
VERTEX
  5
4D
330
4C
100
AcDbEntity
  8
_U+30EC_U+30A4_U+30E4_U+30FC 1
 62
   179
420
  2234388
370
    25
100
AcDbVertex
100
AcDb2dVertex
 10
72.71423620046085
 20
-125.3053613575624
 30
0.0
  0
VERTEX
  5
4E
330
4C
100
AcDbEntity
  8
_U+30EC_U+30A4_U+30E4_U+30FC 1
 62
   179
420
  2234388
370
    25
100
AcDbVertex
100
AcDb2dVertex
 10
84.71421894987134
 20
-125.3053613575624
 30
0.0
  0
SEQEND
  5
4F
330
4C
100
AcDbEntity
  8
_U+30EC_U+30A4_U+30E4_U+30FC 1
 62
   179
420
  2234388
370
    25
  0
POLYLINE
  5
50
330
1F
100
AcDbEntity
  8
_U+30EC_U+30A4_U+30E4_U+30FC 1
 62
   179
420
  2234388
370
    25
100
AcDb2dPolyline
 66
     1
 10
0.0
 20
0.0
 30
0.0
  0
VERTEX
  5
51
330
50
100
AcDbEntity
  8
_U+30EC_U+30A4_U+30E4_U+30FC 1
 62
   179
420
  2234388
370
    25
100
AcDbVertex
100
AcDb2dVertex
 10
72.71423620046085
 20
-124.5054024688738
 30
0.0
  0
VERTEX
  5
52
330
50
100
AcDbEntity
  8
_U+30EC_U+30A4_U+30E4_U+30FC 1
 62
   179
420
  2234388
370
    25
100
AcDbVertex
100
AcDb2dVertex
 10
72.71423620046085
 20
-125.3053613575624
 30
0.0
  0
SEQEND
  5
53
330
50
100
AcDbEntity
  8
_U+30EC_U+30A4_U+30E4_U+30FC 1
 62
   179
420
  2234388
370
    25
  0
POLYLINE
  5
54
330
1F
100
AcDbEntity
  8
_U+30EC_U+30A4_U+30E4_U+30FC 1
 62
   179
420
  2234388
370
    25
100
AcDb2dPolyline
 66
     1
 10
0.0
 20
0.0
 30
0.0
  0
VERTEX
  5
55
330
54
100
AcDbEntity
  8
_U+30EC_U+30A4_U+30E4_U+30FC 1
 62
   179
420
  2234388
370
    25
100
AcDbVertex
100
AcDb2dVertex
 10
84.71421894987134
 20
-125.3053613575624
 30
0.0
  0
VERTEX
  5
56
330
54
100
AcDbEntity
  8
_U+30EC_U+30A4_U+30E4_U+30FC 1
 62
   179
420
  2234388
370
    25
100
AcDbVertex
100
AcDb2dVertex
 10
84.71421894987134
 20
-135.305764688396
 30
0.0
  0
SEQEND
  5
57
330
54
100
AcDbEntity
  8
_U+30EC_U+30A4_U+30E4_U+30FC 1
 62
   179
420
  2234388
370
    25
  0
POLYLINE
  5
58
330
1F
100
AcDbEntity
  8
_U+30EC_U+30A4_U+30E4_U+30FC 1
 62
   179
420
  2234388
370
    25
100
AcDb2dPolyline
 66
     1
 10
0.0
 20
0.0
 30
0.0
  0
VERTEX
  5
59
330
58
100
AcDbEntity
  8
_U+30EC_U+30A4_U+30E4_U+30FC 1
 62
   179
420
  2234388
370
    25
100
AcDbVertex
100
AcDb2dVertex
 10
94.71395175031245
 20
-132.3051074669236
 30
0.0
  0
VERTEX
  5
5A
330
58
100
AcDbEntity
  8
_U+30EC_U+30A4_U+30E4_U+30FC 1
 62
   179
420
  2234388
370
    25
100
AcDbVertex
100
AcDb2dVertex
 10
94.71395175031245
 20
-135.305764688396
 30
0.0
  0
SEQEND
  5
5B
330
58
100
AcDbEntity
  8
_U+30EC_U+30A4_U+30E4_U+30FC 1
 62
   179
420
  2234388
370
    25
  0
POLYLINE
  5
5C
330
1F
100
AcDbEntity
  8
_U+30EC_U+30A4_U+30E4_U+30FC 1
 62
   179
420
  2234388
370
    25
100
AcDb2dPolyline
 66
     1
 10
0.0
 20
0.0
 30
0.0
  0
VERTEX
  5
5D
330
5C
100
AcDbEntity
  8
_U+30EC_U+30A4_U+30E4_U+30FC 1
 62
   179
420
  2234388
370
    25
100
AcDbVertex
100
AcDb2dVertex
 10
90.71419268568813
 20
-132.3051074669236
 30
0.0
  0
VERTEX
  5
5E
330
5C
100
AcDbEntity
  8
_U+30EC_U+30A4_U+30E4_U+30FC 1
 62
   179
420
  2234388
370
    25
100
AcDbVertex
100
AcDb2dVertex
 10
94.71395175031245
 20
-132.3051074669236
 30
0.0
  0
SEQEND
  5
5F
330
5C
100
AcDbEntity
  8
_U+30EC_U+30A4_U+30E4_U+30FC 1
 62
   179
420
  2234388
370
    25
  0
POLYLINE
  5
60
330
1F
100
AcDbEntity
  8
_U+30EC_U+30A4_U+30E4_U+30FC 1
 62
   179
420
  2234388
370
    25
100
AcDb2dPolyline
 66
     1
 10
0.0
 20
0.0
 30
0.0
  0
VERTEX
  5
61
330
60
100
AcDbEntity
  8
_U+30EC_U+30A4_U+30E4_U+30FC 1
 62
   179
420
  2234388
370
    25
100
AcDbVertex
100
AcDb2dVertex
 10
84.71421894987134
 20
-135.305764688396
 30
0.0
  0
VERTEX
  5
62
330
60
100
AcDbEntity
  8
_U+30EC_U+30A4_U+30E4_U+30FC 1
 62
   179
420
  2234388
370
    25
100
AcDbVertex
100
AcDb2dVertex
 10
94.71395175031245
 20
-135.305764688396
 30
0.0
  0
SEQEND
  5
63
330
60
100
AcDbEntity
  8
_U+30EC_U+30A4_U+30E4_U+30FC 1
 62
   179
420
  2234388
370
    25
  0
POLYLINE
  5
64
330
1F
100
AcDbEntity
  8
_U+30EC_U+30A4_U+30E4_U+30FC 1
 62
   179
420
  2234388
370
    25
100
AcDb2dPolyline
 66
     1
 10
0.0
 20
0.0
 30
0.0
  0
VERTEX
  5
65
330
64
100
AcDbEntity
  8
_U+30EC_U+30A4_U+30E4_U+30FC 1
 62
   179
420
  2234388
370
    25
100
AcDbVertex
100
AcDb2dVertex
 10
85.5141425405747
 20
-125.3053613575624
 30
0.0
  0
VERTEX
  5
66
330
64
100
AcDbEntity
  8
_U+30EC_U+30A4_U+30E4_U+30FC 1
 62
   179
420
  2234388
370
    25
100
AcDbVertex
100
AcDb2dVertex
 10
85.5141425405747
 20
-134.5051355219294
 30
0.0
  0
SEQEND
  5
67
330
64
100
AcDbEntity
  8
_U+30EC_U+30A4_U+30E4_U+30FC 1
 62
   179
420
  2234388
370
    25
  0
POLYLINE
  5
68
330
1F
100
AcDbEntity
  8
_U+30EC_U+30A4_U+30E4_U+30FC 1
 62
   179
420
  2234388
370
    25
100
AcDb2dPolyline
 66
     1
 10
0.0
 20
0.0
 30
0.0
  0
VERTEX
  5
69
330
68
100
AcDbEntity
  8
_U+30EC_U+30A4_U+30E4_U+30FC 1
 62
   179
420
  2234388
370
    25
100
AcDbVertex
100
AcDb2dVertex
 10
85.5141425405747
 20
-134.5051355219294
 30
0.0
  0
VERTEX
  5
6A
330
68
100
AcDbEntity
  8
_U+30EC_U+30A4_U+30E4_U+30FC 1
 62
   179
420
  2234388
370
    25
100
AcDbVertex
100
AcDb2dVertex
 10
93.91399288183221
 20
-134.5051355219294
 30
0.0
  0
SEQEND
  5
6B
330
68
100
AcDbEntity
  8
_U+30EC_U+30A4_U+30E4_U+30FC 1
 62
   179
420
  2234388
370
    25
  0
POLYLINE
  5
6C
330
1F
100
AcDbEntity
  8
_U+30EC_U+30A4_U+30E4_U+30FC 1
 62
   179
420
  2234388
370
    25
100
AcDb2dPolyline
 66
     1
 10
0.0
 20
0.0
 30
0.0
  0
VERTEX
  5
6D
330
6C
100
AcDbEntity
  8
_U+30EC_U+30A4_U+30E4_U+30FC 1
 62
   179
420
  2234388
370
    25
100
AcDbVertex
100
AcDb2dVertex
 10
85.5141425405747
 20
-125.3053613575624
 30
0.0
  0
VERTEX
  5
6E
330
6C
100
AcDbEntity
  8
_U+30EC_U+30A4_U+30E4_U+30FC 1
 62
   179
420
  2234388
370
    25
100
AcDbVertex
100
AcDb2dVertex
 10
103.7139123540377
 20
-125.3053613575624
 30
0.0
  0
SEQEND
  5
6F
330
6C
100
AcDbEntity
  8
_U+30EC_U+30A4_U+30E4_U+30FC 1
 62
   179
420
  2234388
370
    25
  0
POLYLINE
  5
70
330
1F
100
AcDbEntity
  8
_U+30EC_U+30A4_U+30E4_U+30FC 1
 62
   179
420
  2234388
370
    25
100
AcDb2dPolyline
 66
     1
 10
0.0
 20
0.0
 30
0.0
  0
VERTEX
  5
71
330
70
100
AcDbEntity
  8
_U+30EC_U+30A4_U+30E4_U+30FC 1
 62
   179
420
  2234388
370
    25
100
AcDbVertex
100
AcDb2dVertex
 10
93.91399288183221
 20
-133.1057366333903
 30
0.0
  0
VERTEX
  5
72
330
70
100
AcDbEntity
  8
_U+30EC_U+30A4_U+30E4_U+30FC 1
 62
   179
420
  2234388
370
    25
100
AcDbVertex
100
AcDb2dVertex
 10
93.91399288183221
 20
-134.5051355219294
 30
0.0
  0
SEQEND
  5
73
330
70
100
AcDbEntity
  8
_U+30EC_U+30A4_U+30E4_U+30FC 1
 62
   179
420
  2234388
370
    25
  0
POLYLINE
  5
74
330
1F
100
AcDbEntity
  8
_U+30EC_U+30A4_U+30E4_U+30FC 1
 62
   179
420
  2234388
370
    25
100
AcDb2dPolyline
 66
     1
 10
0.0
 20
0.0
 30
0.0
  0
VERTEX
  5
75
330
74
100
AcDbEntity
  8
_U+30EC_U+30A4_U+30E4_U+30FC 1
 62
   179
420
  2234388
370
    25
100
AcDbVertex
100
AcDb2dVertex
 10
90.71419268568813
 20
-133.1057366333903
 30
0.0
  0
VERTEX
  5
76
330
74
100
AcDbEntity
  8
_U+30EC_U+30A4_U+30E4_U+30FC 1
 62
   179
420
  2234388
370
    25
100
AcDbVertex
100
AcDb2dVertex
 10
93.91399288183221
 20
-133.1057366333903
 30
0.0
  0
SEQEND
  5
77
330
74
100
AcDbEntity
  8
_U+30EC_U+30A4_U+30E4_U+30FC 1
 62
   179
420
  2234388
370
    25
  0
POLYLINE
  5
78
330
1F
100
AcDbEntity
  8
_U+30EC_U+30A4_U+30E4_U+30FC 1
 62
   179
420
  2234388
370
    25
100
AcDb2dPolyline
 66
     1
 10
0.0
 20
0.0
 30
0.0
  0
VERTEX
  5
79
330
78
100
AcDbEntity
  8
_U+30EC_U+30A4_U+30E4_U+30FC 1
 62
   179
420
  2234388
370
    25
100
AcDbVertex
100
AcDb2dVertex
 10
90.71419268568813
 20
-132.3051074669236
 30
0.0
  0
VERTEX
  5
7A
330
78
100
AcDbEntity
  8
_U+30EC_U+30A4_U+30E4_U+30FC 1
 62
   179
420
  2234388
370
    25
100
AcDbVertex
100
AcDb2dVertex
 10
90.71419268568813
 20
-133.1057366333903
 30
0.0
  0
SEQEND
  5
7B
330
78
100
AcDbEntity
  8
_U+30EC_U+30A4_U+30E4_U+30FC 1
 62
   179
420
  2234388
370
    25
  0
SPLINE
  5
7C
330
1F
100
AcDbEntity
  8
_U+30EC_U+30A4_U+30E4_U+30FC 1
 62
   179
420
  2234388
370
     9
100
AcDbSpline
210
0.0
220
0.0
230
1.0
 70
    11
 71
     3
 72
    17
 73
    13
 74
     0
 42
0.0000000001
 43
0.0000000001
 12
1.0
 22
0.0
 32
0.0
 13
1.0
 23
0.0
 33
0.0
 40
0.0
 40
0.0
 40
0.0
 40
0.0
 40
1.0
 40
1.0
 40
1.0
 40
2.0
 40
2.0
 40
2.0
 40
3.0
 40
3.0
 40
3.0
 40
4.0
 40
4.0
 40
4.0
 40
4.0
 10
107.8142483605405
 20
-124.5054024688738
 30
0.0
 10
107.8142483605405
 20
-124.4502985799986
 30
0.0
 10
107.7694808616826
 20
-124.4054958022318
 30
0.0
 10
107.714344417516
 20
-124.4054958022318
 30
0.0
 10
107.6592378089396
 20
-124.4054958022318
 30
0.0
 10
107.6144350323048
 20
-124.4502985799986
 30
0.0
 10
107.6144350323048
 20
-124.5054024688738
 30
0.0
 10
107.6144350323048
 20
-124.5605416355265
 30
0.0
 10
107.6592378089396
 20
-124.6053091355154
 30
0.0
 10
107.714344417516
 20
-124.6053091355154
 30
0.0
 10
107.7694808616826
 20
-124.6053091355154
 30
0.0
 10
107.8142483605405
 20
-124.5605416355265
 30
0.0
 10
107.8142483605405
 20
-124.5054024688738
 30
0.0
  0
SPLINE
  5
7D
330
1F
100
AcDbEntity
  8
_U+30EC_U+30A4_U+30E4_U+30FC 1
 62
   179
420
  2234388
370
     9
100
AcDbSpline
210
0.0
220
0.0
230
1.0
 70
    11
 71
     3
 72
    17
 73
    13
 74
     0
 42
0.0000000001
 43
0.0000000001
 12
1.0
 22
0.0
 32
0.0
 13
1.0
 23
0.0
 33
0.0
 40
0.0
 40
0.0
 40
0.0
 40
0.0
 40
1.0
 40
1.0
 40
1.0
 40
2.0
 40
2.0
 40
2.0
 40
3.0
 40
3.0
 40
3.0
 40
4.0
 40
4.0
 40
4.0
 40
4.0
 10
103.8138190181555
 20
-120.5056433032069
 30
0.0
 10
103.8138190181555
 20
-120.4505394143317
 30
0.0
 10
103.7690162415207
 20
-120.4057366365653
 30
0.0
 10
103.7139123540377
 20
-120.4057366365653
 30
0.0
 10
103.6587731887777
 20
-120.4057366365653
 30
0.0
 10
103.6140083074301
 20
-120.4505394143317
 30
0.0
 10
103.6140083074301
 20
-120.5056433032069
 30
0.0
 10
103.6140083074301
 20
-120.5607824698597
 30
0.0
 10
103.6587731887777
 20
-120.6055499698485
 30
0.0
 10
103.7139123540377
 20
-120.6055499698485
 30
0.0
 10
103.7690162415207
 20
-120.6055499698485
 30
0.0
 10
103.8138190181555
 20
-120.5607824698597
 30
0.0
 10
103.8138190181555
 20
-120.5056433032069
 30
0.0
  0
SPLINE
  5
7E
330
1F
100
AcDbEntity
  8
_U+30EC_U+30A4_U+30E4_U+30FC 1
 62
   179
420
  2234388
370
     9
100
AcDbSpline
210
0.0
220
0.0
230
1.0
 70
    11
 71
     3
 72
    17
 73
    13
 74
     0
 42
0.0000000001
 43
0.0000000001
 12
1.0
 22
0.0
 32
0.0
 13
1.0
 23
0.0
 33
0.0
 40
0.0
 40
0.0
 40
0.0
 40
0.0
 40
1.0
 40
1.0
 40
1.0
 40
2.0
 40
2.0
 40
2.0
 40
3.0
 40
3.0
 40
3.0
 40
4.0
 40
4.0
 40
4.0
 40
4.0
 10
72.81414286457867
 20
-120.5056433032069
 30
0.0
 10
72.81414286457867
 20
-120.4505394143317
 30
0.0
 10
72.76937536572079
 20
-120.4057366365653
 30
0.0
 10
72.71423620046085
 20
-120.4057366365653
 30
0.0
 10
72.65913231297777
 20
-120.4057366365653
 30
0.0
 10
72.614329536343
 20
-120.4505394143317
 30
0.0
 10
72.614329536343
 20
-120.5056433032069
 30
0.0
 10
72.614329536343
 20
-120.5607824698597
 30
0.0
 10
72.65913231297777
 20
-120.6055499698485
 30
0.0
 10
72.71423620046085
 20
-120.6055499698485
 30
0.0
 10
72.76937536572079
 20
-120.6055499698485
 30
0.0
 10
72.81414286457867
 20
-120.5607824698597
 30
0.0
 10
72.81414286457867
 20
-120.5056433032069
 30
0.0
  0
SPLINE
  5
7F
330
1F
100
AcDbEntity
  8
_U+30EC_U+30A4_U+30E4_U+30FC 1
 62
   179
420
  2234388
370
     9
100
AcDbSpline
210
0.0
220
0.0
230
1.0
 70
    11
 71
     3
 72
    17
 73
    13
 74
     0
 42
0.0000000001
 43
0.0000000001
 12
1.0
 22
0.0
 32
0.0
 13
1.0
 23
0.0
 33
0.0
 40
0.0
 40
0.0
 40
0.0
 40
0.0
 40
1.0
 40
1.0
 40
1.0
 40
2.0
 40
2.0
 40
2.0
 40
3.0
 40
3.0
 40
3.0
 40
4.0
 40
4.0
 40
4.0
 40
4.0
 10
107.8142483605405
 20
-125.3053613575624
 30
0.0
 10
107.8142483605405
 20
-125.2502221909097
 30
0.0
 10
107.7694808616826
 20
-125.2054546909208
 30
0.0
 10
107.714344417516
 20
-125.2054546909208
 30
0.0
 10
107.6592378089396
 20
-125.2054546909208
 30
0.0
 10
107.6144350323048
 20
-125.2502221909097
 30
0.0
 10
107.6144350323048
 20
-125.3053613575624
 30
0.0
 10
107.6144350323048
 20
-125.3604652464377
 30
0.0
 10
107.6592378089396
 20
-125.4052680242044
 30
0.0
 10
107.714344417516
 20
-125.4052680242044
 30
0.0
 10
107.7694808616826
 20
-125.4052680242044
 30
0.0
 10
107.8142483605405
 20
-125.3604652464377
 30
0.0
 10
107.8142483605405
 20
-125.3053613575624
 30
0.0
  0
SPLINE
  5
80
330
1F
100
AcDbEntity
  8
_U+30EC_U+30A4_U+30E4_U+30FC 1
 62
   179
420
  2234388
370
     9
100
AcDbSpline
210
0.0
220
0.0
230
1.0
 70
    11
 71
     3
 72
    17
 73
    13
 74
     0
 42
0.0000000001
 43
0.0000000001
 12
1.0
 22
0.0
 32
0.0
 13
1.0
 23
0.0
 33
0.0
 40
0.0
 40
0.0
 40
0.0
 40
0.0
 40
1.0
 40
1.0
 40
1.0
 40
2.0
 40
2.0
 40
2.0
 40
3.0
 40
3.0
 40
3.0
 40
4.0
 40
4.0
 40
4.0
 40
4.0
 10
107.8142483605405
 20
-132.3051074669236
 30
0.0
 10
107.8142483605405
 20
-132.2499683002706
 30
0.0
 10
107.7694808616826
 20
-132.205200800282
 30
0.0
 10
107.714344417516
 20
-132.205200800282
 30
0.0
 10
107.6592378089396
 20
-132.205200800282
 30
0.0
 10
107.6144350323048
 20
-132.2499683002706
 30
0.0
 10
107.6144350323048
 20
-132.3051074669236
 30
0.0
 10
107.6144350323048
 20
-132.3609169113541
 30
0.0
 10
107.6592378089396
 20
-132.4056844113433
 30
0.0
 10
107.714344417516
 20
-132.4056844113433
 30
0.0
 10
107.7694808616826
 20
-132.4056844113433
 30
0.0
 10
107.8142483605405
 20
-132.3609169113541
 30
0.0
 10
107.8142483605405
 20
-132.3051074669236
 30
0.0
  0
SPLINE
  5
81
330
1F
100
AcDbEntity
  8
_U+30EC_U+30A4_U+30E4_U+30FC 1
 62
   179
420
  2234388
370
     9
100
AcDbSpline
210
0.0
220
0.0
230
1.0
 70
    11
 71
     3
 72
    17
 73
    13
 74
     0
 42
0.0000000001
 43
0.0000000001
 12
1.0
 22
0.0
 32
0.0
 13
1.0
 23
0.0
 33
0.0
 40
0.0
 40
0.0
 40
0.0
 40
0.0
 40
1.0
 40
1.0
 40
1.0
 40
2.0
 40
2.0
 40
2.0
 40
3.0
 40
3.0
 40
3.0
 40
4.0
 40
4.0
 40
4.0
 40
4.0
 10
107.8142483605405
 20
-135.305764688396
 30
0.0
 10
107.8142483605405
 20
-135.2499552439656
 30
0.0
 10
107.7694808616826
 20
-135.2051877439764
 30
0.0
 10
107.714344417516
 20
-135.2051877439764
 30
0.0
 10
107.6592378089396
 20
-135.2051877439764
 30
0.0
 10
107.6144350323048
 20
-135.2499552439656
 30
0.0
 10
107.6144350323048
 20
-135.305764688396
 30
0.0
 10
107.6144350323048
 20
-135.3609038550484
 30
0.0
 10
107.6592378089396
 20
-135.4056713550376
 30
0.0
 10
107.714344417516
 20
-135.4056713550376
 30
0.0
 10
107.7694808616826
 20
-135.4056713550376
 30
0.0
 10
107.8142483605405
 20
-135.3609038550484
 30
0.0
 10
107.8142483605405
 20
-135.305764688396
 30
0.0
  0
SPLINE
  5
82
330
1F
100
AcDbEntity
  8
_U+30EC_U+30A4_U+30E4_U+30FC 1
 62
   179
420
  2234388
370
     9
100
AcDbSpline
210
0.0
220
0.0
230
1.0
 70
    11
 71
     3
 72
    17
 73
    13
 74
     0
 42
0.0000000001
 43
0.0000000001
 12
1.0
 22
0.0
 32
0.0
 13
1.0
 23
0.0
 33
0.0
 40
0.0
 40
0.0
 40
0.0
 40
0.0
 40
1.0
 40
1.0
 40
1.0
 40
2.0
 40
2.0
 40
2.0
 40
3.0
 40
3.0
 40
3.0
 40
4.0
 40
4.0
 40
4.0
 40
4.0
 10
94.81385841443029
 20
-139.3055238540622
 30
0.0
 10
94.81385841443029
 20
-139.2504199651873
 30
0.0
 10
94.76905563779552
 20
-139.2056171874206
 30
0.0
 10
94.71395175031245
 20
-139.2056171874206
 30
0.0
 10
94.6588125850525
 20
-139.2056171874206
 30
0.0
 10
94.61404508619461
 20
-139.2504199651873
 30
0.0
 10
94.61404508619461
 20
-139.3055238540622
 30
0.0
 10
94.61404508619461
 20
-139.3606630207153
 30
0.0
 10
94.6588125850525
 20
-139.4054305207045
 30
0.0
 10
94.71395175031245
 20
-139.4054305207045
 30
0.0
 10
94.76905563779552
 20
-139.4054305207045
 30
0.0
 10
94.81385841443029
 20
-139.3606630207153
 30
0.0
 10
94.81385841443029
 20
-139.3055238540622
 30
0.0
  0
SPLINE
  5
83
330
1F
100
AcDbEntity
  8
_U+30EC_U+30A4_U+30E4_U+30FC 1
 62
   179
420
  2234388
370
     9
100
AcDbSpline
210
0.0
220
0.0
230
1.0
 70
    11
 71
     3
 72
    17
 73
    13
 74
     0
 42
0.0000000001
 43
0.0000000001
 12
1.0
 22
0.0
 32
0.0
 13
1.0
 23
0.0
 33
0.0
 40
0.0
 40
0.0
 40
0.0
 40
0.0
 40
1.0
 40
1.0
 40
1.0
 40
2.0
 40
2.0
 40
2.0
 40
3.0
 40
3.0
 40
3.0
 40
4.0
 40
4.0
 40
4.0
 40
4.0
 10
84.81412775657414
 20
-139.3055238540622
 30
0.0
 10
84.81412775657414
 20
-139.2504199651873
 30
0.0
 10
84.76932497880773
 20
-139.2056171874206
 30
0.0
 10
84.71421894987134
 20
-139.2056171874206
 30
0.0
 10
84.65907978461138
 20
-139.2056171874206
 30
0.0
 10
84.6143122857535
 20
-139.2504199651873
 30
0.0
 10
84.6143122857535
 20
-139.3055238540622
 30
0.0
 10
84.6143122857535
 20
-139.3606630207153
 30
0.0
 10
84.65907978461138
 20
-139.4054305207045
 30
0.0
 10
84.71421894987134
 20
-139.4054305207045
 30
0.0
 10
84.76932497880773
 20
-139.4054305207045
 30
0.0
 10
84.81412775657414
 20
-139.3606630207153
 30
0.0
 10
84.81412775657414
 20
-139.3055238540622
 30
0.0
  0
SPLINE
  5
84
330
1F
100
AcDbEntity
  8
_U+30EC_U+30A4_U+30E4_U+30FC 1
 62
   179
420
  2234388
370
     9
100
AcDbSpline
210
0.0
220
0.0
230
1.0
 70
    11
 71
     3
 72
    17
 73
    13
 74
     0
 42
0.0000000001
 43
0.0000000001
 12
1.0
 22
0.0
 32
0.0
 13
1.0
 23
0.0
 33
0.0
 40
0.0
 40
0.0
 40
0.0
 40
0.0
 40
1.0
 40
1.0
 40
1.0
 40
2.0
 40
2.0
 40
2.0
 40
3.0
 40
3.0
 40
3.0
 40
4.0
 40
4.0
 40
4.0
 40
4.0
 10
72.81414286457867
 20
-139.3055238540622
 30
0.0
 10
72.81414286457867
 20
-139.2504199651873
 30
0.0
 10
72.76937536572079
 20
-139.2056171874206
 30
0.0
 10
72.71423620046085
 20
-139.2056171874206
 30
0.0
 10
72.65913231297777
 20
-139.2056171874206
 30
0.0
 10
72.614329536343
 20
-139.2504199651873
 30
0.0
 10
72.614329536343
 20
-139.3055238540622
 30
0.0
 10
72.614329536343
 20
-139.3606630207153
 30
0.0
 10
72.65913231297777
 20
-139.4054305207045
 30
0.0
 10
72.71423620046085
 20
-139.4054305207045
 30
0.0
 10
72.76937536572079
 20
-139.4054305207045
 30
0.0
 10
72.81414286457867
 20
-139.3606630207153
 30
0.0
 10
72.81414286457867
 20
-139.3055238540622
 30
0.0
  0
POLYLINE
  5
85
330
1F
100
AcDbEntity
  8
_U+30EC_U+30A4_U+30E4_U+30FC 1
 62
   179
420
  2234388
370
     9
100
AcDb2dPolyline
 66
     1
 10
0.0
 20
0.0
 30
0.0
  0
VERTEX
  5
86
330
85
100
AcDbEntity
  8
_U+30EC_U+30A4_U+30E4_U+30FC 1
 62
   179
420
  2234388
370
     9
100
AcDbVertex
100
AcDb2dVertex
 10
72.71423620046085
 20
-120.5056433032069
 30
0.0
  0
VERTEX
  5
87
330
85
100
AcDbEntity
  8
_U+30EC_U+30A4_U+30E4_U+30FC 1
 62
   179
420
  2234388
370
     9
100
AcDbVertex
100
AcDb2dVertex
 10
103.7139123540377
 20
-120.5056433032069
 30
0.0
  0
SEQEND
  5
88
330
85
100
AcDbEntity
  8
_U+30EC_U+30A4_U+30E4_U+30FC 1
 62
   179
420
  2234388
370
     9
  0
POLYLINE
  5
89
330
1F
100
AcDbEntity
  8
_U+30EC_U+30A4_U+30E4_U+30FC 1
 62
   179
420
  2234388
370
     9
100
AcDb2dPolyline
 66
     1
 10
0.0
 20
0.0
 30
0.0
  0
VERTEX
  5
8A
330
89
100
AcDbEntity
  8
_U+30EC_U+30A4_U+30E4_U+30FC 1
 62
   179
420
  2234388
370
     9
100
AcDbVertex
100
AcDb2dVertex
 10
72.71423620046085
 20
-121.9656846917309
 30
0.0
  0
VERTEX
  5
8B
330
89
100
AcDbEntity
  8
_U+30EC_U+30A4_U+30E4_U+30FC 1
 62
   179
420
  2234388
370
     9
100
AcDbVertex
100
AcDb2dVertex
 10
72.71423620046085
 20
-119.505200803457
 30
0.0
  0
SEQEND
  5
8C
330
89
100
AcDbEntity
  8
_U+30EC_U+30A4_U+30E4_U+30FC 1
 62
   179
420
  2234388
370
     9
  0
POLYLINE
  5
8D
330
1F
100
AcDbEntity
  8
_U+30EC_U+30A4_U+30E4_U+30FC 1
 62
   179
420
  2234388
370
     9
100
AcDb2dPolyline
 66
     1
 10
0.0
 20
0.0
 30
0.0
  0
VERTEX
  5
8E
330
8D
100
AcDbEntity
  8
_U+30EC_U+30A4_U+30E4_U+30FC 1
 62
   179
420
  2234388
370
     9
100
AcDbVertex
100
AcDb2dVertex
 10
103.7139123540377
 20
-121.9656846917309
 30
0.0
  0
VERTEX
  5
8F
330
8D
100
AcDbEntity
  8
_U+30EC_U+30A4_U+30E4_U+30FC 1
 62
   179
420
  2234388
370
     9
100
AcDbVertex
100
AcDb2dVertex
 10
103.7139123540377
 20
-119.505200803457
 30
0.0
  0
SEQEND
  5
90
330
8D
100
AcDbEntity
  8
_U+30EC_U+30A4_U+30E4_U+30FC 1
 62
   179
420
  2234388
370
     9
  0
INSERT
  5
92
330
1F
100
AcDbEntity
  8
_U+30EC_U+30A4_U+30E4_U+30FC 1
100
AcDbBlockReference
  2
block 2
 10
0.0
 20
0.0
 30
0.0
  0
POLYLINE
  5
99
330
1F
100
AcDbEntity
  8
_U+30EC_U+30A4_U+30E4_U+30FC 1
 62
   179
420
  2234388
370
     9
100
AcDb2dPolyline
 66
     1
 10
0.0
 20
0.0
 30
0.0
  0
VERTEX
  5
9A
330
99
100
AcDbEntity
  8
_U+30EC_U+30A4_U+30E4_U+30FC 1
 62
   179
420
  2234388
370
     9
100
AcDbVertex
100
AcDb2dVertex
 10
107.714344417516
 20
-124.5054024688738
 30
0.0
  0
VERTEX
  5
9B
330
99
100
AcDbEntity
  8
_U+30EC_U+30A4_U+30E4_U+30FC 1
 62
   179
420
  2234388
370
     9
100
AcDbVertex
100
AcDb2dVertex
 10
107.714344417516
 20
-119.2474966368549
 30
0.0
  0
SEQEND
  5
9C
330
99
100
AcDbEntity
  8
_U+30EC_U+30A4_U+30E4_U+30FC 1
 62
   179
420
  2234388
370
     9
  0
POLYLINE
  5
9D
330
1F
100
AcDbEntity
  8
_U+30EC_U+30A4_U+30E4_U+30FC 1
 62
   179
420
  2234388
370
     9
100
AcDb2dPolyline
 66
     1
 10
0.0
 20
0.0
 30
0.0
  0
VERTEX
  5
9E
330
9D
100
AcDbEntity
  8
_U+30EC_U+30A4_U+30E4_U+30FC 1
 62
   179
420
  2234388
370
     9
100
AcDbVertex
100
AcDb2dVertex
 10
107.714344417516
 20
-124.5054024688738
 30
0.0
  0
VERTEX
  5
9F
330
9D
100
AcDbEntity
  8
_U+30EC_U+30A4_U+30E4_U+30FC 1
 62
   179
420
  2234388
370
     9
100
AcDbVertex
100
AcDb2dVertex
 10
107.714344417516
 20
-125.3053613575624
 30
0.0
  0
SEQEND
  5
A0
330
9D
100
AcDbEntity
  8
_U+30EC_U+30A4_U+30E4_U+30FC 1
 62
   179
420
  2234388
370
     9
  0
POLYLINE
  5
A1
330
1F
100
AcDbEntity
  8
_U+30EC_U+30A4_U+30E4_U+30FC 1
 62
   179
420
  2234388
370
     9
100
AcDb2dPolyline
 66
     1
 10
0.0
 20
0.0
 30
0.0
  0
VERTEX
  5
A2
330
A1
100
AcDbEntity
  8
_U+30EC_U+30A4_U+30E4_U+30FC 1
 62
   179
420
  2234388
370
     9
100
AcDbVertex
100
AcDb2dVertex
 10
106.2543356225594
 20
-124.5054024688738
 30
0.0
  0
VERTEX
  5
A3
330
A1
100
AcDbEntity
  8
_U+30EC_U+30A4_U+30E4_U+30FC 1
 62
   179
420
  2234388
370
     9
100
AcDbVertex
100
AcDb2dVertex
 10
108.7141166394879
 20
-124.5054024688738
 30
0.0
  0
SEQEND
  5
A4
330
A1
100
AcDbEntity
  8
_U+30EC_U+30A4_U+30E4_U+30FC 1
 62
   179
420
  2234388
370
     9
  0
POLYLINE
  5
A5
330
1F
100
AcDbEntity
  8
_U+30EC_U+30A4_U+30E4_U+30FC 1
 62
   179
420
  2234388
370
     9
100
AcDb2dPolyline
 66
     1
 10
0.0
 20
0.0
 30
0.0
  0
VERTEX
  5
A6
330
A5
100
AcDbEntity
  8
_U+30EC_U+30A4_U+30E4_U+30FC 1
 62
   179
420
  2234388
370
     9
100
AcDbVertex
100
AcDb2dVertex
 10
106.2543356225594
 20
-125.3053613575624
 30
0.0
  0
VERTEX
  5
A7
330
A5
100
AcDbEntity
  8
_U+30EC_U+30A4_U+30E4_U+30FC 1
 62
   179
420
  2234388
370
     9
100
AcDbVertex
100
AcDb2dVertex
 10
108.7141166394879
 20
-125.3053613575624
 30
0.0
  0
SEQEND
  5
A8
330
A5
100
AcDbEntity
  8
_U+30EC_U+30A4_U+30E4_U+30FC 1
 62
   179
420
  2234388
370
     9
  0
INSERT
  5
AA
330
1F
100
AcDbEntity
  8
_U+30EC_U+30A4_U+30E4_U+30FC 1
100
AcDbBlockReference
  2
block 3
 10
0.0
 20
0.0
 30
0.0
  0
POLYLINE
  5
BC
330
1F
100
AcDbEntity
  8
_U+30EC_U+30A4_U+30E4_U+30FC 1
 62
   179
420
  2234388
370
     9
100
AcDb2dPolyline
 66
     1
 10
0.0
 20
0.0
 30
0.0
  0
VERTEX
  5
BD
330
BC
100
AcDbEntity
  8
_U+30EC_U+30A4_U+30E4_U+30FC 1
 62
   179
420
  2234388
370
     9
100
AcDbVertex
100
AcDb2dVertex
 10
107.714344417516
 20
-132.3051074669236
 30
0.0
  0
VERTEX
  5
BE
330
BC
100
AcDbEntity
  8
_U+30EC_U+30A4_U+30E4_U+30FC 1
 62
   179
420
  2234388
370
     9
100
AcDbVertex
100
AcDb2dVertex
 10
107.714344417516
 20
-135.305764688396
 30
0.0
  0
SEQEND
  5
BF
330
BC
100
AcDbEntity
  8
_U+30EC_U+30A4_U+30E4_U+30FC 1
 62
   179
420
  2234388
370
     9
  0
POLYLINE
  5
C0
330
1F
100
AcDbEntity
  8
_U+30EC_U+30A4_U+30E4_U+30FC 1
 62
   179
420
  2234388
370
     9
100
AcDb2dPolyline
 66
     1
 10
0.0
 20
0.0
 30
0.0
  0
VERTEX
  5
C1
330
C0
100
AcDbEntity
  8
_U+30EC_U+30A4_U+30E4_U+30FC 1
 62
   179
420
  2234388
370
     9
100
AcDbVertex
100
AcDb2dVertex
 10
97.25433974105731
 20
-135.305764688396
 30
0.0
  0
VERTEX
  5
C2
330
C0
100
AcDbEntity
  8
_U+30EC_U+30A4_U+30E4_U+30FC 1
 62
   179
420
  2234388
370
     9
100
AcDbVertex
100
AcDb2dVertex
 10
108.7141166394879
 20
-135.305764688396
 30
0.0
  0
SEQEND
  5
C3
330
C0
100
AcDbEntity
  8
_U+30EC_U+30A4_U+30E4_U+30FC 1
 62
   179
420
  2234388
370
     9
  0
INSERT
  5
C5
330
1F
100
AcDbEntity
  8
_U+30EC_U+30A4_U+30E4_U+30FC 1
100
AcDbBlockReference
  2
block 4
 10
0.0
 20
0.0
 30
0.0
  0
POLYLINE
  5
CA
330
1F
100
AcDbEntity
  8
_U+30EC_U+30A4_U+30E4_U+30FC 1
 62
   179
420
  2234388
370
     9
100
AcDb2dPolyline
 66
     1
 10
0.0
 20
0.0
 30
0.0
  0
VERTEX
  5
CB
330
CA
100
AcDbEntity
  8
_U+30EC_U+30A4_U+30E4_U+30FC 1
 62
   179
420
  2234388
370
     9
100
AcDbVertex
100
AcDb2dVertex
 10
84.71421894987134
 20
-139.3055238540622
 30
0.0
  0
VERTEX
  5
CC
330
CA
100
AcDbEntity
  8
_U+30EC_U+30A4_U+30E4_U+30FC 1
 62
   179
420
  2234388
370
     9
100
AcDbVertex
100
AcDb2dVertex
 10
94.71395175031245
 20
-139.3055238540622
 30
0.0
  0
SEQEND
  5
CD
330
CA
100
AcDbEntity
  8
_U+30EC_U+30A4_U+30E4_U+30FC 1
 62
   179
420
  2234388
370
     9
  0
POLYLINE
  5
CE
330
1F
100
AcDbEntity
  8
_U+30EC_U+30A4_U+30E4_U+30FC 1
 62
   179
420
  2234388
370
     9
100
AcDb2dPolyline
 66
     1
 10
0.0
 20
0.0
 30
0.0
  0
VERTEX
  5
CF
330
CE
100
AcDbEntity
  8
_U+30EC_U+30A4_U+30E4_U+30FC 1
 62
   179
420
  2234388
370
     9
100
AcDbVertex
100
AcDb2dVertex
 10
84.71421894987134
 20
-137.8455177433167
 30
0.0
  0
VERTEX
  5
D0
330
CE
100
AcDbEntity
  8
_U+30EC_U+30A4_U+30E4_U+30FC 1
 62
   179
420
  2234388
370
     9
100
AcDbVertex
100
AcDb2dVertex
 10
84.71421894987134
 20
-140.3052960760348
 30
0.0
  0
SEQEND
  5
D1
330
CE
100
AcDbEntity
  8
_U+30EC_U+30A4_U+30E4_U+30FC 1
 62
   179
420
  2234388
370
     9
  0
POLYLINE
  5
D2
330
1F
100
AcDbEntity
  8
_U+30EC_U+30A4_U+30E4_U+30FC 1
 62
   179
420
  2234388
370
     9
100
AcDb2dPolyline
 66
     1
 10
0.0
 20
0.0
 30
0.0
  0
VERTEX
  5
D3
330
D2
100
AcDbEntity
  8
_U+30EC_U+30A4_U+30E4_U+30FC 1
 62
   179
420
  2234388
370
     9
100
AcDbVertex
100
AcDb2dVertex
 10
94.71395175031245
 20
-137.8455177433167
 30
0.0
  0
VERTEX
  5
D4
330
D2
100
AcDbEntity
  8
_U+30EC_U+30A4_U+30E4_U+30FC 1
 62
   179
420
  2234388
370
     9
100
AcDbVertex
100
AcDb2dVertex
 10
94.71395175031245
 20
-140.3052960760348
 30
0.0
  0
SEQEND
  5
D5
330
D2
100
AcDbEntity
  8
_U+30EC_U+30A4_U+30E4_U+30FC 1
 62
   179
420
  2234388
370
     9
  0
INSERT
  5
D7
330
1F
100
AcDbEntity
  8
_U+30EC_U+30A4_U+30E4_U+30FC 1
100
AcDbBlockReference
  2
block 5
 10
0.0
 20
0.0
 30
0.0
  0
POLYLINE
  5
DF
330
1F
100
AcDbEntity
  8
_U+30EC_U+30A4_U+30E4_U+30FC 1
 62
   179
420
  2234388
370
     9
100
AcDb2dPolyline
 66
     1
 10
0.0
 20
0.0
 30
0.0
  0
VERTEX
  5
E0
330
DF
100
AcDbEntity
  8
_U+30EC_U+30A4_U+30E4_U+30FC 1
 62
   179
420
  2234388
370
     9
100
AcDbVertex
100
AcDb2dVertex
 10
84.71421894987134
 20
-139.3055238540622
 30
0.0
  0
VERTEX
  5
E1
330
DF
100
AcDbEntity
  8
_U+30EC_U+30A4_U+30E4_U+30FC 1
 62
   179
420
  2234388
370
     9
100
AcDbVertex
100
AcDb2dVertex
 10
72.71423620046085
 20
-139.3055238540622
 30
0.0
  0
SEQEND
  5
E2
330
DF
100
AcDbEntity
  8
_U+30EC_U+30A4_U+30E4_U+30FC 1
 62
   179
420
  2234388
370
     9
  0
POLYLINE
  5
E3
330
1F
100
AcDbEntity
  8
_U+30EC_U+30A4_U+30E4_U+30FC 1
 62
   179
420
  2234388
370
     9
100
AcDb2dPolyline
 66
     1
 10
0.0
 20
0.0
 30
0.0
  0
VERTEX
  5
E4
330
E3
100
AcDbEntity
  8
_U+30EC_U+30A4_U+30E4_U+30FC 1
 62
   179
420
  2234388
370
     9
100
AcDbVertex
100
AcDb2dVertex
 10
72.71423620046085
 20
-127.8457846902608
 30
0.0
  0
VERTEX
  5
E5
330
E3
100
AcDbEntity
  8
_U+30EC_U+30A4_U+30E4_U+30FC 1
 62
   179
420
  2234388
370
     9
100
AcDbVertex
100
AcDb2dVertex
 10
72.71423620046085
 20
-140.3052960760348
 30
0.0
  0
SEQEND
  5
E6
330
E3
100
AcDbEntity
  8
_U+30EC_U+30A4_U+30E4_U+30FC 1
 62
   179
420
  2234388
370
     9
  0
INSERT
  5
E8
330
1F
100
AcDbEntity
  8
_U+30EC_U+30A4_U+30E4_U+30FC 1
100
AcDbBlockReference
  2
block 6
 10
0.0
 20
0.0
 30
0.0
  0
POLYLINE
  5
EF
330
1F
100
AcDbEntity
  8
_U+30EC_U+30A4_U+30E4_U+30FC 1
 62
   179
420
  2234388
370
     9
100
AcDb2dPolyline
 66
     1
 10
0.0
 20
0.0
 30
0.0
  0
VERTEX
  5
F0
330
EF
100
AcDbEntity
  8
_U+30EC_U+30A4_U+30E4_U+30FC 1
 62
   179
420
  2234388
370
     9
100
AcDbVertex
100
AcDb2dVertex
 10
107.714344417516
 20
-125.3053613575624
 30
0.0
  0
VERTEX
  5
F1
330
EF
100
AcDbEntity
  8
_U+30EC_U+30A4_U+30E4_U+30FC 1
 62
   179
420
  2234388
370
     9
100
AcDbVertex
100
AcDb2dVertex
 10
107.714344417516
 20
-132.3051074669236
 30
0.0
  0
SEQEND
  5
F2
330
EF
100
AcDbEntity
  8
_U+30EC_U+30A4_U+30E4_U+30FC 1
 62
   179
420
  2234388
370
     9
  0
POLYLINE
  5
F3
330
1F
100
AcDbEntity
  8
_U+30EC_U+30A4_U+30E4_U+30FC 1
 62
   179
420
  2234388
370
     9
100
AcDb2dPolyline
 66
     1
 10
0.0
 20
0.0
 30
0.0
  0
VERTEX
  5
F4
330
F3
100
AcDbEntity
  8
_U+30EC_U+30A4_U+30E4_U+30FC 1
 62
   179
420
  2234388
370
     9
100
AcDbVertex
100
AcDb2dVertex
 10
106.2543356225594
 20
-125.3053613575624
 30
0.0
  0
VERTEX
  5
F5
330
F3
100
AcDbEntity
  8
_U+30EC_U+30A4_U+30E4_U+30FC 1
 62
   179
420
  2234388
370
     9
100
AcDbVertex
100
AcDb2dVertex
 10
108.7141166394879
 20
-125.3053613575624
 30
0.0
  0
SEQEND
  5
F6
330
F3
100
AcDbEntity
  8
_U+30EC_U+30A4_U+30E4_U+30FC 1
 62
   179
420
  2234388
370
     9
  0
POLYLINE
  5
F7
330
1F
100
AcDbEntity
  8
_U+30EC_U+30A4_U+30E4_U+30FC 1
 62
   179
420
  2234388
370
     9
100
AcDb2dPolyline
 66
     1
 10
0.0
 20
0.0
 30
0.0
  0
VERTEX
  5
F8
330
F7
100
AcDbEntity
  8
_U+30EC_U+30A4_U+30E4_U+30FC 1
 62
   179
420
  2234388
370
     9
100
AcDbVertex
100
AcDb2dVertex
 10
97.25433974105731
 20
-132.3051074669236
 30
0.0
  0
VERTEX
  5
F9
330
F7
100
AcDbEntity
  8
_U+30EC_U+30A4_U+30E4_U+30FC 1
 62
   179
420
  2234388
370
     9
100
AcDbVertex
100
AcDb2dVertex
 10
108.7141166394879
 20
-132.3051074669236
 30
0.0
  0
SEQEND
  5
FA
330
F7
100
AcDbEntity
  8
_U+30EC_U+30A4_U+30E4_U+30FC 1
 62
   179
420
  2234388
370
     9
  0
INSERT
  5
FC
330
1F
100
AcDbEntity
  8
_U+30EC_U+30A4_U+30E4_U+30FC 1
100
AcDbBlockReference
  2
block 7
 10
0.0
 20
0.0
 30
0.0
  0
ENDSEC
  0
SECTION
  2
OBJECTS
  0
DICTIONARY
  5
C
330
0
100
AcDbDictionary
281
     1
  3
ACAD_GROUP
350
D
  3
ACAD_LAYOUT
350
1A
  3
ACAD_MATERIAL
350
3B
  3
ACAD_MLEADERSTYLE
350
102
  3
ACAD_MLINESTYLE
350
17
  3
ACAD_PLOTSETTINGS
350
19
  3
ACAD_PLOTSTYLENAME
350
E
  3
ACAD_TABLESTYLE
350
101
  3
ACAD_VISUALSTYLE
350
2A
  0
SUN
  5
3F
330
29
100
AcDbSun
 90
        1
290
     0
 63
     7
421
 16777215
 40
1.0
291
     1
 91
  2455826
 92
 54000000
292
     0
 70
     2
 71
   256
280
     1
  0
DICTIONARY
  5
D
102
{ACAD_REACTORS
330
C
102
}
330
C
100
AcDbDictionary
281
     1
  0
DICTIONARY
  5
1A
102
{ACAD_REACTORS
330
C
102
}
330
C
100
AcDbDictionary
281
     1
  3
Layout1
350
1E
  3
Layout2
350
26
  3
Model
350
22
  0
DICTIONARY
  5
3B
102
{ACAD_REACTORS
330
C
102
}
330
C
100
AcDbDictionary
281
     1
  3
ByBlock
350
3D
  3
ByLayer
350
3C
  3
Global
350
3E
  0
DICTIONARY
  5
102
102
{ACAD_REACTORS
330
C
102
}
330
C
100
AcDbDictionary
281
     1
  0
DICTIONARY
  5
17
102
{ACAD_REACTORS
330
C
102
}
330
C
100
AcDbDictionary
281
     1
  3
Standard
350
18
  0
DICTIONARY
  5
19
102
{ACAD_REACTORS
330
C
102
}
330
C
100
AcDbDictionary
281
     1
  0
ACDBDICTIONARYWDFLT
  5
E
102
{ACAD_REACTORS
330
C
102
}
330
C
100
AcDbDictionary
281
     1
  3
Normal
350
F
100
AcDbDictionaryWithDefault
340
F
  0
DICTIONARY
  5
101
102
{ACAD_REACTORS
330
C
102
}
330
C
100
AcDbDictionary
281
     1
  0
DICTIONARY
  5
2A
102
{ACAD_REACTORS
330
C
102
}
330
C
100
AcDbDictionary
281
     1
  3
2dWireframe
350
2F
  3
3D Hidden
350
31
  3
3dWireframe
350
30
  3
Basic
350
32
  3
Brighten
350
36
  3
ColorChange
350
3A
  3
Conceptual
350
34
  3
Dim
350
35
  3
Facepattern
350
39
  3
Flat
350
2B
  3
FlatWithEdges
350
2C
  3
Gouraud
350
2D
  3
GouraudWithEdges
350
2E
  3
Linepattern
350
38
  3
Realistic
350
33
  3
Thicken
350
37
  0
LAYOUT
  5
1E
102
{ACAD_REACTORS
330
1A
102
}
330
1A
100
AcDbPlotSettings
  1

  2
none_device
  4

  6

 40
0.0
 41
0.0
 42
0.0
 43
0.0
 44
0.0
 45
0.0
 46
0.0
 47
0.0
 48
0.0
 49
0.0
140
0.0
141
0.0
142
1.0
143
1.0
 70
   688
 72
     0
 73
     0
 74
     5
  7

 75
    16
 76
     0
 77
     2
 78
   300
147
1.0
148
0.0
149
0.0
100
AcDbLayout
  1
Layout1
 70
     1
 71
     1
 10
0.0
 20
0.0
 11
12.0
 21
9.0
 12
0.0
 22
0.0
 32
0.0
 14
1.000000000000000E+20
 24
1.000000000000000E+20
 34
1.000000000000000E+20
 15
-1.000000000000000E+20
 25
-1.000000000000000E+20
 35
-1.000000000000000E+20
146
0.0
 13
0.0
 23
0.0
 33
0.0
 16
1.0
 26
0.0
 36
0.0
 17
0.0
 27
1.0
 37
0.0
 76
     0
330
1B
  0
LAYOUT
  5
26
102
{ACAD_REACTORS
330
1A
102
}
330
1A
100
AcDbPlotSettings
  1

  2
none_device
  4

  6

 40
0.0
 41
0.0
 42
0.0
 43
0.0
 44
0.0
 45
0.0
 46
0.0
 47
0.0
 48
0.0
 49
0.0
140
0.0
141
0.0
142
1.0
143
1.0
 70
   688
 72
     0
 73
     0
 74
     5
  7

 75
    16
 76
     0
 77
     2
 78
   300
147
1.0
148
0.0
149
0.0
100
AcDbLayout
  1
Layout2
 70
     1
 71
     2
 10
0.0
 20
0.0
 11
0.0
 21
0.0
 12
0.0
 22
0.0
 32
0.0
 14
0.0
 24
0.0
 34
0.0
 15
0.0
 25
0.0
 35
0.0
146
0.0
 13
0.0
 23
0.0
 33
0.0
 16
1.0
 26
0.0
 36
0.0
 17
0.0
 27
1.0
 37
0.0
 76
     0
330
23
  0
LAYOUT
  5
22
102
{ACAD_REACTORS
330
1A
102
}
330
1A
100
AcDbPlotSettings
  1

  2
none_device
  4

  6

 40
0.0
 41
0.0
 42
0.0
 43
0.0
 44
0.0
 45
0.0
 46
0.0
 47
0.0
 48
0.0
 49
0.0
140
0.0
141
0.0
142
1.0
143
1.0
 70
  1712
 72
     0
 73
     0
 74
     0
  7

 75
     0
 76
     0
 77
     2
 78
   300
147
1.0
148
0.0
149
0.0
100
AcDbLayout
  1
Model
 70
     1
 71
     0
 10
0.0
 20
0.0
 11
12.0
 21
9.0
 12
0.0
 22
0.0
 32
0.0
 14
1.000000000000000E+20
 24
1.000000000000000E+20
 34
1.000000000000000E+20
 15
-1.000000000000000E+20
 25
-1.000000000000000E+20
 35
-1.000000000000000E+20
146
0.0
 13
0.0
 23
0.0
 33
0.0
 16
1.0
 26
0.0
 36
0.0
 17
0.0
 27
1.0
 37
0.0
 76
     0
330
1F
331
29
  0
MATERIAL
  5
3D
102
{ACAD_REACTORS
330
3B
102
}
330
3B
100
AcDbMaterial
  1
ByBlock
 72
     1
 94
      127
  0
MATERIAL
  5
3C
102
{ACAD_REACTORS
330
3B
102
}
330
3B
100
AcDbMaterial
  1
ByLayer
 72
     1
 94
      127
  0
MATERIAL
  5
3E
102
{ACAD_REACTORS
330
3B
102
}
330
3B
100
AcDbMaterial
  1
Global
 72
     1
 94
      127
  0
MLINESTYLE
  5
18
102
{ACAD_REACTORS
330
17
102
}
330
17
100
AcDbMlineStyle
  2
Standard
 70
     0
  3

 62
   256
 51
90.0
 52
90.0
 71
     2
 49
0.5
 62
   256
  6
BYLAYER
 49
-0.5
 62
   256
  6
BYLAYER
  0
ACDBPLACEHOLDER
  5
F
102
{ACAD_REACTORS
330
E
102
}
330
E
  0
VISUALSTYLE
  5
2F
102
{ACAD_REACTORS
330
2A
102
}
330
2A
100
AcDbVisualStyle
  2
2dWireframe
 70
     4
177
     2
291
     0
 71
     0
176
     1
 72
     2
176
     1
 73
     0
176
     1
 90
        0
176
     1
 40
-0.6
176
     1
 41
-30.0
176
     1
 62
     5
 63
     7
421
 16777215
176
     1
 74
     1
176
     1
 91
        4
176
     1
 64
     7
176
     1
 65
   257
176
     1
 75
     1
176
     1
175
     1
176
     1
 42
1.0
176
     1
 92
        0
176
     1
 66
   257
176
     1
 43
1.0
176
     1
 76
     1
176
     1
 77
     6
176
     1
 78
     2
176
     1
 67
     7
176
     1
 79
     5
176
     1
170
     0
176
     1
171
     0
176
     1
290
     0
176
     1
 93
        1
176
     1
 44
0.0
176
     1
173
     0
176
     1
  0
VISUALSTYLE
  5
31
102
{ACAD_REACTORS
330
2A
102
}
330
2A
100
AcDbVisualStyle
  2
3D Hidden
 70
     6
177
     2
291
     0
 71
     1
176
     1
 72
     2
176
     1
 73
     2
176
     1
 90
        0
176
     1
 40
-0.6
176
     1
 41
-30.0
176
     1
 62
     5
 63
     7
421
 16777215
176
     1
 74
     2
176
     1
 91
        2
176
     1
 64
     7
176
     1
 65
   257
176
     1
 75
     2
176
     1
175
     1
176
     1
 42
40.0
176
     1
 92
        0
176
     1
 66
   257
176
     1
 43
1.0
176
     1
 76
     1
176
     1
 77
     6
176
     1
 78
     2
176
     1
 67
     7
176
     1
 79
     3
176
     1
170
     0
176
     1
171
     0
176
     1
290
     0
176
     1
 93
        1
176
     1
 44
0.0
176
     1
173
     0
176
     1
  0
VISUALSTYLE
  5
30
102
{ACAD_REACTORS
330
2A
102
}
330
2A
100
AcDbVisualStyle
  2
3dWireframe
 70
     5
177
     2
291
     0
 71
     0
176
     1
 72
     2
176
     1
 73
     0
176
     1
 90
        0
176
     1
 40
-0.6
176
     1
 41
-30.0
176
     1
 62
     5
 63
     7
421
 16777215
176
     1
 74
     1
176
     1
 91
        4
176
     1
 64
     7
176
     1
 65
   257
176
     1
 75
     1
176
     1
175
     1
176
     1
 42
1.0
176
     1
 92
        0
176
     1
 66
   257
176
     1
 43
1.0
176
     1
 76
     1
176
     1
 77
     6
176
     1
 78
     2
176
     1
 67
     7
176
     1
 79
     5
176
     1
170
     0
176
     1
171
     0
176
     1
290
     0
176
     1
 93
        1
176
     1
 44
0.0
176
     1
173
     0
176
     1
  0
VISUALSTYLE
  5
32
102
{ACAD_REACTORS
330
2A
102
}
330
2A
100
AcDbVisualStyle
  2
Basic
 70
     7
177
     2
291
     1
 71
     1
176
     1
 72
     0
176
     1
 73
     1
176
     1
 90
        0
176
     1
 40
-0.6
176
     1
 41
-30.0
176
     1
 62
     5
 63
     7
421
 16777215
176
     1
 74
     0
176
     1
 91
        4
176
     1
 64
     7
176
     1
 65
   257
176
     1
 75
     1
176
     1
175
     1
176
     1
 42
1.0
176
     1
 92
        8
176
     1
 66
     7
176
     1
 43
1.0
176
     1
 76
     1
176
     1
 77
     6
176
     1
 78
     2
176
     1
 67
     7
176
     1
 79
     5
176
     1
170
     0
176
     1
171
     0
176
     1
290
     0
176
     1
 93
        1
176
     1
 44
0.0
176
     1
173
     0
176
     1
  0
VISUALSTYLE
  5
36
102
{ACAD_REACTORS
330
2A
102
}
330
2A
100
AcDbVisualStyle
  2
Brighten
 70
    12
177
     2
291
     1
 71
     2
176
     1
 72
     2
176
     1
 73
     0
176
     1
 90
        0
176
     1
 40
-0.6
176
     1
 41
-30.0
176
     1
 62
     5
 63
     7
421
 16777215
176
     1
 74
     1
176
     1
 91
        4
176
     1
 64
     7
176
     1
 65
   257
176
     1
 75
     1
176
     1
175
     1
176
     1
 42
1.0
176
     1
 92
        8
176
     1
 66
     7
176
     1
 43
1.0
176
     1
 76
     1
176
     1
 77
     6
176
     1
 78
     2
176
     1
 67
     7
176
     1
 79
     5
176
     1
170
     0
176
     1
171
     0
176
     1
290
     0
176
     1
 93
        1
176
     1
 44
50.0
176
     1
173
     0
176
     1
  0
VISUALSTYLE
  5
3A
102
{ACAD_REACTORS
330
2A
102
}
330
2A
100
AcDbVisualStyle
  2
ColorChange
 70
    16
177
     2
291
     1
 71
     2
176
     1
 72
     2
176
     1
 73
     3
176
     1
 90
        0
176
     1
 40
-0.6
176
     1
 41
-30.0
176
     1
 62
     5
 63
     8
421
  8421504
176
     1
 74
     1
176
     1
 91
        4
176
     1
 64
     7
176
     1
 65
   257
176
     1
 75
     1
176
     1
175
     1
176
     1
 42
1.0
176
     1
 92
        8
176
     1
 66
     8
424
  8421504
176
     1
 43
1.0
176
     1
 76
     1
176
     1
 77
     6
176
     1
 78
     2
176
     1
 67
     7
176
     1
 79
     5
176
     1
170
     0
176
     1
171
     0
176
     1
290
     0
176
     1
 93
        1
176
     1
 44
0.0
176
     1
173
     0
176
     1
  0
VISUALSTYLE
  5
34
102
{ACAD_REACTORS
330
2A
102
}
330
2A
100
AcDbVisualStyle
  2
Conceptual
 70
     9
177
     2
291
     0
 71
     3
176
     1
 72
     2
176
     1
 73
     0
176
     1
 90
        0
176
     1
 40
-0.6
176
     1
 41
-30.0
176
     1
 62
     5
 63
     7
421
 16777215
176
     1
 74
     2
176
     1
 91
        2
176
     1
 64
     7
176
     1
 65
   257
176
     1
 75
     1
176
     1
175
     1
176
     1
 42
40.0
176
     1
 92
        8
176
     1
 66
     7
176
     1
 43
1.0
176
     1
 76
     1
176
     1
 77
     6
176
     1
 78
     2
176
     1
 67
     7
176
     1
 79
     3
176
     1
170
     0
176
     1
171
     0
176
     1
290
     0
176
     1
 93
        1
176
     1
 44
0.0
176
     1
173
     0
176
     1
  0
VISUALSTYLE
  5
35
102
{ACAD_REACTORS
330
2A
102
}
330
2A
100
AcDbVisualStyle
  2
Dim
 70
    11
177
     2
291
     1
 71
     2
176
     1
 72
     2
176
     1
 73
     0
176
     1
 90
        0
176
     1
 40
-0.6
176
     1
 41
-30.0
176
     1
 62
     5
 63
     7
421
 16777215
176
     1
 74
     1
176
     1
 91
        4
176
     1
 64
     7
176
     1
 65
   257
176
     1
 75
     1
176
     1
175
     1
176
     1
 42
1.0
176
     1
 92
        8
176
     1
 66
     7
176
     1
 43
1.0
176
     1
 76
     1
176
     1
 77
     6
176
     1
 78
     2
176
     1
 67
     7
176
     1
 79
     5
176
     1
170
     0
176
     1
171
     0
176
     1
290
     0
176
     1
 93
        1
176
     1
 44
-50.0
176
     1
173
     0
176
     1
  0
VISUALSTYLE
  5
39
102
{ACAD_REACTORS
330
2A
102
}
330
2A
100
AcDbVisualStyle
  2
Facepattern
 70
    15
177
     2
291
     1
 71
     2
176
     1
 72
     2
176
     1
 73
     0
176
     1
 90
        0
176
     1
 40
-0.6
176
     1
 41
-30.0
176
     1
 62
     5
 63
     7
421
 16777215
176
     1
 74
     1
176
     1
 91
        4
176
     1
 64
     7
176
     1
 65
   257
176
     1
 75
     1
176
     1
175
     1
176
     1
 42
1.0
176
     1
 92
        8
176
     1
 66
     7
176
     1
 43
1.0
176
     1
 76
     1
176
     1
 77
     6
176
     1
 78
     2
176
     1
 67
     7
176
     1
 79
     5
176
     1
170
     0
176
     1
171
     0
176
     1
290
     0
176
     1
 93
        1
176
     1
 44
0.0
176
     1
173
     0
176
     1
  0
VISUALSTYLE
  5
2B
102
{ACAD_REACTORS
330
2A
102
}
330
2A
100
AcDbVisualStyle
  2
Flat
 70
     0
177
     2
291
     1
 71
     2
176
     1
 72
     1
176
     1
 73
     1
176
     1
 90
        2
176
     1
 40
-0.6
176
     1
 41
30.0
176
     1
 62
     5
 63
     7
421
 16777215
176
     1
 74
     0
176
     1
 91
        4
176
     1
 64
     7
176
     1
 65
   257
176
     1
 75
     1
176
     1
175
     1
176
     1
 42
1.0
176
     1
 92
        8
176
     1
 66
     7
176
     1
 43
1.0
176
     1
 76
     1
176
     1
 77
     6
176
     1
 78
     2
176
     1
 67
     7
176
     1
 79
     5
176
     1
170
     0
176
     1
171
     0
176
     1
290
     0
176
     1
 93
       13
176
     1
 44
0.0
176
     1
173
     0
176
     1
  0
VISUALSTYLE
  5
2C
102
{ACAD_REACTORS
330
2A
102
}
330
2A
100
AcDbVisualStyle
  2
FlatWithEdges
 70
     1
177
     2
291
     1
 71
     2
176
     1
 72
     1
176
     1
 73
     1
176
     1
 90
        2
176
     1
 40
-0.6
176
     1
 41
30.0
176
     1
 62
     5
 63
     7
421
 16777215
176
     1
 74
     1
176
     1
 91
        4
176
     1
 64
     7
176
     1
 65
   257
176
     1
 75
     1
176
     1
175
     1
176
     1
 42
1.0
176
     1
 92
        0
176
     1
 66
   257
176
     1
 43
1.0
176
     1
 76
     1
176
     1
 77
     6
176
     1
 78
     2
176
     1
 67
     7
176
     1
 79
     5
176
     1
170
     0
176
     1
171
     0
176
     1
290
     0
176
     1
 93
       13
176
     1
 44
0.0
176
     1
173
     0
176
     1
  0
VISUALSTYLE
  5
2D
102
{ACAD_REACTORS
330
2A
102
}
330
2A
100
AcDbVisualStyle
  2
Gouraud
 70
     2
177
     2
291
     1
 71
     2
176
     1
 72
     2
176
     1
 73
     1
176
     1
 90
        2
176
     1
 40
-0.6
176
     1
 41
30.0
176
     1
 62
     5
 63
     7
421
 16777215
176
     1
 74
     0
176
     1
 91
        4
176
     1
 64
     7
176
     1
 65
   257
176
     1
 75
     1
176
     1
175
     1
176
     1
 42
1.0
176
     1
 92
        0
176
     1
 66
     7
176
     1
 43
1.0
176
     1
 76
     1
176
     1
 77
     6
176
     1
 78
     2
176
     1
 67
     7
176
     1
 79
     5
176
     1
170
     0
176
     1
171
     0
176
     1
290
     0
176
     1
 93
       13
176
     1
 44
0.0
176
     1
173
     0
176
     1
  0
VISUALSTYLE
  5
2E
102
{ACAD_REACTORS
330
2A
102
}
330
2A
100
AcDbVisualStyle
  2
GouraudWithEdges
 70
     3
177
     2
291
     1
 71
     2
176
     1
 72
     2
176
     1
 73
     1
176
     1
 90
        2
176
     1
 40
-0.6
176
     1
 41
30.0
176
     1
 62
     5
 63
     7
421
 16777215
176
     1
 74
     1
176
     1
 91
        4
176
     1
 64
     7
176
     1
 65
   257
176
     1
 75
     1
176
     1
175
     1
176
     1
 42
1.0
176
     1
 92
        0
176
     1
 66
   257
176
     1
 43
1.0
176
     1
 76
     1
176
     1
 77
     6
176
     1
 78
     2
176
     1
 67
     7
176
     1
 79
     5
176
     1
170
     0
176
     1
171
     0
176
     1
290
     0
176
     1
 93
       13
176
     1
 44
0.0
176
     1
173
     0
176
     1
  0
VISUALSTYLE
  5
38
102
{ACAD_REACTORS
330
2A
102
}
330
2A
100
AcDbVisualStyle
  2
Linepattern
 70
    14
177
     2
291
     1
 71
     2
176
     1
 72
     2
176
     1
 73
     0
176
     1
 90
        0
176
     1
 40
-0.6
176
     1
 41
-30.0
176
     1
 62
     5
 63
     7
421
 16777215
176
     1
 74
     1
176
     1
 91
        4
176
     1
 64
     7
176
     1
 65
   257
176
     1
 75
     7
176
     1
175
     7
176
     1
 42
1.0
176
     1
 92
        8
176
     1
 66
     7
176
     1
 43
1.0
176
     1
 76
     1
176
     1
 77
     6
176
     1
 78
     2
176
     1
 67
     7
176
     1
 79
     5
176
     1
170
     0
176
     1
171
     0
176
     1
290
     0
176
     1
 93
        1
176
     1
 44
0.0
176
     1
173
     0
176
     1
  0
VISUALSTYLE
  5
33
102
{ACAD_REACTORS
330
2A
102
}
330
2A
100
AcDbVisualStyle
  2
Realistic
 70
     8
177
     2
291
     0
 71
     2
176
     1
 72
     2
176
     1
 73
     0
176
     1
 90
        0
176
     1
 40
-0.6
176
     1
 41
-30.0
176
     1
 62
     5
 63
     7
421
 16777215
176
     1
 74
     1
176
     1
 91
        0
176
     1
 64
     7
176
     1
 65
   257
176
     1
 75
     1
176
     1
175
     1
176
     1
 42
1.0
176
     1
 92
        8
176
     1
 66
     8
424
  7895160
176
     1
 43
1.0
176
     1
 76
     1
176
     1
 77
     6
176
     1
 78
     2
176
     1
 67
     7
176
     1
 79
     5
176
     1
170
     0
176
     1
171
     0
176
     1
290
     0
176
     1
 93
       13
176
     1
 44
0.0
176
     1
173
     0
176
     1
  0
VISUALSTYLE
  5
37
102
{ACAD_REACTORS
330
2A
102
}
330
2A
100
AcDbVisualStyle
  2
Thicken
 70
    13
177
     2
291
     1
 71
     2
176
     1
 72
     2
176
     1
 73
     0
176
     1
 90
        0
176
     1
 40
-0.6
176
     1
 41
-30.0
176
     1
 62
     5
 63
     7
421
 16777215
176
     1
 74
     1
176
     1
 91
        4
176
     1
 64
     7
176
     1
 65
   257
176
     1
 75
     1
176
     1
175
     1
176
     1
 42
1.0
176
     1
 92
       12
176
     1
 66
     7
176
     1
 43
1.0
176
     1
 76
     1
176
     1
 77
     6
176
     1
 78
     2
176
     1
 67
     7
176
     1
 79
     5
176
     1
170
     0
176
     1
171
     0
176
     1
290
     0
176
     1
 93
        1
176
     1
 44
0.0
176
     1
173
     0
176
     1
  0
ENDSEC
  0
EOF
