  0
SECTION
  2
HEADER
  9
$ACADVER
  1
AC1024
  9
$ACADMAINTVER
 70
     6
  9
$DWGCODEPAGE
  3
UNDEFINED
  9
$INSBASE
 10
0.0
 20
0.0
 30
0.0
  9
$EXTMIN
 10
1.000000000000000E+20
 20
1.000000000000000E+20
 30
1.000000000000000E+20
  9
$EXTMAX
 10
-1.000000000000000E+20
 20
-1.000000000000000E+20
 30
-1.000000000000000E+20
  9
$LIMMIN
 10
0.0
 20
0.0
  9
$LIMMAX
 10
12.0
 20
9.0
  9
$ORTHOMODE
 70
     0
  9
$REGENMODE
 70
     1
  9
$FILLMODE
 70
     1
  9
$QTEXTMODE
 70
     0
  9
$MIRRTEXT
 70
     1
  9
$LTSCALE
 40
1.0
  9
$ATTMODE
 70
     1
  9
$TEXTSIZE
 40
0.2
  9
$TRACEWID
 40
0.05
  9
$TEXTSTYLE
  7
Standard
  9
$CLAYER
  8
0
  9
$CELTYPE
  6
ByLayer
  9
$CECOLOR
 62
   256
  9
$CELTSCALE
 40
1.0
  9
$DISPSILH
 70
     0
  9
$DIMSCALE
 40
1.0
  9
$DIMASZ
 40
0.18
  9
$DIMEXO
 40
0.0625
  9
$DIMDLI
 40
0.38
  9
$DIMRND
 40
0.0
  9
$DIMDLE
 40
0.0
  9
$DIMEXE
 40
0.18
  9
$DIMTP
 40
0.0
  9
$DIMTM
 40
0.0
  9
$DIMTXT
 40
0.18
  9
$DIMCEN
 40
0.09
  9
$DIMTSZ
 40
0.0
  9
$DIMTOL
 70
     0
  9
$DIMLIM
 70
     0
  9
$DIMTIH
 70
     1
  9
$DIMTOH
 70
     1
  9
$DIMSE1
 70
     0
  9
$DIMSE2
 70
     0
  9
$DIMTAD
 70
     0
  9
$DIMZIN
 70
     0
  9
$DIMBLK
  1

  9
$DIMASO
 70
     1
  9
$DIMSHO
 70
     1
  9
$DIMPOST
  1

  9
$DIMAPOST
  1

  9
$DIMALT
 70
     0
  9
$DIMALTD
 70
     2
  9
$DIMALTF
 40
25.4
  9
$DIMLFAC
 40
1.0
  9
$DIMTOFL
 70
     0
  9
$DIMTVP
 40
0.0
  9
$DIMTIX
 70
     0
  9
$DIMSOXD
 70
     0
  9
$DIMSAH
 70
     0
  9
$DIMBLK1
  1

  9
$DIMBLK2
  1

  9
$DIMSTYLE
  2
Standard
  9
$DIMCLRD
 70
     0
  9
$DIMCLRE
 70
     0
  9
$DIMCLRT
 70
     0
  9
$DIMTFAC
 40
1.0
  9
$DIMGAP
 40
0.09
  9
$DIMJUST
 70
     0
  9
$DIMSD1
 70
     0
  9
$DIMSD2
 70
     0
  9
$DIMTOLJ
 70
     1
  9
$DIMTZIN
 70
     0
  9
$DIMALTZ
 70
     0
  9
$DIMALTTZ
 70
     0
  9
$DIMUPT
 70
     0
  9
$DIMDEC
 70
     4
  9
$DIMTDEC
 70
     4
  9
$DIMALTU
 70
     2
  9
$DIMALTTD
 70
     2
  9
$DIMTXSTY
  7
Standard
  9
$DIMAUNIT
 70
     0
  9
$DIMADEC
 70
     0
  9
$DIMALTRND
 40
0.0
  9
$DIMAZIN
 70
     0
  9
$DIMDSEP
 70
    46
  9
$DIMATFIT
 70
     3
  9
$DIMFRAC
 70
     0
  9
$DIMLDRBLK
  1

  9
$DIMLUNIT
 70
     2
  9
$DIMLWD
 70
    -2
  9
$DIMLWE
 70
    -2
  9
$DIMTMOVE
 70
     0
  9
$DIMFXL
 40
1.0
  9
$DIMFXLON
 70
     0
  9
$DIMJOGANG
 40
0.7853981633974483
  9
$DIMTFILL
 70
     0
  9
$DIMTFILLCLR
 70
     0
  9
$DIMARCSYM
 70
     0
  9
$DIMLTYPE
  6

  9
$DIMLTEX1
  6

  9
$DIMLTEX2
  6

  9
$DIMTXTDIRECTION
 70
     0
  9
$LUNITS
 70
     2
  9
$LUPREC
 70
     4
  9
$SKETCHINC
 40
0.1
  9
$FILLETRAD
 40
0.5
  9
$AUNITS
 70
     0
  9
$AUPREC
 70
     0
  9
$MENU
  1
.
  9
$ELEVATION
 40
0.0
  9
$PELEVATION
 40
0.0
  9
$THICKNESS
 40
0.0
  9
$LIMCHECK
 70
     0
  9
$CHAMFERA
 40
0.5
  9
$CHAMFERB
 40
0.5
  9
$CHAMFERC
 40
1.0
  9
$CHAMFERD
 40
0.0
  9
$SKPOLY
 70
     0
  9
$TDCREATE
 40
2457917.589733785
  9
$TDUCREATE
 40
2457917.214733796
  9
$TDUPDATE
 40
2457917.589733785
  9
$TDUUPDATE
 40
2457917.214733796
  9
$TDINDWG
 40
0.0000000116
  9
$TDUSRTIMER
 40
0.0000000116
  9
$USRTIMER
 70
     1
  9
$ANGBASE
 50
0.0
  9
$ANGDIR
 70
     0
  9
$PDMODE
 70
     0
  9
$PDSIZE
 40
0.0
  9
$PLINEWID
 40
0.0
  9
$SPLFRAME
 70
     0
  9
$SPLINETYPE
 70
     6
  9
$SPLINESEGS
 70
     8
  9
$HANDSEED
  5
11E
  9
$SURFTAB1
 70
     6
  9
$SURFTAB2
 70
     6
  9
$SURFTYPE
 70
     6
  9
$SURFU
 70
     6
  9
$SURFV
 70
     6
  9
$UCSBASE
  2

  9
$UCSNAME
  2

  9
$UCSORG
 10
0.0
 20
0.0
 30
0.0
  9
$UCSXDIR
 10
1.0
 20
0.0
 30
0.0
  9
$UCSYDIR
 10
0.0
 20
1.0
 30
0.0
  9
$UCSORTHOREF
  2

  9
$UCSORTHOVIEW
 70
     0
  9
$UCSORGTOP
 10
0.0
 20
0.0
 30
0.0
  9
$UCSORGBOTTOM
 10
0.0
 20
0.0
 30
0.0
  9
$UCSORGLEFT
 10
0.0
 20
0.0
 30
0.0
  9
$UCSORGRIGHT
 10
0.0
 20
0.0
 30
0.0
  9
$UCSORGFRONT
 10
0.0
 20
0.0
 30
0.0
  9
$UCSORGBACK
 10
0.0
 20
0.0
 30
0.0
  9
$PUCSBASE
  2

  9
$PUCSNAME
  2

  9
$PUCSORG
 10
0.0
 20
0.0
 30
0.0
  9
$PUCSXDIR
 10
1.0
 20
0.0
 30
0.0
  9
$PUCSYDIR
 10
0.0
 20
1.0
 30
0.0
  9
$PUCSORTHOREF
  2

  9
$PUCSORTHOVIEW
 70
     0
  9
$PUCSORGTOP
 10
0.0
 20
0.0
 30
0.0
  9
$PUCSORGBOTTOM
 10
0.0
 20
0.0
 30
0.0
  9
$PUCSORGLEFT
 10
0.0
 20
0.0
 30
0.0
  9
$PUCSORGRIGHT
 10
0.0
 20
0.0
 30
0.0
  9
$PUCSORGFRONT
 10
0.0
 20
0.0
 30
0.0
  9
$PUCSORGBACK
 10
0.0
 20
0.0
 30
0.0
  9
$USERI1
 70
     0
  9
$USERI2
 70
     0
  9
$USERI3
 70
     0
  9
$USERI4
 70
     0
  9
$USERI5
 70
     0
  9
$USERR1
 40
0.0
  9
$USERR2
 40
0.0
  9
$USERR3
 40
0.0
  9
$USERR4
 40
0.0
  9
$USERR5
 40
0.0
  9
$WORLDVIEW
 70
     1
  9
$SHADEDGE
 70
     3
  9
$SHADEDIF
 70
    70
  9
$TILEMODE
 70
     1
  9
$MAXACTVP
 70
    64
  9
$PINSBASE
 10
0.0
 20
0.0
 30
0.0
  9
$PLIMCHECK
 70
     0
  9
$PEXTMIN
 10
1.000000000000000E+20
 20
1.000000000000000E+20
 30
1.000000000000000E+20
  9
$PEXTMAX
 10
-1.000000000000000E+20
 20
-1.000000000000000E+20
 30
-1.000000000000000E+20
  9
$PLIMMIN
 10
0.0
 20
0.0
  9
$PLIMMAX
 10
12.0
 20
9.0
  9
$UNITMODE
 70
     0
  9
$VISRETAIN
 70
     1
  9
$PLINEGEN
 70
     0
  9
$PSLTSCALE
 70
     1
  9
$TREEDEPTH
 70
  3020
  9
$CMLSTYLE
  2
Standard
  9
$CMLJUST
 70
     0
  9
$CMLSCALE
 40
1.0
  9
$PROXYGRAPHICS
 70
     1
  9
$MEASUREMENT
 70
     0
  9
$CELWEIGHT
370
    -1
  9
$ENDCAPS
280
     0
  9
$JOINSTYLE
280
     0
  9
$LWDISPLAY
290
     1
  9
$INSUNITS
 70
     1
  9
$HYPERLINKBASE
  1

  9
$STYLESHEET
  1

  9
$XEDIT
290
     1
  9
$CEPSNTYPE
380
     0
  9
$PSTYLEMODE
290
     1
  9
$FINGERPRINTGUID
  2
{EC8451CA-A52C-DA66-BCDE-88E902D3111A}
  9
$VERSIONGUID
  2
{FAEB1C32-E019-11D5-929B-00C0DF256EC4}
  9
$EXTNAMES
290
     1
  9
$PSVPSCALE
 40
0.0
  9
$OLESTARTUP
290
     0
  9
$SORTENTS
280
   127
  9
$INDEXCTL
280
     0
  9
$HIDETEXT
280
     1
  9
$XCLIPFRAME
280
     2
  9
$HALOGAP
280
     0
  9
$OBSCOLOR
 70
   257
  9
$OBSLTYPE
280
     0
  9
$INTERSECTIONDISPLAY
280
     0
  9
$INTERSECTIONCOLOR
 70
   257
  9
$DIMASSOC
280
     2
  9
$PROJECTNAME
  1

  9
$CAMERADISPLAY
290
     0
  9
$LENSLENGTH
 40
50.0
  9
$CAMERAHEIGHT
 40
0.0
  9
$STEPSPERSEC
 40
2.0
  9
$STEPSIZE
 40
6.0
  9
$3DDWFPREC
 40
2.0
  9
$PSOLWIDTH
 40
0.25
  9
$PSOLHEIGHT
 40
4.0
  9
$LOFTANG1
 40
1.570796326794897
  9
$LOFTANG2
 40
1.570796326794897
  9
$LOFTMAG1
 40
0.0
  9
$LOFTMAG2
 40
0.0
  9
$LOFTPARAM
 70
     7
  9
$LOFTNORMALS
280
     1
  9
$LATITUDE
 40
37.795
  9
$LONGITUDE
 40
-122.394
  9
$NORTHDIRECTION
 40
0.0
  9
$TIMEZONE
 70
 -8000
  9
$LIGHTGLYPHDISPLAY
280
     1
  9
$TILEMODELIGHTSYNCH
280
     1
  9
$CMATERIAL
347
3C
  9
$SOLIDHIST
280
     1
  9
$SHOWHIST
280
     1
  9
$DWFFRAME
280
     2
  9
$DGNFRAME
280
     2
  9
$REALWORLDSCALE
290
     1
  9
$INTERFERECOLOR
 62
   256
  9
$CSHADOW
280
     0
  9
$SHADOWPLANELOCATION
 40
0.0
  0
ENDSEC
  0
SECTION
  2
CLASSES
  0
CLASS
  1
ACDBDICTIONARYWDFLT
  2
AcDbDictionaryWithDefault
  3
ObjectDBX Classes
 90
        0
 91
        4
280
     0
281
     0
  0
CLASS
  1
VISUALSTYLE
  2
AcDbVisualStyle
  3
ObjectDBX Classes
 90
     4095
 91
        4
280
     0
281
     0
  0
CLASS
  1
MATERIAL
  2
AcDbMaterial
  3
ObjectDBX Classes
 90
     1153
 91
        4
280
     0
281
     0
  0
CLASS
  1
SUN
  2
AcDbSun
  3
SCENEOE
 90
     1024
 91
        4
280
     0
281
     0
  0
ENDSEC
  0
SECTION
  2
TABLES
  0
TABLE
  2
VPORT
  5
8
330
0
100
AcDbSymbolTable
 70
     1
  0
VPORT
  5
29
330
8
100
AcDbSymbolTableRecord
100
AcDbViewportTableRecord
  2
*Active
 70
     0
 10
0.0
 20
0.0
 11
1.0
 21
1.0
 12
0.0
 22
0.0
 13
0.0
 23
0.0
 14
0.5
 24
0.5
 15
0.5
 25
0.5
 16
0.0
 26
0.0
 36
1.0
 17
91.00082462281999
 27
-128.4993055234307
 37
0.0
 40
256.9986110468615
 41
0.7081814508812795
 42
50.0
 43
0.0
 44
0.0
 50
0.0
 51
0.0
 71
     0
 72
   100
 73
     1
 74
     3
 75
     0
 76
     0
 77
     0
 78
     0
281
     0
 65
     1
110
0.0
120
0.0
130
0.0
111
1.0
121
0.0
131
0.0
112
0.0
122
1.0
132
0.0
 79
     0
146
0.0
 60
     3
 61
     5
292
     1
282
     1
141
0.0
142
0.0
 63
   250
361
3F
  0
ENDTAB
  0
TABLE
  2
LTYPE
  5
5
330
0
100
AcDbSymbolTable
 70
     2
  0
LTYPE
  5
14
330
5
100
AcDbSymbolTableRecord
100
AcDbLinetypeTableRecord
  2
ByBlock
 70
     0
  3

 72
    65
 73
     0
 40
0.0
  0
LTYPE
  5
15
330
5
100
AcDbSymbolTableRecord
100
AcDbLinetypeTableRecord
  2
ByLayer
 70
     0
  3

 72
    65
 73
     0
 40
0.0
  0
LTYPE
  5
16
330
5
100
AcDbSymbolTableRecord
100
AcDbLinetypeTableRecord
  2
Continuous
 70
     0
  3
Solid line
 72
    65
 73
     0
 40
0.0
  0
LTYPE
  5
E6
330
5
100
AcDbSymbolTableRecord
100
AcDbLinetypeTableRecord
  2
AI-Linetype-1
 70
     0
  3
Adobe Illustrator Linetype No. 1
 72
    65
 73
     2
 40
1.411111110758333
 49
0.7055555553791667
 74
     0
 49
-0.7055555553791667
 74
     0
  0
ENDTAB
  0
TABLE
  2
LAYER
  5
2
330
0
100
AcDbSymbolTable
 70
     2
  0
LAYER
  5
10
330
2
100
AcDbSymbolTableRecord
100
AcDbLayerTableRecord
  2
0
 70
     0
 62
     7
  6
Continuous
370
    -3
390
F
347
3E
  0
LAYER
  5
40
330
2
100
AcDbSymbolTableRecord
100
AcDbLayerTableRecord
  2
_U+30EC_U+30A4_U+30E4_U+30FC 1
 70
     0
 62
     7
  6
Continuous
370
    -3
390
F
347
3E
  0
ENDTAB
  0
TABLE
  2
STYLE
  5
3
330
0
100
AcDbSymbolTable
 70
     1
  0
STYLE
  5
11
330
3
100
AcDbSymbolTableRecord
100
AcDbTextStyleTableRecord
  2
Standard
 70
     0
 40
0.0
 41
1.0
 50
0.0
 71
     0
 42
0.2
  3
txt
  4

  0
ENDTAB
  0
TABLE
  2
VIEW
  5
6
330
0
100
AcDbSymbolTable
 70
     0
  0
ENDTAB
  0
TABLE
  2
UCS
  5
7
330
0
100
AcDbSymbolTable
 70
     0
  0
ENDTAB
  0
TABLE
  2
APPID
  5
9
330
0
100
AcDbSymbolTable
 70
     1
  0
APPID
  5
12
330
9
100
AcDbSymbolTableRecord
100
AcDbRegAppTableRecord
  2
ACAD
 70
     0
  0
ENDTAB
  0
TABLE
  2
DIMSTYLE
  5
A
330
0
100
AcDbSymbolTable
 70
     1
100
AcDbDimStyleTable
  0
DIMSTYLE
105
27
330
A
100
AcDbSymbolTableRecord
100
AcDbDimStyleTableRecord
  2
Standard
 70
     0
178
     0
340
11
  0
ENDTAB
  0
TABLE
  2
BLOCK_RECORD
  5
1
330
0
100
AcDbSymbolTable
 70
     7
  0
BLOCK_RECORD
  5
1F
330
1
100
AcDbSymbolTableRecord
100
AcDbBlockTableRecord
  2
*Model_Space
340
22
 70
     0
280
     1
281
     0
  0
BLOCK_RECORD
  5
1B
330
1
100
AcDbSymbolTableRecord
100
AcDbBlockTableRecord
  2
*Paper_Space
340
1E
 70
     0
280
     1
281
     0
  0
BLOCK_RECORD
  5
23
330
1
100
AcDbSymbolTableRecord
100
AcDbBlockTableRecord
  2
*Paper_Space0
340
26
 70
     0
280
     1
281
     0
  0
BLOCK_RECORD
  5
89
330
1
100
AcDbSymbolTableRecord
100
AcDbBlockTableRecord
  2
block 2
340
0
102
{BLKREFS
331
8A
102
}
 70
     0
280
     1
281
     0
  0
BLOCK_RECORD
  5
A4
330
1
100
AcDbSymbolTableRecord
100
AcDbBlockTableRecord
  2
block 3
340
0
102
{BLKREFS
331
A5
102
}
 70
     0
280
     1
281
     0
  0
BLOCK_RECORD
  5
B6
330
1
100
AcDbSymbolTableRecord
100
AcDbBlockTableRecord
  2
block 4
340
0
102
{BLKREFS
331
B7
102
}
 70
     0
280
     1
281
     0
  0
BLOCK_RECORD
  5
CB
330
1
100
AcDbSymbolTableRecord
100
AcDbBlockTableRecord
  2
block 5
340
0
102
{BLKREFS
331
CC
102
}
 70
     0
280
     1
281
     0
  0
BLOCK_RECORD
  5
DB
330
1
100
AcDbSymbolTableRecord
100
AcDbBlockTableRecord
  2
block 6
340
0
102
{BLKREFS
331
DC
102
}
 70
     0
280
     1
281
     0
  0
BLOCK_RECORD
  5
F4
330
1
100
AcDbSymbolTableRecord
100
AcDbBlockTableRecord
  2
block 7
340
0
102
{BLKREFS
331
F5
102
}
 70
     0
280
     1
281
     0
  0
ENDTAB
  0
ENDSEC
  0
SECTION
  2
BLOCKS
  0
BLOCK
  5
20
330
1F
100
AcDbEntity
  8
0
100
AcDbBlockBegin
  2
*Model_Space
 70
     0
 10
0.0
 20
0.0
 30
0.0
  3
*Model_Space
  1

  0
ENDBLK
  5
21
330
1F
100
AcDbEntity
  8
0
100
AcDbBlockEnd
  0
BLOCK
  5
1C
330
1B
100
AcDbEntity
 67
     1
  8
0
100
AcDbBlockBegin
  2
*Paper_Space
 70
     0
 10
0.0
 20
0.0
 30
0.0
  3
*Paper_Space
  1

  0
ENDBLK
  5
1D
330
1B
100
AcDbEntity
 67
     1
  8
0
100
AcDbBlockEnd
  0
BLOCK
  5
24
330
23
100
AcDbEntity
  8
0
100
AcDbBlockBegin
  2
*Paper_Space0
 70
     0
 10
0.0
 20
0.0
 30
0.0
  3
*Paper_Space0
  1

  0
ENDBLK
  5
25
330
23
100
AcDbEntity
  8
0
100
AcDbBlockEnd
  0
BLOCK
  5
8B
330
89
100
AcDbEntity
  8
0
100
AcDbBlockBegin
  2
block 2
 70
     0
 10
0.0
 20
0.0
 30
0.0
  3
block 2
  1

  0
SPLINE
  5
8D
330
89
100
AcDbEntity
  8
_U+30EC_U+30A4_U+30E4_U+30FC 1
370
     0
100
AcDbSpline
210
0.0
220
0.0
230
1.0
 70
    11
 71
     3
 72
    29
 73
    25
 74
     0
 42
0.0000000001
 43
0.0000000001
 12
1.0
 22
0.0
 32
0.0
 13
1.0
 23
0.0
 33
0.0
 40
0.0
 40
0.0
 40
0.0
 40
0.0
 40
1.0
 40
1.0
 40
1.0
 40
2.0
 40
2.0
 40
2.0
 40
3.0
 40
3.0
 40
3.0
 40
4.0
 40
4.0
 40
4.0
 40
5.0
 40
5.0
 40
5.0
 40
6.0
 40
6.0
 40
6.0
 40
7.0
 40
7.0
 40
7.0
 40
8.0
 40
8.0
 40
8.0
 40
8.0
 10
108.452983913859
 20
-119.7684000351621
 30
0.0
 10
108.6624457193622
 20
-119.8838107339179
 30
0.0
 10
108.6813937445311
 20
-120.0691568710244
 30
0.0
 10
108.6813937445311
 20
-120.1935248180419
 30
0.0
 10
108.6813937445311
 20
-120.3650905732073
 30
0.0
 10
108.6348849554802
 20
-120.5166747745583
 30
0.0
 10
108.452983913859
 20
-120.6183050913732
 30
0.0
 10
108.2583360189424
 20
-120.7292371659983
 30
0.0
 10
108.0216579591057
 20
-120.7495632293612
 30
0.0
 10
107.8587049426534
 20
-120.7495632293612
 30
0.0
 10
107.7146999513699
 20
-120.7495632293612
 30
0.0
 10
107.4628634713982
 20
-120.7313042232894
 30
0.0
 10
107.2640814618993
 20
-120.6183050913732
 30
0.0
 10
107.0611653378181
 20
-120.5032389021659
 30
0.0
 10
107.0377386885183
 20
-120.3313286374519
 30
0.0
 10
107.0377386885183
 20
-120.1935248180419
 30
0.0
 10
107.0377386885183
 20
-120.0236816106191
 30
0.0
 10
107.0821804202781
 20
-119.8700303519769
 30
0.0
 10
107.2640814618993
 20
-119.7684000351621
 30
0.0
 10
107.4566622995247
 20
-119.6619465846678
 30
0.0
 10
107.6850721301968
 20
-119.637141897174
 30
0.0
 10
107.8587049426534
 20
-119.637141897174
 30
0.0
 10
108.0299261882703
 20
-119.637141897174
 30
0.0
 10
108.2604030762335
 20
-119.6598795273767
 30
0.0
 10
108.452983913859
 20
-119.7684000351621
 30
0.0
  0
SPLINE
  5
8E
330
89
100
AcDbEntity
  8
_U+30EC_U+30A4_U+30E4_U+30FC 1
370
     0
100
AcDbSpline
210
0.0
220
0.0
230
1.0
 70
    11
 71
     3
 72
    17
 73
    13
 74
     0
 42
0.0000000001
 43
0.0000000001
 12
1.0
 22
0.0
 32
0.0
 13
1.0
 23
0.0
 33
0.0
 40
0.0
 40
0.0
 40
0.0
 40
0.0
 40
1.0
 40
1.0
 40
1.0
 40
2.0
 40
2.0
 40
2.0
 40
3.0
 40
3.0
 40
3.0
 40
4.0
 40
4.0
 40
4.0
 40
4.0
 10
107.2303195261438
 20
-120.1935248180419
 30
0.0
 10
107.2303195261438
 20
-120.4601752086002
 30
0.0
 10
107.5138508845799
 20
-120.5097845835878
 30
0.0
 10
107.8587049426534
 20
-120.5097845835878
 30
0.0
 10
108.178065294136
 20
-120.5097845835878
 30
0.0
 10
108.4867458496144
 20
-120.4715440237016
 30
0.0
 10
108.4867458496144
 20
-120.1935248180419
 30
0.0
 10
108.4867458496144
 20
-119.9289414847747
 30
0.0
 10
108.205626058018
 20
-119.8769205429474
 30
0.0
 10
107.8587049426534
 20
-119.8769205429474
 30
0.0
 10
107.5390000816222
 20
-119.8769205429474
 30
0.0
 10
107.2303195261438
 20
-119.9175726696734
 30
0.0
 10
107.2303195261438
 20
-120.1935248180419
 30
0.0
  0
HATCH
  5
8F
330
89
100
AcDbEntity
  8
_U+30EC_U+30A4_U+30E4_U+30FC 1
 62
   179
420
  2234388
100
AcDbHatch
 10
0.0
 20
0.0
 30
0.0
210
0.0
220
0.0
230
1.0
  2
SOLID
 70
     1
 71
     0
 91
        2
 92
        1
 93
        1
 72
     4
 94
        3
 73
     0
 74
     1
 95
       29
 96
       25
 40
0.0
 40
0.0
 40
0.0
 40
0.0
 40
1.0
 40
1.0
 40
1.0
 40
2.0
 40
2.0
 40
2.0
 40
3.0
 40
3.0
 40
3.0
 40
4.0
 40
4.0
 40
4.0
 40
5.0
 40
5.0
 40
5.0
 40
6.0
 40
6.0
 40
6.0
 40
7.0
 40
7.0
 40
7.0
 40
8.0
 40
8.0
 40
8.0
 40
8.0
 10
108.452983913859
 20
-119.7684000351621
 10
108.6624457193622
 20
-119.8838107339179
 10
108.6813937445311
 20
-120.0691568710244
 10
108.6813937445311
 20
-120.1935248180419
 10
108.6813937445311
 20
-120.3650905732073
 10
108.6348849554802
 20
-120.5166747745583
 10
108.452983913859
 20
-120.6183050913732
 10
108.2583360189424
 20
-120.7292371659983
 10
108.0216579591057
 20
-120.7495632293612
 10
107.8587049426534
 20
-120.7495632293612
 10
107.7146999513699
 20
-120.7495632293612
 10
107.4628634713982
 20
-120.7313042232894
 10
107.2640814618993
 20
-120.6183050913732
 10
107.0611653378181
 20
-120.5032389021659
 10
107.0377386885183
 20
-120.3313286374519
 10
107.0377386885183
 20
-120.1935248180419
 10
107.0377386885183
 20
-120.0236816106191
 10
107.0821804202781
 20
-119.8700303519769
 10
107.2640814618993
 20
-119.7684000351621
 10
107.4566622995247
 20
-119.6619465846678
 10
107.6850721301968
 20
-119.637141897174
 10
107.8587049426534
 20
-119.637141897174
 10
108.0299261882703
 20
-119.637141897174
 10
108.2604030762335
 20
-119.6598795273767
 10
108.452983913859
 20
-119.7684000351621
 97
        0
 97
        0
 92
        1
 93
        1
 72
     4
 94
        3
 73
     0
 74
     1
 95
       17
 96
       13
 40
0.0
 40
0.0
 40
0.0
 40
0.0
 40
1.0
 40
1.0
 40
1.0
 40
2.0
 40
2.0
 40
2.0
 40
3.0
 40
3.0
 40
3.0
 40
4.0
 40
4.0
 40
4.0
 40
4.0
 10
107.2303195261438
 20
-120.1935248180419
 10
107.2303195261438
 20
-120.4601752086002
 10
107.5138508845799
 20
-120.5097845835878
 10
107.8587049426534
 20
-120.5097845835878
 10
108.178065294136
 20
-120.5097845835878
 10
108.4867458496144
 20
-120.4715440237016
 10
108.4867458496144
 20
-120.1935248180419
 10
108.4867458496144
 20
-119.9289414847747
 10
108.205626058018
 20
-119.8769205429474
 10
107.8587049426534
 20
-119.8769205429474
 10
107.5390000816222
 20
-119.8769205429474
 10
107.2303195261438
 20
-119.9175726696734
 10
107.2303195261438
 20
-120.1935248180419
 97
        0
 97
        0
 75
     2
 76
     1
 98
        0
  0
POLYLINE
  5
90
330
89
100
AcDbEntity
  8
_U+30EC_U+30A4_U+30E4_U+30FC 1
370
     0
100
AcDb2dPolyline
 66
     1
 10
0.0
 20
0.0
 30
0.0
  0
VERTEX
  5
91
330
90
100
AcDbEntity
  8
_U+30EC_U+30A4_U+30E4_U+30FC 1
370
     0
100
AcDbVertex
100
AcDb2dVertex
 10
108.6307508408979
 20
-119.4059759901138
 30
0.0
  0
VERTEX
  5
92
330
90
100
AcDbEntity
  8
_U+30EC_U+30A4_U+30E4_U+30FC 1
370
     0
100
AcDbVertex
100
AcDb2dVertex
 10
108.3789143609261
 20
-119.4059759901138
 30
0.0
  0
VERTEX
  5
93
330
90
100
AcDbEntity
  8
_U+30EC_U+30A4_U+30E4_U+30FC 1
370
     0
100
AcDbVertex
100
AcDb2dVertex
 10
108.3789143609261
 20
-119.1369140327158
 30
0.0
  0
VERTEX
  5
94
330
90
100
AcDbEntity
  8
_U+30EC_U+30A4_U+30E4_U+30FC 1
370
     0
100
AcDbVertex
100
AcDb2dVertex
 10
108.6307508408979
 20
-119.1369140327158
 30
0.0
  0
VERTEX
  5
95
330
90
100
AcDbEntity
  8
_U+30EC_U+30A4_U+30E4_U+30FC 1
370
     0
100
AcDbVertex
100
AcDb2dVertex
 10
108.6307508408979
 20
-119.4059759901138
 30
0.0
  0
SEQEND
  5
96
330
90
100
AcDbEntity
  8
_U+30EC_U+30A4_U+30E4_U+30FC 1
370
     0
  0
HATCH
  5
97
330
89
100
AcDbEntity
  8
_U+30EC_U+30A4_U+30E4_U+30FC 1
 62
   179
420
  2234388
100
AcDbHatch
 10
0.0
 20
0.0
 30
0.0
210
0.0
220
0.0
230
1.0
  2
SOLID
 70
     1
 71
     0
 91
        1
 92
        1
 93
        4
 72
     1
 10
108.6307508408979
 20
-119.4059759901138
 11
108.3789143609261
 21
-119.4059759901138
 72
     1
 10
108.3789143609261
 20
-119.4059759901138
 11
108.3789143609261
 21
-119.1369140327158
 72
     1
 10
108.3789143609261
 20
-119.1369140327158
 11
108.6307508408979
 21
-119.1369140327158
 72
     1
 10
108.6307508408979
 20
-119.1369140327158
 11
108.6307508408979
 21
-119.4059759901138
 97
        0
 75
     2
 76
     1
 98
        0
  0
SPLINE
  5
98
330
89
100
AcDbEntity
  8
_U+30EC_U+30A4_U+30E4_U+30FC 1
370
     0
100
AcDbSpline
210
0.0
220
0.0
230
1.0
 70
    11
 71
     3
 72
    29
 73
    25
 74
     0
 42
0.0000000001
 43
0.0000000001
 12
1.0
 22
0.0
 32
0.0
 13
1.0
 23
0.0
 33
0.0
 40
0.0
 40
0.0
 40
0.0
 40
0.0
 40
1.0
 40
1.0
 40
1.0
 40
2.0
 40
2.0
 40
2.0
 40
3.0
 40
3.0
 40
3.0
 40
4.0
 40
4.0
 40
4.0
 40
5.0
 40
5.0
 40
5.0
 40
6.0
 40
6.0
 40
6.0
 40
7.0
 40
7.0
 40
7.0
 40
8.0
 40
8.0
 40
8.0
 40
8.0
 10
108.6813937445311
 20
-118.3497097143362
 30
0.0
 10
108.6813937445311
 20
-118.6346191109664
 30
0.0
 10
108.5439344346696
 20
-118.9057481256555
 30
0.0
 10
108.1949462620138
 20
-118.9057481256555
 30
0.0
 10
107.9389756674597
 20
-118.9057481256555
 30
0.0
 10
107.8438910320668
 20
-118.7541639243045
 30
0.0
 10
107.7825683324294
 20
-118.6411647923883
 30
0.0
 10
107.7233126900831
 20
-118.7744899876675
 30
0.0
 10
107.6089355199728
 20
-118.8561387506679
 30
0.0
 10
107.4480495608116
 20
-118.8561387506679
 30
0.0
 10
107.1731309410887
 20
-118.8561387506679
 30
0.0
 10
107.0377386885183
 20
-118.643576359228
 30
0.0
 10
107.0377386885183
 20
-118.3497097143362
 30
0.0
 10
107.0377386885183
 20
-118.0465413116342
 30
0.0
 10
107.1817436798018
 20
-117.8432806780045
 30
0.0
 10
107.4480495608116
 20
-117.8432806780045
 30
0.0
 10
107.6089355199728
 20
-117.8432806780045
 30
0.0
 10
107.7233126900831
 20
-117.9266519887475
 30
0.0
 10
107.7825683324294
 20
-118.0603216935752
 30
0.0
 10
107.8332112360625
 20
-117.9652370581823
 30
0.0
 10
107.9282958714554
 20
-117.795738360308
 30
0.0
 10
108.1908121474315
 20
-117.795738360308
 30
0.0
 10
108.5652940266781
 20
-117.795738360308
 30
0.0
 10
108.6813937445311
 20
-118.0940836293307
 30
0.0
 10
108.6813937445311
 20
-118.3497097143362
 30
0.0
  0
SPLINE
  5
99
330
89
100
AcDbEntity
  8
_U+30EC_U+30A4_U+30E4_U+30FC 1
370
     0
100
AcDbSpline
210
0.0
220
0.0
230
1.0
 70
    11
 71
     3
 72
    17
 73
    13
 74
     0
 42
0.0000000001
 43
0.0000000001
 12
1.0
 22
0.0
 32
0.0
 13
1.0
 23
0.0
 33
0.0
 40
0.0
 40
0.0
 40
0.0
 40
0.0
 40
1.0
 40
1.0
 40
1.0
 40
2.0
 40
2.0
 40
2.0
 40
3.0
 40
3.0
 40
3.0
 40
4.0
 40
4.0
 40
4.0
 40
4.0
 10
107.2303195261438
 20
-118.3497097143362
 30
0.0
 10
107.2303195261438
 20
-118.5257540936325
 30
0.0
 10
107.3254041615367
 20
-118.6163601048945
 30
0.0
 10
107.460796414107
 20
-118.6163601048945
 30
0.0
 10
107.5834418133819
 20
-118.6163601048945
 30
0.0
 10
107.7019530980745
 20
-118.5395344755735
 30
0.0
 10
107.7019530980745
 20
-118.3497097143362
 30
0.0
 10
107.7019530980745
 20
-118.1595404435504
 30
0.0
 10
107.5834418133819
 20
-118.0827148142293
 30
0.0
 10
107.460796414107
 20
-118.0827148142293
 30
0.0
 10
107.3254041615367
 20
-118.0827148142293
 30
0.0
 10
107.2303195261438
 20
-118.1753878827825
 30
0.0
 10
107.2303195261438
 20
-118.3497097143362
 30
0.0
  0
SPLINE
  5
9A
330
89
100
AcDbEntity
  8
_U+30EC_U+30A4_U+30E4_U+30FC 1
370
     0
100
AcDbSpline
210
0.0
220
0.0
230
1.0
 70
    11
 71
     3
 72
    17
 73
    13
 74
     0
 42
0.0000000001
 43
0.0000000001
 12
1.0
 22
0.0
 32
0.0
 13
1.0
 23
0.0
 33
0.0
 40
0.0
 40
0.0
 40
0.0
 40
0.0
 40
1.0
 40
1.0
 40
1.0
 40
2.0
 40
2.0
 40
2.0
 40
3.0
 40
3.0
 40
3.0
 40
4.0
 40
4.0
 40
4.0
 40
4.0
 10
107.8903998211177
 20
-118.3497097143362
 30
0.0
 10
107.8903998211177
 20
-118.5033609729783
 30
0.0
 10
107.977216227346
 20
-118.6659694798821
 30
0.0
 10
108.1801323514272
 20
-118.6659694798821
 30
0.0
 10
108.3854600423481
 20
-118.6659694798821
 30
0.0
 10
108.4867458496144
 20
-118.5305772273118
 30
0.0
 10
108.4867458496144
 20
-118.3497097143362
 30
0.0
 10
108.4867458496144
 20
-118.1505831952887
 30
0.0
 10
108.3641004503395
 20
-118.0331054392417
 30
0.0
 10
108.1863335233006
 20
-118.0331054392417
 30
0.0
 10
107.9644693740506
 20
-118.0331054392417
 30
0.0
 10
107.8903998211177
 20
-118.2070827612469
 30
0.0
 10
107.8903998211177
 20
-118.3497097143362
 30
0.0
  0
HATCH
  5
9B
330
89
100
AcDbEntity
  8
_U+30EC_U+30A4_U+30E4_U+30FC 1
 62
   179
420
  2234388
100
AcDbHatch
 10
0.0
 20
0.0
 30
0.0
210
0.0
220
0.0
230
1.0
  2
SOLID
 70
     1
 71
     0
 91
        3
 92
        1
 93
        1
 72
     4
 94
        3
 73
     0
 74
     1
 95
       29
 96
       25
 40
0.0
 40
0.0
 40
0.0
 40
0.0
 40
1.0
 40
1.0
 40
1.0
 40
2.0
 40
2.0
 40
2.0
 40
3.0
 40
3.0
 40
3.0
 40
4.0
 40
4.0
 40
4.0
 40
5.0
 40
5.0
 40
5.0
 40
6.0
 40
6.0
 40
6.0
 40
7.0
 40
7.0
 40
7.0
 40
8.0
 40
8.0
 40
8.0
 40
8.0
 10
108.6813937445311
 20
-118.3497097143362
 10
108.6813937445311
 20
-118.6346191109664
 10
108.5439344346696
 20
-118.9057481256555
 10
108.1949462620138
 20
-118.9057481256555
 10
107.9389756674597
 20
-118.9057481256555
 10
107.8438910320668
 20
-118.7541639243045
 10
107.7825683324294
 20
-118.6411647923883
 10
107.7233126900831
 20
-118.7744899876675
 10
107.6089355199728
 20
-118.8561387506679
 10
107.4480495608116
 20
-118.8561387506679
 10
107.1731309410887
 20
-118.8561387506679
 10
107.0377386885183
 20
-118.643576359228
 10
107.0377386885183
 20
-118.3497097143362
 10
107.0377386885183
 20
-118.0465413116342
 10
107.1817436798018
 20
-117.8432806780045
 10
107.4480495608116
 20
-117.8432806780045
 10
107.6089355199728
 20
-117.8432806780045
 10
107.7233126900831
 20
-117.9266519887475
 10
107.7825683324294
 20
-118.0603216935752
 10
107.8332112360625
 20
-117.9652370581823
 10
107.9282958714554
 20
-117.795738360308
 10
108.1908121474315
 20
-117.795738360308
 10
108.5652940266781
 20
-117.795738360308
 10
108.6813937445311
 20
-118.0940836293307
 10
108.6813937445311
 20
-118.3497097143362
 97
        0
 97
        0
 92
        1
 93
        1
 72
     4
 94
        3
 73
     0
 74
     1
 95
       17
 96
       13
 40
0.0
 40
0.0
 40
0.0
 40
0.0
 40
1.0
 40
1.0
 40
1.0
 40
2.0
 40
2.0
 40
2.0
 40
3.0
 40
3.0
 40
3.0
 40
4.0
 40
4.0
 40
4.0
 40
4.0
 10
107.2303195261438
 20
-118.3497097143362
 10
107.2303195261438
 20
-118.5257540936325
 10
107.3254041615367
 20
-118.6163601048945
 10
107.460796414107
 20
-118.6163601048945
 10
107.5834418133819
 20
-118.6163601048945
 10
107.7019530980745
 20
-118.5395344755735
 10
107.7019530980745
 20
-118.3497097143362
 10
107.7019530980745
 20
-118.1595404435504
 10
107.5834418133819
 20
-118.0827148142293
 10
107.460796414107
 20
-118.0827148142293
 10
107.3254041615367
 20
-118.0827148142293
 10
107.2303195261438
 20
-118.1753878827825
 10
107.2303195261438
 20
-118.3497097143362
 97
        0
 97
        0
 92
        1
 93
        1
 72
     4
 94
        3
 73
     0
 74
     1
 95
       17
 96
       13
 40
0.0
 40
0.0
 40
0.0
 40
0.0
 40
1.0
 40
1.0
 40
1.0
 40
2.0
 40
2.0
 40
2.0
 40
3.0
 40
3.0
 40
3.0
 40
4.0
 40
4.0
 40
4.0
 40
4.0
 10
107.8903998211177
 20
-118.3497097143362
 10
107.8903998211177
 20
-118.5033609729783
 10
107.977216227346
 20
-118.6659694798821
 10
108.1801323514272
 20
-118.6659694798821
 10
108.3854600423481
 20
-118.6659694798821
 10
108.4867458496144
 20
-118.5305772273118
 10
108.4867458496144
 20
-118.3497097143362
 10
108.4867458496144
 20
-118.1505831952887
 10
108.3641004503395
 20
-118.0331054392417
 10
108.1863335233006
 20
-118.0331054392417
 10
107.9644693740506
 20
-118.0331054392417
 10
107.8903998211177
 20
-118.2070827612469
 10
107.8903998211177
 20
-118.3497097143362
 97
        0
 97
        0
 75
     2
 76
     1
 98
        0
  0
ENDBLK
  5
8C
330
89
100
AcDbEntity
  8
0
100
AcDbBlockEnd
  0
BLOCK
  5
A6
330
A4
100
AcDbEntity
  8
0
100
AcDbBlockBegin
  2
block 3
 70
     0
 10
0.0
 20
0.0
 30
0.0
  3
block 3
  1

  0
SPLINE
  5
A8
330
A4
100
AcDbEntity
  8
_U+30EC_U+30A4_U+30E4_U+30FC 1
370
     0
100
AcDbSpline
210
0.0
220
0.0
230
1.0
 70
    11
 71
     3
 72
    62
 73
    58
 74
     0
 42
0.0000000001
 43
0.0000000001
 12
1.0
 22
0.0
 32
0.0
 13
1.0
 23
0.0
 33
0.0
 40
0.0
 40
0.0
 40
0.0
 40
0.0
 40
1.0
 40
1.0
 40
1.0
 40
2.0
 40
2.0
 40
2.0
 40
3.0
 40
3.0
 40
3.0
 40
4.0
 40
4.0
 40
4.0
 40
5.0
 40
5.0
 40
5.0
 40
6.0
 40
6.0
 40
6.0
 40
7.0
 40
7.0
 40
7.0
 40
8.0
 40
8.0
 40
8.0
 40
9.0
 40
9.0
 40
9.0
 40
10.0
 40
10.0
 40
10.0
 40
11.0
 40
11.0
 40
11.0
 40
12.0
 40
12.0
 40
12.0
 40
13.0
 40
13.0
 40
13.0
 40
14.0
 40
14.0
 40
14.0
 40
15.0
 40
15.0
 40
15.0
 40
16.0
 40
16.0
 40
16.0
 40
17.0
 40
17.0
 40
17.0
 40
18.0
 40
18.0
 40
18.0
 40
19.0
 40
19.0
 40
19.0
 40
19.0
 10
108.6813937445311
 20
-137.5805772225493
 30
0.0
 10
108.6813937445311
 20
-137.6822075393642
 30
0.0
 10
108.660378662071
 20
-137.9150959941671
 30
0.0
 10
108.4743435058675
 20
-138.0484211894462
 30
0.0
 10
108.3620333930484
 20
-138.127658385607
 30
0.0
 10
108.2628146430732
 20
-138.1321370097378
 30
0.0
 10
108.178065294136
 20
-138.1366156338686
 30
0.0
 10
108.178065294136
 20
-138.1366156338686
 30
0.0
 10
108.178065294136
 20
-137.9016601217746
 30
0.0
 10
108.178065294136
 20
-137.9016601217746
 30
0.0
 10
108.2521348470689
 20
-137.8992485549349
 30
0.0
 10
108.4867458496144
 20
-137.8878797398336
 30
0.0
 10
108.4867458496144
 20
-137.5850558466801
 30
0.0
 10
108.4867458496144
 20
-137.43795026946
 30
0.0
 10
108.4171549208124
 20
-137.2753417625562
 30
0.0
 10
108.1887450901403
 20
-137.2753417625562
 30
0.0
 10
108.0723008627389
 20
-137.2753417625562
 30
0.0
 10
108.0237250163969
 20
-137.3159938892821
 30
0.0
 10
107.9920301379326
 20
-137.3497558250376
 30
0.0
 10
107.9179605849997
 20
-137.4289930211983
 30
0.0
 10
107.9052137317043
 20
-137.5533609682158
 30
0.0
 10
107.9052137317043
 20
-137.6122721010136
 30
0.0
 10
107.9052137317043
 20
-137.6325981643766
 30
0.0
 10
107.9072807889954
 20
-137.6708387242629
 30
0.0
 10
107.9114149035777
 20
-137.700466545436
 30
0.0
 10
107.9114149035777
 20
-137.700466545436
 30
0.0
 10
107.7167670086611
 20
-137.700466545436
 30
0.0
 10
107.7167670086611
 20
-137.700466545436
 30
0.0
 10
107.7233126900831
 20
-137.6598144187101
 30
0.0
 10
107.7253797473742
 20
-137.6143391583047
 30
0.0
 10
107.7253797473742
 20
-137.6077934768828
 30
0.0
 10
107.7253797473742
 20
-137.5375135289837
 30
0.0
 10
107.7040201553657
 20
-137.3249511375438
 30
0.0
 10
107.467342095529
 20
-137.3249511375438
 30
0.0
 10
107.2895751684901
 20
-137.3249511375438
 30
0.0
 10
107.2344536407261
 20
-137.4651665237934
 30
0.0
 10
107.2344536407261
 20
-137.5826442798405
 30
0.0
 10
107.2344536407261
 20
-137.8654866191795
 30
0.0
 10
107.467342095529
 20
-137.8744438674411
 30
0.0
 10
107.5390000816222
 20
-137.878922491572
 30
0.0
 10
107.5390000816222
 20
-137.878922491572
 30
0.0
 10
107.5390000816222
 20
-138.0959635071427
 30
0.0
 10
107.5390000816222
 20
-138.0959635071427
 30
0.0
 10
107.4142876250562
 20
-138.087006258881
 30
0.0
 10
107.0377386885183
 20
-138.0577229472564
 30
0.0
 10
107.0377386885183
 20
-137.569208407448
 30
0.0
 10
107.0377386885183
 20
-137.3294297616746
 30
0.0
 10
107.1648627119241
 20
-137.0717366193779
 30
0.0
 10
107.460796414107
 20
-137.0717366193779
 30
0.0
 10
107.6471760798591
 20
-137.0717366193779
 30
0.0
 10
107.7295138619565
 20
-137.1737114457413
 30
0.0
 10
107.790836561594
 20
-137.279820386687
 30
0.0
 10
107.818397325476
 20
-137.2143635724672
 30
0.0
 10
107.8986680502823
 20
-137.0197156775506
 30
0.0
 10
108.1759982368449
 20
-137.0197156775506
 30
0.0
 10
108.5143066134964
 20
-137.0197156775506
 30
0.0
 10
108.6813937445311
 20
-137.2842990108178
 30
0.0
 10
108.6813937445311
 20
-137.5805772225493
 30
0.0
  0
HATCH
  5
A9
330
A4
100
AcDbEntity
  8
_U+30EC_U+30A4_U+30E4_U+30FC 1
 62
   179
420
  2234388
100
AcDbHatch
 10
0.0
 20
0.0
 30
0.0
210
0.0
220
0.0
230
1.0
  2
SOLID
 70
     1
 71
     0
 91
        1
 92
        1
 93
        1
 72
     4
 94
        3
 73
     0
 74
     1
 95
       62
 96
       58
 40
0.0
 40
0.0
 40
0.0
 40
0.0
 40
1.0
 40
1.0
 40
1.0
 40
2.0
 40
2.0
 40
2.0
 40
3.0
 40
3.0
 40
3.0
 40
4.0
 40
4.0
 40
4.0
 40
5.0
 40
5.0
 40
5.0
 40
6.0
 40
6.0
 40
6.0
 40
7.0
 40
7.0
 40
7.0
 40
8.0
 40
8.0
 40
8.0
 40
9.0
 40
9.0
 40
9.0
 40
10.0
 40
10.0
 40
10.0
 40
11.0
 40
11.0
 40
11.0
 40
12.0
 40
12.0
 40
12.0
 40
13.0
 40
13.0
 40
13.0
 40
14.0
 40
14.0
 40
14.0
 40
15.0
 40
15.0
 40
15.0
 40
16.0
 40
16.0
 40
16.0
 40
17.0
 40
17.0
 40
17.0
 40
18.0
 40
18.0
 40
18.0
 40
19.0
 40
19.0
 40
19.0
 40
19.0
 10
108.6813937445311
 20
-137.5805772225493
 10
108.6813937445311
 20
-137.6822075393642
 10
108.660378662071
 20
-137.9150959941671
 10
108.4743435058675
 20
-138.0484211894462
 10
108.3620333930484
 20
-138.127658385607
 10
108.2628146430732
 20
-138.1321370097378
 10
108.178065294136
 20
-138.1366156338686
 10
108.178065294136
 20
-138.1366156338686
 10
108.178065294136
 20
-137.9016601217746
 10
108.178065294136
 20
-137.9016601217746
 10
108.2521348470689
 20
-137.8992485549349
 10
108.4867458496144
 20
-137.8878797398336
 10
108.4867458496144
 20
-137.5850558466801
 10
108.4867458496144
 20
-137.43795026946
 10
108.4171549208124
 20
-137.2753417625562
 10
108.1887450901403
 20
-137.2753417625562
 10
108.0723008627389
 20
-137.2753417625562
 10
108.0237250163969
 20
-137.3159938892821
 10
107.9920301379326
 20
-137.3497558250376
 10
107.9179605849997
 20
-137.4289930211983
 10
107.9052137317043
 20
-137.5533609682158
 10
107.9052137317043
 20
-137.6122721010136
 10
107.9052137317043
 20
-137.6325981643766
 10
107.9072807889954
 20
-137.6708387242629
 10
107.9114149035777
 20
-137.700466545436
 10
107.9114149035777
 20
-137.700466545436
 10
107.7167670086611
 20
-137.700466545436
 10
107.7167670086611
 20
-137.700466545436
 10
107.7233126900831
 20
-137.6598144187101
 10
107.7253797473742
 20
-137.6143391583047
 10
107.7253797473742
 20
-137.6077934768828
 10
107.7253797473742
 20
-137.5375135289837
 10
107.7040201553657
 20
-137.3249511375438
 10
107.467342095529
 20
-137.3249511375438
 10
107.2895751684901
 20
-137.3249511375438
 10
107.2344536407261
 20
-137.4651665237934
 10
107.2344536407261
 20
-137.5826442798405
 10
107.2344536407261
 20
-137.8654866191795
 10
107.467342095529
 20
-137.8744438674411
 10
107.5390000816222
 20
-137.878922491572
 10
107.5390000816222
 20
-137.878922491572
 10
107.5390000816222
 20
-138.0959635071427
 10
107.5390000816222
 20
-138.0959635071427
 10
107.4142876250562
 20
-138.087006258881
 10
107.0377386885183
 20
-138.0577229472564
 10
107.0377386885183
 20
-137.569208407448
 10
107.0377386885183
 20
-137.3294297616746
 10
107.1648627119241
 20
-137.0717366193779
 10
107.460796414107
 20
-137.0717366193779
 10
107.6471760798591
 20
-137.0717366193779
 10
107.7295138619565
 20
-137.1737114457413
 10
107.790836561594
 20
-137.279820386687
 10
107.818397325476
 20
-137.2143635724672
 10
107.8986680502823
 20
-137.0197156775506
 10
108.1759982368449
 20
-137.0197156775506
 10
108.5143066134964
 20
-137.0197156775506
 10
108.6813937445311
 20
-137.2842990108178
 10
108.6813937445311
 20
-137.5805772225493
 97
        0
 97
        0
 75
     2
 76
     1
 98
        0
  0
ENDBLK
  5
A7
330
A4
100
AcDbEntity
  8
0
100
AcDbBlockEnd
  0
BLOCK
  5
B8
330
B6
100
AcDbEntity
  8
0
100
AcDbBlockBegin
  2
block 4
 70
     0
 10
0.0
 20
0.0
 30
0.0
  3
block 4
  1

  0
SPLINE
  5
BA
330
B6
100
AcDbEntity
  8
_U+30EC_U+30A4_U+30E4_U+30FC 1
370
     0
100
AcDbSpline
210
0.0
220
0.0
230
1.0
 70
    11
 71
     3
 72
    26
 73
    22
 74
     0
 42
0.0000000001
 43
0.0000000001
 12
1.0
 22
0.0
 32
0.0
 13
1.0
 23
0.0
 33
0.0
 40
0.0
 40
0.0
 40
0.0
 40
0.0
 40
1.0
 40
1.0
 40
1.0
 40
2.0
 40
2.0
 40
2.0
 40
3.0
 40
3.0
 40
3.0
 40
4.0
 40
4.0
 40
4.0
 40
5.0
 40
5.0
 40
5.0
 40
6.0
 40
6.0
 40
6.0
 40
7.0
 40
7.0
 40
7.0
 40
7.0
 10
87.30078665352202
 20
-141.720548467174
 30
0.0
 10
87.30078665352202
 20
-141.720548467174
 30
0.0
 10
87.30078665352202
 20
-140.6163953641515
 30
0.0
 10
87.30078665352202
 20
-140.6163953641515
 30
0.0
 10
87.30078665352202
 20
-140.6163953641515
 30
0.0
 10
86.94800887583244
 20
-140.6163953641515
 30
0.0
 10
86.94800887583244
 20
-140.6163953641515
 30
0.0
 10
86.94800887583244
 20
-140.6163953641515
 30
0.0
 10
86.94800887583244
 20
-140.4682562582857
 30
0.0
 10
86.94800887583244
 20
-140.4682562582857
 30
0.0
 10
87.30302596558744
 20
-140.4534423476991
 30
0.0
 10
87.3528075953493
 20
-140.2904893312468
 30
0.0
 10
87.38433021903934
 20
-140.1761121611365
 30
0.0
 10
87.38433021903934
 20
-140.1761121611365
 30
0.0
 10
87.54039304452115
 20
-140.1761121611365
 30
0.0
 10
87.54039304452115
 20
-140.1761121611365
 30
0.0
 10
87.54039304452115
 20
-140.1761121611365
 30
0.0
 10
87.54039304452115
 20
-141.720548467174
 30
0.0
 10
87.54039304452115
 20
-141.720548467174
 30
0.0
 10
87.54039304452115
 20
-141.720548467174
 30
0.0
 10
87.30078665352202
 20
-141.720548467174
 30
0.0
 10
87.30078665352202
 20
-141.720548467174
 30
0.0
  0
HATCH
  5
BB
330
B6
100
AcDbEntity
  8
_U+30EC_U+30A4_U+30E4_U+30FC 1
 62
   179
420
  2234388
100
AcDbHatch
 10
0.0
 20
0.0
 30
0.0
210
0.0
220
0.0
230
1.0
  2
SOLID
 70
     1
 71
     0
 91
        1
 92
        1
 93
        1
 72
     4
 94
        3
 73
     0
 74
     1
 95
       26
 96
       22
 40
0.0
 40
0.0
 40
0.0
 40
0.0
 40
1.0
 40
1.0
 40
1.0
 40
2.0
 40
2.0
 40
2.0
 40
3.0
 40
3.0
 40
3.0
 40
4.0
 40
4.0
 40
4.0
 40
5.0
 40
5.0
 40
5.0
 40
6.0
 40
6.0
 40
6.0
 40
7.0
 40
7.0
 40
7.0
 40
7.0
 10
87.30078665352202
 20
-141.720548467174
 10
87.30078665352202
 20
-141.720548467174
 10
87.30078665352202
 20
-140.6163953641515
 10
87.30078665352202
 20
-140.6163953641515
 10
87.30078665352202
 20
-140.6163953641515
 10
86.94800887583244
 20
-140.6163953641515
 10
86.94800887583244
 20
-140.6163953641515
 10
86.94800887583244
 20
-140.6163953641515
 10
86.94800887583244
 20
-140.4682562582857
 10
86.94800887583244
 20
-140.4682562582857
 10
87.30302596558744
 20
-140.4534423476991
 10
87.3528075953493
 20
-140.2904893312468
 10
87.38433021903934
 20
-140.1761121611365
 10
87.38433021903934
 20
-140.1761121611365
 10
87.54039304452115
 20
-140.1761121611365
 10
87.54039304452115
 20
-140.1761121611365
 10
87.54039304452115
 20
-140.1761121611365
 10
87.54039304452115
 20
-141.720548467174
 10
87.54039304452115
 20
-141.720548467174
 10
87.54039304452115
 20
-141.720548467174
 10
87.30078665352202
 20
-141.720548467174
 10
87.30078665352202
 20
-141.720548467174
 97
        0
 97
        0
 75
     2
 76
     1
 98
        0
  0
SPLINE
  5
BC
330
B6
100
AcDbEntity
  8
_U+30EC_U+30A4_U+30E4_U+30FC 1
370
     0
100
AcDbSpline
210
0.0
220
0.0
230
1.0
 70
    11
 71
     3
 72
    29
 73
    25
 74
     0
 42
0.0000000001
 43
0.0000000001
 12
1.0
 22
0.0
 32
0.0
 13
1.0
 23
0.0
 33
0.0
 40
0.0
 40
0.0
 40
0.0
 40
0.0
 40
1.0
 40
1.0
 40
1.0
 40
2.0
 40
2.0
 40
2.0
 40
3.0
 40
3.0
 40
3.0
 40
4.0
 40
4.0
 40
4.0
 40
5.0
 40
5.0
 40
5.0
 40
6.0
 40
6.0
 40
6.0
 40
7.0
 40
7.0
 40
7.0
 40
8.0
 40
8.0
 40
8.0
 40
8.0
 10
89.03556448511958
 20
-141.5427815401351
 30
0.0
 10
88.92032604113798
 20
-141.7522433456383
 30
0.0
 10
88.73497990403153
 20
-141.7711913708072
 30
0.0
 10
88.61061195701402
 20
-141.7711913708072
 30
0.0
 10
88.43870169230006
 20
-141.7711913708072
 30
0.0
 10
88.28728974572331
 20
-141.7246825817563
 30
0.0
 10
88.18548717413418
 20
-141.5427815401351
 30
0.0
 10
88.07472735428341
 20
-141.3481336452185
 30
0.0
 10
88.05440129092044
 20
-141.1111110758333
 30
0.0
 10
88.05440129092044
 20
-140.9485025689295
 30
0.0
 10
88.05440129092044
 20
-140.8044975776461
 30
0.0
 10
88.072488042218
 20
-140.5526610976743
 30
0.0
 10
88.18548717413418
 20
-140.3538790881754
 30
0.0
 10
88.30089787289006
 20
-140.1509629640942
 30
0.0
 10
88.47263588282976
 20
-140.1275363147945
 30
0.0
 10
88.61061195701402
 20
-140.1275363147945
 30
0.0
 10
88.7801106548883
 20
-140.1275363147945
 30
0.0
 10
88.93393416830472
 20
-140.1719780465542
 30
0.0
 10
89.03556448511958
 20
-140.3538790881754
 30
0.0
 10
89.14184568083954
 20
-140.5464599258009
 30
0.0
 10
89.1668226231076
 20
-140.774869756473
 30
0.0
 10
89.1668226231076
 20
-140.9485025689295
 30
0.0
 10
89.1668226231076
 20
-141.1197238145465
 30
0.0
 10
89.14408499290495
 20
-141.3502007025097
 30
0.0
 10
89.03556448511958
 20
-141.5427815401351
 30
0.0
  0
SPLINE
  5
BD
330
B6
100
AcDbEntity
  8
_U+30EC_U+30A4_U+30E4_U+30FC 1
370
     0
100
AcDbSpline
210
0.0
220
0.0
230
1.0
 70
    11
 71
     3
 72
    17
 73
    13
 74
     0
 42
0.0000000001
 43
0.0000000001
 12
1.0
 22
0.0
 32
0.0
 13
1.0
 23
0.0
 33
0.0
 40
0.0
 40
0.0
 40
0.0
 40
0.0
 40
1.0
 40
1.0
 40
1.0
 40
2.0
 40
2.0
 40
2.0
 40
3.0
 40
3.0
 40
3.0
 40
4.0
 40
4.0
 40
4.0
 40
4.0
 10
88.61061195701402
 20
-140.32011715242
 30
0.0
 10
88.34378931168142
 20
-140.32011715242
 30
0.0
 10
88.29400768191955
 20
-140.603648510856
 30
0.0
 10
88.29400768191955
 20
-140.9485025689295
 30
0.0
 10
88.29400768191955
 20
-141.2678629204122
 30
0.0
 10
88.3324204965801
 20
-141.5765434758906
 30
0.0
 10
88.61061195701402
 20
-141.5765434758906
 30
0.0
 10
88.87502303550694
 20
-141.5765434758906
 30
0.0
 10
88.92704397733422
 20
-141.2954236842942
 30
0.0
 10
88.92704397733422
 20
-140.9485025689295
 30
0.0
 10
88.92704397733422
 20
-140.6287977078984
 30
0.0
 10
88.88639185060826
 20
-140.32011715242
 30
0.0
 10
88.61061195701402
 20
-140.32011715242
 30
0.0
  0
HATCH
  5
BE
330
B6
100
AcDbEntity
  8
_U+30EC_U+30A4_U+30E4_U+30FC 1
 62
   179
420
  2234388
100
AcDbHatch
 10
0.0
 20
0.0
 30
0.0
210
0.0
220
0.0
230
1.0
  2
SOLID
 70
     1
 71
     0
 91
        2
 92
        1
 93
        1
 72
     4
 94
        3
 73
     0
 74
     1
 95
       29
 96
       25
 40
0.0
 40
0.0
 40
0.0
 40
0.0
 40
1.0
 40
1.0
 40
1.0
 40
2.0
 40
2.0
 40
2.0
 40
3.0
 40
3.0
 40
3.0
 40
4.0
 40
4.0
 40
4.0
 40
5.0
 40
5.0
 40
5.0
 40
6.0
 40
6.0
 40
6.0
 40
7.0
 40
7.0
 40
7.0
 40
8.0
 40
8.0
 40
8.0
 40
8.0
 10
89.03556448511958
 20
-141.5427815401351
 10
88.92032604113798
 20
-141.7522433456383
 10
88.73497990403153
 20
-141.7711913708072
 10
88.61061195701402
 20
-141.7711913708072
 10
88.43870169230006
 20
-141.7711913708072
 10
88.28728974572331
 20
-141.7246825817563
 10
88.18548717413418
 20
-141.5427815401351
 10
88.07472735428341
 20
-141.3481336452185
 10
88.05440129092044
 20
-141.1111110758333
 10
88.05440129092044
 20
-140.9485025689295
 10
88.05440129092044
 20
-140.8044975776461
 10
88.072488042218
 20
-140.5526610976743
 10
88.18548717413418
 20
-140.3538790881754
 10
88.30089787289006
 20
-140.1509629640942
 10
88.47263588282976
 20
-140.1275363147945
 10
88.61061195701402
 20
-140.1275363147945
 10
88.7801106548883
 20
-140.1275363147945
 10
88.93393416830472
 20
-140.1719780465542
 10
89.03556448511958
 20
-140.3538790881754
 10
89.14184568083954
 20
-140.5464599258009
 10
89.1668226231076
 20
-140.774869756473
 10
89.1668226231076
 20
-140.9485025689295
 10
89.1668226231076
 20
-141.1197238145465
 10
89.14408499290495
 20
-141.3502007025097
 10
89.03556448511958
 20
-141.5427815401351
 97
        0
 97
        0
 92
        1
 93
        1
 72
     4
 94
        3
 73
     0
 74
     1
 95
       17
 96
       13
 40
0.0
 40
0.0
 40
0.0
 40
0.0
 40
1.0
 40
1.0
 40
1.0
 40
2.0
 40
2.0
 40
2.0
 40
3.0
 40
3.0
 40
3.0
 40
4.0
 40
4.0
 40
4.0
 40
4.0
 10
88.61061195701402
 20
-140.32011715242
 10
88.34378931168142
 20
-140.32011715242
 10
88.29400768191955
 20
-140.603648510856
 10
88.29400768191955
 20
-140.9485025689295
 10
88.29400768191955
 20
-141.2678629204122
 10
88.3324204965801
 20
-141.5765434758906
 10
88.61061195701402
 20
-141.5765434758906
 10
88.87502303550694
 20
-141.5765434758906
 10
88.92704397733422
 20
-141.2954236842942
 10
88.92704397733422
 20
-140.9485025689295
 10
88.92704397733422
 20
-140.6287977078984
 10
88.88639185060826
 20
-140.32011715242
 10
88.61061195701402
 20
-140.32011715242
 97
        0
 97
        0
 75
     2
 76
     1
 98
        0
  0
ENDBLK
  5
B9
330
B6
100
AcDbEntity
  8
0
100
AcDbBlockEnd
  0
BLOCK
  5
CD
330
CB
100
AcDbEntity
  8
0
100
AcDbBlockBegin
  2
block 5
 70
     0
 10
0.0
 20
0.0
 30
0.0
  3
block 5
  1

  0
SPLINE
  5
CF
330
CB
100
AcDbEntity
  8
_U+30EC_U+30A4_U+30E4_U+30FC 1
370
     0
100
AcDbSpline
210
0.0
220
0.0
230
1.0
 70
    11
 71
     3
 72
    44
 73
    40
 74
     0
 42
0.0000000001
 43
0.0000000001
 12
1.0
 22
0.0
 32
0.0
 13
1.0
 23
0.0
 33
0.0
 40
0.0
 40
0.0
 40
0.0
 40
0.0
 40
1.0
 40
1.0
 40
1.0
 40
2.0
 40
2.0
 40
2.0
 40
3.0
 40
3.0
 40
3.0
 40
4.0
 40
4.0
 40
4.0
 40
5.0
 40
5.0
 40
5.0
 40
6.0
 40
6.0
 40
6.0
 40
7.0
 40
7.0
 40
7.0
 40
8.0
 40
8.0
 40
8.0
 40
9.0
 40
9.0
 40
9.0
 40
10.0
 40
10.0
 40
10.0
 40
11.0
 40
11.0
 40
11.0
 40
12.0
 40
12.0
 40
12.0
 40
13.0
 40
13.0
 40
13.0
 40
13.0
 10
93.95188799734537
 20
-116.3386352248216
 30
0.0
 10
93.71899954254248
 20
-116.4972818719174
 30
0.0
 10
93.61943628301876
 20
-116.5713514248502
 30
0.0
 10
93.56741534119148
 20
-116.7151841613594
 30
0.0
 10
93.56741534119148
 20
-116.7151841613594
 30
0.0
 10
94.39975041042784
 20
-116.7151841613594
 30
0.0
 10
94.39975041042784
 20
-116.7151841613594
 30
0.0
 10
94.39975041042784
 20
-116.7151841613594
 30
0.0
 10
94.39975041042784
 20
-116.920339597506
 30
0.0
 10
94.39975041042784
 20
-116.920339597506
 30
0.0
 10
94.39975041042784
 20
-116.920339597506
 30
0.0
 10
93.30076495063315
 20
-116.920339597506
 30
0.0
 10
93.30076495063315
 20
-116.920339597506
 30
0.0
 10
93.33487139593711
 20
-116.5627386861371
 30
0.0
 10
93.4048068342877
 20
-116.4845350186219
 30
0.0
 10
93.81615123522653
 20
-116.1861897495993
 30
0.0
 10
94.08969181675536
 20
-115.9874077401004
 30
0.0
 10
94.15997176465446
 20
-115.9197116138152
 30
0.0
 10
94.15997176465446
 20
-115.7822523039538
 30
0.0
 10
94.15997176465446
 20
-115.6637410192612
 30
0.0
 10
94.08314613533338
 20
-115.5326551360474
 30
0.0
 10
93.87265080118462
 20
-115.5326551360474
 30
0.0
 10
93.59463159552496
 20
-115.5326551360474
 30
0.0
 10
93.5856743472633
 20
-115.7631320240106
 30
0.0
 10
93.58119572313248
 20
-115.8795762514121
 30
0.0
 10
93.58119572313248
 20
-115.8795762514121
 30
0.0
 10
93.3414170773591
 20
-115.8795762514121
 30
0.0
 10
93.3414170773591
 20
-115.8795762514121
 30
0.0
 10
93.35037432562075
 20
-115.7526244827806
 30
0.0
 10
93.36174314072207
 20
-115.6404866247357
 30
0.0
 10
93.44787052785331
 20
-115.5219753400431
 30
0.0
 10
93.56534828390033
 20
-115.3612616356562
 30
0.0
 10
93.76413029339925
 20
-115.3273274451265
 30
0.0
 10
93.88849824041677
 20
-115.3273274451265
 30
0.0
 10
94.18477645214826
 20
-115.3273274451265
 30
0.0
 10
94.40629609184982
 20
-115.5114677988131
 30
0.0
 10
94.40629609184982
 20
-115.7843193612449
 30
0.0
 10
94.40629609184982
 20
-116.012729191917
 30
0.0
 10
94.2819281448323
 20
-116.1122924514407
 30
0.0
 10
93.95188799734537
 20
-116.3386352248216
 30
0.0
  0
HATCH
  5
D0
330
CB
100
AcDbEntity
  8
_U+30EC_U+30A4_U+30E4_U+30FC 1
 62
   179
420
  2234388
100
AcDbHatch
 10
0.0
 20
0.0
 30
0.0
210
0.0
220
0.0
230
1.0
  2
SOLID
 70
     1
 71
     0
 91
        1
 92
        1
 93
        1
 72
     4
 94
        3
 73
     0
 74
     1
 95
       44
 96
       40
 40
0.0
 40
0.0
 40
0.0
 40
0.0
 40
1.0
 40
1.0
 40
1.0
 40
2.0
 40
2.0
 40
2.0
 40
3.0
 40
3.0
 40
3.0
 40
4.0
 40
4.0
 40
4.0
 40
5.0
 40
5.0
 40
5.0
 40
6.0
 40
6.0
 40
6.0
 40
7.0
 40
7.0
 40
7.0
 40
8.0
 40
8.0
 40
8.0
 40
9.0
 40
9.0
 40
9.0
 40
10.0
 40
10.0
 40
10.0
 40
11.0
 40
11.0
 40
11.0
 40
12.0
 40
12.0
 40
12.0
 40
13.0
 40
13.0
 40
13.0
 40
13.0
 10
93.95188799734537
 20
-116.3386352248216
 10
93.71899954254248
 20
-116.4972818719174
 10
93.61943628301876
 20
-116.5713514248502
 10
93.56741534119148
 20
-116.7151841613594
 10
93.56741534119148
 20
-116.7151841613594
 10
94.39975041042784
 20
-116.7151841613594
 10
94.39975041042784
 20
-116.7151841613594
 10
94.39975041042784
 20
-116.7151841613594
 10
94.39975041042784
 20
-116.920339597506
 10
94.39975041042784
 20
-116.920339597506
 10
94.39975041042784
 20
-116.920339597506
 10
93.30076495063315
 20
-116.920339597506
 10
93.30076495063315
 20
-116.920339597506
 10
93.33487139593711
 20
-116.5627386861371
 10
93.4048068342877
 20
-116.4845350186219
 10
93.81615123522653
 20
-116.1861897495993
 10
94.08969181675536
 20
-115.9874077401004
 10
94.15997176465446
 20
-115.9197116138152
 10
94.15997176465446
 20
-115.7822523039538
 10
94.15997176465446
 20
-115.6637410192612
 10
94.08314613533338
 20
-115.5326551360474
 10
93.87265080118462
 20
-115.5326551360474
 10
93.59463159552496
 20
-115.5326551360474
 10
93.5856743472633
 20
-115.7631320240106
 10
93.58119572313248
 20
-115.8795762514121
 10
93.58119572313248
 20
-115.8795762514121
 10
93.3414170773591
 20
-115.8795762514121
 10
93.3414170773591
 20
-115.8795762514121
 10
93.35037432562075
 20
-115.7526244827806
 10
93.36174314072207
 20
-115.6404866247357
 10
93.44787052785331
 20
-115.5219753400431
 10
93.56534828390033
 20
-115.3612616356562
 10
93.76413029339925
 20
-115.3273274451265
 10
93.88849824041677
 20
-115.3273274451265
 10
94.18477645214826
 20
-115.3273274451265
 10
94.40629609184982
 20
-115.5114677988131
 10
94.40629609184982
 20
-115.7843193612449
 10
94.40629609184982
 20
-116.012729191917
 10
94.2819281448323
 20
-116.1122924514407
 10
93.95188799734537
 20
-116.3386352248216
 97
        0
 97
        0
 75
     2
 76
     1
 98
        0
  0
SPLINE
  5
D1
330
CB
100
AcDbEntity
  8
_U+30EC_U+30A4_U+30E4_U+30FC 1
370
     0
100
AcDbSpline
210
0.0
220
0.0
230
1.0
 70
    11
 71
     3
 72
    62
 73
    58
 74
     0
 42
0.0000000001
 43
0.0000000001
 12
1.0
 22
0.0
 32
0.0
 13
1.0
 23
0.0
 33
0.0
 40
0.0
 40
0.0
 40
0.0
 40
0.0
 40
1.0
 40
1.0
 40
1.0
 40
2.0
 40
2.0
 40
2.0
 40
3.0
 40
3.0
 40
3.0
 40
4.0
 40
4.0
 40
4.0
 40
5.0
 40
5.0
 40
5.0
 40
6.0
 40
6.0
 40
6.0
 40
7.0
 40
7.0
 40
7.0
 40
8.0
 40
8.0
 40
8.0
 40
9.0
 40
9.0
 40
9.0
 40
10.0
 40
10.0
 40
10.0
 40
11.0
 40
11.0
 40
11.0
 40
12.0
 40
12.0
 40
12.0
 40
13.0
 40
13.0
 40
13.0
 40
14.0
 40
14.0
 40
14.0
 40
15.0
 40
15.0
 40
15.0
 40
16.0
 40
16.0
 40
16.0
 40
17.0
 40
17.0
 40
17.0
 40
18.0
 40
18.0
 40
18.0
 40
19.0
 40
19.0
 40
19.0
 40
19.0
 10
95.1011718512247
 20
-116.9711547559135
 30
0.0
 10
94.99954153440984
 20
-116.9711547559135
 30
0.0
 10
94.76665307960695
 20
-116.9499674186792
 30
0.0
 10
94.63332788432778
 20
-116.7637600077014
 30
0.0
 10
94.55409068816704
 20
-116.6516221496565
 30
0.0
 10
94.54961206403621
 20
-116.5522311449071
 30
0.0
 10
94.54513343990538
 20
-116.4676540507442
 30
0.0
 10
94.54513343990538
 20
-116.4676540507442
 30
0.0
 10
94.78008895199943
 20
-116.4676540507442
 30
0.0
 10
94.78008895199943
 20
-116.4676540507442
 30
0.0
 10
94.7825005188391
 20
-116.5417236036771
 30
0.0
 10
94.79386933394042
 20
-116.7765068609968
 30
0.0
 10
95.09669322709388
 20
-116.7765068609968
 30
0.0
 10
95.24379880431405
 20
-116.7765068609968
 30
0.0
 10
95.40640731121785
 20
-116.7067436774205
 30
0.0
 10
95.40640731121785
 20
-116.4781615919742
 30
0.0
 10
95.40640731121785
 20
-116.361889619347
 30
0.0
 10
95.3657551844919
 20
-116.3131415182308
 30
0.0
 10
95.33199324873645
 20
-116.2814466397664
 30
0.0
 10
95.2527560525757
 20
-116.2073770868336
 30
0.0
 10
95.12838810555819
 20
-116.1948024883124
 30
0.0
 10
95.06947697276041
 20
-116.1948024883124
 30
0.0
 10
95.04915090939744
 20
-116.1948024883124
 30
0.0
 10
95.01091034951116
 20
-116.1968695456036
 30
0.0
 10
94.98128252833801
 20
-116.2010036601859
 30
0.0
 10
94.98128252833801
 20
-116.2010036601859
 30
0.0
 10
94.98128252833801
 20
-116.0063557652692
 30
0.0
 10
94.98128252833801
 20
-116.0063557652692
 30
0.0
 10
95.02193465506396
 20
-116.012729191917
 30
0.0
 10
95.06740991546927
 20
-116.0149685039824
 30
0.0
 10
95.07395559689124
 20
-116.0149685039824
 30
0.0
 10
95.14423554479033
 20
-116.0149685039824
 30
0.0
 10
95.35679793623025
 20
-115.9937811667481
 30
0.0
 10
95.35679793623025
 20
-115.7567585973629
 30
0.0
 10
95.35679793623025
 20
-115.5791639250983
 30
0.0
 10
95.21658254998059
 20
-115.5240423973343
 30
0.0
 10
95.09910479393356
 20
-115.5240423973343
 30
0.0
 10
94.81626245459455
 20
-115.5240423973343
 30
0.0
 10
94.8073052063329
 20
-115.7567585973629
 30
0.0
 10
94.80282658220207
 20
-115.8287610930046
 30
0.0
 10
94.80282658220207
 20
-115.8287610930046
 30
0.0
 10
94.58578556663133
 20
-115.8287610930046
 30
0.0
 10
94.58578556663133
 20
-115.8287610930046
 30
0.0
 10
94.59474281489298
 20
-115.7038763816643
 30
0.0
 10
94.6240261265176
 20
-115.3273274451265
 30
0.0
 10
95.11254066632604
 20
-115.3273274451265
 30
0.0
 10
95.35231931209943
 20
-115.3273274451265
 30
0.0
 10
95.61001245439611
 20
-115.454279213758
 30
0.0
 10
95.61001245439611
 20
-115.7503851707152
 30
0.0
 10
95.61001245439611
 20
-115.9365925816929
 30
0.0
 10
95.50803762803271
 20
-116.0191026185647
 30
0.0
 10
95.40192868708702
 20
-116.0804253182021
 30
0.0
 10
95.46738550130677
 20
-116.1079860820841
 30
0.0
 10
95.66203339622338
 20
-116.1884290616647
 30
0.0
 10
95.66203339622338
 20
-116.4655869934531
 30
0.0
 10
95.66203339622338
 20
-116.8040676248789
 30
0.0
 10
95.3974500629562
 20
-116.9711547559135
 30
0.0
 10
95.1011718512247
 20
-116.9711547559135
 30
0.0
  0
HATCH
  5
D2
330
CB
100
AcDbEntity
  8
_U+30EC_U+30A4_U+30E4_U+30FC 1
 62
   179
420
  2234388
100
AcDbHatch
 10
0.0
 20
0.0
 30
0.0
210
0.0
220
0.0
230
1.0
  2
SOLID
 70
     1
 71
     0
 91
        1
 92
        1
 93
        1
 72
     4
 94
        3
 73
     0
 74
     1
 95
       62
 96
       58
 40
0.0
 40
0.0
 40
0.0
 40
0.0
 40
1.0
 40
1.0
 40
1.0
 40
2.0
 40
2.0
 40
2.0
 40
3.0
 40
3.0
 40
3.0
 40
4.0
 40
4.0
 40
4.0
 40
5.0
 40
5.0
 40
5.0
 40
6.0
 40
6.0
 40
6.0
 40
7.0
 40
7.0
 40
7.0
 40
8.0
 40
8.0
 40
8.0
 40
9.0
 40
9.0
 40
9.0
 40
10.0
 40
10.0
 40
10.0
 40
11.0
 40
11.0
 40
11.0
 40
12.0
 40
12.0
 40
12.0
 40
13.0
 40
13.0
 40
13.0
 40
14.0
 40
14.0
 40
14.0
 40
15.0
 40
15.0
 40
15.0
 40
16.0
 40
16.0
 40
16.0
 40
17.0
 40
17.0
 40
17.0
 40
18.0
 40
18.0
 40
18.0
 40
19.0
 40
19.0
 40
19.0
 40
19.0
 10
95.1011718512247
 20
-116.9711547559135
 10
94.99954153440984
 20
-116.9711547559135
 10
94.76665307960695
 20
-116.9499674186792
 10
94.63332788432778
 20
-116.7637600077014
 10
94.55409068816704
 20
-116.6516221496565
 10
94.54961206403621
 20
-116.5522311449071
 10
94.54513343990538
 20
-116.4676540507442
 10
94.54513343990538
 20
-116.4676540507442
 10
94.78008895199943
 20
-116.4676540507442
 10
94.78008895199943
 20
-116.4676540507442
 10
94.7825005188391
 20
-116.5417236036771
 10
94.79386933394042
 20
-116.7765068609968
 10
95.09669322709388
 20
-116.7765068609968
 10
95.24379880431405
 20
-116.7765068609968
 10
95.40640731121785
 20
-116.7067436774205
 10
95.40640731121785
 20
-116.4781615919742
 10
95.40640731121785
 20
-116.361889619347
 10
95.3657551844919
 20
-116.3131415182308
 10
95.33199324873645
 20
-116.2814466397664
 10
95.2527560525757
 20
-116.2073770868336
 10
95.12838810555819
 20
-116.1948024883124
 10
95.06947697276041
 20
-116.1948024883124
 10
95.04915090939744
 20
-116.1948024883124
 10
95.01091034951116
 20
-116.1968695456036
 10
94.98128252833801
 20
-116.2010036601859
 10
94.98128252833801
 20
-116.2010036601859
 10
94.98128252833801
 20
-116.0063557652692
 10
94.98128252833801
 20
-116.0063557652692
 10
95.02193465506396
 20
-116.012729191917
 10
95.06740991546927
 20
-116.0149685039824
 10
95.07395559689124
 20
-116.0149685039824
 10
95.14423554479033
 20
-116.0149685039824
 10
95.35679793623025
 20
-115.9937811667481
 10
95.35679793623025
 20
-115.7567585973629
 10
95.35679793623025
 20
-115.5791639250983
 10
95.21658254998059
 20
-115.5240423973343
 10
95.09910479393356
 20
-115.5240423973343
 10
94.81626245459455
 20
-115.5240423973343
 10
94.8073052063329
 20
-115.7567585973629
 10
94.80282658220207
 20
-115.8287610930046
 10
94.80282658220207
 20
-115.8287610930046
 10
94.58578556663133
 20
-115.8287610930046
 10
94.58578556663133
 20
-115.8287610930046
 10
94.59474281489298
 20
-115.7038763816643
 10
94.6240261265176
 20
-115.3273274451265
 10
95.11254066632604
 20
-115.3273274451265
 10
95.35231931209943
 20
-115.3273274451265
 10
95.61001245439611
 20
-115.454279213758
 10
95.61001245439611
 20
-115.7503851707152
 10
95.61001245439611
 20
-115.9365925816929
 10
95.50803762803271
 20
-116.0191026185647
 10
95.40192868708702
 20
-116.0804253182021
 10
95.46738550130677
 20
-116.1079860820841
 10
95.66203339622338
 20
-116.1884290616647
 10
95.66203339622338
 20
-116.4655869934531
 10
95.66203339622338
 20
-116.8040676248789
 10
95.3974500629562
 20
-116.9711547559135
 10
95.1011718512247
 20
-116.9711547559135
 97
        0
 97
        0
 75
     2
 76
     1
 98
        0
  0
ENDBLK
  5
CE
330
CB
100
AcDbEntity
  8
0
100
AcDbBlockEnd
  0
BLOCK
  5
DD
330
DB
100
AcDbEntity
  8
0
100
AcDbBlockBegin
  2
block 6
 70
     0
 10
0.0
 20
0.0
 30
0.0
  3
block 6
  1

  0
SPLINE
  5
DF
330
DB
100
AcDbEntity
  8
_U+30EC_U+30A4_U+30E4_U+30FC 1
370
     0
100
AcDbSpline
210
0.0
220
0.0
230
1.0
 70
    11
 71
     3
 72
    26
 73
    22
 74
     0
 42
0.0000000001
 43
0.0000000001
 12
1.0
 22
0.0
 32
0.0
 13
1.0
 23
0.0
 33
0.0
 40
0.0
 40
0.0
 40
0.0
 40
0.0
 40
1.0
 40
1.0
 40
1.0
 40
2.0
 40
2.0
 40
2.0
 40
3.0
 40
3.0
 40
3.0
 40
4.0
 40
4.0
 40
4.0
 40
5.0
 40
5.0
 40
5.0
 40
6.0
 40
6.0
 40
6.0
 40
7.0
 40
7.0
 40
7.0
 40
7.0
 10
108.6307508408979
 20
-130.2525146158744
 30
0.0
 10
108.6307508408979
 20
-130.2525146158744
 30
0.0
 10
107.5265977378753
 20
-130.2525146158744
 30
0.0
 10
107.5265977378753
 20
-130.2525146158744
 30
0.0
 10
107.5265977378753
 20
-130.2525146158744
 30
0.0
 10
107.5265977378753
 20
-130.6049478840154
 30
0.0
 10
107.5265977378753
 20
-130.6049478840154
 30
0.0
 10
107.5265977378753
 20
-130.6049478840154
 30
0.0
 10
107.3784586320096
 20
-130.6049478840154
 30
0.0
 10
107.3784586320096
 20
-130.6049478840154
 30
0.0
 10
107.363644721423
 20
-130.2501030490347
 30
0.0
 10
107.2006917049707
 20
-130.2004936740471
 30
0.0
 10
107.0863145348604
 20
-130.1687987955828
 30
0.0
 10
107.0863145348604
 20
-130.1687987955828
 30
0.0
 10
107.0863145348604
 20
-130.012735970101
 30
0.0
 10
107.0863145348604
 20
-130.012735970101
 30
0.0
 10
107.0863145348604
 20
-130.012735970101
 30
0.0
 10
108.6307508408979
 20
-130.012735970101
 30
0.0
 10
108.6307508408979
 20
-130.012735970101
 30
0.0
 10
108.6307508408979
 20
-130.012735970101
 30
0.0
 10
108.6307508408979
 20
-130.2525146158744
 30
0.0
 10
108.6307508408979
 20
-130.2525146158744
 30
0.0
  0
HATCH
  5
E0
330
DB
100
AcDbEntity
  8
_U+30EC_U+30A4_U+30E4_U+30FC 1
 62
   179
420
  2234388
100
AcDbHatch
 10
0.0
 20
0.0
 30
0.0
210
0.0
220
0.0
230
1.0
  2
SOLID
 70
     1
 71
     0
 91
        1
 92
        1
 93
        1
 72
     4
 94
        3
 73
     0
 74
     1
 95
       26
 96
       22
 40
0.0
 40
0.0
 40
0.0
 40
0.0
 40
1.0
 40
1.0
 40
1.0
 40
2.0
 40
2.0
 40
2.0
 40
3.0
 40
3.0
 40
3.0
 40
4.0
 40
4.0
 40
4.0
 40
5.0
 40
5.0
 40
5.0
 40
6.0
 40
6.0
 40
6.0
 40
7.0
 40
7.0
 40
7.0
 40
7.0
 10
108.6307508408979
 20
-130.2525146158744
 10
108.6307508408979
 20
-130.2525146158744
 10
107.5265977378753
 20
-130.2525146158744
 10
107.5265977378753
 20
-130.2525146158744
 10
107.5265977378753
 20
-130.2525146158744
 10
107.5265977378753
 20
-130.6049478840154
 10
107.5265977378753
 20
-130.6049478840154
 10
107.5265977378753
 20
-130.6049478840154
 10
107.3784586320096
 20
-130.6049478840154
 10
107.3784586320096
 20
-130.6049478840154
 10
107.363644721423
 20
-130.2501030490347
 10
107.2006917049707
 20
-130.2004936740471
 10
107.0863145348604
 20
-130.1687987955828
 10
107.0863145348604
 20
-130.1687987955828
 10
107.0863145348604
 20
-130.012735970101
 10
107.0863145348604
 20
-130.012735970101
 10
107.0863145348604
 20
-130.012735970101
 10
108.6307508408979
 20
-130.012735970101
 10
108.6307508408979
 20
-130.012735970101
 10
108.6307508408979
 20
-130.012735970101
 10
108.6307508408979
 20
-130.2525146158744
 10
108.6307508408979
 20
-130.2525146158744
 97
        0
 97
        0
 75
     2
 76
     1
 98
        0
  0
SPLINE
  5
E1
330
DB
100
AcDbEntity
  8
_U+30EC_U+30A4_U+30E4_U+30FC 1
370
     0
100
AcDbSpline
210
0.0
220
0.0
230
1.0
 70
    11
 71
     3
 72
    62
 73
    58
 74
     0
 42
0.0000000001
 43
0.0000000001
 12
1.0
 22
0.0
 32
0.0
 13
1.0
 23
0.0
 33
0.0
 40
0.0
 40
0.0
 40
0.0
 40
0.0
 40
1.0
 40
1.0
 40
1.0
 40
2.0
 40
2.0
 40
2.0
 40
3.0
 40
3.0
 40
3.0
 40
4.0
 40
4.0
 40
4.0
 40
5.0
 40
5.0
 40
5.0
 40
6.0
 40
6.0
 40
6.0
 40
7.0
 40
7.0
 40
7.0
 40
8.0
 40
8.0
 40
8.0
 40
9.0
 40
9.0
 40
9.0
 40
10.0
 40
10.0
 40
10.0
 40
11.0
 40
11.0
 40
11.0
 40
12.0
 40
12.0
 40
12.0
 40
13.0
 40
13.0
 40
13.0
 40
14.0
 40
14.0
 40
14.0
 40
15.0
 40
15.0
 40
15.0
 40
16.0
 40
16.0
 40
16.0
 40
17.0
 40
17.0
 40
17.0
 40
18.0
 40
18.0
 40
18.0
 40
19.0
 40
19.0
 40
19.0
 40
19.0
 10
108.6813937445311
 20
-128.951646560644
 30
0.0
 10
108.6813937445311
 20
-129.0532768774589
 30
0.0
 10
108.660378662071
 20
-129.2861653322618
 30
0.0
 10
108.4743435058675
 20
-129.419490527541
 30
0.0
 10
108.3620333930484
 20
-129.4987277237017
 30
0.0
 10
108.2628146430732
 20
-129.5032063478325
 30
0.0
 10
108.178065294136
 20
-129.5076849719634
 30
0.0
 10
108.178065294136
 20
-129.5076849719634
 30
0.0
 10
108.178065294136
 20
-129.2727294598693
 30
0.0
 10
108.178065294136
 20
-129.2727294598693
 30
0.0
 10
108.2521348470689
 20
-129.2703178930296
 30
0.0
 10
108.4867458496144
 20
-129.2589490779283
 30
0.0
 10
108.4867458496144
 20
-128.9561251847749
 30
0.0
 10
108.4867458496144
 20
-128.8090196075547
 30
0.0
 10
108.4171549208124
 20
-128.6464111006509
 30
0.0
 10
108.1887450901403
 20
-128.6464111006509
 30
0.0
 10
108.0723008627389
 20
-128.6464111006509
 30
0.0
 10
108.0237250163969
 20
-128.6870632273769
 30
0.0
 10
107.9920301379326
 20
-128.7211696726808
 30
0.0
 10
107.9179605849997
 20
-128.800062359293
 30
0.0
 10
107.9052137317043
 20
-128.9244303063106
 30
0.0
 10
107.9052137317043
 20
-128.9833414391083
 30
0.0
 10
107.9052137317043
 20
-129.0036675024713
 30
0.0
 10
107.9072807889954
 20
-129.0419080623576
 30
0.0
 10
107.9114149035777
 20
-129.0715358835307
 30
0.0
 10
107.9114149035777
 20
-129.0715358835307
 30
0.0
 10
107.7167670086611
 20
-129.0715358835307
 30
0.0
 10
107.7167670086611
 20
-129.0715358835307
 30
0.0
 10
107.7233126900831
 20
-129.0308837568048
 30
0.0
 10
107.7253797473742
 20
-128.9854084963995
 30
0.0
 10
107.7253797473742
 20
-128.9788628149775
 30
0.0
 10
107.7253797473742
 20
-128.9085828670784
 30
0.0
 10
107.7040201553657
 20
-128.6960204756385
 30
0.0
 10
107.467342095529
 20
-128.6960204756385
 30
0.0
 10
107.2895751684901
 20
-128.6960204756385
 30
0.0
 10
107.2344536407261
 20
-128.8362358618882
 30
0.0
 10
107.2344536407261
 20
-128.9537136179352
 30
0.0
 10
107.2344536407261
 20
-129.2365559572742
 30
0.0
 10
107.467342095529
 20
-129.2455132055358
 30
0.0
 10
107.5390000816222
 20
-129.2499918296667
 30
0.0
 10
107.5390000816222
 20
-129.2499918296667
 30
0.0
 10
107.5390000816222
 20
-129.4670328452374
 30
0.0
 10
107.5390000816222
 20
-129.4670328452374
 30
0.0
 10
107.4142876250562
 20
-129.4580755969758
 30
0.0
 10
107.0377386885183
 20
-129.4287922853511
 30
0.0
 10
107.0377386885183
 20
-128.9402777455427
 30
0.0
 10
107.0377386885183
 20
-128.7004990997693
 30
0.0
 10
107.1648627119241
 20
-128.4428059574726
 30
0.0
 10
107.460796414107
 20
-128.4428059574726
 30
0.0
 10
107.6471760798591
 20
-128.4428059574726
 30
0.0
 10
107.7295138619565
 20
-128.544780783836
 30
0.0
 10
107.790836561594
 20
-128.6508897247817
 30
0.0
 10
107.818397325476
 20
-128.585432910562
 30
0.0
 10
107.8986680502823
 20
-128.3907850156454
 30
0.0
 10
108.1759982368449
 20
-128.3907850156454
 30
0.0
 10
108.5143066134964
 20
-128.3907850156454
 30
0.0
 10
108.6813937445311
 20
-128.6553683489126
 30
0.0
 10
108.6813937445311
 20
-128.951646560644
 30
0.0
  0
HATCH
  5
E2
330
DB
100
AcDbEntity
  8
_U+30EC_U+30A4_U+30E4_U+30FC 1
 62
   179
420
  2234388
100
AcDbHatch
 10
0.0
 20
0.0
 30
0.0
210
0.0
220
0.0
230
1.0
  2
SOLID
 70
     1
 71
     0
 91
        1
 92
        1
 93
        1
 72
     4
 94
        3
 73
     0
 74
     1
 95
       62
 96
       58
 40
0.0
 40
0.0
 40
0.0
 40
0.0
 40
1.0
 40
1.0
 40
1.0
 40
2.0
 40
2.0
 40
2.0
 40
3.0
 40
3.0
 40
3.0
 40
4.0
 40
4.0
 40
4.0
 40
5.0
 40
5.0
 40
5.0
 40
6.0
 40
6.0
 40
6.0
 40
7.0
 40
7.0
 40
7.0
 40
8.0
 40
8.0
 40
8.0
 40
9.0
 40
9.0
 40
9.0
 40
10.0
 40
10.0
 40
10.0
 40
11.0
 40
11.0
 40
11.0
 40
12.0
 40
12.0
 40
12.0
 40
13.0
 40
13.0
 40
13.0
 40
14.0
 40
14.0
 40
14.0
 40
15.0
 40
15.0
 40
15.0
 40
16.0
 40
16.0
 40
16.0
 40
17.0
 40
17.0
 40
17.0
 40
18.0
 40
18.0
 40
18.0
 40
19.0
 40
19.0
 40
19.0
 40
19.0
 10
108.6813937445311
 20
-128.951646560644
 10
108.6813937445311
 20
-129.0532768774589
 10
108.660378662071
 20
-129.2861653322618
 10
108.4743435058675
 20
-129.419490527541
 10
108.3620333930484
 20
-129.4987277237017
 10
108.2628146430732
 20
-129.5032063478325
 10
108.178065294136
 20
-129.5076849719634
 10
108.178065294136
 20
-129.5076849719634
 10
108.178065294136
 20
-129.2727294598693
 10
108.178065294136
 20
-129.2727294598693
 10
108.2521348470689
 20
-129.2703178930296
 10
108.4867458496144
 20
-129.2589490779283
 10
108.4867458496144
 20
-128.9561251847749
 10
108.4867458496144
 20
-128.8090196075547
 10
108.4171549208124
 20
-128.6464111006509
 10
108.1887450901403
 20
-128.6464111006509
 10
108.0723008627389
 20
-128.6464111006509
 10
108.0237250163969
 20
-128.6870632273769
 10
107.9920301379326
 20
-128.7211696726808
 10
107.9179605849997
 20
-128.800062359293
 10
107.9052137317043
 20
-128.9244303063106
 10
107.9052137317043
 20
-128.9833414391083
 10
107.9052137317043
 20
-129.0036675024713
 10
107.9072807889954
 20
-129.0419080623576
 10
107.9114149035777
 20
-129.0715358835307
 10
107.9114149035777
 20
-129.0715358835307
 10
107.7167670086611
 20
-129.0715358835307
 10
107.7167670086611
 20
-129.0715358835307
 10
107.7233126900831
 20
-129.0308837568048
 10
107.7253797473742
 20
-128.9854084963995
 10
107.7253797473742
 20
-128.9788628149775
 10
107.7253797473742
 20
-128.9085828670784
 10
107.7040201553657
 20
-128.6960204756385
 10
107.467342095529
 20
-128.6960204756385
 10
107.2895751684901
 20
-128.6960204756385
 10
107.2344536407261
 20
-128.8362358618882
 10
107.2344536407261
 20
-128.9537136179352
 10
107.2344536407261
 20
-129.2365559572742
 10
107.467342095529
 20
-129.2455132055358
 10
107.5390000816222
 20
-129.2499918296667
 10
107.5390000816222
 20
-129.2499918296667
 10
107.5390000816222
 20
-129.4670328452374
 10
107.5390000816222
 20
-129.4670328452374
 10
107.4142876250562
 20
-129.4580755969758
 10
107.0377386885183
 20
-129.4287922853511
 10
107.0377386885183
 20
-128.9402777455427
 10
107.0377386885183
 20
-128.7004990997693
 10
107.1648627119241
 20
-128.4428059574726
 10
107.460796414107
 20
-128.4428059574726
 10
107.6471760798591
 20
-128.4428059574726
 10
107.7295138619565
 20
-128.544780783836
 10
107.790836561594
 20
-128.6508897247817
 10
107.818397325476
 20
-128.585432910562
 10
107.8986680502823
 20
-128.3907850156454
 10
108.1759982368449
 20
-128.3907850156454
 10
108.5143066134964
 20
-128.3907850156454
 10
108.6813937445311
 20
-128.6553683489126
 10
108.6813937445311
 20
-128.951646560644
 97
        0
 97
        0
 75
     2
 76
     1
 98
        0
  0
ENDBLK
  5
DE
330
DB
100
AcDbEntity
  8
0
100
AcDbBlockEnd
  0
BLOCK
  5
F6
330
F4
100
AcDbEntity
  8
0
100
AcDbBlockBegin
  2
block 7
 70
     0
 10
0.0
 20
0.0
 30
0.0
  3
block 7
  1

  0
SPLINE
  5
F8
330
F4
100
AcDbEntity
  8
_U+30EC_U+30A4_U+30E4_U+30FC 1
370
     0
100
AcDbSpline
210
0.0
220
0.0
230
1.0
 70
    11
 71
     3
 72
   242
 73
   238
 74
     0
 42
0.0000000001
 43
0.0000000001
 12
1.0
 22
0.0
 32
0.0
 13
1.0
 23
0.0
 33
0.0
 40
0.0
 40
0.0
 40
0.0
 40
0.0
 40
1.0
 40
1.0
 40
1.0
 40
2.0
 40
2.0
 40
2.0
 40
3.0
 40
3.0
 40
3.0
 40
4.0
 40
4.0
 40
4.0
 40
5.0
 40
5.0
 40
5.0
 40
6.0
 40
6.0
 40
6.0
 40
7.0
 40
7.0
 40
7.0
 40
8.0
 40
8.0
 40
8.0
 40
9.0
 40
9.0
 40
9.0
 40
10.0
 40
10.0
 40
10.0
 40
11.0
 40
11.0
 40
11.0
 40
12.0
 40
12.0
 40
12.0
 40
13.0
 40
13.0
 40
13.0
 40
14.0
 40
14.0
 40
14.0
 40
15.0
 40
15.0
 40
15.0
 40
16.0
 40
16.0
 40
16.0
 40
17.0
 40
17.0
 40
17.0
 40
18.0
 40
18.0
 40
18.0
 40
19.0
 40
19.0
 40
19.0
 40
20.0
 40
20.0
 40
20.0
 40
21.0
 40
21.0
 40
21.0
 40
22.0
 40
22.0
 40
22.0
 40
23.0
 40
23.0
 40
23.0
 40
24.0
 40
24.0
 40
24.0
 40
25.0
 40
25.0
 40
25.0
 40
26.0
 40
26.0
 40
26.0
 40
27.0
 40
27.0
 40
27.0
 40
28.0
 40
28.0
 40
28.0
 40
29.0
 40
29.0
 40
29.0
 40
30.0
 40
30.0
 40
30.0
 40
31.0
 40
31.0
 40
31.0
 40
32.0
 40
32.0
 40
32.0
 40
33.0
 40
33.0
 40
33.0
 40
34.0
 40
34.0
 40
34.0
 40
35.0
 40
35.0
 40
35.0
 40
36.0
 40
36.0
 40
36.0
 40
37.0
 40
37.0
 40
37.0
 40
38.0
 40
38.0
 40
38.0
 40
39.0
 40
39.0
 40
39.0
 40
40.0
 40
40.0
 40
40.0
 40
41.0
 40
41.0
 40
41.0
 40
42.0
 40
42.0
 40
42.0
 40
43.0
 40
43.0
 40
43.0
 40
44.0
 40
44.0
 40
44.0
 40
45.0
 40
45.0
 40
45.0
 40
46.0
 40
46.0
 40
46.0
 40
47.0
 40
47.0
 40
47.0
 40
48.0
 40
48.0
 40
48.0
 40
49.0
 40
49.0
 40
49.0
 40
50.0
 40
50.0
 40
50.0
 40
51.0
 40
51.0
 40
51.0
 40
52.0
 40
52.0
 40
52.0
 40
53.0
 40
53.0
 40
53.0
 40
54.0
 40
54.0
 40
54.0
 40
55.0
 40
55.0
 40
55.0
 40
56.0
 40
56.0
 40
56.0
 40
57.0
 40
57.0
 40
57.0
 40
58.0
 40
58.0
 40
58.0
 40
59.0
 40
59.0
 40
59.0
 40
60.0
 40
60.0
 40
60.0
 40
61.0
 40
61.0
 40
61.0
 40
62.0
 40
62.0
 40
62.0
 40
63.0
 40
63.0
 40
63.0
 40
64.0
 40
64.0
 40
64.0
 40
65.0
 40
65.0
 40
65.0
 40
66.0
 40
66.0
 40
66.0
 40
67.0
 40
67.0
 40
67.0
 40
68.0
 40
68.0
 40
68.0
 40
69.0
 40
69.0
 40
69.0
 40
70.0
 40
70.0
 40
70.0
 40
71.0
 40
71.0
 40
71.0
 40
72.0
 40
72.0
 40
72.0
 40
73.0
 40
73.0
 40
73.0
 40
74.0
 40
74.0
 40
74.0
 40
75.0
 40
75.0
 40
75.0
 40
76.0
 40
76.0
 40
76.0
 40
77.0
 40
77.0
 40
77.0
 40
78.0
 40
78.0
 40
78.0
 40
79.0
 40
79.0
 40
79.0
 40
79.0
 10
73.12869735584977
 20
-138.5362467101576
 30
0.0
 10
73.12869735584977
 20
-138.5362467101576
 30
0.0
 10
72.87479381858687
 20
-138.5362467101576
 30
0.0
 10
72.87479381858687
 20
-138.5362467101576
 30
0.0
 10
72.87479381858687
 20
-138.5362467101576
 30
0.0
 10
72.59780814157277
 20
-138.5362467101576
 30
0.0
 10
72.59780814157277
 20
-138.5362467101576
 30
0.0
 10
72.59780814157277
 20
-138.5362467101576
 30
0.0
 10
72.72458765542997
 20
-138.5782768750776
 30
0.0
 10
72.72458765542997
 20
-138.5782768750776
 30
0.0
 10
72.73526745143424
 20
-138.5827554992085
 30
0.0
 10
72.74801430472967
 20
-138.5889566710819
 30
0.0
 10
72.74801430472967
 20
-138.6017035243774
 30
0.0
 10
72.74801430472967
 20
-138.6230631163859
 30
0.0
 10
72.71597491671685
 20
-138.6292642882593
 30
0.0
 10
72.69495983425682
 20
-138.6333984028417
 30
0.0
 10
72.68428003825254
 20
-138.6568250521414
 30
0.0
 10
72.6546522170794
 20
-138.7222818663611
 30
0.0
 10
72.63570419191052
 20
-138.7667235981208
 30
0.0
 10
72.63570419191052
 20
-138.7667235981208
 30
0.0
 10
72.90648869705116
 20
-138.7667235981208
 30
0.0
 10
72.90648869705116
 20
-138.7667235981208
 30
0.0
 10
72.99743921786175
 20
-138.7667235981208
 30
0.0
 10
73.19415417006952
 20
-138.76224497399
 30
0.0
 10
73.33609210406182
 20
-138.7539767448254
 30
0.0
 10
73.33609210406182
 20
-138.7539767448254
 30
0.0
 10
73.33609210406182
 20
-138.9317436718643
 30
0.0
 10
73.33609210406182
 20
-138.9317436718643
 30
0.0
 10
73.25340981241581
 20
-138.927609557282
 30
0.0
 10
73.2323947299558
 20
-138.927609557282
 30
0.0
 10
73.05256074562575
 20
-138.9234754426997
 30
0.0
 10
73.02086586716145
 20
-139.0778157204389
 30
0.0
 10
72.97642413540173
 20
-139.1580864452452
 30
0.0
 10
72.93198240364201
 20
-139.2280218835958
 30
0.0
 10
73.05256074562575
 20
-139.2872775259421
 30
0.0
 10
73.15832517702292
 20
-139.354801397453
 30
0.0
 10
73.26202255112894
 20
-139.437483689099
 30
0.0
 10
73.26202255112894
 20
-139.437483689099
 30
0.0
 10
73.14351126643635
 20
-139.6042263105851
 30
0.0
 10
73.14351126643635
 20
-139.6042263105851
 30
0.0
 10
73.12008461713665
 20
-139.5856227949647
 30
0.0
 10
73.10733776384123
 20
-139.5770100562516
 30
0.0
 10
72.99537216057061
 20
-139.4922607073144
 30
0.0
 10
72.94679631422858
 20
-139.4540201474282
 30
0.0
 10
72.88754067188229
 20
-139.4181911543816
 30
0.0
 10
72.80692543752744
 20
-139.3740939321704
 30
0.0
 10
72.5953965747331
 20
-139.5601290883739
 30
0.0
 10
72.39041339336073
 20
-139.5835557376735
 30
0.0
 10
72.1003363535027
 20
-139.6131835588467
 30
0.0
 10
72.1003363535027
 20
-139.6131835588467
 30
0.0
 10
71.9969834889452
 20
-139.4333495745167
 30
0.0
 10
71.9969834889452
 20
-139.4333495745167
 30
0.0
 10
72.3142767831367
 20
-139.4288709503859
 30
0.0
 10
72.48963214333592
 20
-139.4037217533435
 30
0.0
 10
72.64190536378398
 20
-139.2934786978155
 30
0.0
 10
72.5237385886399
 20
-139.2424912846338
 30
0.0
 10
72.43485512512045
 20
-139.2152750303003
 30
0.0
 10
72.39868162252533
 20
-139.2025281770049
 30
0.0
 10
72.37973359735646
 20
-139.2300889408869
 30
0.0
 10
72.36491968676988
 20
-139.2490369660558
 30
0.0
 10
72.33735892288789
 20
-139.2831434113598
 30
0.0
 10
72.33735892288789
 20
-139.2831434113598
 30
0.0
 10
72.14064397068012
 20
-139.2004611197138
 30
0.0
 10
72.14064397068012
 20
-139.2004611197138
 30
0.0
 10
72.22332626232611
 20
-139.1198458853589
 30
0.0
 10
72.28464896196357
 20
-139.024761249966
 30
0.0
 10
72.34149303747019
 20
-138.9234754426997
 30
0.0
 10
72.1513237666844
 20
-138.927609557282
 30
0.0
 10
72.12996417467585
 20
-138.927609557282
 30
0.0
 10
72.04762639257838
 20
-138.9317436718643
 30
0.0
 10
72.04762639257838
 20
-138.9317436718643
 30
0.0
 10
72.04762639257838
 20
-138.7539767448254
 30
0.0
 10
72.04762639257838
 20
-138.7539767448254
 30
0.0
 10
72.18715275973099
 20
-138.7601779166989
 30
0.0
 10
72.39661456523419
 20
-138.7646565408297
 30
0.0
 10
72.42210827182504
 20
-138.7646565408297
 30
0.0
 10
72.43898923970275
 20
-138.7305500955257
 30
0.0
 10
72.49411076746675
 20
-138.609971753542
 30
0.0
 10
72.51305879263563
 20
-138.5362467101576
 30
0.0
 10
72.49411076746675
 20
-138.5362467101576
 30
0.0
 10
72.31634384042786
 20
-138.5424478820311
 30
0.0
 10
72.12169594551125
 20
-138.5551947353265
 30
0.0
 10
72.12169594551125
 20
-138.5551947353265
 30
0.0
 10
72.12169594551125
 20
-138.6885199306057
 30
0.0
 10
72.12169594551125
 20
-138.6885199306057
 30
0.0
 10
72.07312009916922
 20
-138.7140136371965
 30
0.0
 10
72.01386445682293
 20
-138.7457085156608
 30
0.0
 10
71.88053926154376
 20
-138.8111653298805
 30
0.0
 10
71.88053926154376
 20
-138.8111653298805
 30
0.0
 10
71.88053926154376
 20
-138.9572373784551
 30
0.0
 10
71.88053926154376
 20
-138.9572373784551
 30
0.0
 10
71.88053926154376
 20
-138.9572373784551
 30
0.0
 10
71.88053926154376
 20
-139.4247368358035
 30
0.0
 10
71.88053926154376
 20
-139.4247368358035
 30
0.0
 10
71.88053926154376
 20
-139.5515163496607
 30
0.0
 10
71.84436575894864
 20
-139.610771992007
 30
0.0
 10
71.5611789100611
 20
-139.6021592532939
 30
0.0
 10
71.5611789100611
 20
-139.6021592532939
 30
0.0
 10
71.45748153595508
 20
-139.3951090146304
 30
0.0
 10
71.45748153595508
 20
-139.3951090146304
 30
0.0
 10
71.52087129288367
 20
-139.4078558679258
 30
0.0
 10
71.5694471392257
 20
-139.4119899825081
 30
0.0
 10
71.60975475640312
 20
-139.4119899825081
 30
0.0
 10
71.68589136662715
 20
-139.4119899825081
 30
0.0
 10
71.69657116263141
 20
-139.3885633332084
 30
0.0
 10
71.69657116263141
 20
-139.3231065189887
 30
0.0
 10
71.69657116263141
 20
-139.3231065189887
 30
0.0
 10
71.69657116263141
 20
-138.8938476215265
 30
0.0
 10
71.69657116263141
 20
-138.8938476215265
 30
0.0
 10
71.59907496039885
 20
-138.9338107291555
 30
0.0
 10
71.58219399252113
 20
-138.9400119010289
 30
0.0
 10
71.53568520347025
 20
-138.9593044357463
 30
0.0
 10
71.53155108888795
 20
-138.9803195182063
 30
0.0
 10
71.52707246475713
 20
-139.0099473393795
 30
0.0
 10
71.50812443958824
 20
-139.0099473393795
 30
0.0
 10
71.49985621042364
 20
-139.0099473393795
 30
0.0
 10
71.48917641441938
 20
-139.0058132247972
 30
0.0
 10
71.48263073299741
 20
-138.982731085046
 30
0.0
 10
71.48263073299741
 20
-138.982731085046
 30
0.0
 10
71.42992077207307
 20
-138.789805737872
 30
0.0
 10
71.42992077207307
 20
-138.789805737872
 30
0.0
 10
71.57599282064767
 20
-138.7436414583696
 30
0.0
 10
71.64144963486741
 20
-138.7202148090699
 30
0.0
 10
71.69657116263141
 20
-138.6988552170614
 30
0.0
 10
71.69657116263141
 20
-138.6988552170614
 30
0.0
 10
71.69657116263141
 20
-138.286477287477
 30
0.0
 10
71.69657116263141
 20
-138.286477287477
 30
0.0
 10
71.69657116263141
 20
-138.286477287477
 30
0.0
 10
71.64351669215857
 20
-138.286477287477
 30
0.0
 10
71.64351669215857
 20
-138.286477287477
 30
0.0
 10
71.64351669215857
 20
-138.286477287477
 30
0.0
 10
71.5653130246434
 20
-138.286477287477
 30
0.0
 10
71.5653130246434
 20
-138.286477287477
 30
0.0
 10
71.49744464358398
 20
-138.286477287477
 30
0.0
 10
71.48917641441938
 20
-138.286477287477
 30
0.0
 10
71.45300291182426
 20
-138.293022968899
 30
0.0
 10
71.45300291182426
 20
-138.293022968899
 30
0.0
 10
71.45300291182426
 20
-138.0980305644338
 30
0.0
 10
71.45300291182426
 20
-138.0980305644338
 30
0.0
 10
71.48056367570625
 20
-138.1045762458558
 30
0.0
 10
71.48917641441938
 20
-138.1045762458558
 30
0.0
 10
71.55876734322142
 20
-138.1045762458558
 30
0.0
 10
71.55876734322142
 20
-138.1045762458558
 30
0.0
 10
71.69209253850059
 20
-138.1045762458558
 30
0.0
 10
71.69209253850059
 20
-138.1045762458558
 30
0.0
 10
71.69209253850059
 20
-138.0346408075052
 30
0.0
 10
71.69209253850059
 20
-137.9523030254078
 30
0.0
 10
71.69002548120945
 20
-137.9478244012769
 30
0.0
 10
71.68175725204485
 20
-137.7679904169469
 30
0.0
 10
71.68175725204485
 20
-137.7493869013265
 30
0.0
 10
71.67934568520516
 20
-137.7025336027272
 30
0.0
 10
71.67934568520516
 20
-137.7025336027272
 30
0.0
 10
71.89535317213033
 20
-137.7111463414403
 30
0.0
 10
71.89535317213033
 20
-137.7111463414403
 30
0.0
 10
71.90603296813461
 20
-137.7111463414403
 30
0.0
 10
71.92704805059464
 20
-137.7132133987314
 30
0.0
 10
71.92704805059464
 20
-137.7300943666091
 30
0.0
 10
71.92704805059464
 20
-137.7493869013265
 30
0.0
 10
71.91223414000805
 20
-137.7597221877823
 30
0.0
 10
71.8867404334172
 20
-137.7790147224997
 30
0.0
 10
71.8867404334172
 20
-137.8293131165843
 30
0.0
 10
71.88053926154376
 20
-138.0580674568049
 30
0.0
 10
71.8826063188349
 20
-138.1045762458558
 30
0.0
 10
72.01179739953177
 20
-138.1045762458558
 30
0.0
 10
72.02419974327867
 20
-138.1045762458558
 30
0.0
 10
72.12169594551125
 20
-138.0959635071427
 30
0.0
 10
72.12169594551125
 20
-138.0959635071427
 30
0.0
 10
72.12169594551125
 20
-138.2909559116078
 30
0.0
 10
72.12169594551125
 20
-138.2909559116078
 30
0.0
 10
72.08345538562497
 20
-138.2885443447682
 30
0.0
 10
72.01593151411407
 20
-138.2844102301858
 30
0.0
 10
71.88053926154376
 20
-138.286477287477
 30
0.0
 10
71.88053926154376
 20
-138.286477287477
 30
0.0
 10
71.88053926154376
 20
-138.6251301736771
 30
0.0
 10
71.88053926154376
 20
-138.6251301736771
 30
0.0
 10
71.93566078930776
 20
-138.6017035243774
 30
0.0
 10
72.0011176035275
 20
-138.5741427604954
 30
0.0
 10
72.04969344986952
 20
-138.5507161111957
 30
0.0
 10
72.04969344986952
 20
-138.5507161111957
 30
0.0
 10
72.04969344986952
 20
-138.3732936937053
 30
0.0
 10
72.04969344986952
 20
-138.3732936937053
 30
0.0
 10
72.16407061997982
 20
-138.3860405470007
 30
0.0
 10
72.28258190467241
 20
-138.3860405470007
 30
0.0
 10
72.39868162252533
 20
-138.3860405470007
 30
0.0
 10
72.37559948277416
 20
-138.2909559116078
 30
0.0
 10
72.34803871889216
 20
-138.2082736199618
 30
0.0
 10
72.28464896196357
 20
-138.0749484246826
 30
0.0
 10
72.24020723020384
 20
-138.0770154819738
 30
0.0
 10
72.15752493855784
 20
-138.0814941061046
 30
0.0
 10
72.11962888822009
 20
-138.0835611633958
 30
0.0
 10
72.11962888822009
 20
-138.0835611633958
 30
0.0
 10
72.11962888822009
 20
-137.9037271790658
 30
0.0
 10
72.11962888822009
 20
-137.9037271790658
 30
0.0
 10
72.24434134478614
 20
-137.9119954082304
 30
0.0
 10
72.41797415724274
 20
-137.9161295228126
 30
0.0
 10
72.50031193934021
 20
-137.9161295228126
 30
0.0
 10
72.50031193934021
 20
-137.9161295228126
 30
0.0
 10
72.5829942309862
 20
-137.9161295228126
 30
0.0
 10
72.5829942309862
 20
-137.9161295228126
 30
0.0
 10
72.5829942309862
 20
-137.7535210159089
 30
0.0
 10
72.5829942309862
 20
-137.7428412199046
 30
0.0
 10
72.58058266414652
 20
-137.6880642016891
 30
0.0
 10
72.58058266414652
 20
-137.6880642016891
 30
0.0
 10
72.80485838023628
 20
-137.7132133987314
 30
0.0
 10
72.80485838023628
 20
-137.7132133987314
 30
0.0
 10
72.80933700436711
 20
-137.7132133987314
 30
0.0
 10
72.83035208682713
 20
-137.7152804560226
 30
0.0
 10
72.83035208682713
 20
-137.7321614239003
 30
0.0
 10
72.83035208682713
 20
-137.7469753344869
 30
0.0
 10
72.81967229082287
 20
-137.7555880732
 30
0.0
 10
72.79211152694086
 20
-137.7704019837866
 30
0.0
 10
72.78591035506741
 20
-137.8358587980063
 30
0.0
 10
72.78384329777626
 20
-137.8568738804663
 30
0.0
 10
72.78384329777626
 20
-137.9161295228126
 30
0.0
 10
72.78384329777626
 20
-137.9161295228126
 30
0.0
 10
72.87892793316917
 20
-137.9161295228126
 30
0.0
 10
72.87892793316917
 20
-137.9161295228126
 30
0.0
 10
72.96161022481516
 20
-137.9161295228126
 30
0.0
 10
73.13489852772322
 20
-137.9119954082304
 30
0.0
 10
73.2599554938378
 20
-137.9037271790658
 30
0.0
 10
73.2599554938378
 20
-137.9037271790658
 30
0.0
 10
73.2599554938378
 20
-138.0835611633958
 30
0.0
 10
73.2599554938378
 20
-138.0835611633958
 30
0.0
 10
73.23032767266464
 20
-138.0814941061046
 30
0.0
 10
73.11181638797206
 20
-138.0770154819738
 30
0.0
 10
73.07150877079462
 20
-138.0749484246826
 30
0.0
 10
73.05669486020805
 20
-138.1255913283158
 30
0.0
 10
73.0229329244526
 20
-138.237901441135
 30
0.0
 10
72.95713160068433
 20
-138.3774278082876
 30
0.0
 10
72.99950627515291
 20
-138.3774278082876
 30
0.0
 10
73.27683646171552
 20
-138.3584797831187
 30
0.0
 10
73.33815916135296
 20
-138.3564127258276
 30
0.0
 10
73.33815916135296
 20
-138.3564127258276
 30
0.0
 10
73.33815916135296
 20
-138.5403808247399
 30
0.0
 10
73.33815916135296
 20
-138.5403808247399
 30
0.0
 10
73.30853134017981
 20
-138.5403808247399
 30
0.0
 10
73.29165037230209
 20
-138.5362467101576
 30
0.0
 10
73.12869735584977
 20
-138.5362467101576
 30
0.0
  0
SPLINE
  5
F9
330
F4
100
AcDbEntity
  8
_U+30EC_U+30A4_U+30E4_U+30FC 1
370
     0
100
AcDbSpline
210
0.0
220
0.0
230
1.0
 70
    11
 71
     3
 72
    20
 73
    16
 74
     0
 42
0.0000000001
 43
0.0000000001
 12
1.0
 22
0.0
 32
0.0
 13
1.0
 23
0.0
 33
0.0
 40
0.0
 40
0.0
 40
0.0
 40
0.0
 40
1.0
 40
1.0
 40
1.0
 40
2.0
 40
2.0
 40
2.0
 40
3.0
 40
3.0
 40
3.0
 40
4.0
 40
4.0
 40
4.0
 40
5.0
 40
5.0
 40
5.0
 40
5.0
 10
72.50031193934021
 20
-138.0708143101004
 30
0.0
 10
72.50031193934021
 20
-138.0708143101004
 30
0.0
 10
72.4686170608759
 20
-138.0708143101004
 30
0.0
 10
72.4686170608759
 20
-138.0708143101004
 30
0.0
 10
72.51512584992678
 20
-138.1703775696241
 30
0.0
 10
72.54682072839108
 20
-138.2503037848819
 30
0.0
 10
72.58058266414652
 20
-138.3774278082876
 30
0.0
 10
72.58058266414652
 20
-138.3774278082876
 30
0.0
 10
72.78797741235856
 20
-138.3774278082876
 30
0.0
 10
72.78797741235856
 20
-138.3774278082876
 30
0.0
 10
72.81967229082287
 20
-138.2844102301858
 30
0.0
 10
72.84309894012256
 20
-138.2000053907972
 30
0.0
 10
72.86618107987374
 20
-138.0708143101004
 30
0.0
 10
72.86618107987374
 20
-138.0708143101004
 30
0.0
 10
72.50031193934021
 20
-138.0708143101004
 30
0.0
 10
72.50031193934021
 20
-138.0708143101004
 30
0.0
  0
SPLINE
  5
FA
330
F4
100
AcDbEntity
  8
_U+30EC_U+30A4_U+30E4_U+30FC 1
370
     0
100
AcDbSpline
210
0.0
220
0.0
230
1.0
 70
    11
 71
     3
 72
    17
 73
    13
 74
     0
 42
0.0000000001
 43
0.0000000001
 12
1.0
 22
0.0
 32
0.0
 13
1.0
 23
0.0
 33
0.0
 40
0.0
 40
0.0
 40
0.0
 40
0.0
 40
1.0
 40
1.0
 40
1.0
 40
2.0
 40
2.0
 40
2.0
 40
3.0
 40
3.0
 40
3.0
 40
4.0
 40
4.0
 40
4.0
 40
4.0
 10
72.5637016962688
 20
-138.9214083854085
 30
0.0
 10
72.54682072839108
 20
-138.9506916970332
 30
0.0
 10
72.49617782475791
 20
-139.0440537846834
 30
0.0
 10
72.48549802875363
 20
-139.0626573003038
 30
0.0
 10
72.67601180908794
 20
-139.1219129426501
 30
0.0
 10
72.69702689154796
 20
-139.1284586240721
 30
0.0
 10
72.76902938718969
 20
-139.156019387954
 30
0.0
 10
72.82415091495369
 20
-139.0692029817258
 30
0.0
 10
72.84723305470486
 20
-138.9951334287929
 30
0.0
 10
72.86204696529144
 20
-138.9214083854085
 30
0.0
 10
72.86204696529144
 20
-138.9214083854085
 30
0.0
 10
72.5637016962688
 20
-138.9214083854085
 30
0.0
 10
72.5637016962688
 20
-138.9214083854085
 30
0.0
  0
HATCH
  5
FB
330
F4
100
AcDbEntity
  8
_U+30EC_U+30A4_U+30E4_U+30FC 1
 62
   179
420
  2234388
100
AcDbHatch
 10
0.0
 20
0.0
 30
0.0
210
0.0
220
0.0
230
1.0
  2
SOLID
 70
     1
 71
     0
 91
        3
 92
        1
 93
        1
 72
     4
 94
        3
 73
     0
 74
     1
 95
      242
 96
      238
 40
0.0
 40
0.0
 40
0.0
 40
0.0
 40
1.0
 40
1.0
 40
1.0
 40
2.0
 40
2.0
 40
2.0
 40
3.0
 40
3.0
 40
3.0
 40
4.0
 40
4.0
 40
4.0
 40
5.0
 40
5.0
 40
5.0
 40
6.0
 40
6.0
 40
6.0
 40
7.0
 40
7.0
 40
7.0
 40
8.0
 40
8.0
 40
8.0
 40
9.0
 40
9.0
 40
9.0
 40
10.0
 40
10.0
 40
10.0
 40
11.0
 40
11.0
 40
11.0
 40
12.0
 40
12.0
 40
12.0
 40
13.0
 40
13.0
 40
13.0
 40
14.0
 40
14.0
 40
14.0
 40
15.0
 40
15.0
 40
15.0
 40
16.0
 40
16.0
 40
16.0
 40
17.0
 40
17.0
 40
17.0
 40
18.0
 40
18.0
 40
18.0
 40
19.0
 40
19.0
 40
19.0
 40
20.0
 40
20.0
 40
20.0
 40
21.0
 40
21.0
 40
21.0
 40
22.0
 40
22.0
 40
22.0
 40
23.0
 40
23.0
 40
23.0
 40
24.0
 40
24.0
 40
24.0
 40
25.0
 40
25.0
 40
25.0
 40
26.0
 40
26.0
 40
26.0
 40
27.0
 40
27.0
 40
27.0
 40
28.0
 40
28.0
 40
28.0
 40
29.0
 40
29.0
 40
29.0
 40
30.0
 40
30.0
 40
30.0
 40
31.0
 40
31.0
 40
31.0
 40
32.0
 40
32.0
 40
32.0
 40
33.0
 40
33.0
 40
33.0
 40
34.0
 40
34.0
 40
34.0
 40
35.0
 40
35.0
 40
35.0
 40
36.0
 40
36.0
 40
36.0
 40
37.0
 40
37.0
 40
37.0
 40
38.0
 40
38.0
 40
38.0
 40
39.0
 40
39.0
 40
39.0
 40
40.0
 40
40.0
 40
40.0
 40
41.0
 40
41.0
 40
41.0
 40
42.0
 40
42.0
 40
42.0
 40
43.0
 40
43.0
 40
43.0
 40
44.0
 40
44.0
 40
44.0
 40
45.0
 40
45.0
 40
45.0
 40
46.0
 40
46.0
 40
46.0
 40
47.0
 40
47.0
 40
47.0
 40
48.0
 40
48.0
 40
48.0
 40
49.0
 40
49.0
 40
49.0
 40
50.0
 40
50.0
 40
50.0
 40
51.0
 40
51.0
 40
51.0
 40
52.0
 40
52.0
 40
52.0
 40
53.0
 40
53.0
 40
53.0
 40
54.0
 40
54.0
 40
54.0
 40
55.0
 40
55.0
 40
55.0
 40
56.0
 40
56.0
 40
56.0
 40
57.0
 40
57.0
 40
57.0
 40
58.0
 40
58.0
 40
58.0
 40
59.0
 40
59.0
 40
59.0
 40
60.0
 40
60.0
 40
60.0
 40
61.0
 40
61.0
 40
61.0
 40
62.0
 40
62.0
 40
62.0
 40
63.0
 40
63.0
 40
63.0
 40
64.0
 40
64.0
 40
64.0
 40
65.0
 40
65.0
 40
65.0
 40
66.0
 40
66.0
 40
66.0
 40
67.0
 40
67.0
 40
67.0
 40
68.0
 40
68.0
 40
68.0
 40
69.0
 40
69.0
 40
69.0
 40
70.0
 40
70.0
 40
70.0
 40
71.0
 40
71.0
 40
71.0
 40
72.0
 40
72.0
 40
72.0
 40
73.0
 40
73.0
 40
73.0
 40
74.0
 40
74.0
 40
74.0
 40
75.0
 40
75.0
 40
75.0
 40
76.0
 40
76.0
 40
76.0
 40
77.0
 40
77.0
 40
77.0
 40
78.0
 40
78.0
 40
78.0
 40
79.0
 40
79.0
 40
79.0
 40
79.0
 10
73.12869735584977
 20
-138.5362467101576
 10
73.12869735584977
 20
-138.5362467101576
 10
72.87479381858687
 20
-138.5362467101576
 10
72.87479381858687
 20
-138.5362467101576
 10
72.87479381858687
 20
-138.5362467101576
 10
72.59780814157277
 20
-138.5362467101576
 10
72.59780814157277
 20
-138.5362467101576
 10
72.59780814157277
 20
-138.5362467101576
 10
72.72458765542997
 20
-138.5782768750776
 10
72.72458765542997
 20
-138.5782768750776
 10
72.73526745143424
 20
-138.5827554992085
 10
72.74801430472967
 20
-138.5889566710819
 10
72.74801430472967
 20
-138.6017035243774
 10
72.74801430472967
 20
-138.6230631163859
 10
72.71597491671685
 20
-138.6292642882593
 10
72.69495983425682
 20
-138.6333984028417
 10
72.68428003825254
 20
-138.6568250521414
 10
72.6546522170794
 20
-138.7222818663611
 10
72.63570419191052
 20
-138.7667235981208
 10
72.63570419191052
 20
-138.7667235981208
 10
72.90648869705116
 20
-138.7667235981208
 10
72.90648869705116
 20
-138.7667235981208
 10
72.99743921786175
 20
-138.7667235981208
 10
73.19415417006952
 20
-138.76224497399
 10
73.33609210406182
 20
-138.7539767448254
 10
73.33609210406182
 20
-138.7539767448254
 10
73.33609210406182
 20
-138.9317436718643
 10
73.33609210406182
 20
-138.9317436718643
 10
73.25340981241581
 20
-138.927609557282
 10
73.2323947299558
 20
-138.927609557282
 10
73.05256074562575
 20
-138.9234754426997
 10
73.02086586716145
 20
-139.0778157204389
 10
72.97642413540173
 20
-139.1580864452452
 10
72.93198240364201
 20
-139.2280218835958
 10
73.05256074562575
 20
-139.2872775259421
 10
73.15832517702292
 20
-139.354801397453
 10
73.26202255112894
 20
-139.437483689099
 10
73.26202255112894
 20
-139.437483689099
 10
73.14351126643635
 20
-139.6042263105851
 10
73.14351126643635
 20
-139.6042263105851
 10
73.12008461713665
 20
-139.5856227949647
 10
73.10733776384123
 20
-139.5770100562516
 10
72.99537216057061
 20
-139.4922607073144
 10
72.94679631422858
 20
-139.4540201474282
 10
72.88754067188229
 20
-139.4181911543816
 10
72.80692543752744
 20
-139.3740939321704
 10
72.5953965747331
 20
-139.5601290883739
 10
72.39041339336073
 20
-139.5835557376735
 10
72.1003363535027
 20
-139.6131835588467
 10
72.1003363535027
 20
-139.6131835588467
 10
71.9969834889452
 20
-139.4333495745167
 10
71.9969834889452
 20
-139.4333495745167
 10
72.3142767831367
 20
-139.4288709503859
 10
72.48963214333592
 20
-139.4037217533435
 10
72.64190536378398
 20
-139.2934786978155
 10
72.5237385886399
 20
-139.2424912846338
 10
72.43485512512045
 20
-139.2152750303003
 10
72.39868162252533
 20
-139.2025281770049
 10
72.37973359735646
 20
-139.2300889408869
 10
72.36491968676988
 20
-139.2490369660558
 10
72.33735892288789
 20
-139.2831434113598
 10
72.33735892288789
 20
-139.2831434113598
 10
72.14064397068012
 20
-139.2004611197138
 10
72.14064397068012
 20
-139.2004611197138
 10
72.22332626232611
 20
-139.1198458853589
 10
72.28464896196357
 20
-139.024761249966
 10
72.34149303747019
 20
-138.9234754426997
 10
72.1513237666844
 20
-138.927609557282
 10
72.12996417467585
 20
-138.927609557282
 10
72.04762639257838
 20
-138.9317436718643
 10
72.04762639257838
 20
-138.9317436718643
 10
72.04762639257838
 20
-138.7539767448254
 10
72.04762639257838
 20
-138.7539767448254
 10
72.18715275973099
 20
-138.7601779166989
 10
72.39661456523419
 20
-138.7646565408297
 10
72.42210827182504
 20
-138.7646565408297
 10
72.43898923970275
 20
-138.7305500955257
 10
72.49411076746675
 20
-138.609971753542
 10
72.51305879263563
 20
-138.5362467101576
 10
72.49411076746675
 20
-138.5362467101576
 10
72.31634384042786
 20
-138.5424478820311
 10
72.12169594551125
 20
-138.5551947353265
 10
72.12169594551125
 20
-138.5551947353265
 10
72.12169594551125
 20
-138.6885199306057
 10
72.12169594551125
 20
-138.6885199306057
 10
72.07312009916922
 20
-138.7140136371965
 10
72.01386445682293
 20
-138.7457085156608
 10
71.88053926154376
 20
-138.8111653298805
 10
71.88053926154376
 20
-138.8111653298805
 10
71.88053926154376
 20
-138.9572373784551
 10
71.88053926154376
 20
-138.9572373784551
 10
71.88053926154376
 20
-138.9572373784551
 10
71.88053926154376
 20
-139.4247368358035
 10
71.88053926154376
 20
-139.4247368358035
 10
71.88053926154376
 20
-139.5515163496607
 10
71.84436575894864
 20
-139.610771992007
 10
71.5611789100611
 20
-139.6021592532939
 10
71.5611789100611
 20
-139.6021592532939
 10
71.45748153595508
 20
-139.3951090146304
 10
71.45748153595508
 20
-139.3951090146304
 10
71.52087129288367
 20
-139.4078558679258
 10
71.5694471392257
 20
-139.4119899825081
 10
71.60975475640312
 20
-139.4119899825081
 10
71.68589136662715
 20
-139.4119899825081
 10
71.69657116263141
 20
-139.3885633332084
 10
71.69657116263141
 20
-139.3231065189887
 10
71.69657116263141
 20
-139.3231065189887
 10
71.69657116263141
 20
-138.8938476215265
 10
71.69657116263141
 20
-138.8938476215265
 10
71.59907496039885
 20
-138.9338107291555
 10
71.58219399252113
 20
-138.9400119010289
 10
71.53568520347025
 20
-138.9593044357463
 10
71.53155108888795
 20
-138.9803195182063
 10
71.52707246475713
 20
-139.0099473393795
 10
71.50812443958824
 20
-139.0099473393795
 10
71.49985621042364
 20
-139.0099473393795
 10
71.48917641441938
 20
-139.0058132247972
 10
71.48263073299741
 20
-138.982731085046
 10
71.48263073299741
 20
-138.982731085046
 10
71.42992077207307
 20
-138.789805737872
 10
71.42992077207307
 20
-138.789805737872
 10
71.57599282064767
 20
-138.7436414583696
 10
71.64144963486741
 20
-138.7202148090699
 10
71.69657116263141
 20
-138.6988552170614
 10
71.69657116263141
 20
-138.6988552170614
 10
71.69657116263141
 20
-138.286477287477
 10
71.69657116263141
 20
-138.286477287477
 10
71.69657116263141
 20
-138.286477287477
 10
71.64351669215857
 20
-138.286477287477
 10
71.64351669215857
 20
-138.286477287477
 10
71.64351669215857
 20
-138.286477287477
 10
71.5653130246434
 20
-138.286477287477
 10
71.5653130246434
 20
-138.286477287477
 10
71.49744464358398
 20
-138.286477287477
 10
71.48917641441938
 20
-138.286477287477
 10
71.45300291182426
 20
-138.293022968899
 10
71.45300291182426
 20
-138.293022968899
 10
71.45300291182426
 20
-138.0980305644338
 10
71.45300291182426
 20
-138.0980305644338
 10
71.48056367570625
 20
-138.1045762458558
 10
71.48917641441938
 20
-138.1045762458558
 10
71.55876734322142
 20
-138.1045762458558
 10
71.55876734322142
 20
-138.1045762458558
 10
71.69209253850059
 20
-138.1045762458558
 10
71.69209253850059
 20
-138.1045762458558
 10
71.69209253850059
 20
-138.0346408075052
 10
71.69209253850059
 20
-137.9523030254078
 10
71.69002548120945
 20
-137.9478244012769
 10
71.68175725204485
 20
-137.7679904169469
 10
71.68175725204485
 20
-137.7493869013265
 10
71.67934568520516
 20
-137.7025336027272
 10
71.67934568520516
 20
-137.7025336027272
 10
71.89535317213033
 20
-137.7111463414403
 10
71.89535317213033
 20
-137.7111463414403
 10
71.90603296813461
 20
-137.7111463414403
 10
71.92704805059464
 20
-137.7132133987314
 10
71.92704805059464
 20
-137.7300943666091
 10
71.92704805059464
 20
-137.7493869013265
 10
71.91223414000805
 20
-137.7597221877823
 10
71.8867404334172
 20
-137.7790147224997
 10
71.8867404334172
 20
-137.8293131165843
 10
71.88053926154376
 20
-138.0580674568049
 10
71.8826063188349
 20
-138.1045762458558
 10
72.01179739953177
 20
-138.1045762458558
 10
72.02419974327867
 20
-138.1045762458558
 10
72.12169594551125
 20
-138.0959635071427
 10
72.12169594551125
 20
-138.0959635071427
 10
72.12169594551125
 20
-138.2909559116078
 10
72.12169594551125
 20
-138.2909559116078
 10
72.08345538562497
 20
-138.2885443447682
 10
72.01593151411407
 20
-138.2844102301858
 10
71.88053926154376
 20
-138.286477287477
 10
71.88053926154376
 20
-138.286477287477
 10
71.88053926154376
 20
-138.6251301736771
 10
71.88053926154376
 20
-138.6251301736771
 10
71.93566078930776
 20
-138.6017035243774
 10
72.0011176035275
 20
-138.5741427604954
 10
72.04969344986952
 20
-138.5507161111957
 10
72.04969344986952
 20
-138.5507161111957
 10
72.04969344986952
 20
-138.3732936937053
 10
72.04969344986952
 20
-138.3732936937053
 10
72.16407061997982
 20
-138.3860405470007
 10
72.28258190467241
 20
-138.3860405470007
 10
72.39868162252533
 20
-138.3860405470007
 10
72.37559948277416
 20
-138.2909559116078
 10
72.34803871889216
 20
-138.2082736199618
 10
72.28464896196357
 20
-138.0749484246826
 10
72.24020723020384
 20
-138.0770154819738
 10
72.15752493855784
 20
-138.0814941061046
 10
72.11962888822009
 20
-138.0835611633958
 10
72.11962888822009
 20
-138.0835611633958
 10
72.11962888822009
 20
-137.9037271790658
 10
72.11962888822009
 20
-137.9037271790658
 10
72.24434134478614
 20
-137.9119954082304
 10
72.41797415724274
 20
-137.9161295228126
 10
72.50031193934021
 20
-137.9161295228126
 10
72.50031193934021
 20
-137.9161295228126
 10
72.5829942309862
 20
-137.9161295228126
 10
72.5829942309862
 20
-137.9161295228126
 10
72.5829942309862
 20
-137.7535210159089
 10
72.5829942309862
 20
-137.7428412199046
 10
72.58058266414652
 20
-137.6880642016891
 10
72.58058266414652
 20
-137.6880642016891
 10
72.80485838023628
 20
-137.7132133987314
 10
72.80485838023628
 20
-137.7132133987314
 10
72.80933700436711
 20
-137.7132133987314
 10
72.83035208682713
 20
-137.7152804560226
 10
72.83035208682713
 20
-137.7321614239003
 10
72.83035208682713
 20
-137.7469753344869
 10
72.81967229082287
 20
-137.7555880732
 10
72.79211152694086
 20
-137.7704019837866
 10
72.78591035506741
 20
-137.8358587980063
 10
72.78384329777626
 20
-137.8568738804663
 10
72.78384329777626
 20
-137.9161295228126
 10
72.78384329777626
 20
-137.9161295228126
 10
72.87892793316917
 20
-137.9161295228126
 10
72.87892793316917
 20
-137.9161295228126
 10
72.96161022481516
 20
-137.9161295228126
 10
73.13489852772322
 20
-137.9119954082304
 10
73.2599554938378
 20
-137.9037271790658
 10
73.2599554938378
 20
-137.9037271790658
 10
73.2599554938378
 20
-138.0835611633958
 10
73.2599554938378
 20
-138.0835611633958
 10
73.23032767266464
 20
-138.0814941061046
 10
73.11181638797206
 20
-138.0770154819738
 10
73.07150877079462
 20
-138.0749484246826
 10
73.05669486020805
 20
-138.1255913283158
 10
73.0229329244526
 20
-138.237901441135
 10
72.95713160068433
 20
-138.3774278082876
 10
72.99950627515291
 20
-138.3774278082876
 10
73.27683646171552
 20
-138.3584797831187
 10
73.33815916135296
 20
-138.3564127258276
 10
73.33815916135296
 20
-138.3564127258276
 10
73.33815916135296
 20
-138.5403808247399
 10
73.33815916135296
 20
-138.5403808247399
 10
73.30853134017981
 20
-138.5403808247399
 10
73.29165037230209
 20
-138.5362467101576
 10
73.12869735584977
 20
-138.5362467101576
 97
        0
 97
        0
 92
        1
 93
        1
 72
     4
 94
        3
 73
     0
 74
     1
 95
       20
 96
       16
 40
0.0
 40
0.0
 40
0.0
 40
0.0
 40
1.0
 40
1.0
 40
1.0
 40
2.0
 40
2.0
 40
2.0
 40
3.0
 40
3.0
 40
3.0
 40
4.0
 40
4.0
 40
4.0
 40
5.0
 40
5.0
 40
5.0
 40
5.0
 10
72.50031193934021
 20
-138.0708143101004
 10
72.50031193934021
 20
-138.0708143101004
 10
72.4686170608759
 20
-138.0708143101004
 10
72.4686170608759
 20
-138.0708143101004
 10
72.51512584992678
 20
-138.1703775696241
 10
72.54682072839108
 20
-138.2503037848819
 10
72.58058266414652
 20
-138.3774278082876
 10
72.58058266414652
 20
-138.3774278082876
 10
72.78797741235856
 20
-138.3774278082876
 10
72.78797741235856
 20
-138.3774278082876
 10
72.81967229082287
 20
-138.2844102301858
 10
72.84309894012256
 20
-138.2000053907972
 10
72.86618107987374
 20
-138.0708143101004
 10
72.86618107987374
 20
-138.0708143101004
 10
72.50031193934021
 20
-138.0708143101004
 10
72.50031193934021
 20
-138.0708143101004
 97
        0
 97
        0
 92
        1
 93
        1
 72
     4
 94
        3
 73
     0
 74
     1
 95
       17
 96
       13
 40
0.0
 40
0.0
 40
0.0
 40
0.0
 40
1.0
 40
1.0
 40
1.0
 40
2.0
 40
2.0
 40
2.0
 40
3.0
 40
3.0
 40
3.0
 40
4.0
 40
4.0
 40
4.0
 40
4.0
 10
72.5637016962688
 20
-138.9214083854085
 10
72.54682072839108
 20
-138.9506916970332
 10
72.49617782475791
 20
-139.0440537846834
 10
72.48549802875363
 20
-139.0626573003038
 10
72.67601180908794
 20
-139.1219129426501
 10
72.69702689154796
 20
-139.1284586240721
 10
72.76902938718969
 20
-139.156019387954
 10
72.82415091495369
 20
-139.0692029817258
 10
72.84723305470486
 20
-138.9951334287929
 10
72.86204696529144
 20
-138.9214083854085
 10
72.86204696529144
 20
-138.9214083854085
 10
72.5637016962688
 20
-138.9214083854085
 10
72.5637016962688
 20
-138.9214083854085
 97
        0
 97
        0
 75
     2
 76
     1
 98
        0
  0
SPLINE
  5
FC
330
F4
100
AcDbEntity
  8
_U+30EC_U+30A4_U+30E4_U+30FC 1
370
     0
100
AcDbSpline
210
0.0
220
0.0
230
1.0
 70
    11
 71
     3
 72
   203
 73
   199
 74
     0
 42
0.0000000001
 43
0.0000000001
 12
1.0
 22
0.0
 32
0.0
 13
1.0
 23
0.0
 33
0.0
 40
0.0
 40
0.0
 40
0.0
 40
0.0
 40
1.0
 40
1.0
 40
1.0
 40
2.0
 40
2.0
 40
2.0
 40
3.0
 40
3.0
 40
3.0
 40
4.0
 40
4.0
 40
4.0
 40
5.0
 40
5.0
 40
5.0
 40
6.0
 40
6.0
 40
6.0
 40
7.0
 40
7.0
 40
7.0
 40
8.0
 40
8.0
 40
8.0
 40
9.0
 40
9.0
 40
9.0
 40
10.0
 40
10.0
 40
10.0
 40
11.0
 40
11.0
 40
11.0
 40
12.0
 40
12.0
 40
12.0
 40
13.0
 40
13.0
 40
13.0
 40
14.0
 40
14.0
 40
14.0
 40
15.0
 40
15.0
 40
15.0
 40
16.0
 40
16.0
 40
16.0
 40
17.0
 40
17.0
 40
17.0
 40
18.0
 40
18.0
 40
18.0
 40
19.0
 40
19.0
 40
19.0
 40
20.0
 40
20.0
 40
20.0
 40
21.0
 40
21.0
 40
21.0
 40
22.0
 40
22.0
 40
22.0
 40
23.0
 40
23.0
 40
23.0
 40
24.0
 40
24.0
 40
24.0
 40
25.0
 40
25.0
 40
25.0
 40
26.0
 40
26.0
 40
26.0
 40
27.0
 40
27.0
 40
27.0
 40
28.0
 40
28.0
 40
28.0
 40
29.0
 40
29.0
 40
29.0
 40
30.0
 40
30.0
 40
30.0
 40
31.0
 40
31.0
 40
31.0
 40
32.0
 40
32.0
 40
32.0
 40
33.0
 40
33.0
 40
33.0
 40
34.0
 40
34.0
 40
34.0
 40
35.0
 40
35.0
 40
35.0
 40
36.0
 40
36.0
 40
36.0
 40
37.0
 40
37.0
 40
37.0
 40
38.0
 40
38.0
 40
38.0
 40
39.0
 40
39.0
 40
39.0
 40
40.0
 40
40.0
 40
40.0
 40
41.0
 40
41.0
 40
41.0
 40
42.0
 40
42.0
 40
42.0
 40
43.0
 40
43.0
 40
43.0
 40
44.0
 40
44.0
 40
44.0
 40
45.0
 40
45.0
 40
45.0
 40
46.0
 40
46.0
 40
46.0
 40
47.0
 40
47.0
 40
47.0
 40
48.0
 40
48.0
 40
48.0
 40
49.0
 40
49.0
 40
49.0
 40
50.0
 40
50.0
 40
50.0
 40
51.0
 40
51.0
 40
51.0
 40
52.0
 40
52.0
 40
52.0
 40
53.0
 40
53.0
 40
53.0
 40
54.0
 40
54.0
 40
54.0
 40
55.0
 40
55.0
 40
55.0
 40
56.0
 40
56.0
 40
56.0
 40
57.0
 40
57.0
 40
57.0
 40
58.0
 40
58.0
 40
58.0
 40
59.0
 40
59.0
 40
59.0
 40
60.0
 40
60.0
 40
60.0
 40
61.0
 40
61.0
 40
61.0
 40
62.0
 40
62.0
 40
62.0
 40
63.0
 40
63.0
 40
63.0
 40
64.0
 40
64.0
 40
64.0
 40
65.0
 40
65.0
 40
65.0
 40
66.0
 40
66.0
 40
66.0
 40
66.0
 10
74.82023923910744
 20
-138.6037705816685
 30
0.0
 10
74.82023923910744
 20
-138.6037705816685
 30
0.0
 10
74.26144475139992
 20
-138.6037705816685
 30
0.0
 10
74.26144475139992
 20
-138.6037705816685
 30
0.0
 10
74.25110946494416
 20
-138.6482123134282
 30
0.0
 10
74.24249672623104
 20
-138.6799071918925
 30
0.0
 10
74.22974987293563
 20
-138.7181477517788
 30
0.0
 10
74.25524357952646
 20
-138.7181477517788
 30
0.0
 10
74.27005749011305
 20
-138.7202148090699
 30
0.0
 10
74.27625866198649
 20
-138.7202148090699
 30
0.0
 10
74.27625866198649
 20
-138.7202148090699
 30
0.0
 10
74.46470538502966
 20
-138.7202148090699
 30
0.0
 10
74.46470538502966
 20
-138.7202148090699
 30
0.0
 10
74.46470538502966
 20
-138.7202148090699
 30
0.0
 10
74.83918726427632
 20
-138.7202148090699
 30
0.0
 10
74.83918726427632
 20
-138.7202148090699
 30
0.0
 10
74.8898301679095
 20
-138.7202148090699
 30
0.0
 10
75.17336152634556
 20
-138.7074679557745
 30
0.0
 10
75.20505640480985
 20
-138.7074679557745
 30
0.0
 10
75.2029893475187
 20
-138.7350287196565
 30
0.0
 10
75.20092229022755
 20
-138.7539767448254
 30
0.0
 10
75.20092229022755
 20
-138.7836045659986
 30
0.0
 10
75.1988552329364
 20
-138.8152994444629
 30
0.0
 10
75.1988552329364
 20
-138.9506916970332
 30
0.0
 10
75.1988552329364
 20
-138.9782524609152
 30
0.0
 10
75.1988552329364
 20
-138.9782524609152
 30
0.0
 10
75.1988552329364
 20
-139.2238877690135
 30
0.0
 10
75.1988552329364
 20
-139.2238877690135
 30
0.0
 10
75.1988552329364
 20
-139.2679849912247
 30
0.0
 10
75.2029893475187
 20
-139.465044452981
 30
0.0
 10
75.207123462101
 20
-139.617317673429
 30
0.0
 10
75.207123462101
 20
-139.617317673429
 30
0.0
 10
74.98078068872009
 20
-139.617317673429
 30
0.0
 10
74.98078068872009
 20
-139.617317673429
 30
0.0
 10
74.98078068872009
 20
-139.617317673429
 30
0.0
 10
74.98284774601123
 20
-139.5835557376735
 30
0.0
 10
74.98284774601123
 20
-139.5835557376735
 30
0.0
 10
74.98284774601123
 20
-139.5835557376735
 30
0.0
 10
74.28073728611731
 20
-139.5835557376735
 30
0.0
 10
74.28073728611731
 20
-139.5835557376735
 30
0.0
 10
74.28073728611731
 20
-139.5835557376735
 30
0.0
 10
74.28280434340847
 20
-139.617317673429
 30
0.0
 10
74.28280434340847
 20
-139.617317673429
 30
0.0
 10
74.28280434340847
 20
-139.617317673429
 30
0.0
 10
74.06472979919215
 20
-139.617317673429
 30
0.0
 10
74.06472979919215
 20
-139.617317673429
 30
0.0
 10
74.06920842332298
 20
-139.562196145665
 30
0.0
 10
74.06920842332298
 20
-139.5494492923696
 30
0.0
 10
74.07540959519643
 20
-139.4354166318078
 30
0.0
 10
74.07747665248758
 20
-139.4078558679258
 30
0.0
 10
74.07954370977873
 20
-139.2745306726466
 30
0.0
 10
74.07954370977873
 20
-139.2555826474778
 30
0.0
 10
74.07954370977873
 20
-139.2555826474778
 30
0.0
 10
74.07954370977873
 20
-139.052322013848
 30
0.0
 10
74.07954370977873
 20
-139.052322013848
 30
0.0
 10
73.9400173426261
 20
-139.3017469269801
 30
0.0
 10
73.77086315430034
 20
-139.4333495745167
 30
0.0
 10
73.66509872290317
 20
-139.4988063887364
 30
0.0
 10
73.66509872290317
 20
-139.4988063887364
 30
0.0
 10
73.49146591044658
 20
-139.3589355120353
 30
0.0
 10
73.49146591044658
 20
-139.3589355120353
 30
0.0
 10
73.58034937396603
 20
-139.3082926084021
 30
0.0
 10
73.72435436524947
 20
-139.2214762021738
 30
0.0
 10
73.86181367511094
 20
-139.0268283072572
 30
0.0
 10
73.95276419592153
 20
-138.9000487934
 30
0.0
 10
74.01822101014127
 20
-138.7560438021166
 30
0.0
 10
74.05232745544525
 20
-138.6037705816685
 30
0.0
 10
73.82357311522466
 20
-138.6058376389597
 30
0.0
 10
73.64373913089463
 20
-138.6123833203816
 30
0.0
 10
73.54865449550172
 20
-138.6144503776728
 30
0.0
 10
73.54865449550172
 20
-138.6144503776728
 30
0.0
 10
73.54865449550172
 20
-138.4366834506339
 30
0.0
 10
73.54865449550172
 20
-138.4366834506339
 30
0.0
 10
73.74536944770949
 20
-138.4432291320559
 30
0.0
 10
74.02890080614556
 20
-138.4473632466382
 30
0.0
 10
74.17910696930245
 20
-138.4473632466382
 30
0.0
 10
74.17910696930245
 20
-138.4473632466382
 30
0.0
 10
74.39270288938793
 20
-138.4473632466382
 30
0.0
 10
74.39270288938793
 20
-138.4473632466382
 30
0.0
 10
74.39270288938793
 20
-138.4473632466382
 30
0.0
 10
74.39270288938793
 20
-138.3391872484013
 30
0.0
 10
74.39270288938793
 20
-138.3391872484013
 30
0.0
 10
74.39270288938793
 20
-138.3391872484013
 30
0.0
 10
74.24663084081334
 20
-138.3391872484013
 30
0.0
 10
74.24663084081334
 20
-138.3391872484013
 30
0.0
 10
74.07747665248758
 20
-138.3391872484013
 30
0.0
 10
73.90832246416181
 20
-138.3436658725321
 30
0.0
 10
73.7412353331272
 20
-138.3502115539541
 30
0.0
 10
73.7412353331272
 20
-138.3502115539541
 30
0.0
 10
73.7412353331272
 20
-138.1786457987887
 30
0.0
 10
73.7412353331272
 20
-138.1786457987887
 30
0.0
 10
73.89557561086639
 20
-138.1889810852444
 30
0.0
 10
74.08161076706988
 20
-138.1889810852444
 30
0.0
 10
74.24663084081334
 20
-138.1889810852444
 30
0.0
 10
74.24663084081334
 20
-138.1889810852444
 30
0.0
 10
74.39270288938793
 20
-138.1889810852444
 30
0.0
 10
74.39270288938793
 20
-138.1889810852444
 30
0.0
 10
74.39270288938793
 20
-138.1889810852444
 30
0.0
 10
74.39270288938793
 20
-138.0708143101004
 30
0.0
 10
74.39270288938793
 20
-138.0708143101004
 30
0.0
 10
74.39270288938793
 20
-138.0708143101004
 30
0.0
 10
74.26144475139992
 20
-138.0708143101004
 30
0.0
 10
74.26144475139992
 20
-138.0708143101004
 30
0.0
 10
74.21493596234905
 20
-138.0708143101004
 30
0.0
 10
74.01201983826783
 20
-138.0794270488135
 30
0.0
 10
73.96964516379926
 20
-138.0794270488135
 30
0.0
 10
73.76672903971804
 20
-138.0835611633958
 30
0.0
 10
73.69024791994549
 20
-138.0856282206869
 30
0.0
 10
73.61204425243032
 20
-138.0876952779781
 30
0.0
 10
73.61204425243032
 20
-138.0876952779781
 30
0.0
 10
73.61204425243032
 20
-137.9037271790658
 30
0.0
 10
73.61204425243032
 20
-137.9037271790658
 30
0.0
 10
73.72642142254062
 20
-137.9119954082304
 30
0.0
 10
73.77086315430034
 20
-137.9119954082304
 30
0.0
 10
74.1536132627116
 20
-137.9206081469435
 30
0.0
 10
74.090223505783
 20
-137.825179002002
 30
0.0
 10
74.06266274190101
 20
-137.79761823812
 30
0.0
 10
74.0268337488544
 20
-137.7617892450735
 30
0.0
 10
74.0268337488544
 20
-137.7617892450735
 30
0.0
 10
74.20218910905362
 20
-137.6791069534275
 30
0.0
 10
74.20218910905362
 20
-137.6791069534275
 30
0.0
 10
74.24249672623104
 20
-137.7152804560226
 30
0.0
 10
74.28693845799077
 20
-137.7576551304911
 30
0.0
 10
74.36100801092364
 20
-137.8675536764706
 30
0.0
 10
74.36100801092364
 20
-137.8675536764706
 30
0.0
 10
74.24663084081334
 20
-137.9226752042346
 30
0.0
 10
74.24663084081334
 20
-137.9226752042346
 30
0.0
 10
74.24663084081334
 20
-137.9226752042346
 30
0.0
 10
74.25731063681762
 20
-137.9226752042346
 30
0.0
 10
74.25731063681762
 20
-137.9226752042346
 30
0.0
 10
74.25731063681762
 20
-137.9226752042346
 30
0.0
 10
74.77993162193002
 20
-137.9226752042346
 30
0.0
 10
74.77993162193002
 20
-137.9226752042346
 30
0.0
 10
74.77993162193002
 20
-137.9226752042346
 30
0.0
 10
74.68484698653712
 20
-137.8782334724749
 30
0.0
 10
74.68484698653712
 20
-137.8782334724749
 30
0.0
 10
74.7120632408706
 20
-137.8403374221371
 30
0.0
 10
74.76925182592575
 20
-137.7597221877823
 30
0.0
 10
74.78406573651232
 20
-137.6856526348494
 30
0.0
 10
74.78406573651232
 20
-137.6856526348494
 30
0.0
 10
74.99766165659781
 20
-137.7493869013265
 30
0.0
 10
74.99766165659781
 20
-137.7493869013265
 30
0.0
 10
75.00627439531094
 20
-137.7514539586177
 30
0.0
 10
75.02728947777096
 20
-137.7617892450735
 30
0.0
 10
75.02728947777096
 20
-137.783148837082
 30
0.0
 10
75.02728947777096
 20
-137.8210448874197
 30
0.0
 10
74.9618326635512
 20
-137.8210448874197
 30
0.0
 10
74.94288463838234
 20
-137.8210448874197
 30
0.0
 10
74.93220484237807
 20
-137.8403374221371
 30
0.0
 10
74.90877819307836
 20
-137.880300529766
 30
0.0
 10
74.87915037190521
 20
-137.9206081469435
 30
0.0
 10
75.27912595774272
 20
-137.9140624655215
 30
0.0
 10
75.30875377891587
 20
-137.9119954082304
 30
0.0
 10
75.3848903891399
 20
-137.9057942363569
 30
0.0
 10
75.3848903891399
 20
-137.9057942363569
 30
0.0
 10
75.3848903891399
 20
-138.0876952779781
 30
0.0
 10
75.3848903891399
 20
-138.0876952779781
 30
0.0
 10
75.36594236397102
 20
-138.0876952779781
 30
0.0
 10
75.34044865738016
 20
-138.0856282206869
 30
0.0
 10
75.12065156542123
 20
-138.0770154819738
 30
0.0
 10
75.06966415223953
 20
-138.0749484246826
 30
0.0
 10
74.84986706028059
 20
-138.0708143101004
 30
0.0
 10
74.80542532852087
 20
-138.0708143101004
 30
0.0
 10
74.80542532852087
 20
-138.0708143101004
 30
0.0
 10
74.5894178415957
 20
-138.0708143101004
 30
0.0
 10
74.5894178415957
 20
-138.0708143101004
 30
0.0
 10
74.5894178415957
 20
-138.0708143101004
 30
0.0
 10
74.5894178415957
 20
-138.1889810852444
 30
0.0
 10
74.5894178415957
 20
-138.1889810852444
 30
0.0
 10
74.5894178415957
 20
-138.1889810852444
 30
0.0
 10
74.7630506540523
 20
-138.1889810852444
 30
0.0
 10
74.7630506540523
 20
-138.1889810852444
 30
0.0
 10
74.92600367050461
 20
-138.1889810852444
 30
0.0
 10
75.1161729412904
 20
-138.1889810852444
 30
0.0
 10
75.27292478586928
 20
-138.1786457987887
 30
0.0
 10
75.27292478586928
 20
-138.1786457987887
 30
0.0
 10
75.27292478586928
 20
-138.3502115539541
 30
0.0
 10
75.27292478586928
 20
-138.3502115539541
 30
0.0
 10
75.06346298036608
 20
-138.341598815241
 30
0.0
 10
74.86674802815831
 20
-138.3391872484013
 30
0.0
 10
74.7630506540523
 20
-138.3391872484013
 30
0.0
 10
74.7630506540523
 20
-138.3391872484013
 30
0.0
 10
74.5894178415957
 20
-138.3391872484013
 30
0.0
 10
74.5894178415957
 20
-138.3391872484013
 30
0.0
 10
74.5894178415957
 20
-138.3391872484013
 30
0.0
 10
74.5894178415957
 20
-138.4473632466382
 30
0.0
 10
74.5894178415957
 20
-138.4473632466382
 30
0.0
 10
74.5894178415957
 20
-138.4473632466382
 30
0.0
 10
74.82023923910744
 20
-138.4473632466382
 30
0.0
 10
74.82023923910744
 20
-138.4473632466382
 30
0.0
 10
74.95321992483808
 20
-138.4473632466382
 30
0.0
 10
75.24122990740497
 20
-138.4432291320559
 30
0.0
 10
75.45034720335964
 20
-138.4366834506339
 30
0.0
 10
75.45034720335964
 20
-138.4366834506339
 30
0.0
 10
75.45034720335964
 20
-138.6144503776728
 30
0.0
 10
75.45034720335964
 20
-138.6144503776728
 30
0.0
 10
75.2581108752827
 20
-138.6079046962508
 30
0.0
 10
74.94495169567348
 20
-138.6037705816685
 30
0.0
 10
74.82023923910744
 20
-138.6037705816685
 30
0.0
  0
POLYLINE
  5
FD
330
F4
100
AcDbEntity
  8
_U+30EC_U+30A4_U+30E4_U+30FC 1
370
     0
100
AcDb2dPolyline
 66
     1
 10
0.0
 20
0.0
 30
0.0
  0
VERTEX
  5
FE
330
FD
100
AcDbEntity
  8
_U+30EC_U+30A4_U+30E4_U+30FC 1
370
     0
100
AcDbVertex
100
AcDb2dVertex
 10
74.98525931285091
 20
-138.8597411762226
 30
0.0
  0
VERTEX
  5
FF
330
FD
100
AcDbEntity
  8
_U+30EC_U+30A4_U+30E4_U+30FC 1
370
     0
100
AcDbVertex
100
AcDb2dVertex
 10
74.27867022882617
 20
-138.8597411762226
 30
0.0
  0
VERTEX
  5
100
330
FD
100
AcDbEntity
  8
_U+30EC_U+30A4_U+30E4_U+30FC 1
370
     0
100
AcDbVertex
100
AcDb2dVertex
 10
74.27867022882617
 20
-138.9675726649109
 30
0.0
  0
VERTEX
  5
101
330
FD
100
AcDbEntity
  8
_U+30EC_U+30A4_U+30E4_U+30FC 1
370
     0
100
AcDbVertex
100
AcDb2dVertex
 10
74.98525931285091
 20
-138.9675726649109
 30
0.0
  0
VERTEX
  5
102
330
FD
100
AcDbEntity
  8
_U+30EC_U+30A4_U+30E4_U+30FC 1
370
     0
100
AcDbVertex
100
AcDb2dVertex
 10
74.98525931285091
 20
-138.8597411762226
 30
0.0
  0
SEQEND
  5
103
330
FD
100
AcDbEntity
  8
_U+30EC_U+30A4_U+30E4_U+30FC 1
370
     0
  0
POLYLINE
  5
104
330
F4
100
AcDbEntity
  8
_U+30EC_U+30A4_U+30E4_U+30FC 1
370
     0
100
AcDb2dPolyline
 66
     1
 10
0.0
 20
0.0
 30
0.0
  0
VERTEX
  5
105
330
104
100
AcDbEntity
  8
_U+30EC_U+30A4_U+30E4_U+30FC 1
370
     0
100
AcDbVertex
100
AcDb2dVertex
 10
74.98525931285091
 20
-139.0922851214769
 30
0.0
  0
VERTEX
  5
106
330
104
100
AcDbEntity
  8
_U+30EC_U+30A4_U+30E4_U+30FC 1
370
     0
100
AcDbVertex
100
AcDb2dVertex
 10
74.27867022882617
 20
-139.0922851214769
 30
0.0
  0
VERTEX
  5
107
330
104
100
AcDbEntity
  8
_U+30EC_U+30A4_U+30E4_U+30FC 1
370
     0
100
AcDbVertex
100
AcDb2dVertex
 10
74.27867022882617
 20
-139.2066622915872
 30
0.0
  0
VERTEX
  5
108
330
104
100
AcDbEntity
  8
_U+30EC_U+30A4_U+30E4_U+30FC 1
370
     0
100
AcDbVertex
100
AcDb2dVertex
 10
74.98525931285091
 20
-139.2066622915872
 30
0.0
  0
VERTEX
  5
109
330
104
100
AcDbEntity
  8
_U+30EC_U+30A4_U+30E4_U+30FC 1
370
     0
100
AcDbVertex
100
AcDb2dVertex
 10
74.98525931285091
 20
-139.0922851214769
 30
0.0
  0
SEQEND
  5
10A
330
104
100
AcDbEntity
  8
_U+30EC_U+30A4_U+30E4_U+30FC 1
370
     0
  0
POLYLINE
  5
10B
330
F4
100
AcDbEntity
  8
_U+30EC_U+30A4_U+30E4_U+30FC 1
370
     0
100
AcDb2dPolyline
 66
     1
 10
0.0
 20
0.0
 30
0.0
  0
VERTEX
  5
10C
330
10B
100
AcDbEntity
  8
_U+30EC_U+30A4_U+30E4_U+30FC 1
370
     0
100
AcDbVertex
100
AcDb2dVertex
 10
74.98525931285091
 20
-139.3358533722841
 30
0.0
  0
VERTEX
  5
10D
330
10B
100
AcDbEntity
  8
_U+30EC_U+30A4_U+30E4_U+30FC 1
370
     0
100
AcDbVertex
100
AcDb2dVertex
 10
74.27867022882617
 20
-139.3358533722841
 30
0.0
  0
VERTEX
  5
10E
330
10B
100
AcDbEntity
  8
_U+30EC_U+30A4_U+30E4_U+30FC 1
370
     0
100
AcDbVertex
100
AcDb2dVertex
 10
74.27867022882617
 20
-139.4498860328459
 30
0.0
  0
VERTEX
  5
10F
330
10B
100
AcDbEntity
  8
_U+30EC_U+30A4_U+30E4_U+30FC 1
370
     0
100
AcDbVertex
100
AcDb2dVertex
 10
74.98525931285091
 20
-139.4498860328459
 30
0.0
  0
VERTEX
  5
110
330
10B
100
AcDbEntity
  8
_U+30EC_U+30A4_U+30E4_U+30FC 1
370
     0
100
AcDbVertex
100
AcDb2dVertex
 10
74.98525931285091
 20
-139.3358533722841
 30
0.0
  0
SEQEND
  5
111
330
10B
100
AcDbEntity
  8
_U+30EC_U+30A4_U+30E4_U+30FC 1
370
     0
  0
HATCH
  5
112
330
F4
100
AcDbEntity
  8
_U+30EC_U+30A4_U+30E4_U+30FC 1
 62
   179
420
  2234388
100
AcDbHatch
 10
0.0
 20
0.0
 30
0.0
210
0.0
220
0.0
230
1.0
  2
SOLID
 70
     1
 71
     0
 91
        4
 92
        1
 93
        1
 72
     4
 94
        3
 73
     0
 74
     1
 95
      203
 96
      199
 40
0.0
 40
0.0
 40
0.0
 40
0.0
 40
1.0
 40
1.0
 40
1.0
 40
2.0
 40
2.0
 40
2.0
 40
3.0
 40
3.0
 40
3.0
 40
4.0
 40
4.0
 40
4.0
 40
5.0
 40
5.0
 40
5.0
 40
6.0
 40
6.0
 40
6.0
 40
7.0
 40
7.0
 40
7.0
 40
8.0
 40
8.0
 40
8.0
 40
9.0
 40
9.0
 40
9.0
 40
10.0
 40
10.0
 40
10.0
 40
11.0
 40
11.0
 40
11.0
 40
12.0
 40
12.0
 40
12.0
 40
13.0
 40
13.0
 40
13.0
 40
14.0
 40
14.0
 40
14.0
 40
15.0
 40
15.0
 40
15.0
 40
16.0
 40
16.0
 40
16.0
 40
17.0
 40
17.0
 40
17.0
 40
18.0
 40
18.0
 40
18.0
 40
19.0
 40
19.0
 40
19.0
 40
20.0
 40
20.0
 40
20.0
 40
21.0
 40
21.0
 40
21.0
 40
22.0
 40
22.0
 40
22.0
 40
23.0
 40
23.0
 40
23.0
 40
24.0
 40
24.0
 40
24.0
 40
25.0
 40
25.0
 40
25.0
 40
26.0
 40
26.0
 40
26.0
 40
27.0
 40
27.0
 40
27.0
 40
28.0
 40
28.0
 40
28.0
 40
29.0
 40
29.0
 40
29.0
 40
30.0
 40
30.0
 40
30.0
 40
31.0
 40
31.0
 40
31.0
 40
32.0
 40
32.0
 40
32.0
 40
33.0
 40
33.0
 40
33.0
 40
34.0
 40
34.0
 40
34.0
 40
35.0
 40
35.0
 40
35.0
 40
36.0
 40
36.0
 40
36.0
 40
37.0
 40
37.0
 40
37.0
 40
38.0
 40
38.0
 40
38.0
 40
39.0
 40
39.0
 40
39.0
 40
40.0
 40
40.0
 40
40.0
 40
41.0
 40
41.0
 40
41.0
 40
42.0
 40
42.0
 40
42.0
 40
43.0
 40
43.0
 40
43.0
 40
44.0
 40
44.0
 40
44.0
 40
45.0
 40
45.0
 40
45.0
 40
46.0
 40
46.0
 40
46.0
 40
47.0
 40
47.0
 40
47.0
 40
48.0
 40
48.0
 40
48.0
 40
49.0
 40
49.0
 40
49.0
 40
50.0
 40
50.0
 40
50.0
 40
51.0
 40
51.0
 40
51.0
 40
52.0
 40
52.0
 40
52.0
 40
53.0
 40
53.0
 40
53.0
 40
54.0
 40
54.0
 40
54.0
 40
55.0
 40
55.0
 40
55.0
 40
56.0
 40
56.0
 40
56.0
 40
57.0
 40
57.0
 40
57.0
 40
58.0
 40
58.0
 40
58.0
 40
59.0
 40
59.0
 40
59.0
 40
60.0
 40
60.0
 40
60.0
 40
61.0
 40
61.0
 40
61.0
 40
62.0
 40
62.0
 40
62.0
 40
63.0
 40
63.0
 40
63.0
 40
64.0
 40
64.0
 40
64.0
 40
65.0
 40
65.0
 40
65.0
 40
66.0
 40
66.0
 40
66.0
 40
66.0
 10
74.82023923910744
 20
-138.6037705816685
 10
74.82023923910744
 20
-138.6037705816685
 10
74.26144475139992
 20
-138.6037705816685
 10
74.26144475139992
 20
-138.6037705816685
 10
74.25110946494416
 20
-138.6482123134282
 10
74.24249672623104
 20
-138.6799071918925
 10
74.22974987293563
 20
-138.7181477517788
 10
74.25524357952646
 20
-138.7181477517788
 10
74.27005749011305
 20
-138.7202148090699
 10
74.27625866198649
 20
-138.7202148090699
 10
74.27625866198649
 20
-138.7202148090699
 10
74.46470538502966
 20
-138.7202148090699
 10
74.46470538502966
 20
-138.7202148090699
 10
74.46470538502966
 20
-138.7202148090699
 10
74.83918726427632
 20
-138.7202148090699
 10
74.83918726427632
 20
-138.7202148090699
 10
74.8898301679095
 20
-138.7202148090699
 10
75.17336152634556
 20
-138.7074679557745
 10
75.20505640480985
 20
-138.7074679557745
 10
75.2029893475187
 20
-138.7350287196565
 10
75.20092229022755
 20
-138.7539767448254
 10
75.20092229022755
 20
-138.7836045659986
 10
75.1988552329364
 20
-138.8152994444629
 10
75.1988552329364
 20
-138.9506916970332
 10
75.1988552329364
 20
-138.9782524609152
 10
75.1988552329364
 20
-138.9782524609152
 10
75.1988552329364
 20
-139.2238877690135
 10
75.1988552329364
 20
-139.2238877690135
 10
75.1988552329364
 20
-139.2679849912247
 10
75.2029893475187
 20
-139.465044452981
 10
75.207123462101
 20
-139.617317673429
 10
75.207123462101
 20
-139.617317673429
 10
74.98078068872009
 20
-139.617317673429
 10
74.98078068872009
 20
-139.617317673429
 10
74.98078068872009
 20
-139.617317673429
 10
74.98284774601123
 20
-139.5835557376735
 10
74.98284774601123
 20
-139.5835557376735
 10
74.98284774601123
 20
-139.5835557376735
 10
74.28073728611731
 20
-139.5835557376735
 10
74.28073728611731
 20
-139.5835557376735
 10
74.28073728611731
 20
-139.5835557376735
 10
74.28280434340847
 20
-139.617317673429
 10
74.28280434340847
 20
-139.617317673429
 10
74.28280434340847
 20
-139.617317673429
 10
74.06472979919215
 20
-139.617317673429
 10
74.06472979919215
 20
-139.617317673429
 10
74.06920842332298
 20
-139.562196145665
 10
74.06920842332298
 20
-139.5494492923696
 10
74.07540959519643
 20
-139.4354166318078
 10
74.07747665248758
 20
-139.4078558679258
 10
74.07954370977873
 20
-139.2745306726466
 10
74.07954370977873
 20
-139.2555826474778
 10
74.07954370977873
 20
-139.2555826474778
 10
74.07954370977873
 20
-139.052322013848
 10
74.07954370977873
 20
-139.052322013848
 10
73.9400173426261
 20
-139.3017469269801
 10
73.77086315430034
 20
-139.4333495745167
 10
73.66509872290317
 20
-139.4988063887364
 10
73.66509872290317
 20
-139.4988063887364
 10
73.49146591044658
 20
-139.3589355120353
 10
73.49146591044658
 20
-139.3589355120353
 10
73.58034937396603
 20
-139.3082926084021
 10
73.72435436524947
 20
-139.2214762021738
 10
73.86181367511094
 20
-139.0268283072572
 10
73.95276419592153
 20
-138.9000487934
 10
74.01822101014127
 20
-138.7560438021166
 10
74.05232745544525
 20
-138.6037705816685
 10
73.82357311522466
 20
-138.6058376389597
 10
73.64373913089463
 20
-138.6123833203816
 10
73.54865449550172
 20
-138.6144503776728
 10
73.54865449550172
 20
-138.6144503776728
 10
73.54865449550172
 20
-138.4366834506339
 10
73.54865449550172
 20
-138.4366834506339
 10
73.74536944770949
 20
-138.4432291320559
 10
74.02890080614556
 20
-138.4473632466382
 10
74.17910696930245
 20
-138.4473632466382
 10
74.17910696930245
 20
-138.4473632466382
 10
74.39270288938793
 20
-138.4473632466382
 10
74.39270288938793
 20
-138.4473632466382
 10
74.39270288938793
 20
-138.4473632466382
 10
74.39270288938793
 20
-138.3391872484013
 10
74.39270288938793
 20
-138.3391872484013
 10
74.39270288938793
 20
-138.3391872484013
 10
74.24663084081334
 20
-138.3391872484013
 10
74.24663084081334
 20
-138.3391872484013
 10
74.07747665248758
 20
-138.3391872484013
 10
73.90832246416181
 20
-138.3436658725321
 10
73.7412353331272
 20
-138.3502115539541
 10
73.7412353331272
 20
-138.3502115539541
 10
73.7412353331272
 20
-138.1786457987887
 10
73.7412353331272
 20
-138.1786457987887
 10
73.89557561086639
 20
-138.1889810852444
 10
74.08161076706988
 20
-138.1889810852444
 10
74.24663084081334
 20
-138.1889810852444
 10
74.24663084081334
 20
-138.1889810852444
 10
74.39270288938793
 20
-138.1889810852444
 10
74.39270288938793
 20
-138.1889810852444
 10
74.39270288938793
 20
-138.1889810852444
 10
74.39270288938793
 20
-138.0708143101004
 10
74.39270288938793
 20
-138.0708143101004
 10
74.39270288938793
 20
-138.0708143101004
 10
74.26144475139992
 20
-138.0708143101004
 10
74.26144475139992
 20
-138.0708143101004
 10
74.21493596234905
 20
-138.0708143101004
 10
74.01201983826783
 20
-138.0794270488135
 10
73.96964516379926
 20
-138.0794270488135
 10
73.76672903971804
 20
-138.0835611633958
 10
73.69024791994549
 20
-138.0856282206869
 10
73.61204425243032
 20
-138.0876952779781
 10
73.61204425243032
 20
-138.0876952779781
 10
73.61204425243032
 20
-137.9037271790658
 10
73.61204425243032
 20
-137.9037271790658
 10
73.72642142254062
 20
-137.9119954082304
 10
73.77086315430034
 20
-137.9119954082304
 10
74.1536132627116
 20
-137.9206081469435
 10
74.090223505783
 20
-137.825179002002
 10
74.06266274190101
 20
-137.79761823812
 10
74.0268337488544
 20
-137.7617892450735
 10
74.0268337488544
 20
-137.7617892450735
 10
74.20218910905362
 20
-137.6791069534275
 10
74.20218910905362
 20
-137.6791069534275
 10
74.24249672623104
 20
-137.7152804560226
 10
74.28693845799077
 20
-137.7576551304911
 10
74.36100801092364
 20
-137.8675536764706
 10
74.36100801092364
 20
-137.8675536764706
 10
74.24663084081334
 20
-137.9226752042346
 10
74.24663084081334
 20
-137.9226752042346
 10
74.24663084081334
 20
-137.9226752042346
 10
74.25731063681762
 20
-137.9226752042346
 10
74.25731063681762
 20
-137.9226752042346
 10
74.25731063681762
 20
-137.9226752042346
 10
74.77993162193002
 20
-137.9226752042346
 10
74.77993162193002
 20
-137.9226752042346
 10
74.77993162193002
 20
-137.9226752042346
 10
74.68484698653712
 20
-137.8782334724749
 10
74.68484698653712
 20
-137.8782334724749
 10
74.7120632408706
 20
-137.8403374221371
 10
74.76925182592575
 20
-137.7597221877823
 10
74.78406573651232
 20
-137.6856526348494
 10
74.78406573651232
 20
-137.6856526348494
 10
74.99766165659781
 20
-137.7493869013265
 10
74.99766165659781
 20
-137.7493869013265
 10
75.00627439531094
 20
-137.7514539586177
 10
75.02728947777096
 20
-137.7617892450735
 10
75.02728947777096
 20
-137.783148837082
 10
75.02728947777096
 20
-137.8210448874197
 10
74.9618326635512
 20
-137.8210448874197
 10
74.94288463838234
 20
-137.8210448874197
 10
74.93220484237807
 20
-137.8403374221371
 10
74.90877819307836
 20
-137.880300529766
 10
74.87915037190521
 20
-137.9206081469435
 10
75.27912595774272
 20
-137.9140624655215
 10
75.30875377891587
 20
-137.9119954082304
 10
75.3848903891399
 20
-137.9057942363569
 10
75.3848903891399
 20
-137.9057942363569
 10
75.3848903891399
 20
-138.0876952779781
 10
75.3848903891399
 20
-138.0876952779781
 10
75.36594236397102
 20
-138.0876952779781
 10
75.34044865738016
 20
-138.0856282206869
 10
75.12065156542123
 20
-138.0770154819738
 10
75.06966415223953
 20
-138.0749484246826
 10
74.84986706028059
 20
-138.0708143101004
 10
74.80542532852087
 20
-138.0708143101004
 10
74.80542532852087
 20
-138.0708143101004
 10
74.5894178415957
 20
-138.0708143101004
 10
74.5894178415957
 20
-138.0708143101004
 10
74.5894178415957
 20
-138.0708143101004
 10
74.5894178415957
 20
-138.1889810852444
 10
74.5894178415957
 20
-138.1889810852444
 10
74.5894178415957
 20
-138.1889810852444
 10
74.7630506540523
 20
-138.1889810852444
 10
74.7630506540523
 20
-138.1889810852444
 10
74.92600367050461
 20
-138.1889810852444
 10
75.1161729412904
 20
-138.1889810852444
 10
75.27292478586928
 20
-138.1786457987887
 10
75.27292478586928
 20
-138.1786457987887
 10
75.27292478586928
 20
-138.3502115539541
 10
75.27292478586928
 20
-138.3502115539541
 10
75.06346298036608
 20
-138.341598815241
 10
74.86674802815831
 20
-138.3391872484013
 10
74.7630506540523
 20
-138.3391872484013
 10
74.7630506540523
 20
-138.3391872484013
 10
74.5894178415957
 20
-138.3391872484013
 10
74.5894178415957
 20
-138.3391872484013
 10
74.5894178415957
 20
-138.3391872484013
 10
74.5894178415957
 20
-138.4473632466382
 10
74.5894178415957
 20
-138.4473632466382
 10
74.5894178415957
 20
-138.4473632466382
 10
74.82023923910744
 20
-138.4473632466382
 10
74.82023923910744
 20
-138.4473632466382
 10
74.95321992483808
 20
-138.4473632466382
 10
75.24122990740497
 20
-138.4432291320559
 10
75.45034720335964
 20
-138.4366834506339
 10
75.45034720335964
 20
-138.4366834506339
 10
75.45034720335964
 20
-138.6144503776728
 10
75.45034720335964
 20
-138.6144503776728
 10
75.2581108752827
 20
-138.6079046962508
 10
74.94495169567348
 20
-138.6037705816685
 10
74.82023923910744
 20
-138.6037705816685
 97
        0
 97
        0
 92
        1
 93
        4
 72
     1
 10
74.98525931285091
 20
-138.8597411762226
 11
74.27867022882617
 21
-138.8597411762226
 72
     1
 10
74.27867022882617
 20
-138.8597411762226
 11
74.27867022882617
 21
-138.9675726649109
 72
     1
 10
74.27867022882617
 20
-138.9675726649109
 11
74.98525931285091
 21
-138.9675726649109
 72
     1
 10
74.98525931285091
 20
-138.9675726649109
 11
74.98525931285091
 21
-138.8597411762226
 97
        0
 92
        1
 93
        4
 72
     1
 10
74.98525931285091
 20
-139.0922851214769
 11
74.27867022882617
 21
-139.0922851214769
 72
     1
 10
74.27867022882617
 20
-139.0922851214769
 11
74.27867022882617
 21
-139.2066622915872
 72
     1
 10
74.27867022882617
 20
-139.2066622915872
 11
74.98525931285091
 21
-139.2066622915872
 72
     1
 10
74.98525931285091
 20
-139.2066622915872
 11
74.98525931285091
 21
-139.0922851214769
 97
        0
 92
        1
 93
        4
 72
     1
 10
74.98525931285091
 20
-139.3358533722841
 11
74.27867022882617
 21
-139.3358533722841
 72
     1
 10
74.27867022882617
 20
-139.3358533722841
 11
74.27867022882617
 21
-139.4498860328459
 72
     1
 10
74.27867022882617
 20
-139.4498860328459
 11
74.98525931285091
 21
-139.4498860328459
 72
     1
 10
74.98525931285091
 20
-139.4498860328459
 11
74.98525931285091
 21
-139.3358533722841
 97
        0
 75
     2
 76
     1
 98
        0
  0
SPLINE
  5
113
330
F4
100
AcDbEntity
  8
_U+30EC_U+30A4_U+30E4_U+30FC 1
370
     0
100
AcDbSpline
210
0.0
220
0.0
230
1.0
 70
    11
 71
     3
 72
    47
 73
    43
 74
     0
 42
0.0000000001
 43
0.0000000001
 12
1.0
 22
0.0
 32
0.0
 13
1.0
 23
0.0
 33
0.0
 40
0.0
 40
0.0
 40
0.0
 40
0.0
 40
1.0
 40
1.0
 40
1.0
 40
2.0
 40
2.0
 40
2.0
 40
3.0
 40
3.0
 40
3.0
 40
4.0
 40
4.0
 40
4.0
 40
5.0
 40
5.0
 40
5.0
 40
6.0
 40
6.0
 40
6.0
 40
7.0
 40
7.0
 40
7.0
 40
8.0
 40
8.0
 40
8.0
 40
9.0
 40
9.0
 40
9.0
 40
10.0
 40
10.0
 40
10.0
 40
11.0
 40
11.0
 40
11.0
 40
12.0
 40
12.0
 40
12.0
 40
13.0
 40
13.0
 40
13.0
 40
14.0
 40
14.0
 40
14.0
 40
14.0
 10
76.7970350285438
 20
-138.5803439323688
 30
0.0
 10
76.7970350285438
 20
-138.5803439323688
 30
0.0
 10
76.69540471172893
 20
-138.5803439323688
 30
0.0
 10
76.69540471172893
 20
-138.5803439323688
 30
0.0
 10
76.69540471172893
 20
-138.6671603385971
 30
0.0
 10
76.6743896292689
 20
-139.0564561284303
 30
0.0
 10
76.47767467706115
 20
-139.2765977299378
 30
0.0
 10
76.32505694706457
 20
-139.4457519182636
 30
0.0
 10
76.11800670840105
 20
-139.5156873566141
 30
0.0
 10
76.03325735946392
 20
-139.5429036109476
 30
0.0
 10
76.03325735946392
 20
-139.5429036109476
 30
0.0
 10
75.83860946454729
 20
-139.3761609894615
 30
0.0
 10
75.83860946454729
 20
-139.3761609894615
 30
0.0
 10
75.93610566677987
 20
-139.3630696266176
 30
0.0
 10
76.11146102697909
 20
-139.3399874868664
 30
0.0
 10
76.29990775002224
 20
-139.1515407638232
 30
0.0
 10
76.37397730295513
 20
-139.07988277773
 30
0.0
 10
76.47767467706115
 20
-138.9400119010289
 30
0.0
 10
76.47767467706115
 20
-138.5803439323688
 30
0.0
 10
76.47767467706115
 20
-138.5803439323688
 30
0.0
 10
76.2468532795494
 20
-138.5803439323688
 30
0.0
 10
76.2468532795494
 20
-138.5803439323688
 30
0.0
 10
76.06081812334591
 20
-138.5803439323688
 30
0.0
 10
75.8744384575939
 20
-138.5848225564996
 30
0.0
 10
75.68840330139041
 20
-138.5996364670862
 30
0.0
 10
75.68840330139041
 20
-138.5996364670862
 30
0.0
 10
75.68840330139041
 20
-138.3798393751273
 30
0.0
 10
75.68840330139041
 20
-138.3798393751273
 30
0.0
 10
75.87685002443357
 20
-138.3943087761653
 30
0.0
 10
76.16244844016079
 20
-138.3984428907476
 30
0.0
 10
76.2468532795494
 20
-138.3984428907476
 30
0.0
 10
76.2468532795494
 20
-138.3984428907476
 30
0.0
 10
76.7970350285438
 20
-138.3984428907476
 30
0.0
 10
76.7970350285438
 20
-138.3984428907476
 30
0.0
 10
76.81598305371267
 20
-138.3984428907476
 30
0.0
 10
77.13327634790419
 20
-138.3984428907476
 30
0.0
 10
77.36168617857625
 20
-138.3798393751273
 30
0.0
 10
77.36168617857625
 20
-138.3798393751273
 30
0.0
 10
77.36168617857625
 20
-138.5996364670862
 30
0.0
 10
77.36168617857625
 20
-138.5996364670862
 30
0.0
 10
77.1735839650816
 20
-138.5848225564996
 30
0.0
 10
76.98513724203845
 20
-138.5803439323688
 30
0.0
 10
76.7970350285438
 20
-138.5803439323688
 30
0.0
  0
SPLINE
  5
114
330
F4
100
AcDbEntity
  8
_U+30EC_U+30A4_U+30E4_U+30FC 1
370
     0
100
AcDbSpline
210
0.0
220
0.0
230
1.0
 70
    11
 71
     3
 72
    29
 73
    25
 74
     0
 42
0.0000000001
 43
0.0000000001
 12
1.0
 22
0.0
 32
0.0
 13
1.0
 23
0.0
 33
0.0
 40
0.0
 40
0.0
 40
0.0
 40
0.0
 40
1.0
 40
1.0
 40
1.0
 40
2.0
 40
2.0
 40
2.0
 40
3.0
 40
3.0
 40
3.0
 40
4.0
 40
4.0
 40
4.0
 40
5.0
 40
5.0
 40
5.0
 40
6.0
 40
6.0
 40
6.0
 40
7.0
 40
7.0
 40
7.0
 40
8.0
 40
8.0
 40
8.0
 40
8.0
 10
76.69540471172893
 20
-138.0518662849315
 30
0.0
 10
76.69540471172893
 20
-138.0518662849315
 30
0.0
 10
76.34193791494229
 20
-138.0518662849315
 30
0.0
 10
76.34193791494229
 20
-138.0518662849315
 30
0.0
 10
76.22997231167167
 20
-138.0518662849315
 30
0.0
 10
76.09044594451906
 20
-138.0580674568049
 30
0.0
 10
75.98261445583074
 20
-138.0708143101004
 30
0.0
 10
75.98261445583074
 20
-138.0708143101004
 30
0.0
 10
75.98261445583074
 20
-137.8358587980063
 30
0.0
 10
75.98261445583074
 20
-137.8358587980063
 30
0.0
 10
76.1007812309748
 20
-137.8506727085929
 30
0.0
 10
76.28509383943567
 20
-137.8548068231752
 30
0.0
 10
76.34193791494229
 20
-137.8548068231752
 30
0.0
 10
76.34193791494229
 20
-137.8548068231752
 30
0.0
 10
76.69540471172893
 20
-137.8548068231752
 30
0.0
 10
76.69540471172893
 20
-137.8548068231752
 30
0.0
 10
76.71435273689781
 20
-137.8548068231752
 30
0.0
 10
76.91761337052755
 20
-137.8548068231752
 30
0.0
 10
77.05920679497132
 20
-137.8358587980063
 30
0.0
 10
77.05920679497132
 20
-137.8358587980063
 30
0.0
 10
77.05920679497132
 20
-138.0708143101004
 30
0.0
 10
77.05920679497132
 20
-138.0708143101004
 30
0.0
 10
76.90279945994097
 20
-138.0518662849315
 30
0.0
 10
76.71228567960665
 20
-138.0518662849315
 30
0.0
 10
76.69540471172893
 20
-138.0518662849315
 30
0.0
  0
HATCH
  5
115
330
F4
100
AcDbEntity
  8
_U+30EC_U+30A4_U+30E4_U+30FC 1
 62
   179
420
  2234388
100
AcDbHatch
 10
0.0
 20
0.0
 30
0.0
210
0.0
220
0.0
230
1.0
  2
SOLID
 70
     1
 71
     0
 91
        2
 92
        1
 93
        1
 72
     4
 94
        3
 73
     0
 74
     1
 95
       47
 96
       43
 40
0.0
 40
0.0
 40
0.0
 40
0.0
 40
1.0
 40
1.0
 40
1.0
 40
2.0
 40
2.0
 40
2.0
 40
3.0
 40
3.0
 40
3.0
 40
4.0
 40
4.0
 40
4.0
 40
5.0
 40
5.0
 40
5.0
 40
6.0
 40
6.0
 40
6.0
 40
7.0
 40
7.0
 40
7.0
 40
8.0
 40
8.0
 40
8.0
 40
9.0
 40
9.0
 40
9.0
 40
10.0
 40
10.0
 40
10.0
 40
11.0
 40
11.0
 40
11.0
 40
12.0
 40
12.0
 40
12.0
 40
13.0
 40
13.0
 40
13.0
 40
14.0
 40
14.0
 40
14.0
 40
14.0
 10
76.7970350285438
 20
-138.5803439323688
 10
76.7970350285438
 20
-138.5803439323688
 10
76.69540471172893
 20
-138.5803439323688
 10
76.69540471172893
 20
-138.5803439323688
 10
76.69540471172893
 20
-138.6671603385971
 10
76.6743896292689
 20
-139.0564561284303
 10
76.47767467706115
 20
-139.2765977299378
 10
76.32505694706457
 20
-139.4457519182636
 10
76.11800670840105
 20
-139.5156873566141
 10
76.03325735946392
 20
-139.5429036109476
 10
76.03325735946392
 20
-139.5429036109476
 10
75.83860946454729
 20
-139.3761609894615
 10
75.83860946454729
 20
-139.3761609894615
 10
75.93610566677987
 20
-139.3630696266176
 10
76.11146102697909
 20
-139.3399874868664
 10
76.29990775002224
 20
-139.1515407638232
 10
76.37397730295513
 20
-139.07988277773
 10
76.47767467706115
 20
-138.9400119010289
 10
76.47767467706115
 20
-138.5803439323688
 10
76.47767467706115
 20
-138.5803439323688
 10
76.2468532795494
 20
-138.5803439323688
 10
76.2468532795494
 20
-138.5803439323688
 10
76.06081812334591
 20
-138.5803439323688
 10
75.8744384575939
 20
-138.5848225564996
 10
75.68840330139041
 20
-138.5996364670862
 10
75.68840330139041
 20
-138.5996364670862
 10
75.68840330139041
 20
-138.3798393751273
 10
75.68840330139041
 20
-138.3798393751273
 10
75.87685002443357
 20
-138.3943087761653
 10
76.16244844016079
 20
-138.3984428907476
 10
76.2468532795494
 20
-138.3984428907476
 10
76.2468532795494
 20
-138.3984428907476
 10
76.7970350285438
 20
-138.3984428907476
 10
76.7970350285438
 20
-138.3984428907476
 10
76.81598305371267
 20
-138.3984428907476
 10
77.13327634790419
 20
-138.3984428907476
 10
77.36168617857625
 20
-138.3798393751273
 10
77.36168617857625
 20
-138.3798393751273
 10
77.36168617857625
 20
-138.5996364670862
 10
77.36168617857625
 20
-138.5996364670862
 10
77.1735839650816
 20
-138.5848225564996
 10
76.98513724203845
 20
-138.5803439323688
 10
76.7970350285438
 20
-138.5803439323688
 97
        0
 97
        0
 92
        1
 93
        1
 72
     4
 94
        3
 73
     0
 74
     1
 95
       29
 96
       25
 40
0.0
 40
0.0
 40
0.0
 40
0.0
 40
1.0
 40
1.0
 40
1.0
 40
2.0
 40
2.0
 40
2.0
 40
3.0
 40
3.0
 40
3.0
 40
4.0
 40
4.0
 40
4.0
 40
5.0
 40
5.0
 40
5.0
 40
6.0
 40
6.0
 40
6.0
 40
7.0
 40
7.0
 40
7.0
 40
8.0
 40
8.0
 40
8.0
 40
8.0
 10
76.69540471172893
 20
-138.0518662849315
 10
76.69540471172893
 20
-138.0518662849315
 10
76.34193791494229
 20
-138.0518662849315
 10
76.34193791494229
 20
-138.0518662849315
 10
76.22997231167167
 20
-138.0518662849315
 10
76.09044594451906
 20
-138.0580674568049
 10
75.98261445583074
 20
-138.0708143101004
 10
75.98261445583074
 20
-138.0708143101004
 10
75.98261445583074
 20
-137.8358587980063
 10
75.98261445583074
 20
-137.8358587980063
 10
76.1007812309748
 20
-137.8506727085929
 10
76.28509383943567
 20
-137.8548068231752
 10
76.34193791494229
 20
-137.8548068231752
 10
76.34193791494229
 20
-137.8548068231752
 10
76.69540471172893
 20
-137.8548068231752
 10
76.69540471172893
 20
-137.8548068231752
 10
76.71435273689781
 20
-137.8548068231752
 10
76.91761337052755
 20
-137.8548068231752
 10
77.05920679497132
 20
-137.8358587980063
 10
77.05920679497132
 20
-137.8358587980063
 10
77.05920679497132
 20
-138.0708143101004
 10
77.05920679497132
 20
-138.0708143101004
 10
76.90279945994097
 20
-138.0518662849315
 10
76.71228567960665
 20
-138.0518662849315
 10
76.69540471172893
 20
-138.0518662849315
 97
        0
 97
        0
 75
     2
 76
     1
 98
        0
  0
SPLINE
  5
116
330
F4
100
AcDbEntity
  8
_U+30EC_U+30A4_U+30E4_U+30FC 1
370
     0
100
AcDbSpline
210
0.0
220
0.0
230
1.0
 70
    11
 71
     3
 72
    29
 73
    25
 74
     0
 42
0.0000000001
 43
0.0000000001
 12
1.0
 22
0.0
 32
0.0
 13
1.0
 23
0.0
 33
0.0
 40
0.0
 40
0.0
 40
0.0
 40
0.0
 40
1.0
 40
1.0
 40
1.0
 40
2.0
 40
2.0
 40
2.0
 40
3.0
 40
3.0
 40
3.0
 40
4.0
 40
4.0
 40
4.0
 40
5.0
 40
5.0
 40
5.0
 40
6.0
 40
6.0
 40
6.0
 40
7.0
 40
7.0
 40
7.0
 40
8.0
 40
8.0
 40
8.0
 40
8.0
 10
78.64291718954067
 20
-138.7436414583696
 30
0.0
 10
78.64291718954067
 20
-138.7436414583696
 30
0.0
 10
78.15853676431453
 20
-138.7436414583696
 30
0.0
 10
78.15853676431453
 20
-138.7436414583696
 30
0.0
 10
78.13097600043254
 20
-138.7436414583696
 30
0.0
 10
77.81368270624102
 20
-138.7436414583696
 30
0.0
 10
77.60215384344669
 20
-138.768790655412
 30
0.0
 10
77.60215384344669
 20
-138.768790655412
 30
0.0
 10
77.60215384344669
 20
-138.5383137674488
 30
0.0
 10
77.60215384344669
 20
-138.5383137674488
 30
0.0
 10
77.76062823576818
 20
-138.5617404167484
 30
0.0
 10
77.9511420161025
 20
-138.5638074740396
 30
0.0
 10
78.15853676431453
 20
-138.5638074740396
 30
0.0
 10
78.15853676431453
 20
-138.5638074740396
 30
0.0
 10
78.64291718954067
 20
-138.5638074740396
 30
0.0
 10
78.64291718954067
 20
-138.5638074740396
 30
0.0
 10
78.82895234574416
 20
-138.5638074740396
 30
0.0
 10
79.01533201149617
 20
-138.5617404167484
 30
0.0
 10
79.19930011040852
 20
-138.5383137674488
 30
0.0
 10
79.19930011040852
 20
-138.5383137674488
 30
0.0
 10
79.19930011040852
 20
-138.768790655412
 30
0.0
 10
79.19930011040852
 20
-138.768790655412
 30
0.0
 10
79.01533201149617
 20
-138.7457085156608
 30
0.0
 10
78.76762964610671
 20
-138.7436414583696
 30
0.0
 10
78.64291718954067
 20
-138.7436414583696
 30
0.0
  0
HATCH
  5
117
330
F4
100
AcDbEntity
  8
_U+30EC_U+30A4_U+30E4_U+30FC 1
 62
   179
420
  2234388
100
AcDbHatch
 10
0.0
 20
0.0
 30
0.0
210
0.0
220
0.0
230
1.0
  2
SOLID
 70
     1
 71
     0
 91
        1
 92
        1
 93
        1
 72
     4
 94
        3
 73
     0
 74
     1
 95
       29
 96
       25
 40
0.0
 40
0.0
 40
0.0
 40
0.0
 40
1.0
 40
1.0
 40
1.0
 40
2.0
 40
2.0
 40
2.0
 40
3.0
 40
3.0
 40
3.0
 40
4.0
 40
4.0
 40
4.0
 40
5.0
 40
5.0
 40
5.0
 40
6.0
 40
6.0
 40
6.0
 40
7.0
 40
7.0
 40
7.0
 40
8.0
 40
8.0
 40
8.0
 40
8.0
 10
78.64291718954067
 20
-138.7436414583696
 10
78.64291718954067
 20
-138.7436414583696
 10
78.15853676431453
 20
-138.7436414583696
 10
78.15853676431453
 20
-138.7436414583696
 10
78.13097600043254
 20
-138.7436414583696
 10
77.81368270624102
 20
-138.7436414583696
 10
77.60215384344669
 20
-138.768790655412
 10
77.60215384344669
 20
-138.768790655412
 10
77.60215384344669
 20
-138.5383137674488
 10
77.60215384344669
 20
-138.5383137674488
 10
77.76062823576818
 20
-138.5617404167484
 10
77.9511420161025
 20
-138.5638074740396
 10
78.15853676431453
 20
-138.5638074740396
 10
78.15853676431453
 20
-138.5638074740396
 10
78.64291718954067
 20
-138.5638074740396
 10
78.64291718954067
 20
-138.5638074740396
 10
78.82895234574416
 20
-138.5638074740396
 10
79.01533201149617
 20
-138.5617404167484
 10
79.19930011040852
 20
-138.5383137674488
 10
79.19930011040852
 20
-138.5383137674488
 10
79.19930011040852
 20
-138.768790655412
 10
79.19930011040852
 20
-138.768790655412
 10
79.01533201149617
 20
-138.7457085156608
 10
78.76762964610671
 20
-138.7436414583696
 10
78.64291718954067
 20
-138.7436414583696
 97
        0
 97
        0
 75
     2
 76
     1
 98
        0
  0
SPLINE
  5
118
330
F4
100
AcDbEntity
  8
_U+30EC_U+30A4_U+30E4_U+30FC 1
370
     0
100
AcDbSpline
210
0.0
220
0.0
230
1.0
 70
    11
 71
     3
 72
    44
 73
    40
 74
     0
 42
0.0000000001
 43
0.0000000001
 12
1.0
 22
0.0
 32
0.0
 13
1.0
 23
0.0
 33
0.0
 40
0.0
 40
0.0
 40
0.0
 40
0.0
 40
1.0
 40
1.0
 40
1.0
 40
2.0
 40
2.0
 40
2.0
 40
3.0
 40
3.0
 40
3.0
 40
4.0
 40
4.0
 40
4.0
 40
5.0
 40
5.0
 40
5.0
 40
6.0
 40
6.0
 40
6.0
 40
7.0
 40
7.0
 40
7.0
 40
8.0
 40
8.0
 40
8.0
 40
9.0
 40
9.0
 40
9.0
 40
10.0
 40
10.0
 40
10.0
 40
11.0
 40
11.0
 40
11.0
 40
12.0
 40
12.0
 40
12.0
 40
13.0
 40
13.0
 40
13.0
 40
13.0
 10
80.85432398152254
 20
-138.3054253126459
 30
0.0
 10
80.74235837825191
 20
-138.6737060200191
 30
0.0
 10
80.69171547461875
 20
-138.8325249218891
 30
0.0
 10
80.49500052241098
 20
-139.0819498350212
 30
0.0
 10
80.3106879139501
 20
-139.3127712325329
 30
0.0
 10
80.07400985411344
 20
-139.4988063887364
 30
0.0
 10
79.79461261025969
 20
-139.5918239668381
 30
0.0
 10
79.79461261025969
 20
-139.5918239668381
 30
0.0
 10
79.60203177263422
 20
-139.4119899825081
 30
0.0
 10
79.60203177263422
 20
-139.4119899825081
 30
0.0
 10
80.24316404243922
 20
-139.2597167620601
 30
0.0
 10
80.57320418992614
 20
-138.7033338411922
 30
0.0
 10
80.63659394685475
 20
-138.2633951477258
 30
0.0
 10
80.63659394685475
 20
-138.2633951477258
 30
0.0
 10
79.8707492204837
 20
-138.2633951477258
 30
0.0
 10
79.8707492204837
 20
-138.2633951477258
 30
0.0
 10
79.77773164238197
 20
-138.2633951477258
 30
0.0
 10
79.59376354346962
 20
-138.2675292623081
 30
0.0
 10
79.43701169889076
 20
-138.286477287477
 30
0.0
 10
79.43701169889076
 20
-138.286477287477
 30
0.0
 10
79.43701169889076
 20
-138.0663356859695
 30
0.0
 10
79.43701169889076
 20
-138.0663356859695
 30
0.0
 10
79.52382810511905
 20
-138.0876952779781
 30
0.0
 10
79.77566458509081
 20
-138.0876952779781
 30
0.0
 10
79.874883335066
 20
-138.0876952779781
 30
0.0
 10
79.874883335066
 20
-138.0876952779781
 30
0.0
 10
80.3065537993678
 20
-138.0876952779781
 30
0.0
 10
80.3065537993678
 20
-138.0876952779781
 30
0.0
 10
80.34892847383638
 20
-138.0876952779781
 30
0.0
 10
80.5835394763819
 20
-138.0856282206869
 30
0.0
 10
80.62178003626816
 20
-138.0794270488135
 30
0.0
 10
80.66415471073674
 20
-138.0728813673915
 30
0.0
 10
80.6662217680279
 20
-138.0708143101004
 30
0.0
 10
80.72754446766534
 20
-138.0305066929229
 30
0.0
 10
80.72754446766534
 20
-138.0305066929229
 30
0.0
 10
80.91564668115998
 20
-138.1848469706621
 30
0.0
 10
80.91564668115998
 20
-138.1848469706621
 30
0.0
 10
80.88636336953536
 20
-138.2144747918353
 30
0.0
 10
80.87154945894878
 20
-138.2461696702996
 30
0.0
 10
80.85432398152254
 20
-138.3054253126459
 30
0.0
  0
SPLINE
  5
119
330
F4
100
AcDbEntity
  8
_U+30EC_U+30A4_U+30E4_U+30FC 1
370
     0
100
AcDbSpline
210
0.0
220
0.0
230
1.0
 70
    11
 71
     3
 72
    17
 73
    13
 74
     0
 42
0.0000000001
 43
0.0000000001
 12
1.0
 22
0.0
 32
0.0
 13
1.0
 23
0.0
 33
0.0
 40
0.0
 40
0.0
 40
0.0
 40
0.0
 40
1.0
 40
1.0
 40
1.0
 40
2.0
 40
2.0
 40
2.0
 40
3.0
 40
3.0
 40
3.0
 40
4.0
 40
4.0
 40
4.0
 40
4.0
 10
81.06378578702572
 20
-138.106643303147
 30
0.0
 10
80.93700627316854
 20
-138.106643303147
 30
0.0
 10
80.83537595635366
 20
-138.0050129863321
 30
0.0
 10
80.83537595635366
 20
-137.8782334724749
 30
0.0
 10
80.83537595635366
 20
-137.7514539586177
 30
0.0
 10
80.93700627316854
 20
-137.6474120749631
 30
0.0
 10
81.06378578702572
 20
-137.6474120749631
 30
0.0
 10
81.19090981043145
 20
-137.6474120749631
 30
0.0
 10
81.29460718453747
 20
-137.7514539586177
 30
0.0
 10
81.29460718453747
 20
-137.8782334724749
 30
0.0
 10
81.29460718453747
 20
-138.0050129863321
 30
0.0
 10
81.19090981043145
 20
-138.106643303147
 30
0.0
 10
81.06378578702572
 20
-138.106643303147
 30
0.0
  0
SPLINE
  5
11A
330
F4
100
AcDbEntity
  8
_U+30EC_U+30A4_U+30E4_U+30FC 1
370
     0
100
AcDbSpline
210
0.0
220
0.0
230
1.0
 70
    11
 71
     3
 72
    17
 73
    13
 74
     0
 42
0.0000000001
 43
0.0000000001
 12
1.0
 22
0.0
 32
0.0
 13
1.0
 23
0.0
 33
0.0
 40
0.0
 40
0.0
 40
0.0
 40
0.0
 40
1.0
 40
1.0
 40
1.0
 40
2.0
 40
2.0
 40
2.0
 40
3.0
 40
3.0
 40
3.0
 40
4.0
 40
4.0
 40
4.0
 40
4.0
 10
81.06171872973458
 20
-137.77660315566
 30
0.0
 10
81.0069417115191
 20
-137.77660315566
 30
0.0
 10
80.96249997975937
 20
-137.8210448874197
 30
0.0
 10
80.96249997975937
 20
-137.8761664151837
 30
0.0
 10
80.96249997975937
 20
-137.9333550002389
 30
0.0
 10
81.0069417115191
 20
-137.9819308465809
 30
0.0
 10
81.06585284431688
 20
-137.9819308465809
 30
0.0
 10
81.12510848666317
 20
-137.9819308465809
 30
0.0
 10
81.1654161038406
 20
-137.9312879429477
 30
0.0
 10
81.1654161038406
 20
-137.8782334724749
 30
0.0
 10
81.1654161038406
 20
-137.8210448874197
 30
0.0
 10
81.11890731478972
 20
-137.77660315566
 30
0.0
 10
81.06171872973458
 20
-137.77660315566
 30
0.0
  0
HATCH
  5
11B
330
F4
100
AcDbEntity
  8
_U+30EC_U+30A4_U+30E4_U+30FC 1
 62
   179
420
  2234388
100
AcDbHatch
 10
0.0
 20
0.0
 30
0.0
210
0.0
220
0.0
230
1.0
  2
SOLID
 70
     1
 71
     0
 91
        3
 92
        1
 93
        1
 72
     4
 94
        3
 73
     0
 74
     1
 95
       44
 96
       40
 40
0.0
 40
0.0
 40
0.0
 40
0.0
 40
1.0
 40
1.0
 40
1.0
 40
2.0
 40
2.0
 40
2.0
 40
3.0
 40
3.0
 40
3.0
 40
4.0
 40
4.0
 40
4.0
 40
5.0
 40
5.0
 40
5.0
 40
6.0
 40
6.0
 40
6.0
 40
7.0
 40
7.0
 40
7.0
 40
8.0
 40
8.0
 40
8.0
 40
9.0
 40
9.0
 40
9.0
 40
10.0
 40
10.0
 40
10.0
 40
11.0
 40
11.0
 40
11.0
 40
12.0
 40
12.0
 40
12.0
 40
13.0
 40
13.0
 40
13.0
 40
13.0
 10
80.85432398152254
 20
-138.3054253126459
 10
80.74235837825191
 20
-138.6737060200191
 10
80.69171547461875
 20
-138.8325249218891
 10
80.49500052241098
 20
-139.0819498350212
 10
80.3106879139501
 20
-139.3127712325329
 10
80.07400985411344
 20
-139.4988063887364
 10
79.79461261025969
 20
-139.5918239668381
 10
79.79461261025969
 20
-139.5918239668381
 10
79.60203177263422
 20
-139.4119899825081
 10
79.60203177263422
 20
-139.4119899825081
 10
80.24316404243922
 20
-139.2597167620601
 10
80.57320418992614
 20
-138.7033338411922
 10
80.63659394685475
 20
-138.2633951477258
 10
80.63659394685475
 20
-138.2633951477258
 10
79.8707492204837
 20
-138.2633951477258
 10
79.8707492204837
 20
-138.2633951477258
 10
79.77773164238197
 20
-138.2633951477258
 10
79.59376354346962
 20
-138.2675292623081
 10
79.43701169889076
 20
-138.286477287477
 10
79.43701169889076
 20
-138.286477287477
 10
79.43701169889076
 20
-138.0663356859695
 10
79.43701169889076
 20
-138.0663356859695
 10
79.52382810511905
 20
-138.0876952779781
 10
79.77566458509081
 20
-138.0876952779781
 10
79.874883335066
 20
-138.0876952779781
 10
79.874883335066
 20
-138.0876952779781
 10
80.3065537993678
 20
-138.0876952779781
 10
80.3065537993678
 20
-138.0876952779781
 10
80.34892847383638
 20
-138.0876952779781
 10
80.5835394763819
 20
-138.0856282206869
 10
80.62178003626816
 20
-138.0794270488135
 10
80.66415471073674
 20
-138.0728813673915
 10
80.6662217680279
 20
-138.0708143101004
 10
80.72754446766534
 20
-138.0305066929229
 10
80.72754446766534
 20
-138.0305066929229
 10
80.91564668115998
 20
-138.1848469706621
 10
80.91564668115998
 20
-138.1848469706621
 10
80.88636336953536
 20
-138.2144747918353
 10
80.87154945894878
 20
-138.2461696702996
 10
80.85432398152254
 20
-138.3054253126459
 97
        0
 97
        0
 92
        1
 93
        1
 72
     4
 94
        3
 73
     0
 74
     1
 95
       17
 96
       13
 40
0.0
 40
0.0
 40
0.0
 40
0.0
 40
1.0
 40
1.0
 40
1.0
 40
2.0
 40
2.0
 40
2.0
 40
3.0
 40
3.0
 40
3.0
 40
4.0
 40
4.0
 40
4.0
 40
4.0
 10
81.06378578702572
 20
-138.106643303147
 10
80.93700627316854
 20
-138.106643303147
 10
80.83537595635366
 20
-138.0050129863321
 10
80.83537595635366
 20
-137.8782334724749
 10
80.83537595635366
 20
-137.7514539586177
 10
80.93700627316854
 20
-137.6474120749631
 10
81.06378578702572
 20
-137.6474120749631
 10
81.19090981043145
 20
-137.6474120749631
 10
81.29460718453747
 20
-137.7514539586177
 10
81.29460718453747
 20
-137.8782334724749
 10
81.29460718453747
 20
-138.0050129863321
 10
81.19090981043145
 20
-138.106643303147
 10
81.06378578702572
 20
-138.106643303147
 97
        0
 97
        0
 92
        1
 93
        1
 72
     4
 94
        3
 73
     0
 74
     1
 95
       17
 96
       13
 40
0.0
 40
0.0
 40
0.0
 40
0.0
 40
1.0
 40
1.0
 40
1.0
 40
2.0
 40
2.0
 40
2.0
 40
3.0
 40
3.0
 40
3.0
 40
4.0
 40
4.0
 40
4.0
 40
4.0
 10
81.06171872973458
 20
-137.77660315566
 10
81.0069417115191
 20
-137.77660315566
 10
80.96249997975937
 20
-137.8210448874197
 10
80.96249997975937
 20
-137.8761664151837
 10
80.96249997975937
 20
-137.9333550002389
 10
81.0069417115191
 20
-137.9819308465809
 10
81.06585284431688
 20
-137.9819308465809
 10
81.12510848666317
 20
-137.9819308465809
 10
81.1654161038406
 20
-137.9312879429477
 10
81.1654161038406
 20
-137.8782334724749
 10
81.1654161038406
 20
-137.8210448874197
 10
81.11890731478972
 20
-137.77660315566
 10
81.06171872973458
 20
-137.77660315566
 97
        0
 97
        0
 75
     2
 76
     1
 98
        0
  0
ENDBLK
  5
F7
330
F4
100
AcDbEntity
  8
0
100
AcDbBlockEnd
  0
ENDSEC
  0
SECTION
  2
ENTITIES
  0
POLYLINE
  5
41
330
1F
100
AcDbEntity
  8
_U+30EC_U+30A4_U+30E4_U+30FC 1
 62
   179
420
  2234388
370
    25
100
AcDb2dPolyline
 66
     1
 10
0.0
 20
0.0
 30
0.0
  0
VERTEX
  5
42
330
41
100
AcDbEntity
  8
_U+30EC_U+30A4_U+30E4_U+30FC 1
 62
   179
420
  2234388
370
    25
100
AcDbVertex
100
AcDb2dVertex
 10
82.98183316073484
 20
-122.2716135805432
 30
0.0
  0
VERTEX
  5
43
330
41
100
AcDbEntity
  8
_U+30EC_U+30A4_U+30E4_U+30FC 1
 62
   179
420
  2234388
370
    25
100
AcDbVertex
100
AcDb2dVertex
 10
105.9821675739474
 20
-122.2716135805432
 30
0.0
  0
SEQEND
  5
44
330
41
100
AcDbEntity
  8
_U+30EC_U+30A4_U+30E4_U+30FC 1
 62
   179
420
  2234388
370
    25
  0
POLYLINE
  5
45
330
1F
100
AcDbEntity
  8
_U+30EC_U+30A4_U+30E4_U+30FC 1
 62
   179
420
  2234388
370
    25
100
AcDb2dPolyline
 66
     1
 10
0.0
 20
0.0
 30
0.0
  0
VERTEX
  5
46
330
45
100
AcDbEntity
  8
_U+30EC_U+30A4_U+30E4_U+30FC 1
 62
   179
420
  2234388
370
    25
100
AcDbVertex
100
AcDb2dVertex
 10
83.78214480698385
 20
-123.0715724692322
 30
0.0
  0
VERTEX
  5
47
330
45
100
AcDbEntity
  8
_U+30EC_U+30A4_U+30E4_U+30FC 1
 62
   179
420
  2234388
370
    25
100
AcDbVertex
100
AcDb2dVertex
 10
105.9821675739474
 20
-123.0715724692322
 30
0.0
  0
SEQEND
  5
48
330
45
100
AcDbEntity
  8
_U+30EC_U+30A4_U+30E4_U+30FC 1
 62
   179
420
  2234388
370
    25
  0
POLYLINE
  5
49
330
1F
100
AcDbEntity
  8
_U+30EC_U+30A4_U+30E4_U+30FC 1
 62
   179
420
  2234388
370
    25
100
AcDb2dPolyline
 66
     1
 10
0.0
 20
0.0
 30
0.0
  0
VERTEX
  5
4A
330
49
100
AcDbEntity
  8
_U+30EC_U+30A4_U+30E4_U+30FC 1
 62
   179
420
  2234388
370
    25
100
AcDbVertex
100
AcDb2dVertex
 10
105.9821675739474
 20
-122.2716135805432
 30
0.0
  0
VERTEX
  5
4B
330
49
100
AcDbEntity
  8
_U+30EC_U+30A4_U+30E4_U+30FC 1
 62
   179
420
  2234388
370
    25
100
AcDbVertex
100
AcDb2dVertex
 10
105.9821675739474
 20
-123.0715724692322
 30
0.0
  0
SEQEND
  5
4C
330
49
100
AcDbEntity
  8
_U+30EC_U+30A4_U+30E4_U+30FC 1
 62
   179
420
  2234388
370
    25
  0
POLYLINE
  5
4D
330
1F
100
AcDbEntity
  8
_U+30EC_U+30A4_U+30E4_U+30FC 1
 62
   179
420
  2234388
370
    25
100
AcDb2dPolyline
 66
     1
 10
0.0
 20
0.0
 30
0.0
  0
VERTEX
  5
4E
330
4D
100
AcDbEntity
  8
_U+30EC_U+30A4_U+30E4_U+30FC 1
 62
   179
420
  2234388
370
    25
100
AcDbVertex
100
AcDb2dVertex
 10
88.98215967432043
 20
-136.0719627437598
 30
0.0
  0
VERTEX
  5
4F
330
4D
100
AcDbEntity
  8
_U+30EC_U+30A4_U+30E4_U+30FC 1
 62
   179
420
  2234388
370
    25
100
AcDbVertex
100
AcDb2dVertex
 10
92.98174235006034
 20
-136.0719627437598
 30
0.0
  0
SEQEND
  5
50
330
4D
100
AcDbEntity
  8
_U+30EC_U+30A4_U+30E4_U+30FC 1
 62
   179
420
  2234388
370
    25
  0
POLYLINE
  5
51
330
1F
100
AcDbEntity
  8
_U+30EC_U+30A4_U+30E4_U+30FC 1
 62
   179
420
  2234388
370
    25
100
AcDb2dPolyline
 66
     1
 10
0.0
 20
0.0
 30
0.0
  0
VERTEX
  5
52
330
51
100
AcDbEntity
  8
_U+30EC_U+30A4_U+30E4_U+30FC 1
 62
   179
420
  2234388
370
    25
100
AcDbVertex
100
AcDb2dVertex
 10
82.98183316073484
 20
-139.0719496874541
 30
0.0
  0
VERTEX
  5
53
330
51
100
AcDbEntity
  8
_U+30EC_U+30A4_U+30E4_U+30FC 1
 62
   179
420
  2234388
370
    25
100
AcDbVertex
100
AcDb2dVertex
 10
92.98174235006034
 20
-139.0719496874541
 30
0.0
  0
SEQEND
  5
54
330
51
100
AcDbEntity
  8
_U+30EC_U+30A4_U+30E4_U+30FC 1
 62
   179
420
  2234388
370
    25
  0
POLYLINE
  5
55
330
1F
100
AcDbEntity
  8
_U+30EC_U+30A4_U+30E4_U+30FC 1
 62
   179
420
  2234388
370
    25
100
AcDb2dPolyline
 66
     1
 10
0.0
 20
0.0
 30
0.0
  0
VERTEX
  5
56
330
55
100
AcDbEntity
  8
_U+30EC_U+30A4_U+30E4_U+30FC 1
 62
   179
420
  2234388
370
    25
100
AcDbVertex
100
AcDb2dVertex
 10
92.98174235006034
 20
-136.0719627437598
 30
0.0
  0
VERTEX
  5
57
330
55
100
AcDbEntity
  8
_U+30EC_U+30A4_U+30E4_U+30FC 1
 62
   179
420
  2234388
370
    25
100
AcDbVertex
100
AcDb2dVertex
 10
92.98174235006034
 20
-139.0719496874541
 30
0.0
  0
SEQEND
  5
58
330
55
100
AcDbEntity
  8
_U+30EC_U+30A4_U+30E4_U+30FC 1
 62
   179
420
  2234388
370
    25
  0
POLYLINE
  5
59
330
1F
100
AcDbEntity
  8
_U+30EC_U+30A4_U+30E4_U+30FC 1
 62
   179
420
  2234388
370
    25
100
AcDb2dPolyline
 66
     1
 10
0.0
 20
0.0
 30
0.0
  0
VERTEX
  5
5A
330
59
100
AcDbEntity
  8
_U+30EC_U+30A4_U+30E4_U+30FC 1
 62
   179
420
  2234388
370
    25
100
AcDbVertex
100
AcDb2dVertex
 10
88.98215967432043
 20
-136.0719627437598
 30
0.0
  0
VERTEX
  5
5B
330
59
100
AcDbEntity
  8
_U+30EC_U+30A4_U+30E4_U+30FC 1
 62
   179
420
  2234388
370
    25
100
AcDbVertex
100
AcDb2dVertex
 10
88.98215967432043
 20
-136.8719216324484
 30
0.0
  0
SEQEND
  5
5C
330
59
100
AcDbEntity
  8
_U+30EC_U+30A4_U+30E4_U+30FC 1
 62
   179
420
  2234388
370
    25
  0
POLYLINE
  5
5D
330
1F
100
AcDbEntity
  8
_U+30EC_U+30A4_U+30E4_U+30FC 1
 62
   179
420
  2234388
370
    25
100
AcDb2dPolyline
 66
     1
 10
0.0
 20
0.0
 30
0.0
  0
VERTEX
  5
5E
330
5D
100
AcDbEntity
  8
_U+30EC_U+30A4_U+30E4_U+30FC 1
 62
   179
420
  2234388
370
    25
100
AcDbVertex
100
AcDb2dVertex
 10
83.78214480698385
 20
-138.2719907987655
 30
0.0
  0
VERTEX
  5
5F
330
5D
100
AcDbEntity
  8
_U+30EC_U+30A4_U+30E4_U+30FC 1
 62
   179
420
  2234388
370
    25
100
AcDbVertex
100
AcDb2dVertex
 10
92.18178348158011
 20
-138.2719907987655
 30
0.0
  0
SEQEND
  5
60
330
5D
100
AcDbEntity
  8
_U+30EC_U+30A4_U+30E4_U+30FC 1
 62
   179
420
  2234388
370
    25
  0
POLYLINE
  5
61
330
1F
100
AcDbEntity
  8
_U+30EC_U+30A4_U+30E4_U+30FC 1
 62
   179
420
  2234388
370
    25
100
AcDb2dPolyline
 66
     1
 10
0.0
 20
0.0
 30
0.0
  0
VERTEX
  5
62
330
61
100
AcDbEntity
  8
_U+30EC_U+30A4_U+30E4_U+30FC 1
 62
   179
420
  2234388
370
    25
100
AcDbVertex
100
AcDb2dVertex
 10
92.18178348158011
 20
-136.8719216324484
 30
0.0
  0
VERTEX
  5
63
330
61
100
AcDbEntity
  8
_U+30EC_U+30A4_U+30E4_U+30FC 1
 62
   179
420
  2234388
370
    25
100
AcDbVertex
100
AcDb2dVertex
 10
92.18178348158011
 20
-138.2719907987655
 30
0.0
  0
SEQEND
  5
64
330
61
100
AcDbEntity
  8
_U+30EC_U+30A4_U+30E4_U+30FC 1
 62
   179
420
  2234388
370
    25
  0
POLYLINE
  5
65
330
1F
100
AcDbEntity
  8
_U+30EC_U+30A4_U+30E4_U+30FC 1
 62
   179
420
  2234388
370
    25
100
AcDb2dPolyline
 66
     1
 10
0.0
 20
0.0
 30
0.0
  0
VERTEX
  5
66
330
65
100
AcDbEntity
  8
_U+30EC_U+30A4_U+30E4_U+30FC 1
 62
   179
420
  2234388
370
    25
100
AcDbVertex
100
AcDb2dVertex
 10
88.98215967432043
 20
-136.8719216324484
 30
0.0
  0
VERTEX
  5
67
330
65
100
AcDbEntity
  8
_U+30EC_U+30A4_U+30E4_U+30FC 1
 62
   179
420
  2234388
370
    25
100
AcDbVertex
100
AcDb2dVertex
 10
92.18178348158011
 20
-136.8719216324484
 30
0.0
  0
SEQEND
  5
68
330
65
100
AcDbEntity
  8
_U+30EC_U+30A4_U+30E4_U+30FC 1
 62
   179
420
  2234388
370
    25
  0
POLYLINE
  5
69
330
1F
100
AcDbEntity
  8
_U+30EC_U+30A4_U+30E4_U+30FC 1
 62
   179
420
  2234388
370
    25
100
AcDb2dPolyline
 66
     1
 10
0.0
 20
0.0
 30
0.0
  0
VERTEX
  5
6A
330
69
100
AcDbEntity
  8
_U+30EC_U+30A4_U+30E4_U+30FC 1
 62
   179
420
  2234388
370
    25
100
AcDbVertex
100
AcDb2dVertex
 10
82.98183316073484
 20
-122.2716135805432
 30
0.0
  0
VERTEX
  5
6B
330
69
100
AcDbEntity
  8
_U+30EC_U+30A4_U+30E4_U+30FC 1
 62
   179
420
  2234388
370
    25
100
AcDbVertex
100
AcDb2dVertex
 10
82.98183316073484
 20
-139.0719496874541
 30
0.0
  0
SEQEND
  5
6C
330
69
100
AcDbEntity
  8
_U+30EC_U+30A4_U+30E4_U+30FC 1
 62
   179
420
  2234388
370
    25
  0
POLYLINE
  5
6D
330
1F
100
AcDbEntity
  8
_U+30EC_U+30A4_U+30E4_U+30FC 1
 62
   179
420
  2234388
370
    25
100
AcDb2dPolyline
 66
     1
 10
0.0
 20
0.0
 30
0.0
  0
VERTEX
  5
6E
330
6D
100
AcDbEntity
  8
_U+30EC_U+30A4_U+30E4_U+30FC 1
 62
   179
420
  2234388
370
    25
100
AcDbVertex
100
AcDb2dVertex
 10
83.78214480698385
 20
-123.0715724692322
 30
0.0
  0
VERTEX
  5
6F
330
6D
100
AcDbEntity
  8
_U+30EC_U+30A4_U+30E4_U+30FC 1
 62
   179
420
  2234388
370
    25
100
AcDbVertex
100
AcDb2dVertex
 10
83.78214480698385
 20
-138.2719907987655
 30
0.0
  0
SEQEND
  5
70
330
6D
100
AcDbEntity
  8
_U+30EC_U+30A4_U+30E4_U+30FC 1
 62
   179
420
  2234388
370
    25
  0
SPLINE
  5
71
330
1F
100
AcDbEntity
  8
_U+30EC_U+30A4_U+30E4_U+30FC 1
 62
   179
420
  2234388
370
     9
100
AcDbSpline
210
0.0
220
0.0
230
1.0
 70
    11
 71
     3
 72
    17
 73
    13
 74
     0
 42
0.0000000001
 43
0.0000000001
 12
1.0
 22
0.0
 32
0.0
 13
1.0
 23
0.0
 33
0.0
 40
0.0
 40
0.0
 40
0.0
 40
0.0
 40
1.0
 40
1.0
 40
1.0
 40
2.0
 40
2.0
 40
2.0
 40
3.0
 40
3.0
 40
3.0
 40
4.0
 40
4.0
 40
4.0
 40
4.0
 10
110.0818360835905
 20
-122.2716135805432
 30
0.0
 10
110.0818360835905
 20
-122.2164744138905
 30
0.0
 10
110.0370333058238
 20
-122.1717069139016
 30
0.0
 10
109.9819266385717
 20
-122.1717069139016
 30
0.0
 10
109.9267874733118
 20
-122.1717069139016
 30
0.0
 10
109.8820199744539
 20
-122.2164744138905
 30
0.0
 10
109.8820199744539
 20
-122.2716135805432
 30
0.0
 10
109.8820199744539
 20
-122.3274230249737
 30
0.0
 10
109.9267874733118
 20
-122.3715202471849
 30
0.0
 10
109.9819266385717
 20
-122.3715202471849
 30
0.0
 10
110.0370333058238
 20
-122.3715202471849
 30
0.0
 10
110.0818360835905
 20
-122.3274230249737
 30
0.0
 10
110.0818360835905
 20
-122.2716135805432
 30
0.0
  0
SPLINE
  5
72
330
1F
100
AcDbEntity
  8
_U+30EC_U+30A4_U+30E4_U+30FC 1
 62
   179
420
  2234388
370
     9
100
AcDbSpline
210
0.0
220
0.0
230
1.0
 70
    11
 71
     3
 72
    17
 73
    13
 74
     0
 42
0.0000000001
 43
0.0000000001
 12
1.0
 22
0.0
 32
0.0
 13
1.0
 23
0.0
 33
0.0
 40
0.0
 40
0.0
 40
0.0
 40
0.0
 40
1.0
 40
1.0
 40
1.0
 40
2.0
 40
2.0
 40
2.0
 40
3.0
 40
3.0
 40
3.0
 40
4.0
 40
4.0
 40
4.0
 40
4.0
 10
110.0818360835905
 20
-123.0715724692322
 30
0.0
 10
110.0818360835905
 20
-123.0164333025791
 30
0.0
 10
110.0370333058238
 20
-122.9716658025905
 30
0.0
 10
109.9819266385717
 20
-122.9716658025905
 30
0.0
 10
109.9267874733118
 20
-122.9716658025905
 30
0.0
 10
109.8820199744539
 20
-123.0164333025791
 30
0.0
 10
109.8820199744539
 20
-123.0715724692322
 30
0.0
 10
109.8820199744539
 20
-123.1273819136626
 30
0.0
 10
109.9267874733118
 20
-123.1721494136515
 30
0.0
 10
109.9819266385717
 20
-123.1721494136515
 30
0.0
 10
110.0370333058238
 20
-123.1721494136515
 30
0.0
 10
110.0818360835905
 20
-123.1273819136626
 30
0.0
 10
110.0818360835905
 20
-123.0715724692322
 30
0.0
  0
SPLINE
  5
73
330
1F
100
AcDbEntity
  8
_U+30EC_U+30A4_U+30E4_U+30FC 1
 62
   179
420
  2234388
370
     9
100
AcDbSpline
210
0.0
220
0.0
230
1.0
 70
    11
 71
     3
 72
    17
 73
    13
 74
     0
 42
0.0000000001
 43
0.0000000001
 12
1.0
 22
0.0
 32
0.0
 13
1.0
 23
0.0
 33
0.0
 40
0.0
 40
0.0
 40
0.0
 40
0.0
 40
1.0
 40
1.0
 40
1.0
 40
2.0
 40
2.0
 40
2.0
 40
3.0
 40
3.0
 40
3.0
 40
4.0
 40
4.0
 40
4.0
 40
4.0
 10
106.0820742380653
 20
-118.2718544148763
 30
0.0
 10
106.0820742380653
 20
-118.2167152482236
 30
0.0
 10
106.0372714614305
 20
-118.1719477482347
 30
0.0
 10
105.9821675739474
 20
-118.1719477482347
 30
0.0
 10
105.9270284086875
 20
-118.1719477482347
 30
0.0
 10
105.8822609098296
 20
-118.2167152482236
 30
0.0
 10
105.8822609098296
 20
-118.2718544148763
 30
0.0
 10
105.8822609098296
 20
-118.3269583037516
 30
0.0
 10
105.9270284086875
 20
-118.3717610815183
 30
0.0
 10
105.9821675739474
 20
-118.3717610815183
 30
0.0
 10
106.0372714614305
 20
-118.3717610815183
 30
0.0
 10
106.0820742380653
 20
-118.3269583037516
 30
0.0
 10
106.0820742380653
 20
-118.2718544148763
 30
0.0
  0
SPLINE
  5
74
330
1F
100
AcDbEntity
  8
_U+30EC_U+30A4_U+30E4_U+30FC 1
 62
   179
420
  2234388
370
     9
100
AcDbSpline
210
0.0
220
0.0
230
1.0
 70
    11
 71
     3
 72
    17
 73
    13
 74
     0
 42
0.0000000001
 43
0.0000000001
 12
1.0
 22
0.0
 32
0.0
 13
1.0
 23
0.0
 33
0.0
 40
0.0
 40
0.0
 40
0.0
 40
0.0
 40
1.0
 40
1.0
 40
1.0
 40
2.0
 40
2.0
 40
2.0
 40
3.0
 40
3.0
 40
3.0
 40
4.0
 40
4.0
 40
4.0
 40
4.0
 10
93.08235456971573
 20
-143.071708853121
 30
0.0
 10
93.08235456971573
 20
-143.0166049642461
 30
0.0
 10
93.03755179308098
 20
-142.9718021864794
 30
0.0
 10
92.98174235006034
 20
-142.9718021864794
 30
0.0
 10
92.92663846257727
 20
-142.9718021864794
 30
0.0
 10
92.88183568594252
 20
-143.0166049642461
 30
0.0
 10
92.88183568594252
 20
-143.071708853121
 30
0.0
 10
92.88183568594252
 20
-143.1268480197741
 30
0.0
 10
92.92663846257727
 20
-143.1716155197626
 30
0.0
 10
92.98174235006034
 20
-143.1716155197626
 30
0.0
 10
93.03755179308098
 20
-143.1716155197626
 30
0.0
 10
93.08235456971573
 20
-143.1268480197741
 30
0.0
 10
93.08235456971573
 20
-143.071708853121
 30
0.0
  0
SPLINE
  5
75
330
1F
100
AcDbEntity
  8
_U+30EC_U+30A4_U+30E4_U+30FC 1
 62
   179
420
  2234388
370
     9
100
AcDbSpline
210
0.0
220
0.0
230
1.0
 70
    11
 71
     3
 72
    17
 73
    13
 74
     0
 42
0.0000000001
 43
0.0000000001
 12
1.0
 22
0.0
 32
0.0
 13
1.0
 23
0.0
 33
0.0
 40
0.0
 40
0.0
 40
0.0
 40
0.0
 40
1.0
 40
1.0
 40
1.0
 40
2.0
 40
2.0
 40
2.0
 40
3.0
 40
3.0
 40
3.0
 40
4.0
 40
4.0
 40
4.0
 40
4.0
 10
110.0818360835905
 20
-139.0719496874541
 30
0.0
 10
110.0818360835905
 20
-139.0168457985792
 30
0.0
 10
110.0370333058238
 20
-138.9720430208125
 30
0.0
 10
109.9819266385717
 20
-138.9720430208125
 30
0.0
 10
109.9267874733118
 20
-138.9720430208125
 30
0.0
 10
109.8820199744539
 20
-139.0168457985792
 30
0.0
 10
109.8820199744539
 20
-139.0719496874541
 30
0.0
 10
109.8820199744539
 20
-139.1270888541072
 30
0.0
 10
109.9267874733118
 20
-139.1718563540958
 30
0.0
 10
109.9819266385717
 20
-139.1718563540958
 30
0.0
 10
110.0370333058238
 20
-139.1718563540958
 30
0.0
 10
110.0818360835905
 20
-139.1270888541072
 30
0.0
 10
110.0818360835905
 20
-139.0719496874541
 30
0.0
  0
SPLINE
  5
76
330
1F
100
AcDbEntity
  8
_U+30EC_U+30A4_U+30E4_U+30FC 1
 62
   179
420
  2234388
370
     9
100
AcDbSpline
210
0.0
220
0.0
230
1.0
 70
    11
 71
     3
 72
    17
 73
    13
 74
     0
 42
0.0000000001
 43
0.0000000001
 12
1.0
 22
0.0
 32
0.0
 13
1.0
 23
0.0
 33
0.0
 40
0.0
 40
0.0
 40
0.0
 40
0.0
 40
1.0
 40
1.0
 40
1.0
 40
2.0
 40
2.0
 40
2.0
 40
3.0
 40
3.0
 40
3.0
 40
4.0
 40
4.0
 40
4.0
 40
4.0
 10
110.0818360835905
 20
-136.0719627437598
 30
0.0
 10
110.0818360835905
 20
-136.0168588548848
 30
0.0
 10
110.0370333058238
 20
-135.9720560771181
 30
0.0
 10
109.9819266385717
 20
-135.9720560771181
 30
0.0
 10
109.9267874733118
 20
-135.9720560771181
 30
0.0
 10
109.8820199744539
 20
-136.0168588548848
 30
0.0
 10
109.8820199744539
 20
-136.0719627437598
 30
0.0
 10
109.8820199744539
 20
-136.1271019104128
 30
0.0
 10
109.9267874733118
 20
-136.1718694104014
 30
0.0
 10
109.9819266385717
 20
-136.1718694104014
 30
0.0
 10
110.0370333058238
 20
-136.1718694104014
 30
0.0
 10
110.0818360835905
 20
-136.1271019104128
 30
0.0
 10
110.0818360835905
 20
-136.0719627437598
 30
0.0
  0
SPLINE
  5
77
330
1F
100
AcDbEntity
  8
_U+30EC_U+30A4_U+30E4_U+30FC 1
 62
   179
420
  2234388
370
     9
100
AcDbSpline
210
0.0
220
0.0
230
1.0
 70
    11
 71
     3
 72
    17
 73
    13
 74
     0
 42
0.0000000001
 43
0.0000000001
 12
1.0
 22
0.0
 32
0.0
 13
1.0
 23
0.0
 33
0.0
 40
0.0
 40
0.0
 40
0.0
 40
0.0
 40
1.0
 40
1.0
 40
1.0
 40
2.0
 40
2.0
 40
2.0
 40
3.0
 40
3.0
 40
3.0
 40
4.0
 40
4.0
 40
4.0
 40
4.0
 10
83.08209260262146
 20
-118.2718544148763
 30
0.0
 10
83.08209260262146
 20
-118.2167152482236
 30
0.0
 10
83.03728982598669
 20
-118.1719477482347
 30
0.0
 10
82.98183316073484
 20
-118.1719477482347
 30
0.0
 10
82.92672927325177
 20
-118.1719477482347
 30
0.0
 10
82.88192649661701
 20
-118.2167152482236
 30
0.0
 10
82.88192649661701
 20
-118.2718544148763
 30
0.0
 10
82.88192649661701
 20
-118.3269583037516
 30
0.0
 10
82.92672927325177
 20
-118.3717610815183
 30
0.0
 10
82.98183316073484
 20
-118.3717610815183
 30
0.0
 10
83.03728982598669
 20
-118.3717610815183
 30
0.0
 10
83.08209260262146
 20
-118.3269583037516
 30
0.0
 10
83.08209260262146
 20
-118.2718544148763
 30
0.0
  0
SPLINE
  5
78
330
1F
100
AcDbEntity
  8
_U+30EC_U+30A4_U+30E4_U+30FC 1
 62
   179
420
  2234388
370
     9
100
AcDbSpline
210
0.0
220
0.0
230
1.0
 70
    11
 71
     3
 72
    17
 73
    13
 74
     0
 42
0.0000000001
 43
0.0000000001
 12
1.0
 22
0.0
 32
0.0
 13
1.0
 23
0.0
 33
0.0
 40
0.0
 40
0.0
 40
0.0
 40
0.0
 40
1.0
 40
1.0
 40
1.0
 40
2.0
 40
2.0
 40
2.0
 40
3.0
 40
3.0
 40
3.0
 40
4.0
 40
4.0
 40
4.0
 40
4.0
 10
83.08209260262146
 20
-143.071708853121
 30
0.0
 10
83.08209260262146
 20
-143.0166049642461
 30
0.0
 10
83.03728982598669
 20
-142.9718021864794
 30
0.0
 10
82.98183316073484
 20
-142.9718021864794
 30
0.0
 10
82.92672927325177
 20
-142.9718021864794
 30
0.0
 10
82.88192649661701
 20
-143.0166049642461
 30
0.0
 10
82.88192649661701
 20
-143.071708853121
 30
0.0
 10
82.88192649661701
 20
-143.1268480197741
 30
0.0
 10
82.92672927325177
 20
-143.1716155197626
 30
0.0
 10
82.98183316073484
 20
-143.1716155197626
 30
0.0
 10
83.03728982598669
 20
-143.1716155197626
 30
0.0
 10
83.08209260262146
 20
-143.1268480197741
 30
0.0
 10
83.08209260262146
 20
-143.071708853121
 30
0.0
  0
POLYLINE
  5
79
330
1F
100
AcDbEntity
  8
_U+30EC_U+30A4_U+30E4_U+30FC 1
 62
   179
420
  2234388
370
     9
100
AcDb2dPolyline
 66
     1
 10
0.0
 20
0.0
 30
0.0
  0
VERTEX
  5
7A
330
79
100
AcDbEntity
  8
_U+30EC_U+30A4_U+30E4_U+30FC 1
 62
   179
420
  2234388
370
     9
100
AcDbVertex
100
AcDb2dVertex
 10
109.9819266385717
 20
-122.2716135805432
 30
0.0
  0
VERTEX
  5
7B
330
79
100
AcDbEntity
  8
_U+30EC_U+30A4_U+30E4_U+30FC 1
 62
   179
420
  2234388
370
     9
100
AcDbVertex
100
AcDb2dVertex
 10
109.9819266385717
 20
-117.0137077485243
 30
0.0
  0
SEQEND
  5
7C
330
79
100
AcDbEntity
  8
_U+30EC_U+30A4_U+30E4_U+30FC 1
 62
   179
420
  2234388
370
     9
  0
POLYLINE
  5
7D
330
1F
100
AcDbEntity
  8
_U+30EC_U+30A4_U+30E4_U+30FC 1
 62
   179
420
  2234388
370
     9
100
AcDb2dPolyline
 66
     1
 10
0.0
 20
0.0
 30
0.0
  0
VERTEX
  5
7E
330
7D
100
AcDbEntity
  8
_U+30EC_U+30A4_U+30E4_U+30FC 1
 62
   179
420
  2234388
370
     9
100
AcDbVertex
100
AcDb2dVertex
 10
109.9819266385717
 20
-122.2716135805432
 30
0.0
  0
VERTEX
  5
7F
330
7D
100
AcDbEntity
  8
_U+30EC_U+30A4_U+30E4_U+30FC 1
 62
   179
420
  2234388
370
     9
100
AcDbVertex
100
AcDb2dVertex
 10
109.9819266385717
 20
-123.0715724692322
 30
0.0
  0
SEQEND
  5
80
330
7D
100
AcDbEntity
  8
_U+30EC_U+30A4_U+30E4_U+30FC 1
 62
   179
420
  2234388
370
     9
  0
POLYLINE
  5
81
330
1F
100
AcDbEntity
  8
_U+30EC_U+30A4_U+30E4_U+30FC 1
 62
   179
420
  2234388
370
     9
100
AcDb2dPolyline
 66
     1
 10
0.0
 20
0.0
 30
0.0
  0
VERTEX
  5
82
330
81
100
AcDbEntity
  8
_U+30EC_U+30A4_U+30E4_U+30FC 1
 62
   179
420
  2234388
370
     9
100
AcDbVertex
100
AcDb2dVertex
 10
108.5218852869316
 20
-122.2716135805432
 30
0.0
  0
VERTEX
  5
83
330
81
100
AcDbEntity
  8
_U+30EC_U+30A4_U+30E4_U+30FC 1
 62
   179
420
  2234388
370
     9
100
AcDbVertex
100
AcDb2dVertex
 10
110.9823691130483
 20
-122.2716135805432
 30
0.0
  0
SEQEND
  5
84
330
81
100
AcDbEntity
  8
_U+30EC_U+30A4_U+30E4_U+30FC 1
 62
   179
420
  2234388
370
     9
  0
POLYLINE
  5
85
330
1F
100
AcDbEntity
  8
_U+30EC_U+30A4_U+30E4_U+30FC 1
 62
   179
420
  2234388
370
     9
100
AcDb2dPolyline
 66
     1
 10
0.0
 20
0.0
 30
0.0
  0
VERTEX
  5
86
330
85
100
AcDbEntity
  8
_U+30EC_U+30A4_U+30E4_U+30FC 1
 62
   179
420
  2234388
370
     9
100
AcDbVertex
100
AcDb2dVertex
 10
108.5218852869316
 20
-123.0715724692322
 30
0.0
  0
VERTEX
  5
87
330
85
100
AcDbEntity
  8
_U+30EC_U+30A4_U+30E4_U+30FC 1
 62
   179
420
  2234388
370
     9
100
AcDbVertex
100
AcDb2dVertex
 10
110.9823691130483
 20
-123.0715724692322
 30
0.0
  0
SEQEND
  5
88
330
85
100
AcDbEntity
  8
_U+30EC_U+30A4_U+30E4_U+30FC 1
 62
   179
420
  2234388
370
     9
  0
INSERT
  5
8A
330
1F
100
AcDbEntity
  8
_U+30EC_U+30A4_U+30E4_U+30FC 1
100
AcDbBlockReference
  2
block 2
 10
0.0
 20
0.0
 30
0.0
  0
POLYLINE
  5
9C
330
1F
100
AcDbEntity
  8
_U+30EC_U+30A4_U+30E4_U+30FC 1
 62
   179
420
  2234388
370
     9
100
AcDb2dPolyline
 66
     1
 10
0.0
 20
0.0
 30
0.0
  0
VERTEX
  5
9D
330
9C
100
AcDbEntity
  8
_U+30EC_U+30A4_U+30E4_U+30FC 1
 62
   179
420
  2234388
370
     9
100
AcDbVertex
100
AcDb2dVertex
 10
109.9819266385717
 20
-136.0719627437598
 30
0.0
  0
VERTEX
  5
9E
330
9C
100
AcDbEntity
  8
_U+30EC_U+30A4_U+30E4_U+30FC 1
 62
   179
420
  2234388
370
     9
100
AcDbVertex
100
AcDb2dVertex
 10
109.9819266385717
 20
-139.0719496874541
 30
0.0
  0
SEQEND
  5
9F
330
9C
100
AcDbEntity
  8
_U+30EC_U+30A4_U+30E4_U+30FC 1
 62
   179
420
  2234388
370
     9
  0
POLYLINE
  5
A0
330
1F
100
AcDbEntity
  8
_U+30EC_U+30A4_U+30E4_U+30FC 1
 62
   179
420
  2234388
370
     9
100
AcDb2dPolyline
 66
     1
 10
0.0
 20
0.0
 30
0.0
  0
VERTEX
  5
A1
330
A0
100
AcDbEntity
  8
_U+30EC_U+30A4_U+30E4_U+30FC 1
 62
   179
420
  2234388
370
     9
100
AcDbVertex
100
AcDb2dVertex
 10
95.52216561858208
 20
-139.0719496874541
 30
0.0
  0
VERTEX
  5
A2
330
A0
100
AcDbEntity
  8
_U+30EC_U+30A4_U+30E4_U+30FC 1
 62
   179
420
  2234388
370
     9
100
AcDbVertex
100
AcDb2dVertex
 10
110.9823691130483
 20
-139.0719496874541
 30
0.0
  0
SEQEND
  5
A3
330
A0
100
AcDbEntity
  8
_U+30EC_U+30A4_U+30E4_U+30FC 1
 62
   179
420
  2234388
370
     9
  0
INSERT
  5
A5
330
1F
100
AcDbEntity
  8
_U+30EC_U+30A4_U+30E4_U+30FC 1
100
AcDbBlockReference
  2
block 3
 10
0.0
 20
0.0
 30
0.0
  0
POLYLINE
  5
AA
330
1F
100
AcDbEntity
  8
_U+30EC_U+30A4_U+30E4_U+30FC 1
 62
   179
420
  2234388
370
     9
100
AcDb2dPolyline
 66
     1
 10
0.0
 20
0.0
 30
0.0
  0
VERTEX
  5
AB
330
AA
100
AcDbEntity
  8
_U+30EC_U+30A4_U+30E4_U+30FC 1
 62
   179
420
  2234388
370
     9
100
AcDbVertex
100
AcDb2dVertex
 10
82.98183316073484
 20
-143.071708853121
 30
0.0
  0
VERTEX
  5
AC
330
AA
100
AcDbEntity
  8
_U+30EC_U+30A4_U+30E4_U+30FC 1
 62
   179
420
  2234388
370
     9
100
AcDbVertex
100
AcDb2dVertex
 10
92.98174235006034
 20
-143.071708853121
 30
0.0
  0
SEQEND
  5
AD
330
AA
100
AcDbEntity
  8
_U+30EC_U+30A4_U+30E4_U+30FC 1
 62
   179
420
  2234388
370
     9
  0
POLYLINE
  5
AE
330
1F
100
AcDbEntity
  8
_U+30EC_U+30A4_U+30E4_U+30FC 1
 62
   179
420
  2234388
370
     9
100
AcDb2dPolyline
 66
     1
 10
0.0
 20
0.0
 30
0.0
  0
VERTEX
  5
AF
330
AE
100
AcDbEntity
  8
_U+30EC_U+30A4_U+30E4_U+30FC 1
 62
   179
420
  2234388
370
     9
100
AcDbVertex
100
AcDb2dVertex
 10
82.98183316073484
 20
-141.6116674645973
 30
0.0
  0
VERTEX
  5
B0
330
AE
100
AcDbEntity
  8
_U+30EC_U+30A4_U+30E4_U+30FC 1
 62
   179
420
  2234388
370
     9
100
AcDbVertex
100
AcDb2dVertex
 10
82.98183316073484
 20
-144.0714810750935
 30
0.0
  0
SEQEND
  5
B1
330
AE
100
AcDbEntity
  8
_U+30EC_U+30A4_U+30E4_U+30FC 1
 62
   179
420
  2234388
370
     9
  0
POLYLINE
  5
B2
330
1F
100
AcDbEntity
  8
_U+30EC_U+30A4_U+30E4_U+30FC 1
 62
   179
420
  2234388
370
     9
100
AcDb2dPolyline
 66
     1
 10
0.0
 20
0.0
 30
0.0
  0
VERTEX
  5
B3
330
B2
100
AcDbEntity
  8
_U+30EC_U+30A4_U+30E4_U+30FC 1
 62
   179
420
  2234388
370
     9
100
AcDbVertex
100
AcDb2dVertex
 10
92.98174235006034
 20
-141.6116674645973
 30
0.0
  0
VERTEX
  5
B4
330
B2
100
AcDbEntity
  8
_U+30EC_U+30A4_U+30E4_U+30FC 1
 62
   179
420
  2234388
370
     9
100
AcDbVertex
100
AcDb2dVertex
 10
92.98174235006034
 20
-144.0714810750935
 30
0.0
  0
SEQEND
  5
B5
330
B2
100
AcDbEntity
  8
_U+30EC_U+30A4_U+30E4_U+30FC 1
 62
   179
420
  2234388
370
     9
  0
INSERT
  5
B7
330
1F
100
AcDbEntity
  8
_U+30EC_U+30A4_U+30E4_U+30FC 1
100
AcDbBlockReference
  2
block 4
 10
0.0
 20
0.0
 30
0.0
  0
POLYLINE
  5
BF
330
1F
100
AcDbEntity
  8
_U+30EC_U+30A4_U+30E4_U+30FC 1
 62
   179
420
  2234388
370
     9
100
AcDb2dPolyline
 66
     1
 10
0.0
 20
0.0
 30
0.0
  0
VERTEX
  5
C0
330
BF
100
AcDbEntity
  8
_U+30EC_U+30A4_U+30E4_U+30FC 1
 62
   179
420
  2234388
370
     9
100
AcDbVertex
100
AcDb2dVertex
 10
82.98183316073484
 20
-118.2718544148763
 30
0.0
  0
VERTEX
  5
C1
330
BF
100
AcDbEntity
  8
_U+30EC_U+30A4_U+30E4_U+30FC 1
 62
   179
420
  2234388
370
     9
100
AcDbVertex
100
AcDb2dVertex
 10
105.9821675739474
 20
-118.2718544148763
 30
0.0
  0
SEQEND
  5
C2
330
BF
100
AcDbEntity
  8
_U+30EC_U+30A4_U+30E4_U+30FC 1
 62
   179
420
  2234388
370
     9
  0
POLYLINE
  5
C3
330
1F
100
AcDbEntity
  8
_U+30EC_U+30A4_U+30E4_U+30FC 1
 62
   179
420
  2234388
370
     9
100
AcDb2dPolyline
 66
     1
 10
0.0
 20
0.0
 30
0.0
  0
VERTEX
  5
C4
330
C3
100
AcDbEntity
  8
_U+30EC_U+30A4_U+30E4_U+30FC 1
 62
   179
420
  2234388
370
     9
100
AcDbVertex
100
AcDb2dVertex
 10
82.98183316073484
 20
-119.7318958034004
 30
0.0
  0
VERTEX
  5
C5
330
C3
100
AcDbEntity
  8
_U+30EC_U+30A4_U+30E4_U+30FC 1
 62
   179
420
  2234388
370
     9
100
AcDbVertex
100
AcDb2dVertex
 10
82.98183316073484
 20
-117.2714119151264
 30
0.0
  0
SEQEND
  5
C6
330
C3
100
AcDbEntity
  8
_U+30EC_U+30A4_U+30E4_U+30FC 1
 62
   179
420
  2234388
370
     9
  0
POLYLINE
  5
C7
330
1F
100
AcDbEntity
  8
_U+30EC_U+30A4_U+30E4_U+30FC 1
 62
   179
420
  2234388
370
     9
100
AcDb2dPolyline
 66
     1
 10
0.0
 20
0.0
 30
0.0
  0
VERTEX
  5
C8
330
C7
100
AcDbEntity
  8
_U+30EC_U+30A4_U+30E4_U+30FC 1
 62
   179
420
  2234388
370
     9
100
AcDbVertex
100
AcDb2dVertex
 10
105.9821675739474
 20
-119.7318958034004
 30
0.0
  0
VERTEX
  5
C9
330
C7
100
AcDbEntity
  8
_U+30EC_U+30A4_U+30E4_U+30FC 1
 62
   179
420
  2234388
370
     9
100
AcDbVertex
100
AcDb2dVertex
 10
105.9821675739474
 20
-117.2714119151264
 30
0.0
  0
SEQEND
  5
CA
330
C7
100
AcDbEntity
  8
_U+30EC_U+30A4_U+30E4_U+30FC 1
 62
   179
420
  2234388
370
     9
  0
INSERT
  5
CC
330
1F
100
AcDbEntity
  8
_U+30EC_U+30A4_U+30E4_U+30FC 1
100
AcDbBlockReference
  2
block 5
 10
0.0
 20
0.0
 30
0.0
  0
POLYLINE
  5
D3
330
1F
100
AcDbEntity
  8
_U+30EC_U+30A4_U+30E4_U+30FC 1
 62
   179
420
  2234388
370
     9
100
AcDb2dPolyline
 66
     1
 10
0.0
 20
0.0
 30
0.0
  0
VERTEX
  5
D4
330
D3
100
AcDbEntity
  8
_U+30EC_U+30A4_U+30E4_U+30FC 1
 62
   179
420
  2234388
370
     9
100
AcDbVertex
100
AcDb2dVertex
 10
109.9819266385717
 20
-136.0719627437598
 30
0.0
  0
VERTEX
  5
D5
330
D3
100
AcDbEntity
  8
_U+30EC_U+30A4_U+30E4_U+30FC 1
 62
   179
420
  2234388
370
     9
100
AcDbVertex
100
AcDb2dVertex
 10
109.9819266385717
 20
-123.0715724692322
 30
0.0
  0
SEQEND
  5
D6
330
D3
100
AcDbEntity
  8
_U+30EC_U+30A4_U+30E4_U+30FC 1
 62
   179
420
  2234388
370
     9
  0
POLYLINE
  5
D7
330
1F
100
AcDbEntity
  8
_U+30EC_U+30A4_U+30E4_U+30FC 1
 62
   179
420
  2234388
370
     9
100
AcDb2dPolyline
 66
     1
 10
0.0
 20
0.0
 30
0.0
  0
VERTEX
  5
D8
330
D7
100
AcDbEntity
  8
_U+30EC_U+30A4_U+30E4_U+30FC 1
 62
   179
420
  2234388
370
     9
100
AcDbVertex
100
AcDb2dVertex
 10
95.52216561858208
 20
-136.0719627437598
 30
0.0
  0
VERTEX
  5
D9
330
D7
100
AcDbEntity
  8
_U+30EC_U+30A4_U+30E4_U+30FC 1
 62
   179
420
  2234388
370
     9
100
AcDbVertex
100
AcDb2dVertex
 10
110.9823691130483
 20
-136.0719627437598
 30
0.0
  0
SEQEND
  5
DA
330
D7
100
AcDbEntity
  8
_U+30EC_U+30A4_U+30E4_U+30FC 1
 62
   179
420
  2234388
370
     9
  0
INSERT
  5
DC
330
1F
100
AcDbEntity
  8
_U+30EC_U+30A4_U+30E4_U+30FC 1
100
AcDbBlockReference
  2
block 6
 10
0.0
 20
0.0
 30
0.0
  0
POLYLINE
  5
E3
330
1F
100
AcDbEntity
  8
_U+30EC_U+30A4_U+30E4_U+30FC 1
  6
AI-Linetype-1
 62
   154
420
    23468
370
    25
100
AcDb2dPolyline
 66
     1
 10
0.0
 20
0.0
 30
0.0
  0
VERTEX
  5
E4
330
E3
100
AcDbEntity
  8
_U+30EC_U+30A4_U+30E4_U+30FC 1
  6
AI-Linetype-1
 62
   154
420
    23468
370
    25
100
AcDbVertex
100
AcDb2dVertex
 10
82.24495095731206
 20
-122.2178502472234
 30
0.0
  0
VERTEX
  5
E5
330
E3
100
AcDbEntity
  8
_U+30EC_U+30A4_U+30E4_U+30FC 1
  6
AI-Linetype-1
 62
   154
420
    23468
370
    25
100
AcDbVertex
100
AcDb2dVertex
 10
82.24495095731206
 20
-130.2180741341123
 30
0.0
  0
SEQEND
  5
E7
330
E3
100
AcDbEntity
  8
_U+30EC_U+30A4_U+30E4_U+30FC 1
  6
AI-Linetype-1
 62
   154
420
    23468
370
    25
  0
POLYLINE
  5
E8
330
1F
100
AcDbEntity
  8
_U+30EC_U+30A4_U+30E4_U+30FC 1
 62
   179
420
  2234388
370
     9
100
AcDb2dPolyline
 66
     1
 10
0.0
 20
0.0
 30
0.0
  0
VERTEX
  5
E9
330
E8
100
AcDbEntity
  8
_U+30EC_U+30A4_U+30E4_U+30FC 1
 62
   179
420
  2234388
370
     9
100
AcDbVertex
100
AcDb2dVertex
 10
82.06577512854987
 20
-130.2800924674298
 30
0.0
  0
VERTEX
  5
EA
330
E8
100
AcDbEntity
  8
_U+30EC_U+30A4_U+30E4_U+30FC 1
 62
   179
420
  2234388
370
     9
100
AcDbVertex
100
AcDb2dVertex
 10
81.1997057062007
 20
-130.780296078416
 30
0.0
  0
SEQEND
  5
EB
330
E8
100
AcDbEntity
  8
_U+30EC_U+30A4_U+30E4_U+30FC 1
 62
   179
420
  2234388
370
     9
  0
POLYLINE
  5
EC
330
1F
100
AcDbEntity
  8
_U+30EC_U+30A4_U+30E4_U+30FC 1
 62
   179
420
  2234388
370
     9
100
AcDb2dPolyline
 66
     1
 10
0.0
 20
0.0
 30
0.0
  0
VERTEX
  5
ED
330
EC
100
AcDbEntity
  8
_U+30EC_U+30A4_U+30E4_U+30FC 1
 62
   179
420
  2234388
370
     9
100
AcDbVertex
100
AcDb2dVertex
 10
82.06577512854987
 20
-130.2800924674298
 30
0.0
  0
VERTEX
  5
EE
330
EC
100
AcDbEntity
  8
_U+30EC_U+30A4_U+30E4_U+30FC 1
 62
   179
420
  2234388
370
     9
100
AcDbVertex
100
AcDb2dVertex
 10
74.99438003117841
 20
-137.35148774344
 30
0.0
  0
SEQEND
  5
EF
330
EC
100
AcDbEntity
  8
_U+30EC_U+30A4_U+30E4_U+30FC 1
 62
   179
420
  2234388
370
     9
  0
POLYLINE
  5
F0
330
1F
100
AcDbEntity
  8
_U+30EC_U+30A4_U+30E4_U+30FC 1
 62
   179
420
  2234388
370
     9
100
AcDb2dPolyline
 66
     1
 10
0.0
 20
0.0
 30
0.0
  0
VERTEX
  5
F1
330
F0
100
AcDbEntity
  8
_U+30EC_U+30A4_U+30E4_U+30FC 1
 62
   179
420
  2234388
370
     9
100
AcDbVertex
100
AcDb2dVertex
 10
82.06577512854987
 20
-130.2800924674298
 30
0.0
  0
VERTEX
  5
F2
330
F0
100
AcDbEntity
  8
_U+30EC_U+30A4_U+30E4_U+30FC 1
 62
   179
420
  2234388
370
     9
100
AcDbVertex
100
AcDb2dVertex
 10
81.56557153020002
 20
-131.1461619116577
 30
0.0
  0
SEQEND
  5
F3
330
F0
100
AcDbEntity
  8
_U+30EC_U+30A4_U+30E4_U+30FC 1
 62
   179
420
  2234388
370
     9
  0
INSERT
  5
F5
330
1F
100
AcDbEntity
  8
_U+30EC_U+30A4_U+30E4_U+30FC 1
100
AcDbBlockReference
  2
block 7
 10
0.0
 20
0.0
 30
0.0
  0
ENDSEC
  0
SECTION
  2
OBJECTS
  0
DICTIONARY
  5
C
330
0
100
AcDbDictionary
281
     1
  3
ACAD_GROUP
350
D
  3
ACAD_LAYOUT
350
1A
  3
ACAD_MATERIAL
350
3B
  3
ACAD_MLEADERSTYLE
350
11D
  3
ACAD_MLINESTYLE
350
17
  3
ACAD_PLOTSETTINGS
350
19
  3
ACAD_PLOTSTYLENAME
350
E
  3
ACAD_TABLESTYLE
350
11C
  3
ACAD_VISUALSTYLE
350
2A
  0
SUN
  5
3F
330
29
100
AcDbSun
 90
        1
290
     0
 63
     7
421
 16777215
 40
1.0
291
     1
 91
  2455826
 92
 54000000
292
     0
 70
     2
 71
   256
280
     1
  0
DICTIONARY
  5
D
102
{ACAD_REACTORS
330
C
102
}
330
C
100
AcDbDictionary
281
     1
  0
DICTIONARY
  5
1A
102
{ACAD_REACTORS
330
C
102
}
330
C
100
AcDbDictionary
281
     1
  3
Layout1
350
1E
  3
Layout2
350
26
  3
Model
350
22
  0
DICTIONARY
  5
3B
102
{ACAD_REACTORS
330
C
102
}
330
C
100
AcDbDictionary
281
     1
  3
ByBlock
350
3D
  3
ByLayer
350
3C
  3
Global
350
3E
  0
DICTIONARY
  5
11D
102
{ACAD_REACTORS
330
C
102
}
330
C
100
AcDbDictionary
281
     1
  0
DICTIONARY
  5
17
102
{ACAD_REACTORS
330
C
102
}
330
C
100
AcDbDictionary
281
     1
  3
Standard
350
18
  0
DICTIONARY
  5
19
102
{ACAD_REACTORS
330
C
102
}
330
C
100
AcDbDictionary
281
     1
  0
ACDBDICTIONARYWDFLT
  5
E
102
{ACAD_REACTORS
330
C
102
}
330
C
100
AcDbDictionary
281
     1
  3
Normal
350
F
100
AcDbDictionaryWithDefault
340
F
  0
DICTIONARY
  5
11C
102
{ACAD_REACTORS
330
C
102
}
330
C
100
AcDbDictionary
281
     1
  0
DICTIONARY
  5
2A
102
{ACAD_REACTORS
330
C
102
}
330
C
100
AcDbDictionary
281
     1
  3
2dWireframe
350
2F
  3
3D Hidden
350
31
  3
3dWireframe
350
30
  3
Basic
350
32
  3
Brighten
350
36
  3
ColorChange
350
3A
  3
Conceptual
350
34
  3
Dim
350
35
  3
Facepattern
350
39
  3
Flat
350
2B
  3
FlatWithEdges
350
2C
  3
Gouraud
350
2D
  3
GouraudWithEdges
350
2E
  3
Linepattern
350
38
  3
Realistic
350
33
  3
Thicken
350
37
  0
LAYOUT
  5
1E
102
{ACAD_REACTORS
330
1A
102
}
330
1A
100
AcDbPlotSettings
  1

  2
none_device
  4

  6

 40
0.0
 41
0.0
 42
0.0
 43
0.0
 44
0.0
 45
0.0
 46
0.0
 47
0.0
 48
0.0
 49
0.0
140
0.0
141
0.0
142
1.0
143
1.0
 70
   688
 72
     0
 73
     0
 74
     5
  7

 75
    16
 76
     0
 77
     2
 78
   300
147
1.0
148
0.0
149
0.0
100
AcDbLayout
  1
Layout1
 70
     1
 71
     1
 10
0.0
 20
0.0
 11
12.0
 21
9.0
 12
0.0
 22
0.0
 32
0.0
 14
1.000000000000000E+20
 24
1.000000000000000E+20
 34
1.000000000000000E+20
 15
-1.000000000000000E+20
 25
-1.000000000000000E+20
 35
-1.000000000000000E+20
146
0.0
 13
0.0
 23
0.0
 33
0.0
 16
1.0
 26
0.0
 36
0.0
 17
0.0
 27
1.0
 37
0.0
 76
     0
330
1B
  0
LAYOUT
  5
26
102
{ACAD_REACTORS
330
1A
102
}
330
1A
100
AcDbPlotSettings
  1

  2
none_device
  4

  6

 40
0.0
 41
0.0
 42
0.0
 43
0.0
 44
0.0
 45
0.0
 46
0.0
 47
0.0
 48
0.0
 49
0.0
140
0.0
141
0.0
142
1.0
143
1.0
 70
   688
 72
     0
 73
     0
 74
     5
  7

 75
    16
 76
     0
 77
     2
 78
   300
147
1.0
148
0.0
149
0.0
100
AcDbLayout
  1
Layout2
 70
     1
 71
     2
 10
0.0
 20
0.0
 11
0.0
 21
0.0
 12
0.0
 22
0.0
 32
0.0
 14
0.0
 24
0.0
 34
0.0
 15
0.0
 25
0.0
 35
0.0
146
0.0
 13
0.0
 23
0.0
 33
0.0
 16
1.0
 26
0.0
 36
0.0
 17
0.0
 27
1.0
 37
0.0
 76
     0
330
23
  0
LAYOUT
  5
22
102
{ACAD_REACTORS
330
1A
102
}
330
1A
100
AcDbPlotSettings
  1

  2
none_device
  4

  6

 40
0.0
 41
0.0
 42
0.0
 43
0.0
 44
0.0
 45
0.0
 46
0.0
 47
0.0
 48
0.0
 49
0.0
140
0.0
141
0.0
142
1.0
143
1.0
 70
  1712
 72
     0
 73
     0
 74
     0
  7

 75
     0
 76
     0
 77
     2
 78
   300
147
1.0
148
0.0
149
0.0
100
AcDbLayout
  1
Model
 70
     1
 71
     0
 10
0.0
 20
0.0
 11
12.0
 21
9.0
 12
0.0
 22
0.0
 32
0.0
 14
1.000000000000000E+20
 24
1.000000000000000E+20
 34
1.000000000000000E+20
 15
-1.000000000000000E+20
 25
-1.000000000000000E+20
 35
-1.000000000000000E+20
146
0.0
 13
0.0
 23
0.0
 33
0.0
 16
1.0
 26
0.0
 36
0.0
 17
0.0
 27
1.0
 37
0.0
 76
     0
330
1F
331
29
  0
MATERIAL
  5
3D
102
{ACAD_REACTORS
330
3B
102
}
330
3B
100
AcDbMaterial
  1
ByBlock
 72
     1
 94
      127
  0
MATERIAL
  5
3C
102
{ACAD_REACTORS
330
3B
102
}
330
3B
100
AcDbMaterial
  1
ByLayer
 72
     1
 94
      127
  0
MATERIAL
  5
3E
102
{ACAD_REACTORS
330
3B
102
}
330
3B
100
AcDbMaterial
  1
Global
 72
     1
 94
      127
  0
MLINESTYLE
  5
18
102
{ACAD_REACTORS
330
17
102
}
330
17
100
AcDbMlineStyle
  2
Standard
 70
     0
  3

 62
   256
 51
90.0
 52
90.0
 71
     2
 49
0.5
 62
   256
  6
BYLAYER
 49
-0.5
 62
   256
  6
BYLAYER
  0
ACDBPLACEHOLDER
  5
F
102
{ACAD_REACTORS
330
E
102
}
330
E
  0
VISUALSTYLE
  5
2F
102
{ACAD_REACTORS
330
2A
102
}
330
2A
100
AcDbVisualStyle
  2
2dWireframe
 70
     4
177
     2
291
     0
 71
     0
176
     1
 72
     2
176
     1
 73
     0
176
     1
 90
        0
176
     1
 40
-0.6
176
     1
 41
-30.0
176
     1
 62
     5
 63
     7
421
 16777215
176
     1
 74
     1
176
     1
 91
        4
176
     1
 64
     7
176
     1
 65
   257
176
     1
 75
     1
176
     1
175
     1
176
     1
 42
1.0
176
     1
 92
        0
176
     1
 66
   257
176
     1
 43
1.0
176
     1
 76
     1
176
     1
 77
     6
176
     1
 78
     2
176
     1
 67
     7
176
     1
 79
     5
176
     1
170
     0
176
     1
171
     0
176
     1
290
     0
176
     1
 93
        1
176
     1
 44
0.0
176
     1
173
     0
176
     1
  0
VISUALSTYLE
  5
31
102
{ACAD_REACTORS
330
2A
102
}
330
2A
100
AcDbVisualStyle
  2
3D Hidden
 70
     6
177
     2
291
     0
 71
     1
176
     1
 72
     2
176
     1
 73
     2
176
     1
 90
        0
176
     1
 40
-0.6
176
     1
 41
-30.0
176
     1
 62
     5
 63
     7
421
 16777215
176
     1
 74
     2
176
     1
 91
        2
176
     1
 64
     7
176
     1
 65
   257
176
     1
 75
     2
176
     1
175
     1
176
     1
 42
40.0
176
     1
 92
        0
176
     1
 66
   257
176
     1
 43
1.0
176
     1
 76
     1
176
     1
 77
     6
176
     1
 78
     2
176
     1
 67
     7
176
     1
 79
     3
176
     1
170
     0
176
     1
171
     0
176
     1
290
     0
176
     1
 93
        1
176
     1
 44
0.0
176
     1
173
     0
176
     1
  0
VISUALSTYLE
  5
30
102
{ACAD_REACTORS
330
2A
102
}
330
2A
100
AcDbVisualStyle
  2
3dWireframe
 70
     5
177
     2
291
     0
 71
     0
176
     1
 72
     2
176
     1
 73
     0
176
     1
 90
        0
176
     1
 40
-0.6
176
     1
 41
-30.0
176
     1
 62
     5
 63
     7
421
 16777215
176
     1
 74
     1
176
     1
 91
        4
176
     1
 64
     7
176
     1
 65
   257
176
     1
 75
     1
176
     1
175
     1
176
     1
 42
1.0
176
     1
 92
        0
176
     1
 66
   257
176
     1
 43
1.0
176
     1
 76
     1
176
     1
 77
     6
176
     1
 78
     2
176
     1
 67
     7
176
     1
 79
     5
176
     1
170
     0
176
     1
171
     0
176
     1
290
     0
176
     1
 93
        1
176
     1
 44
0.0
176
     1
173
     0
176
     1
  0
VISUALSTYLE
  5
32
102
{ACAD_REACTORS
330
2A
102
}
330
2A
100
AcDbVisualStyle
  2
Basic
 70
     7
177
     2
291
     1
 71
     1
176
     1
 72
     0
176
     1
 73
     1
176
     1
 90
        0
176
     1
 40
-0.6
176
     1
 41
-30.0
176
     1
 62
     5
 63
     7
421
 16777215
176
     1
 74
     0
176
     1
 91
        4
176
     1
 64
     7
176
     1
 65
   257
176
     1
 75
     1
176
     1
175
     1
176
     1
 42
1.0
176
     1
 92
        8
176
     1
 66
     7
176
     1
 43
1.0
176
     1
 76
     1
176
     1
 77
     6
176
     1
 78
     2
176
     1
 67
     7
176
     1
 79
     5
176
     1
170
     0
176
     1
171
     0
176
     1
290
     0
176
     1
 93
        1
176
     1
 44
0.0
176
     1
173
     0
176
     1
  0
VISUALSTYLE
  5
36
102
{ACAD_REACTORS
330
2A
102
}
330
2A
100
AcDbVisualStyle
  2
Brighten
 70
    12
177
     2
291
     1
 71
     2
176
     1
 72
     2
176
     1
 73
     0
176
     1
 90
        0
176
     1
 40
-0.6
176
     1
 41
-30.0
176
     1
 62
     5
 63
     7
421
 16777215
176
     1
 74
     1
176
     1
 91
        4
176
     1
 64
     7
176
     1
 65
   257
176
     1
 75
     1
176
     1
175
     1
176
     1
 42
1.0
176
     1
 92
        8
176
     1
 66
     7
176
     1
 43
1.0
176
     1
 76
     1
176
     1
 77
     6
176
     1
 78
     2
176
     1
 67
     7
176
     1
 79
     5
176
     1
170
     0
176
     1
171
     0
176
     1
290
     0
176
     1
 93
        1
176
     1
 44
50.0
176
     1
173
     0
176
     1
  0
VISUALSTYLE
  5
3A
102
{ACAD_REACTORS
330
2A
102
}
330
2A
100
AcDbVisualStyle
  2
ColorChange
 70
    16
177
     2
291
     1
 71
     2
176
     1
 72
     2
176
     1
 73
     3
176
     1
 90
        0
176
     1
 40
-0.6
176
     1
 41
-30.0
176
     1
 62
     5
 63
     8
421
  8421504
176
     1
 74
     1
176
     1
 91
        4
176
     1
 64
     7
176
     1
 65
   257
176
     1
 75
     1
176
     1
175
     1
176
     1
 42
1.0
176
     1
 92
        8
176
     1
 66
     8
424
  8421504
176
     1
 43
1.0
176
     1
 76
     1
176
     1
 77
     6
176
     1
 78
     2
176
     1
 67
     7
176
     1
 79
     5
176
     1
170
     0
176
     1
171
     0
176
     1
290
     0
176
     1
 93
        1
176
     1
 44
0.0
176
     1
173
     0
176
     1
  0
VISUALSTYLE
  5
34
102
{ACAD_REACTORS
330
2A
102
}
330
2A
100
AcDbVisualStyle
  2
Conceptual
 70
     9
177
     2
291
     0
 71
     3
176
     1
 72
     2
176
     1
 73
     0
176
     1
 90
        0
176
     1
 40
-0.6
176
     1
 41
-30.0
176
     1
 62
     5
 63
     7
421
 16777215
176
     1
 74
     2
176
     1
 91
        2
176
     1
 64
     7
176
     1
 65
   257
176
     1
 75
     1
176
     1
175
     1
176
     1
 42
40.0
176
     1
 92
        8
176
     1
 66
     7
176
     1
 43
1.0
176
     1
 76
     1
176
     1
 77
     6
176
     1
 78
     2
176
     1
 67
     7
176
     1
 79
     3
176
     1
170
     0
176
     1
171
     0
176
     1
290
     0
176
     1
 93
        1
176
     1
 44
0.0
176
     1
173
     0
176
     1
  0
VISUALSTYLE
  5
35
102
{ACAD_REACTORS
330
2A
102
}
330
2A
100
AcDbVisualStyle
  2
Dim
 70
    11
177
     2
291
     1
 71
     2
176
     1
 72
     2
176
     1
 73
     0
176
     1
 90
        0
176
     1
 40
-0.6
176
     1
 41
-30.0
176
     1
 62
     5
 63
     7
421
 16777215
176
     1
 74
     1
176
     1
 91
        4
176
     1
 64
     7
176
     1
 65
   257
176
     1
 75
     1
176
     1
175
     1
176
     1
 42
1.0
176
     1
 92
        8
176
     1
 66
     7
176
     1
 43
1.0
176
     1
 76
     1
176
     1
 77
     6
176
     1
 78
     2
176
     1
 67
     7
176
     1
 79
     5
176
     1
170
     0
176
     1
171
     0
176
     1
290
     0
176
     1
 93
        1
176
     1
 44
-50.0
176
     1
173
     0
176
     1
  0
VISUALSTYLE
  5
39
102
{ACAD_REACTORS
330
2A
102
}
330
2A
100
AcDbVisualStyle
  2
Facepattern
 70
    15
177
     2
291
     1
 71
     2
176
     1
 72
     2
176
     1
 73
     0
176
     1
 90
        0
176
     1
 40
-0.6
176
     1
 41
-30.0
176
     1
 62
     5
 63
     7
421
 16777215
176
     1
 74
     1
176
     1
 91
        4
176
     1
 64
     7
176
     1
 65
   257
176
     1
 75
     1
176
     1
175
     1
176
     1
 42
1.0
176
     1
 92
        8
176
     1
 66
     7
176
     1
 43
1.0
176
     1
 76
     1
176
     1
 77
     6
176
     1
 78
     2
176
     1
 67
     7
176
     1
 79
     5
176
     1
170
     0
176
     1
171
     0
176
     1
290
     0
176
     1
 93
        1
176
     1
 44
0.0
176
     1
173
     0
176
     1
  0
VISUALSTYLE
  5
2B
102
{ACAD_REACTORS
330
2A
102
}
330
2A
100
AcDbVisualStyle
  2
Flat
 70
     0
177
     2
291
     1
 71
     2
176
     1
 72
     1
176
     1
 73
     1
176
     1
 90
        2
176
     1
 40
-0.6
176
     1
 41
30.0
176
     1
 62
     5
 63
     7
421
 16777215
176
     1
 74
     0
176
     1
 91
        4
176
     1
 64
     7
176
     1
 65
   257
176
     1
 75
     1
176
     1
175
     1
176
     1
 42
1.0
176
     1
 92
        8
176
     1
 66
     7
176
     1
 43
1.0
176
     1
 76
     1
176
     1
 77
     6
176
     1
 78
     2
176
     1
 67
     7
176
     1
 79
     5
176
     1
170
     0
176
     1
171
     0
176
     1
290
     0
176
     1
 93
       13
176
     1
 44
0.0
176
     1
173
     0
176
     1
  0
VISUALSTYLE
  5
2C
102
{ACAD_REACTORS
330
2A
102
}
330
2A
100
AcDbVisualStyle
  2
FlatWithEdges
 70
     1
177
     2
291
     1
 71
     2
176
     1
 72
     1
176
     1
 73
     1
176
     1
 90
        2
176
     1
 40
-0.6
176
     1
 41
30.0
176
     1
 62
     5
 63
     7
421
 16777215
176
     1
 74
     1
176
     1
 91
        4
176
     1
 64
     7
176
     1
 65
   257
176
     1
 75
     1
176
     1
175
     1
176
     1
 42
1.0
176
     1
 92
        0
176
     1
 66
   257
176
     1
 43
1.0
176
     1
 76
     1
176
     1
 77
     6
176
     1
 78
     2
176
     1
 67
     7
176
     1
 79
     5
176
     1
170
     0
176
     1
171
     0
176
     1
290
     0
176
     1
 93
       13
176
     1
 44
0.0
176
     1
173
     0
176
     1
  0
VISUALSTYLE
  5
2D
102
{ACAD_REACTORS
330
2A
102
}
330
2A
100
AcDbVisualStyle
  2
Gouraud
 70
     2
177
     2
291
     1
 71
     2
176
     1
 72
     2
176
     1
 73
     1
176
     1
 90
        2
176
     1
 40
-0.6
176
     1
 41
30.0
176
     1
 62
     5
 63
     7
421
 16777215
176
     1
 74
     0
176
     1
 91
        4
176
     1
 64
     7
176
     1
 65
   257
176
     1
 75
     1
176
     1
175
     1
176
     1
 42
1.0
176
     1
 92
        0
176
     1
 66
     7
176
     1
 43
1.0
176
     1
 76
     1
176
     1
 77
     6
176
     1
 78
     2
176
     1
 67
     7
176
     1
 79
     5
176
     1
170
     0
176
     1
171
     0
176
     1
290
     0
176
     1
 93
       13
176
     1
 44
0.0
176
     1
173
     0
176
     1
  0
VISUALSTYLE
  5
2E
102
{ACAD_REACTORS
330
2A
102
}
330
2A
100
AcDbVisualStyle
  2
GouraudWithEdges
 70
     3
177
     2
291
     1
 71
     2
176
     1
 72
     2
176
     1
 73
     1
176
     1
 90
        2
176
     1
 40
-0.6
176
     1
 41
30.0
176
     1
 62
     5
 63
     7
421
 16777215
176
     1
 74
     1
176
     1
 91
        4
176
     1
 64
     7
176
     1
 65
   257
176
     1
 75
     1
176
     1
175
     1
176
     1
 42
1.0
176
     1
 92
        0
176
     1
 66
   257
176
     1
 43
1.0
176
     1
 76
     1
176
     1
 77
     6
176
     1
 78
     2
176
     1
 67
     7
176
     1
 79
     5
176
     1
170
     0
176
     1
171
     0
176
     1
290
     0
176
     1
 93
       13
176
     1
 44
0.0
176
     1
173
     0
176
     1
  0
VISUALSTYLE
  5
38
102
{ACAD_REACTORS
330
2A
102
}
330
2A
100
AcDbVisualStyle
  2
Linepattern
 70
    14
177
     2
291
     1
 71
     2
176
     1
 72
     2
176
     1
 73
     0
176
     1
 90
        0
176
     1
 40
-0.6
176
     1
 41
-30.0
176
     1
 62
     5
 63
     7
421
 16777215
176
     1
 74
     1
176
     1
 91
        4
176
     1
 64
     7
176
     1
 65
   257
176
     1
 75
     7
176
     1
175
     7
176
     1
 42
1.0
176
     1
 92
        8
176
     1
 66
     7
176
     1
 43
1.0
176
     1
 76
     1
176
     1
 77
     6
176
     1
 78
     2
176
     1
 67
     7
176
     1
 79
     5
176
     1
170
     0
176
     1
171
     0
176
     1
290
     0
176
     1
 93
        1
176
     1
 44
0.0
176
     1
173
     0
176
     1
  0
VISUALSTYLE
  5
33
102
{ACAD_REACTORS
330
2A
102
}
330
2A
100
AcDbVisualStyle
  2
Realistic
 70
     8
177
     2
291
     0
 71
     2
176
     1
 72
     2
176
     1
 73
     0
176
     1
 90
        0
176
     1
 40
-0.6
176
     1
 41
-30.0
176
     1
 62
     5
 63
     7
421
 16777215
176
     1
 74
     1
176
     1
 91
        0
176
     1
 64
     7
176
     1
 65
   257
176
     1
 75
     1
176
     1
175
     1
176
     1
 42
1.0
176
     1
 92
        8
176
     1
 66
     8
424
  7895160
176
     1
 43
1.0
176
     1
 76
     1
176
     1
 77
     6
176
     1
 78
     2
176
     1
 67
     7
176
     1
 79
     5
176
     1
170
     0
176
     1
171
     0
176
     1
290
     0
176
     1
 93
       13
176
     1
 44
0.0
176
     1
173
     0
176
     1
  0
VISUALSTYLE
  5
37
102
{ACAD_REACTORS
330
2A
102
}
330
2A
100
AcDbVisualStyle
  2
Thicken
 70
    13
177
     2
291
     1
 71
     2
176
     1
 72
     2
176
     1
 73
     0
176
     1
 90
        0
176
     1
 40
-0.6
176
     1
 41
-30.0
176
     1
 62
     5
 63
     7
421
 16777215
176
     1
 74
     1
176
     1
 91
        4
176
     1
 64
     7
176
     1
 65
   257
176
     1
 75
     1
176
     1
175
     1
176
     1
 42
1.0
176
     1
 92
       12
176
     1
 66
     7
176
     1
 43
1.0
176
     1
 76
     1
176
     1
 77
     6
176
     1
 78
     2
176
     1
 67
     7
176
     1
 79
     5
176
     1
170
     0
176
     1
171
     0
176
     1
290
     0
176
     1
 93
        1
176
     1
 44
0.0
176
     1
173
     0
176
     1
  0
ENDSEC
  0
EOF
