  0
SECTION
  2
HEADER
  9
$ACADVER
  1
AC1024
  9
$ACADMAINTVER
 70
     6
  9
$DWGCODEPAGE
  3
UNDEFINED
  9
$INSBASE
 10
0.0
 20
0.0
 30
0.0
  9
$EXTMIN
 10
1.000000000000000E+20
 20
1.000000000000000E+20
 30
1.000000000000000E+20
  9
$EXTMAX
 10
-1.000000000000000E+20
 20
-1.000000000000000E+20
 30
-1.000000000000000E+20
  9
$LIMMIN
 10
0.0
 20
0.0
  9
$LIMMAX
 10
12.0
 20
9.0
  9
$ORTHOMODE
 70
     0
  9
$REGENMODE
 70
     1
  9
$FILLMODE
 70
     1
  9
$QTEXTMODE
 70
     0
  9
$MIRRTEXT
 70
     1
  9
$LTSCALE
 40
1.0
  9
$ATTMODE
 70
     1
  9
$TEXTSIZE
 40
0.2
  9
$TRACEWID
 40
0.05
  9
$TEXTSTYLE
  7
Standard
  9
$CLAYER
  8
0
  9
$CELTYPE
  6
ByLayer
  9
$CECOLOR
 62
   256
  9
$CELTSCALE
 40
1.0
  9
$DISPSILH
 70
     0
  9
$DIMSCALE
 40
1.0
  9
$DIMASZ
 40
0.18
  9
$DIMEXO
 40
0.0625
  9
$DIMDLI
 40
0.38
  9
$DIMRND
 40
0.0
  9
$DIMDLE
 40
0.0
  9
$DIMEXE
 40
0.18
  9
$DIMTP
 40
0.0
  9
$DIMTM
 40
0.0
  9
$DIMTXT
 40
0.18
  9
$DIMCEN
 40
0.09
  9
$DIMTSZ
 40
0.0
  9
$DIMTOL
 70
     0
  9
$DIMLIM
 70
     0
  9
$DIMTIH
 70
     1
  9
$DIMTOH
 70
     1
  9
$DIMSE1
 70
     0
  9
$DIMSE2
 70
     0
  9
$DIMTAD
 70
     0
  9
$DIMZIN
 70
     0
  9
$DIMBLK
  1

  9
$DIMASO
 70
     1
  9
$DIMSHO
 70
     1
  9
$DIMPOST
  1

  9
$DIMAPOST
  1

  9
$DIMALT
 70
     0
  9
$DIMALTD
 70
     2
  9
$DIMALTF
 40
25.4
  9
$DIMLFAC
 40
1.0
  9
$DIMTOFL
 70
     0
  9
$DIMTVP
 40
0.0
  9
$DIMTIX
 70
     0
  9
$DIMSOXD
 70
     0
  9
$DIMSAH
 70
     0
  9
$DIMBLK1
  1

  9
$DIMBLK2
  1

  9
$DIMSTYLE
  2
Standard
  9
$DIMCLRD
 70
     0
  9
$DIMCLRE
 70
     0
  9
$DIMCLRT
 70
     0
  9
$DIMTFAC
 40
1.0
  9
$DIMGAP
 40
0.09
  9
$DIMJUST
 70
     0
  9
$DIMSD1
 70
     0
  9
$DIMSD2
 70
     0
  9
$DIMTOLJ
 70
     1
  9
$DIMTZIN
 70
     0
  9
$DIMALTZ
 70
     0
  9
$DIMALTTZ
 70
     0
  9
$DIMUPT
 70
     0
  9
$DIMDEC
 70
     4
  9
$DIMTDEC
 70
     4
  9
$DIMALTU
 70
     2
  9
$DIMALTTD
 70
     2
  9
$DIMTXSTY
  7
Standard
  9
$DIMAUNIT
 70
     0
  9
$DIMADEC
 70
     0
  9
$DIMALTRND
 40
0.0
  9
$DIMAZIN
 70
     0
  9
$DIMDSEP
 70
    46
  9
$DIMATFIT
 70
     3
  9
$DIMFRAC
 70
     0
  9
$DIMLDRBLK
  1

  9
$DIMLUNIT
 70
     2
  9
$DIMLWD
 70
    -2
  9
$DIMLWE
 70
    -2
  9
$DIMTMOVE
 70
     0
  9
$DIMFXL
 40
1.0
  9
$DIMFXLON
 70
     0
  9
$DIMJOGANG
 40
0.7853981633974483
  9
$DIMTFILL
 70
     0
  9
$DIMTFILLCLR
 70
     0
  9
$DIMARCSYM
 70
     0
  9
$DIMLTYPE
  6

  9
$DIMLTEX1
  6

  9
$DIMLTEX2
  6

  9
$DIMTXTDIRECTION
 70
     0
  9
$LUNITS
 70
     2
  9
$LUPREC
 70
     4
  9
$SKETCHINC
 40
0.1
  9
$FILLETRAD
 40
0.5
  9
$AUNITS
 70
     0
  9
$AUPREC
 70
     0
  9
$MENU
  1
.
  9
$ELEVATION
 40
0.0
  9
$PELEVATION
 40
0.0
  9
$THICKNESS
 40
0.0
  9
$LIMCHECK
 70
     0
  9
$CHAMFERA
 40
0.5
  9
$CHAMFERB
 40
0.5
  9
$CHAMFERC
 40
1.0
  9
$CHAMFERD
 40
0.0
  9
$SKPOLY
 70
     0
  9
$TDCREATE
 40
2457917.589224525
  9
$TDUCREATE
 40
2457917.214224537
  9
$TDUPDATE
 40
2457917.589224525
  9
$TDUUPDATE
 40
2457917.214224537
  9
$TDINDWG
 40
0.0000000116
  9
$TDUSRTIMER
 40
0.0000000116
  9
$USRTIMER
 70
     1
  9
$ANGBASE
 50
0.0
  9
$ANGDIR
 70
     0
  9
$PDMODE
 70
     0
  9
$PDSIZE
 40
0.0
  9
$PLINEWID
 40
0.0
  9
$SPLFRAME
 70
     0
  9
$SPLINETYPE
 70
     6
  9
$SPLINESEGS
 70
     8
  9
$HANDSEED
  5
E5
  9
$SURFTAB1
 70
     6
  9
$SURFTAB2
 70
     6
  9
$SURFTYPE
 70
     6
  9
$SURFU
 70
     6
  9
$SURFV
 70
     6
  9
$UCSBASE
  2

  9
$UCSNAME
  2

  9
$UCSORG
 10
0.0
 20
0.0
 30
0.0
  9
$UCSXDIR
 10
1.0
 20
0.0
 30
0.0
  9
$UCSYDIR
 10
0.0
 20
1.0
 30
0.0
  9
$UCSORTHOREF
  2

  9
$UCSORTHOVIEW
 70
     0
  9
$UCSORGTOP
 10
0.0
 20
0.0
 30
0.0
  9
$UCSORGBOTTOM
 10
0.0
 20
0.0
 30
0.0
  9
$UCSORGLEFT
 10
0.0
 20
0.0
 30
0.0
  9
$UCSORGRIGHT
 10
0.0
 20
0.0
 30
0.0
  9
$UCSORGFRONT
 10
0.0
 20
0.0
 30
0.0
  9
$UCSORGBACK
 10
0.0
 20
0.0
 30
0.0
  9
$PUCSBASE
  2

  9
$PUCSNAME
  2

  9
$PUCSORG
 10
0.0
 20
0.0
 30
0.0
  9
$PUCSXDIR
 10
1.0
 20
0.0
 30
0.0
  9
$PUCSYDIR
 10
0.0
 20
1.0
 30
0.0
  9
$PUCSORTHOREF
  2

  9
$PUCSORTHOVIEW
 70
     0
  9
$PUCSORGTOP
 10
0.0
 20
0.0
 30
0.0
  9
$PUCSORGBOTTOM
 10
0.0
 20
0.0
 30
0.0
  9
$PUCSORGLEFT
 10
0.0
 20
0.0
 30
0.0
  9
$PUCSORGRIGHT
 10
0.0
 20
0.0
 30
0.0
  9
$PUCSORGFRONT
 10
0.0
 20
0.0
 30
0.0
  9
$PUCSORGBACK
 10
0.0
 20
0.0
 30
0.0
  9
$USERI1
 70
     0
  9
$USERI2
 70
     0
  9
$USERI3
 70
     0
  9
$USERI4
 70
     0
  9
$USERI5
 70
     0
  9
$USERR1
 40
0.0
  9
$USERR2
 40
0.0
  9
$USERR3
 40
0.0
  9
$USERR4
 40
0.0
  9
$USERR5
 40
0.0
  9
$WORLDVIEW
 70
     1
  9
$SHADEDGE
 70
     3
  9
$SHADEDIF
 70
    70
  9
$TILEMODE
 70
     1
  9
$MAXACTVP
 70
    64
  9
$PINSBASE
 10
0.0
 20
0.0
 30
0.0
  9
$PLIMCHECK
 70
     0
  9
$PEXTMIN
 10
1.000000000000000E+20
 20
1.000000000000000E+20
 30
1.000000000000000E+20
  9
$PEXTMAX
 10
-1.000000000000000E+20
 20
-1.000000000000000E+20
 30
-1.000000000000000E+20
  9
$PLIMMIN
 10
0.0
 20
0.0
  9
$PLIMMAX
 10
12.0
 20
9.0
  9
$UNITMODE
 70
     0
  9
$VISRETAIN
 70
     1
  9
$PLINEGEN
 70
     0
  9
$PSLTSCALE
 70
     1
  9
$TREEDEPTH
 70
  3020
  9
$CMLSTYLE
  2
Standard
  9
$CMLJUST
 70
     0
  9
$CMLSCALE
 40
1.0
  9
$PROXYGRAPHICS
 70
     1
  9
$MEASUREMENT
 70
     0
  9
$CELWEIGHT
370
    -1
  9
$ENDCAPS
280
     0
  9
$JOINSTYLE
280
     0
  9
$LWDISPLAY
290
     1
  9
$INSUNITS
 70
     1
  9
$HYPERLINKBASE
  1

  9
$STYLESHEET
  1

  9
$XEDIT
290
     1
  9
$CEPSNTYPE
380
     0
  9
$PSTYLEMODE
290
     1
  9
$FINGERPRINTGUID
  2
{88478097-B696-72F6-62B5-FED8127D38EF}
  9
$VERSIONGUID
  2
{FAEB1C32-E019-11D5-929B-00C0DF256EC4}
  9
$EXTNAMES
290
     1
  9
$PSVPSCALE
 40
0.0
  9
$OLESTARTUP
290
     0
  9
$SORTENTS
280
   127
  9
$INDEXCTL
280
     0
  9
$HIDETEXT
280
     1
  9
$XCLIPFRAME
280
     2
  9
$HALOGAP
280
     0
  9
$OBSCOLOR
 70
   257
  9
$OBSLTYPE
280
     0
  9
$INTERSECTIONDISPLAY
280
     0
  9
$INTERSECTIONCOLOR
 70
   257
  9
$DIMASSOC
280
     2
  9
$PROJECTNAME
  1

  9
$CAMERADISPLAY
290
     0
  9
$LENSLENGTH
 40
50.0
  9
$CAMERAHEIGHT
 40
0.0
  9
$STEPSPERSEC
 40
2.0
  9
$STEPSIZE
 40
6.0
  9
$3DDWFPREC
 40
2.0
  9
$PSOLWIDTH
 40
0.25
  9
$PSOLHEIGHT
 40
4.0
  9
$LOFTANG1
 40
1.570796326794897
  9
$LOFTANG2
 40
1.570796326794897
  9
$LOFTMAG1
 40
0.0
  9
$LOFTMAG2
 40
0.0
  9
$LOFTPARAM
 70
     7
  9
$LOFTNORMALS
280
     1
  9
$LATITUDE
 40
37.795
  9
$LONGITUDE
 40
-122.394
  9
$NORTHDIRECTION
 40
0.0
  9
$TIMEZONE
 70
 -8000
  9
$LIGHTGLYPHDISPLAY
280
     1
  9
$TILEMODELIGHTSYNCH
280
     1
  9
$CMATERIAL
347
3C
  9
$SOLIDHIST
280
     1
  9
$SHOWHIST
280
     1
  9
$DWFFRAME
280
     2
  9
$DGNFRAME
280
     2
  9
$REALWORLDSCALE
290
     1
  9
$INTERFERECOLOR
 62
   256
  9
$CSHADOW
280
     0
  9
$SHADOWPLANELOCATION
 40
0.0
  0
ENDSEC
  0
SECTION
  2
CLASSES
  0
CLASS
  1
ACDBDICTIONARYWDFLT
  2
AcDbDictionaryWithDefault
  3
ObjectDBX Classes
 90
        0
 91
        4
280
     0
281
     0
  0
CLASS
  1
VISUALSTYLE
  2
AcDbVisualStyle
  3
ObjectDBX Classes
 90
     4095
 91
        4
280
     0
281
     0
  0
CLASS
  1
MATERIAL
  2
AcDbMaterial
  3
ObjectDBX Classes
 90
     1153
 91
        4
280
     0
281
     0
  0
CLASS
  1
SUN
  2
AcDbSun
  3
SCENEOE
 90
     1024
 91
        4
280
     0
281
     0
  0
ENDSEC
  0
SECTION
  2
TABLES
  0
TABLE
  2
VPORT
  5
8
330
0
100
AcDbSymbolTable
 70
     1
  0
VPORT
  5
29
330
8
100
AcDbSymbolTableRecord
100
AcDbViewportTableRecord
  2
*Active
 70
     0
 10
0.0
 20
0.0
 11
1.0
 21
1.0
 12
0.0
 22
0.0
 13
0.0
 23
0.0
 14
0.5
 24
0.5
 15
0.5
 25
0.5
 16
0.0
 26
0.0
 36
1.0
 17
63.499999984125
 27
-89.00059456108309
 37
0.0
 40
178.0011891221662
 41
0.7134783795241226
 42
50.0
 43
0.0
 44
0.0
 50
0.0
 51
0.0
 71
     0
 72
   100
 73
     1
 74
     3
 75
     0
 76
     0
 77
     0
 78
     0
281
     0
 65
     1
110
0.0
120
0.0
130
0.0
111
1.0
121
0.0
131
0.0
112
0.0
122
1.0
132
0.0
 79
     0
146
0.0
 60
     3
 61
     5
292
     1
282
     1
141
0.0
142
0.0
 63
   250
361
3F
  0
ENDTAB
  0
TABLE
  2
LTYPE
  5
5
330
0
100
AcDbSymbolTable
 70
     1
  0
LTYPE
  5
14
330
5
100
AcDbSymbolTableRecord
100
AcDbLinetypeTableRecord
  2
ByBlock
 70
     0
  3

 72
    65
 73
     0
 40
0.0
  0
LTYPE
  5
15
330
5
100
AcDbSymbolTableRecord
100
AcDbLinetypeTableRecord
  2
ByLayer
 70
     0
  3

 72
    65
 73
     0
 40
0.0
  0
LTYPE
  5
16
330
5
100
AcDbSymbolTableRecord
100
AcDbLinetypeTableRecord
  2
Continuous
 70
     0
  3
Solid line
 72
    65
 73
     0
 40
0.0
  0
ENDTAB
  0
TABLE
  2
LAYER
  5
2
330
0
100
AcDbSymbolTable
 70
     2
  0
LAYER
  5
10
330
2
100
AcDbSymbolTableRecord
100
AcDbLayerTableRecord
  2
0
 70
     0
 62
     7
  6
Continuous
370
    -3
390
F
347
3E
  0
LAYER
  5
40
330
2
100
AcDbSymbolTableRecord
100
AcDbLayerTableRecord
  2
_U+30EC_U+30A4_U+30E4_U+30FC 1
 70
     0
 62
     7
  6
Continuous
370
    -3
390
F
347
3E
  0
ENDTAB
  0
TABLE
  2
STYLE
  5
3
330
0
100
AcDbSymbolTable
 70
     1
  0
STYLE
  5
11
330
3
100
AcDbSymbolTableRecord
100
AcDbTextStyleTableRecord
  2
Standard
 70
     0
 40
0.0
 41
1.0
 50
0.0
 71
     0
 42
0.2
  3
txt
  4

  0
ENDTAB
  0
TABLE
  2
VIEW
  5
6
330
0
100
AcDbSymbolTable
 70
     0
  0
ENDTAB
  0
TABLE
  2
UCS
  5
7
330
0
100
AcDbSymbolTable
 70
     0
  0
ENDTAB
  0
TABLE
  2
APPID
  5
9
330
0
100
AcDbSymbolTable
 70
     1
  0
APPID
  5
12
330
9
100
AcDbSymbolTableRecord
100
AcDbRegAppTableRecord
  2
ACAD
 70
     0
  0
ENDTAB
  0
TABLE
  2
DIMSTYLE
  5
A
330
0
100
AcDbSymbolTable
 70
     1
100
AcDbDimStyleTable
  0
DIMSTYLE
105
27
330
A
100
AcDbSymbolTableRecord
100
AcDbDimStyleTableRecord
  2
Standard
 70
     0
178
     0
340
11
  0
ENDTAB
  0
TABLE
  2
BLOCK_RECORD
  5
1
330
0
100
AcDbSymbolTable
 70
     6
  0
BLOCK_RECORD
  5
1F
330
1
100
AcDbSymbolTableRecord
100
AcDbBlockTableRecord
  2
*Model_Space
340
22
 70
     0
280
     1
281
     0
  0
BLOCK_RECORD
  5
1B
330
1
100
AcDbSymbolTableRecord
100
AcDbBlockTableRecord
  2
*Paper_Space
340
1E
 70
     0
280
     1
281
     0
  0
BLOCK_RECORD
  5
23
330
1
100
AcDbSymbolTableRecord
100
AcDbBlockTableRecord
  2
*Paper_Space0
340
26
 70
     0
280
     1
281
     0
  0
BLOCK_RECORD
  5
89
330
1
100
AcDbSymbolTableRecord
100
AcDbBlockTableRecord
  2
block 2
340
0
102
{BLKREFS
331
8A
102
}
 70
     0
280
     1
281
     0
  0
BLOCK_RECORD
  5
A4
330
1
100
AcDbSymbolTableRecord
100
AcDbBlockTableRecord
  2
block 3
340
0
102
{BLKREFS
331
A5
102
}
 70
     0
280
     1
281
     0
  0
BLOCK_RECORD
  5
B6
330
1
100
AcDbSymbolTableRecord
100
AcDbBlockTableRecord
  2
block 4
340
0
102
{BLKREFS
331
B7
102
}
 70
     0
280
     1
281
     0
  0
BLOCK_RECORD
  5
CB
330
1
100
AcDbSymbolTableRecord
100
AcDbBlockTableRecord
  2
block 5
340
0
102
{BLKREFS
331
CC
102
}
 70
     0
280
     1
281
     0
  0
BLOCK_RECORD
  5
DB
330
1
100
AcDbSymbolTableRecord
100
AcDbBlockTableRecord
  2
block 6
340
0
102
{BLKREFS
331
DC
102
}
 70
     0
280
     1
281
     0
  0
ENDTAB
  0
ENDSEC
  0
SECTION
  2
BLOCKS
  0
BLOCK
  5
20
330
1F
100
AcDbEntity
  8
0
100
AcDbBlockBegin
  2
*Model_Space
 70
     0
 10
0.0
 20
0.0
 30
0.0
  3
*Model_Space
  1

  0
ENDBLK
  5
21
330
1F
100
AcDbEntity
  8
0
100
AcDbBlockEnd
  0
BLOCK
  5
1C
330
1B
100
AcDbEntity
 67
     1
  8
0
100
AcDbBlockBegin
  2
*Paper_Space
 70
     0
 10
0.0
 20
0.0
 30
0.0
  3
*Paper_Space
  1

  0
ENDBLK
  5
1D
330
1B
100
AcDbEntity
 67
     1
  8
0
100
AcDbBlockEnd
  0
BLOCK
  5
24
330
23
100
AcDbEntity
  8
0
100
AcDbBlockBegin
  2
*Paper_Space0
 70
     0
 10
0.0
 20
0.0
 30
0.0
  3
*Paper_Space0
  1

  0
ENDBLK
  5
25
330
23
100
AcDbEntity
  8
0
100
AcDbBlockEnd
  0
BLOCK
  5
8B
330
89
100
AcDbEntity
  8
0
100
AcDbBlockBegin
  2
block 2
 70
     0
 10
0.0
 20
0.0
 30
0.0
  3
block 2
  1

  0
SPLINE
  5
8D
330
89
100
AcDbEntity
  8
_U+30EC_U+30A4_U+30E4_U+30FC 1
370
     0
100
AcDbSpline
210
0.0
220
0.0
230
1.0
 70
    11
 71
     3
 72
    29
 73
    25
 74
     0
 42
0.0000000001
 43
0.0000000001
 12
1.0
 22
0.0
 32
0.0
 13
1.0
 23
0.0
 33
0.0
 40
0.0
 40
0.0
 40
0.0
 40
0.0
 40
1.0
 40
1.0
 40
1.0
 40
2.0
 40
2.0
 40
2.0
 40
3.0
 40
3.0
 40
3.0
 40
4.0
 40
4.0
 40
4.0
 40
5.0
 40
5.0
 40
5.0
 40
6.0
 40
6.0
 40
6.0
 40
7.0
 40
7.0
 40
7.0
 40
8.0
 40
8.0
 40
8.0
 40
8.0
 10
75.00041773298601
 20
-79.96548934632807
 30
0.0
 10
75.2098795384892
 20
-80.08090004508395
 30
0.0
 10
75.22882756365807
 20
-80.26624618219039
 30
0.0
 10
75.22882756365807
 20
-80.3906141292079
 30
0.0
 10
75.22882756365807
 20
-80.56217988437335
 30
0.0
 10
75.1823187746072
 20
-80.71376408572434
 30
0.0
 10
75.00041773298601
 20
-80.81539440253921
 30
0.0
 10
74.8057698380694
 20
-80.92632647716425
 30
0.0
 10
74.5687472686842
 20
-80.94665254052723
 30
0.0
 10
74.40613876178041
 20
-80.94665254052723
 30
0.0
 10
74.26213377049697
 20
-80.94665254052723
 30
0.0
 10
74.0102972905252
 20
-80.92873804400394
 30
0.0
 10
73.81151528102629
 20
-80.81539440253921
 30
0.0
 10
73.60859915694508
 20
-80.70032821333187
 30
0.0
 10
73.58517250764538
 20
-80.5284179486179
 30
0.0
 10
73.58517250764538
 20
-80.3906141292079
 30
0.0
 10
73.58517250764538
 20
-80.22077092178509
 30
0.0
 10
73.6296142394051
 20
-80.06711966314295
 30
0.0
 10
73.81151528102629
 20
-79.96548934632807
 30
0.0
 10
74.00409611865176
 20
-79.85903589583386
 30
0.0
 10
74.23250594932382
 20
-79.83423120834006
 30
0.0
 10
74.40613876178041
 20
-79.83423120834006
 30
0.0
 10
74.57736000739733
 20
-79.83423120834006
 30
0.0
 10
74.80783689536054
 20
-79.85696883854271
 30
0.0
 10
75.00041773298601
 20
-79.96548934632807
 30
0.0
  0
SPLINE
  5
8E
330
89
100
AcDbEntity
  8
_U+30EC_U+30A4_U+30E4_U+30FC 1
370
     0
100
AcDbSpline
210
0.0
220
0.0
230
1.0
 70
    11
 71
     3
 72
    17
 73
    13
 74
     0
 42
0.0000000001
 43
0.0000000001
 12
1.0
 22
0.0
 32
0.0
 13
1.0
 23
0.0
 33
0.0
 40
0.0
 40
0.0
 40
0.0
 40
0.0
 40
1.0
 40
1.0
 40
1.0
 40
2.0
 40
2.0
 40
2.0
 40
3.0
 40
3.0
 40
3.0
 40
4.0
 40
4.0
 40
4.0
 40
4.0
 10
73.77775334527084
 20
-80.3906141292079
 30
0.0
 10
73.77775334527084
 20
-80.65726451976624
 30
0.0
 10
74.0612847037069
 20
-80.70687389475384
 30
0.0
 10
74.40613876178041
 20
-80.70687389475384
 30
0.0
 10
74.72549911326307
 20
-80.70687389475384
 30
0.0
 10
75.03417966874146
 20
-80.66863333486756
 30
0.0
 10
75.03417966874146
 20
-80.3906141292079
 30
0.0
 10
75.03417966874146
 20
-80.12603079594072
 30
0.0
 10
74.75305987714508
 20
-80.07400985411344
 30
0.0
 10
74.40613876178041
 20
-80.07400985411344
 30
0.0
 10
74.08643390074923
 20
-80.07400985411344
 30
0.0
 10
73.77775334527084
 20
-80.1146619808394
 30
0.0
 10
73.77775334527084
 20
-80.3906141292079
 30
0.0
  0
HATCH
  5
8F
330
89
100
AcDbEntity
  8
_U+30EC_U+30A4_U+30E4_U+30FC 1
 62
   179
420
  2234388
100
AcDbHatch
 10
0.0
 20
0.0
 30
0.0
210
0.0
220
0.0
230
1.0
  2
SOLID
 70
     1
 71
     0
 91
        2
 92
        1
 93
        1
 72
     4
 94
        3
 73
     0
 74
     1
 95
       29
 96
       25
 40
0.0
 40
0.0
 40
0.0
 40
0.0
 40
1.0
 40
1.0
 40
1.0
 40
2.0
 40
2.0
 40
2.0
 40
3.0
 40
3.0
 40
3.0
 40
4.0
 40
4.0
 40
4.0
 40
5.0
 40
5.0
 40
5.0
 40
6.0
 40
6.0
 40
6.0
 40
7.0
 40
7.0
 40
7.0
 40
8.0
 40
8.0
 40
8.0
 40
8.0
 10
75.00041773298601
 20
-79.96548934632807
 10
75.2098795384892
 20
-80.08090004508395
 10
75.22882756365807
 20
-80.26624618219039
 10
75.22882756365807
 20
-80.3906141292079
 10
75.22882756365807
 20
-80.56217988437335
 10
75.1823187746072
 20
-80.71376408572434
 10
75.00041773298601
 20
-80.81539440253921
 10
74.8057698380694
 20
-80.92632647716425
 10
74.5687472686842
 20
-80.94665254052723
 10
74.40613876178041
 20
-80.94665254052723
 10
74.26213377049697
 20
-80.94665254052723
 10
74.0102972905252
 20
-80.92873804400394
 10
73.81151528102629
 20
-80.81539440253921
 10
73.60859915694508
 20
-80.70032821333187
 10
73.58517250764538
 20
-80.5284179486179
 10
73.58517250764538
 20
-80.3906141292079
 10
73.58517250764538
 20
-80.22077092178509
 10
73.6296142394051
 20
-80.06711966314295
 10
73.81151528102629
 20
-79.96548934632807
 10
74.00409611865176
 20
-79.85903589583386
 10
74.23250594932382
 20
-79.83423120834006
 10
74.40613876178041
 20
-79.83423120834006
 10
74.57736000739733
 20
-79.83423120834006
 10
74.80783689536054
 20
-79.85696883854271
 10
75.00041773298601
 20
-79.96548934632807
 97
        0
 97
        0
 92
        1
 93
        1
 72
     4
 94
        3
 73
     0
 74
     1
 95
       17
 96
       13
 40
0.0
 40
0.0
 40
0.0
 40
0.0
 40
1.0
 40
1.0
 40
1.0
 40
2.0
 40
2.0
 40
2.0
 40
3.0
 40
3.0
 40
3.0
 40
4.0
 40
4.0
 40
4.0
 40
4.0
 10
73.77775334527084
 20
-80.3906141292079
 10
73.77775334527084
 20
-80.65726451976624
 10
74.0612847037069
 20
-80.70687389475384
 10
74.40613876178041
 20
-80.70687389475384
 10
74.72549911326307
 20
-80.70687389475384
 10
75.03417966874146
 20
-80.66863333486756
 10
75.03417966874146
 20
-80.3906141292079
 10
75.03417966874146
 20
-80.12603079594072
 10
74.75305987714508
 20
-80.07400985411344
 10
74.40613876178041
 20
-80.07400985411344
 10
74.08643390074923
 20
-80.07400985411344
 10
73.77775334527084
 20
-80.1146619808394
 10
73.77775334527084
 20
-80.3906141292079
 97
        0
 97
        0
 75
     2
 76
     1
 98
        0
  0
POLYLINE
  5
90
330
89
100
AcDbEntity
  8
_U+30EC_U+30A4_U+30E4_U+30FC 1
370
     0
100
AcDb2dPolyline
 66
     1
 10
0.0
 20
0.0
 30
0.0
  0
VERTEX
  5
91
330
90
100
AcDbEntity
  8
_U+30EC_U+30A4_U+30E4_U+30FC 1
370
     0
100
AcDbVertex
100
AcDb2dVertex
 10
75.1781846600249
 20
-79.6030653012798
 30
0.0
  0
VERTEX
  5
92
330
90
100
AcDbEntity
  8
_U+30EC_U+30A4_U+30E4_U+30FC 1
370
     0
100
AcDbVertex
100
AcDb2dVertex
 10
74.92634818005314
 20
-79.6030653012798
 30
0.0
  0
VERTEX
  5
93
330
90
100
AcDbEntity
  8
_U+30EC_U+30A4_U+30E4_U+30FC 1
370
     0
100
AcDbVertex
100
AcDb2dVertex
 10
74.92634818005314
 20
-79.33400334388178
 30
0.0
  0
VERTEX
  5
94
330
90
100
AcDbEntity
  8
_U+30EC_U+30A4_U+30E4_U+30FC 1
370
     0
100
AcDbVertex
100
AcDb2dVertex
 10
75.1781846600249
 20
-79.33400334388178
 30
0.0
  0
VERTEX
  5
95
330
90
100
AcDbEntity
  8
_U+30EC_U+30A4_U+30E4_U+30FC 1
370
     0
100
AcDbVertex
100
AcDb2dVertex
 10
75.1781846600249
 20
-79.6030653012798
 30
0.0
  0
SEQEND
  5
96
330
90
100
AcDbEntity
  8
_U+30EC_U+30A4_U+30E4_U+30FC 1
370
     0
  0
HATCH
  5
97
330
89
100
AcDbEntity
  8
_U+30EC_U+30A4_U+30E4_U+30FC 1
 62
   179
420
  2234388
100
AcDbHatch
 10
0.0
 20
0.0
 30
0.0
210
0.0
220
0.0
230
1.0
  2
SOLID
 70
     1
 71
     0
 91
        1
 92
        1
 93
        4
 72
     1
 10
75.1781846600249
 20
-79.6030653012798
 11
74.92634818005314
 21
-79.6030653012798
 72
     1
 10
74.92634818005314
 20
-79.6030653012798
 11
74.92634818005314
 21
-79.33400334388178
 72
     1
 10
74.92634818005314
 20
-79.33400334388178
 11
75.1781846600249
 21
-79.33400334388178
 72
     1
 10
75.1781846600249
 20
-79.33400334388178
 11
75.1781846600249
 21
-79.6030653012798
 97
        0
 75
     2
 76
     1
 98
        0
  0
SPLINE
  5
98
330
89
100
AcDbEntity
  8
_U+30EC_U+30A4_U+30E4_U+30FC 1
370
     0
100
AcDbSpline
210
0.0
220
0.0
230
1.0
 70
    11
 71
     3
 72
    29
 73
    25
 74
     0
 42
0.0000000001
 43
0.0000000001
 12
1.0
 22
0.0
 32
0.0
 13
1.0
 23
0.0
 33
0.0
 40
0.0
 40
0.0
 40
0.0
 40
0.0
 40
1.0
 40
1.0
 40
1.0
 40
2.0
 40
2.0
 40
2.0
 40
3.0
 40
3.0
 40
3.0
 40
4.0
 40
4.0
 40
4.0
 40
5.0
 40
5.0
 40
5.0
 40
6.0
 40
6.0
 40
6.0
 40
7.0
 40
7.0
 40
7.0
 40
8.0
 40
8.0
 40
8.0
 40
8.0
 10
75.22882756365807
 20
-78.5467990255022
 30
0.0
 10
75.22882756365807
 20
-78.83136391258383
 30
0.0
 10
75.0913682537966
 20
-79.10283743682152
 30
0.0
 10
74.7423800811408
 20
-79.10283743682152
 30
0.0
 10
74.48640948658674
 20
-79.10283743682152
 30
0.0
 10
74.39132485119384
 20
-78.95125323547052
 30
0.0
 10
74.33000215155639
 20
-78.83825410355433
 30
0.0
 10
74.2707465092101
 20
-78.9715792988335
 30
0.0
 10
74.1563693390998
 20
-79.05322806183392
 30
0.0
 10
73.99548337993863
 20
-79.05322806183392
 30
0.0
 10
73.7205647602157
 20
-79.05322806183392
 30
0.0
 10
73.58517250764538
 20
-78.840665670394
 30
0.0
 10
73.58517250764538
 20
-78.5467990255022
 30
0.0
 10
73.58517250764538
 20
-78.24363062280021
 30
0.0
 10
73.72917749892882
 20
-78.04036998917047
 30
0.0
 10
73.99548337993863
 20
-78.04036998917047
 30
0.0
 10
74.1563693390998
 20
-78.04036998917047
 30
0.0
 10
74.2707465092101
 20
-78.12374129991352
 30
0.0
 10
74.33000215155639
 20
-78.2574110047412
 30
0.0
 10
74.38064505518956
 20
-78.1623263693483
 30
0.0
 10
74.47572969058245
 20
-77.99282767147402
 30
0.0
 10
74.7382459665585
 20
-77.99282767147402
 30
0.0
 10
75.11272784580515
 20
-77.99282767147402
 30
0.0
 10
75.22882756365807
 20
-78.29117294049665
 30
0.0
 10
75.22882756365807
 20
-78.5467990255022
 30
0.0
  0
SPLINE
  5
99
330
89
100
AcDbEntity
  8
_U+30EC_U+30A4_U+30E4_U+30FC 1
370
     0
100
AcDbSpline
210
0.0
220
0.0
230
1.0
 70
    11
 71
     3
 72
    17
 73
    13
 74
     0
 42
0.0000000001
 43
0.0000000001
 12
1.0
 22
0.0
 32
0.0
 13
1.0
 23
0.0
 33
0.0
 40
0.0
 40
0.0
 40
0.0
 40
0.0
 40
1.0
 40
1.0
 40
1.0
 40
2.0
 40
2.0
 40
2.0
 40
3.0
 40
3.0
 40
3.0
 40
4.0
 40
4.0
 40
4.0
 40
4.0
 10
73.77775334527084
 20
-78.5467990255022
 30
0.0
 10
73.77775334527084
 20
-78.72318791434698
 30
0.0
 10
73.87283798066373
 20
-78.81344941606054
 30
0.0
 10
74.00823023323406
 20
-78.81344941606054
 30
0.0
 10
74.13087563250895
 20
-78.81344941606054
 30
0.0
 10
74.24938691720155
 20
-78.73662378673946
 30
0.0
 10
74.24938691720155
 20
-78.5467990255022
 30
0.0
 10
74.24938691720155
 20
-78.35662975471641
 30
0.0
 10
74.13087563250895
 20
-78.27980412539533
 30
0.0
 10
74.00823023323406
 20
-78.27980412539533
 30
0.0
 10
73.87283798066373
 20
-78.27980412539533
 30
0.0
 10
73.77775334527084
 20
-78.37247719394855
 30
0.0
 10
73.77775334527084
 20
-78.5467990255022
 30
0.0
  0
SPLINE
  5
9A
330
89
100
AcDbEntity
  8
_U+30EC_U+30A4_U+30E4_U+30FC 1
370
     0
100
AcDbSpline
210
0.0
220
0.0
230
1.0
 70
    11
 71
     3
 72
    17
 73
    13
 74
     0
 42
0.0000000001
 43
0.0000000001
 12
1.0
 22
0.0
 32
0.0
 13
1.0
 23
0.0
 33
0.0
 40
0.0
 40
0.0
 40
0.0
 40
0.0
 40
1.0
 40
1.0
 40
1.0
 40
2.0
 40
2.0
 40
2.0
 40
3.0
 40
3.0
 40
3.0
 40
4.0
 40
4.0
 40
4.0
 40
4.0
 10
74.4378336402447
 20
-78.5467990255022
 30
0.0
 10
74.4378336402447
 20
-78.70045028414434
 30
0.0
 10
74.52465004647301
 20
-78.86305879104813
 30
0.0
 10
74.72756617055423
 20
-78.86305879104813
 30
0.0
 10
74.93289386147511
 20
-78.86305879104813
 30
0.0
 10
75.03417966874146
 20
-78.7276665384778
 30
0.0
 10
75.03417966874146
 20
-78.5467990255022
 30
0.0
 10
75.03417966874146
 20
-78.34767250645476
 30
0.0
 10
74.91153426946657
 20
-78.23019475040773
 30
0.0
 10
74.73376734242767
 20
-78.23019475040773
 30
0.0
 10
74.51190319317759
 20
-78.23019475040773
 30
0.0
 10
74.4378336402447
 20
-78.40417207241285
 30
0.0
 10
74.4378336402447
 20
-78.5467990255022
 30
0.0
  0
HATCH
  5
9B
330
89
100
AcDbEntity
  8
_U+30EC_U+30A4_U+30E4_U+30FC 1
 62
   179
420
  2234388
100
AcDbHatch
 10
0.0
 20
0.0
 30
0.0
210
0.0
220
0.0
230
1.0
  2
SOLID
 70
     1
 71
     0
 91
        3
 92
        1
 93
        1
 72
     4
 94
        3
 73
     0
 74
     1
 95
       29
 96
       25
 40
0.0
 40
0.0
 40
0.0
 40
0.0
 40
1.0
 40
1.0
 40
1.0
 40
2.0
 40
2.0
 40
2.0
 40
3.0
 40
3.0
 40
3.0
 40
4.0
 40
4.0
 40
4.0
 40
5.0
 40
5.0
 40
5.0
 40
6.0
 40
6.0
 40
6.0
 40
7.0
 40
7.0
 40
7.0
 40
8.0
 40
8.0
 40
8.0
 40
8.0
 10
75.22882756365807
 20
-78.5467990255022
 10
75.22882756365807
 20
-78.83136391258383
 10
75.0913682537966
 20
-79.10283743682152
 10
74.7423800811408
 20
-79.10283743682152
 10
74.48640948658674
 20
-79.10283743682152
 10
74.39132485119384
 20
-78.95125323547052
 10
74.33000215155639
 20
-78.83825410355433
 10
74.2707465092101
 20
-78.9715792988335
 10
74.1563693390998
 20
-79.05322806183392
 10
73.99548337993863
 20
-79.05322806183392
 10
73.7205647602157
 20
-79.05322806183392
 10
73.58517250764538
 20
-78.840665670394
 10
73.58517250764538
 20
-78.5467990255022
 10
73.58517250764538
 20
-78.24363062280021
 10
73.72917749892882
 20
-78.04036998917047
 10
73.99548337993863
 20
-78.04036998917047
 10
74.1563693390998
 20
-78.04036998917047
 10
74.2707465092101
 20
-78.12374129991352
 10
74.33000215155639
 20
-78.2574110047412
 10
74.38064505518956
 20
-78.1623263693483
 10
74.47572969058245
 20
-77.99282767147402
 10
74.7382459665585
 20
-77.99282767147402
 10
75.11272784580515
 20
-77.99282767147402
 10
75.22882756365807
 20
-78.29117294049665
 10
75.22882756365807
 20
-78.5467990255022
 97
        0
 97
        0
 92
        1
 93
        1
 72
     4
 94
        3
 73
     0
 74
     1
 95
       17
 96
       13
 40
0.0
 40
0.0
 40
0.0
 40
0.0
 40
1.0
 40
1.0
 40
1.0
 40
2.0
 40
2.0
 40
2.0
 40
3.0
 40
3.0
 40
3.0
 40
4.0
 40
4.0
 40
4.0
 40
4.0
 10
73.77775334527084
 20
-78.5467990255022
 10
73.77775334527084
 20
-78.72318791434698
 10
73.87283798066373
 20
-78.81344941606054
 10
74.00823023323406
 20
-78.81344941606054
 10
74.13087563250895
 20
-78.81344941606054
 10
74.24938691720155
 20
-78.73662378673946
 10
74.24938691720155
 20
-78.5467990255022
 10
74.24938691720155
 20
-78.35662975471641
 10
74.13087563250895
 20
-78.27980412539533
 10
74.00823023323406
 20
-78.27980412539533
 10
73.87283798066373
 20
-78.27980412539533
 10
73.77775334527084
 20
-78.37247719394855
 10
73.77775334527084
 20
-78.5467990255022
 97
        0
 97
        0
 92
        1
 93
        1
 72
     4
 94
        3
 73
     0
 74
     1
 95
       17
 96
       13
 40
0.0
 40
0.0
 40
0.0
 40
0.0
 40
1.0
 40
1.0
 40
1.0
 40
2.0
 40
2.0
 40
2.0
 40
3.0
 40
3.0
 40
3.0
 40
4.0
 40
4.0
 40
4.0
 40
4.0
 10
74.4378336402447
 20
-78.5467990255022
 10
74.4378336402447
 20
-78.70045028414434
 10
74.52465004647301
 20
-78.86305879104813
 10
74.72756617055423
 20
-78.86305879104813
 10
74.93289386147511
 20
-78.86305879104813
 10
75.03417966874146
 20
-78.7276665384778
 10
75.03417966874146
 20
-78.5467990255022
 10
75.03417966874146
 20
-78.34767250645476
 10
74.91153426946657
 20
-78.23019475040773
 10
74.73376734242767
 20
-78.23019475040773
 10
74.51190319317759
 20
-78.23019475040773
 10
74.4378336402447
 20
-78.40417207241285
 10
74.4378336402447
 20
-78.5467990255022
 97
        0
 97
        0
 75
     2
 76
     1
 98
        0
  0
ENDBLK
  5
8C
330
89
100
AcDbEntity
  8
0
100
AcDbBlockEnd
  0
BLOCK
  5
A6
330
A4
100
AcDbEntity
  8
0
100
AcDbBlockBegin
  2
block 3
 70
     0
 10
0.0
 20
0.0
 30
0.0
  3
block 3
  1

  0
SPLINE
  5
A8
330
A4
100
AcDbEntity
  8
_U+30EC_U+30A4_U+30E4_U+30FC 1
370
     0
100
AcDbSpline
210
0.0
220
0.0
230
1.0
 70
    11
 71
     3
 72
    62
 73
    58
 74
     0
 42
0.0000000001
 43
0.0000000001
 12
1.0
 22
0.0
 32
0.0
 13
1.0
 23
0.0
 33
0.0
 40
0.0
 40
0.0
 40
0.0
 40
0.0
 40
1.0
 40
1.0
 40
1.0
 40
2.0
 40
2.0
 40
2.0
 40
3.0
 40
3.0
 40
3.0
 40
4.0
 40
4.0
 40
4.0
 40
5.0
 40
5.0
 40
5.0
 40
6.0
 40
6.0
 40
6.0
 40
7.0
 40
7.0
 40
7.0
 40
8.0
 40
8.0
 40
8.0
 40
9.0
 40
9.0
 40
9.0
 40
10.0
 40
10.0
 40
10.0
 40
11.0
 40
11.0
 40
11.0
 40
12.0
 40
12.0
 40
12.0
 40
13.0
 40
13.0
 40
13.0
 40
14.0
 40
14.0
 40
14.0
 40
15.0
 40
15.0
 40
15.0
 40
16.0
 40
16.0
 40
16.0
 40
17.0
 40
17.0
 40
17.0
 40
18.0
 40
18.0
 40
18.0
 40
19.0
 40
19.0
 40
19.0
 40
19.0
 10
75.22882756365807
 20
-97.77801104326383
 30
0.0
 10
75.22882756365807
 20
-97.87964136007871
 30
0.0
 10
75.20781248119805
 20
-98.1125298148816
 30
0.0
 10
75.02177732499456
 20
-98.24585501016077
 30
0.0
 10
74.90946721217541
 20
-98.32509220632151
 30
0.0
 10
74.81024846220022
 20
-98.32957083045234
 30
0.0
 10
74.72549911326307
 20
-98.33404945458315
 30
0.0
 10
74.72549911326307
 20
-98.33404945458315
 30
0.0
 10
74.72549911326307
 20
-98.09909394248912
 30
0.0
 10
74.72549911326307
 20
-98.09909394248912
 30
0.0
 10
74.79956866619594
 20
-98.09668237564945
 30
0.0
 10
75.03417966874146
 20
-98.08531356054812
 30
0.0
 10
75.03417966874146
 20
-97.78248966739466
 30
0.0
 10
75.03417966874146
 20
-97.6353840901745
 30
0.0
 10
74.96458873993942
 20
-97.4727755832707
 30
0.0
 10
74.73617890926735
 20
-97.4727755832707
 30
0.0
 10
74.6197346818659
 20
-97.4727755832707
 30
0.0
 10
74.57115883552387
 20
-97.51342770999665
 30
0.0
 10
74.53946395705958
 20
-97.5471896457521
 30
0.0
 10
74.46539440412671
 20
-97.62642684191285
 30
0.0
 10
74.45264755083129
 20
-97.75079478893036
 30
0.0
 10
74.45264755083129
 20
-97.80970592172814
 30
0.0
 10
74.45264755083129
 20
-97.83003198509111
 30
0.0
 10
74.45471460812243
 20
-97.86827254497739
 30
0.0
 10
74.45884872270473
 20
-97.89790036615052
 30
0.0
 10
74.45884872270473
 20
-97.89790036615052
 30
0.0
 10
74.26420082778812
 20
-97.89790036615052
 30
0.0
 10
74.26420082778812
 20
-97.89790036615052
 30
0.0
 10
74.2707465092101
 20
-97.85724823942458
 30
0.0
 10
74.27281356650124
 20
-97.81177297901928
 30
0.0
 10
74.27281356650124
 20
-97.80522729759731
 30
0.0
 10
74.27281356650124
 20
-97.73494734969822
 30
0.0
 10
74.25145397449269
 20
-97.5223849582583
 30
0.0
 10
74.01477591465603
 20
-97.5223849582583
 30
0.0
 10
73.83700898761714
 20
-97.5223849582583
 30
0.0
 10
73.78188745985314
 20
-97.66260034450796
 30
0.0
 10
73.78188745985314
 20
-97.78007810055499
 30
0.0
 10
73.78188745985314
 20
-98.062920439894
 30
0.0
 10
74.01477591465603
 20
-98.07187768815565
 30
0.0
 10
74.08643390074923
 20
-98.07635631228646
 30
0.0
 10
74.08643390074923
 20
-98.07635631228646
 30
0.0
 10
74.08643390074923
 20
-98.2933973278572
 30
0.0
 10
74.08643390074923
 20
-98.2933973278572
 30
0.0
 10
73.96172144418318
 20
-98.28444007959556
 30
0.0
 10
73.58517250764538
 20
-98.25515676797093
 30
0.0
 10
73.58517250764538
 20
-97.76664222816251
 30
0.0
 10
73.58517250764538
 20
-97.52686358238913
 30
0.0
 10
73.7122965310511
 20
-97.26917044009244
 30
0.0
 10
74.00823023323406
 20
-97.26917044009244
 30
0.0
 10
74.19460989898607
 20
-97.26917044009244
 30
0.0
 10
74.27694768108354
 20
-97.37114526645583
 30
0.0
 10
74.33827038072099
 20
-97.47725420740153
 30
0.0
 10
74.36583114460299
 20
-97.41179739318177
 30
0.0
 10
74.4461018694093
 20
-97.21714949826516
 30
0.0
 10
74.72343205597193
 20
-97.21714949826516
 30
0.0
 10
75.06174043262345
 20
-97.21714949826516
 30
0.0
 10
75.22882756365807
 20
-97.48173283153236
 30
0.0
 10
75.22882756365807
 20
-97.77801104326383
 30
0.0
  0
HATCH
  5
A9
330
A4
100
AcDbEntity
  8
_U+30EC_U+30A4_U+30E4_U+30FC 1
 62
   179
420
  2234388
100
AcDbHatch
 10
0.0
 20
0.0
 30
0.0
210
0.0
220
0.0
230
1.0
  2
SOLID
 70
     1
 71
     0
 91
        1
 92
        1
 93
        1
 72
     4
 94
        3
 73
     0
 74
     1
 95
       62
 96
       58
 40
0.0
 40
0.0
 40
0.0
 40
0.0
 40
1.0
 40
1.0
 40
1.0
 40
2.0
 40
2.0
 40
2.0
 40
3.0
 40
3.0
 40
3.0
 40
4.0
 40
4.0
 40
4.0
 40
5.0
 40
5.0
 40
5.0
 40
6.0
 40
6.0
 40
6.0
 40
7.0
 40
7.0
 40
7.0
 40
8.0
 40
8.0
 40
8.0
 40
9.0
 40
9.0
 40
9.0
 40
10.0
 40
10.0
 40
10.0
 40
11.0
 40
11.0
 40
11.0
 40
12.0
 40
12.0
 40
12.0
 40
13.0
 40
13.0
 40
13.0
 40
14.0
 40
14.0
 40
14.0
 40
15.0
 40
15.0
 40
15.0
 40
16.0
 40
16.0
 40
16.0
 40
17.0
 40
17.0
 40
17.0
 40
18.0
 40
18.0
 40
18.0
 40
19.0
 40
19.0
 40
19.0
 40
19.0
 10
75.22882756365807
 20
-97.77801104326383
 10
75.22882756365807
 20
-97.87964136007871
 10
75.20781248119805
 20
-98.1125298148816
 10
75.02177732499456
 20
-98.24585501016077
 10
74.90946721217541
 20
-98.32509220632151
 10
74.81024846220022
 20
-98.32957083045234
 10
74.72549911326307
 20
-98.33404945458315
 10
74.72549911326307
 20
-98.33404945458315
 10
74.72549911326307
 20
-98.09909394248912
 10
74.72549911326307
 20
-98.09909394248912
 10
74.79956866619594
 20
-98.09668237564945
 10
75.03417966874146
 20
-98.08531356054812
 10
75.03417966874146
 20
-97.78248966739466
 10
75.03417966874146
 20
-97.6353840901745
 10
74.96458873993942
 20
-97.4727755832707
 10
74.73617890926735
 20
-97.4727755832707
 10
74.6197346818659
 20
-97.4727755832707
 10
74.57115883552387
 20
-97.51342770999665
 10
74.53946395705958
 20
-97.5471896457521
 10
74.46539440412671
 20
-97.62642684191285
 10
74.45264755083129
 20
-97.75079478893036
 10
74.45264755083129
 20
-97.80970592172814
 10
74.45264755083129
 20
-97.83003198509111
 10
74.45471460812243
 20
-97.86827254497739
 10
74.45884872270473
 20
-97.89790036615052
 10
74.45884872270473
 20
-97.89790036615052
 10
74.26420082778812
 20
-97.89790036615052
 10
74.26420082778812
 20
-97.89790036615052
 10
74.2707465092101
 20
-97.85724823942458
 10
74.27281356650124
 20
-97.81177297901928
 10
74.27281356650124
 20
-97.80522729759731
 10
74.27281356650124
 20
-97.73494734969822
 10
74.25145397449269
 20
-97.5223849582583
 10
74.01477591465603
 20
-97.5223849582583
 10
73.83700898761714
 20
-97.5223849582583
 10
73.78188745985314
 20
-97.66260034450796
 10
73.78188745985314
 20
-97.78007810055499
 10
73.78188745985314
 20
-98.062920439894
 10
74.01477591465603
 20
-98.07187768815565
 10
74.08643390074923
 20
-98.07635631228646
 10
74.08643390074923
 20
-98.07635631228646
 10
74.08643390074923
 20
-98.2933973278572
 10
74.08643390074923
 20
-98.2933973278572
 10
73.96172144418318
 20
-98.28444007959556
 10
73.58517250764538
 20
-98.25515676797093
 10
73.58517250764538
 20
-97.76664222816251
 10
73.58517250764538
 20
-97.52686358238913
 10
73.7122965310511
 20
-97.26917044009244
 10
74.00823023323406
 20
-97.26917044009244
 10
74.19460989898607
 20
-97.26917044009244
 10
74.27694768108354
 20
-97.37114526645583
 10
74.33827038072099
 20
-97.47725420740153
 10
74.36583114460299
 20
-97.41179739318177
 10
74.4461018694093
 20
-97.21714949826516
 10
74.72343205597193
 20
-97.21714949826516
 10
75.06174043262345
 20
-97.21714949826516
 10
75.22882756365807
 20
-97.48173283153236
 10
75.22882756365807
 20
-97.77801104326383
 97
        0
 97
        0
 75
     2
 76
     1
 98
        0
  0
ENDBLK
  5
A7
330
A4
100
AcDbEntity
  8
0
100
AcDbBlockEnd
  0
BLOCK
  5
B8
330
B6
100
AcDbEntity
  8
0
100
AcDbBlockBegin
  2
block 4
 70
     0
 10
0.0
 20
0.0
 30
0.0
  3
block 4
  1

  0
SPLINE
  5
BA
330
B6
100
AcDbEntity
  8
_U+30EC_U+30A4_U+30E4_U+30FC 1
370
     0
100
AcDbSpline
210
0.0
220
0.0
230
1.0
 70
    11
 71
     3
 72
    26
 73
    22
 74
     0
 42
0.0000000001
 43
0.0000000001
 12
1.0
 22
0.0
 32
0.0
 13
1.0
 23
0.0
 33
0.0
 40
0.0
 40
0.0
 40
0.0
 40
0.0
 40
1.0
 40
1.0
 40
1.0
 40
2.0
 40
2.0
 40
2.0
 40
3.0
 40
3.0
 40
3.0
 40
4.0
 40
4.0
 40
4.0
 40
5.0
 40
5.0
 40
5.0
 40
6.0
 40
6.0
 40
6.0
 40
7.0
 40
7.0
 40
7.0
 40
7.0
 10
53.84890949174611
 20
-101.9166042496945
 30
0.0
 10
53.84890949174611
 20
-101.9166042496945
 30
0.0
 10
53.84890949174611
 20
-100.8124511466719
 30
0.0
 10
53.84890949174611
 20
-100.8124511466719
 30
0.0
 10
53.84890949174611
 20
-100.8124511466719
 30
0.0
 10
53.49613171405652
 20
-100.8124511466719
 30
0.0
 10
53.49613171405652
 20
-100.8124511466719
 30
0.0
 10
53.49613171405652
 20
-100.8124511466719
 30
0.0
 10
53.49613171405652
 20
-100.6643120408062
 30
0.0
 10
53.49613171405652
 20
-100.6643120408062
 30
0.0
 10
53.85114880381152
 20
-100.6494981302196
 30
0.0
 10
53.90093043357338
 20
-100.4865451137673
 30
0.0
 10
53.93262531203768
 20
-100.372167943657
 30
0.0
 10
53.93262531203768
 20
-100.372167943657
 30
0.0
 10
54.08851588274523
 20
-100.372167943657
 30
0.0
 10
54.08851588274523
 20
-100.372167943657
 30
0.0
 10
54.08851588274523
 20
-100.372167943657
 30
0.0
 10
54.08851588274523
 20
-101.9166042496945
 30
0.0
 10
54.08851588274523
 20
-101.9166042496945
 30
0.0
 10
54.08851588274523
 20
-101.9166042496945
 30
0.0
 10
53.84890949174611
 20
-101.9166042496945
 30
0.0
 10
53.84890949174611
 20
-101.9166042496945
 30
0.0
  0
HATCH
  5
BB
330
B6
100
AcDbEntity
  8
_U+30EC_U+30A4_U+30E4_U+30FC 1
 62
   179
420
  2234388
100
AcDbHatch
 10
0.0
 20
0.0
 30
0.0
210
0.0
220
0.0
230
1.0
  2
SOLID
 70
     1
 71
     0
 91
        1
 92
        1
 93
        1
 72
     4
 94
        3
 73
     0
 74
     1
 95
       26
 96
       22
 40
0.0
 40
0.0
 40
0.0
 40
0.0
 40
1.0
 40
1.0
 40
1.0
 40
2.0
 40
2.0
 40
2.0
 40
3.0
 40
3.0
 40
3.0
 40
4.0
 40
4.0
 40
4.0
 40
5.0
 40
5.0
 40
5.0
 40
6.0
 40
6.0
 40
6.0
 40
7.0
 40
7.0
 40
7.0
 40
7.0
 10
53.84890949174611
 20
-101.9166042496945
 10
53.84890949174611
 20
-101.9166042496945
 10
53.84890949174611
 20
-100.8124511466719
 10
53.84890949174611
 20
-100.8124511466719
 10
53.84890949174611
 20
-100.8124511466719
 10
53.49613171405652
 20
-100.8124511466719
 10
53.49613171405652
 20
-100.8124511466719
 10
53.49613171405652
 20
-100.8124511466719
 10
53.49613171405652
 20
-100.6643120408062
 10
53.49613171405652
 20
-100.6643120408062
 10
53.85114880381152
 20
-100.6494981302196
 10
53.90093043357338
 20
-100.4865451137673
 10
53.93262531203768
 20
-100.372167943657
 10
53.93262531203768
 20
-100.372167943657
 10
54.08851588274523
 20
-100.372167943657
 10
54.08851588274523
 20
-100.372167943657
 10
54.08851588274523
 20
-100.372167943657
 10
54.08851588274523
 20
-101.9166042496945
 10
54.08851588274523
 20
-101.9166042496945
 10
54.08851588274523
 20
-101.9166042496945
 10
53.84890949174611
 20
-101.9166042496945
 10
53.84890949174611
 20
-101.9166042496945
 97
        0
 97
        0
 75
     2
 76
     1
 98
        0
  0
SPLINE
  5
BC
330
B6
100
AcDbEntity
  8
_U+30EC_U+30A4_U+30E4_U+30FC 1
370
     0
100
AcDbSpline
210
0.0
220
0.0
230
1.0
 70
    11
 71
     3
 72
    29
 73
    25
 74
     0
 42
0.0000000001
 43
0.0000000001
 12
1.0
 22
0.0
 32
0.0
 13
1.0
 23
0.0
 33
0.0
 40
0.0
 40
0.0
 40
0.0
 40
0.0
 40
1.0
 40
1.0
 40
1.0
 40
2.0
 40
2.0
 40
2.0
 40
3.0
 40
3.0
 40
3.0
 40
4.0
 40
4.0
 40
4.0
 40
5.0
 40
5.0
 40
5.0
 40
6.0
 40
6.0
 40
6.0
 40
7.0
 40
7.0
 40
7.0
 40
8.0
 40
8.0
 40
8.0
 40
8.0
 10
55.58368732334366
 20
-101.7388373226556
 30
0.0
 10
55.46844887936206
 20
-101.9482991281588
 30
0.0
 10
55.28310274225561
 20
-101.9672471533276
 30
0.0
 10
55.1587347952381
 20
-101.9672471533276
 30
0.0
 10
54.98682453052413
 20
-101.9672471533276
 30
0.0
 10
54.8354125839474
 20
-101.9207383642768
 30
0.0
 10
54.73361001235827
 20
-101.7388373226556
 30
0.0
 10
54.62285019250749
 20
-101.544189427739
 30
0.0
 10
54.60252412914451
 20
-101.3075113679023
 30
0.0
 10
54.60252412914451
 20
-101.14455835145
 30
0.0
 10
54.60252412914451
 20
-101.0005533601665
 30
0.0
 10
54.62061088044207
 20
-100.7487168801948
 30
0.0
 10
54.73361001235827
 20
-100.5499348706959
 30
0.0
 10
54.84902071111414
 20
-100.3470187466146
 30
0.0
 10
55.02075872105384
 20
-100.3235920973149
 30
0.0
 10
55.1587347952381
 20
-100.3235920973149
 30
0.0
 10
55.32823349311239
 20
-100.3235920973149
 30
0.0
 10
55.48205700652879
 20
-100.3680338290747
 30
0.0
 10
55.58368732334366
 20
-100.5499348706959
 30
0.0
 10
55.68996851906362
 20
-100.7425157083213
 30
0.0
 10
55.71477320655742
 20
-100.9709255389934
 30
0.0
 10
55.71477320655742
 20
-101.14455835145
 30
0.0
 10
55.71477320655742
 20
-101.3157795970669
 30
0.0
 10
55.69220783112903
 20
-101.5462564850301
 30
0.0
 10
55.58368732334366
 20
-101.7388373226556
 30
0.0
  0
SPLINE
  5
BD
330
B6
100
AcDbEntity
  8
_U+30EC_U+30A4_U+30E4_U+30FC 1
370
     0
100
AcDbSpline
210
0.0
220
0.0
230
1.0
 70
    11
 71
     3
 72
    17
 73
    13
 74
     0
 42
0.0000000001
 43
0.0000000001
 12
1.0
 22
0.0
 32
0.0
 13
1.0
 23
0.0
 33
0.0
 40
0.0
 40
0.0
 40
0.0
 40
0.0
 40
1.0
 40
1.0
 40
1.0
 40
2.0
 40
2.0
 40
2.0
 40
3.0
 40
3.0
 40
3.0
 40
4.0
 40
4.0
 40
4.0
 40
4.0
 10
55.1587347952381
 20
-100.5161729349404
 30
0.0
 10
54.89191214990549
 20
-100.5161729349404
 30
0.0
 10
54.84213052014363
 20
-100.7997042933765
 30
0.0
 10
54.84213052014363
 20
-101.14455835145
 30
0.0
 10
54.84213052014363
 20
-101.4639187029326
 30
0.0
 10
54.88054333480417
 20
-101.772599258411
 30
0.0
 10
55.1587347952381
 20
-101.772599258411
 30
0.0
 10
55.42314587373102
 20
-101.772599258411
 30
0.0
 10
55.4751668155583
 20
-101.4914794668146
 30
0.0
 10
55.4751668155583
 20
-101.14455835145
 30
0.0
 10
55.4751668155583
 20
-100.8248534904188
 30
0.0
 10
55.43451468883234
 20
-100.5161729349404
 30
0.0
 10
55.1587347952381
 20
-100.5161729349404
 30
0.0
  0
HATCH
  5
BE
330
B6
100
AcDbEntity
  8
_U+30EC_U+30A4_U+30E4_U+30FC 1
 62
   179
420
  2234388
100
AcDbHatch
 10
0.0
 20
0.0
 30
0.0
210
0.0
220
0.0
230
1.0
  2
SOLID
 70
     1
 71
     0
 91
        2
 92
        1
 93
        1
 72
     4
 94
        3
 73
     0
 74
     1
 95
       29
 96
       25
 40
0.0
 40
0.0
 40
0.0
 40
0.0
 40
1.0
 40
1.0
 40
1.0
 40
2.0
 40
2.0
 40
2.0
 40
3.0
 40
3.0
 40
3.0
 40
4.0
 40
4.0
 40
4.0
 40
5.0
 40
5.0
 40
5.0
 40
6.0
 40
6.0
 40
6.0
 40
7.0
 40
7.0
 40
7.0
 40
8.0
 40
8.0
 40
8.0
 40
8.0
 10
55.58368732334366
 20
-101.7388373226556
 10
55.46844887936206
 20
-101.9482991281588
 10
55.28310274225561
 20
-101.9672471533276
 10
55.1587347952381
 20
-101.9672471533276
 10
54.98682453052413
 20
-101.9672471533276
 10
54.8354125839474
 20
-101.9207383642768
 10
54.73361001235827
 20
-101.7388373226556
 10
54.62285019250749
 20
-101.544189427739
 10
54.60252412914451
 20
-101.3075113679023
 10
54.60252412914451
 20
-101.14455835145
 10
54.60252412914451
 20
-101.0005533601665
 10
54.62061088044207
 20
-100.7487168801948
 10
54.73361001235827
 20
-100.5499348706959
 10
54.84902071111414
 20
-100.3470187466146
 10
55.02075872105384
 20
-100.3235920973149
 10
55.1587347952381
 20
-100.3235920973149
 10
55.32823349311239
 20
-100.3235920973149
 10
55.48205700652879
 20
-100.3680338290747
 10
55.58368732334366
 20
-100.5499348706959
 10
55.68996851906362
 20
-100.7425157083213
 10
55.71477320655742
 20
-100.9709255389934
 10
55.71477320655742
 20
-101.14455835145
 10
55.71477320655742
 20
-101.3157795970669
 10
55.69220783112903
 20
-101.5462564850301
 10
55.58368732334366
 20
-101.7388373226556
 97
        0
 97
        0
 92
        1
 93
        1
 72
     4
 94
        3
 73
     0
 74
     1
 95
       17
 96
       13
 40
0.0
 40
0.0
 40
0.0
 40
0.0
 40
1.0
 40
1.0
 40
1.0
 40
2.0
 40
2.0
 40
2.0
 40
3.0
 40
3.0
 40
3.0
 40
4.0
 40
4.0
 40
4.0
 40
4.0
 10
55.1587347952381
 20
-100.5161729349404
 10
54.89191214990549
 20
-100.5161729349404
 10
54.84213052014363
 20
-100.7997042933765
 10
54.84213052014363
 20
-101.14455835145
 10
54.84213052014363
 20
-101.4639187029326
 10
54.88054333480417
 20
-101.772599258411
 10
55.1587347952381
 20
-101.772599258411
 10
55.42314587373102
 20
-101.772599258411
 10
55.4751668155583
 20
-101.4914794668146
 10
55.4751668155583
 20
-101.14455835145
 10
55.4751668155583
 20
-100.8248534904188
 10
55.43451468883234
 20
-100.5161729349404
 10
55.1587347952381
 20
-100.5161729349404
 97
        0
 97
        0
 75
     2
 76
     1
 98
        0
  0
ENDBLK
  5
B9
330
B6
100
AcDbEntity
  8
0
100
AcDbBlockEnd
  0
BLOCK
  5
CD
330
CB
100
AcDbEntity
  8
0
100
AcDbBlockBegin
  2
block 5
 70
     0
 10
0.0
 20
0.0
 30
0.0
  3
block 5
  1

  0
SPLINE
  5
CF
330
CB
100
AcDbEntity
  8
_U+30EC_U+30A4_U+30E4_U+30FC 1
370
     0
100
AcDbSpline
210
0.0
220
0.0
230
1.0
 70
    11
 71
     3
 72
    44
 73
    40
 74
     0
 42
0.0000000001
 43
0.0000000001
 12
1.0
 22
0.0
 32
0.0
 13
1.0
 23
0.0
 33
0.0
 40
0.0
 40
0.0
 40
0.0
 40
0.0
 40
1.0
 40
1.0
 40
1.0
 40
2.0
 40
2.0
 40
2.0
 40
3.0
 40
3.0
 40
3.0
 40
4.0
 40
4.0
 40
4.0
 40
5.0
 40
5.0
 40
5.0
 40
6.0
 40
6.0
 40
6.0
 40
7.0
 40
7.0
 40
7.0
 40
8.0
 40
8.0
 40
8.0
 40
9.0
 40
9.0
 40
9.0
 40
10.0
 40
10.0
 40
10.0
 40
11.0
 40
11.0
 40
11.0
 40
12.0
 40
12.0
 40
12.0
 40
13.0
 40
13.0
 40
13.0
 40
13.0
 10
60.50035534511797
 20
-76.53469100734202
 30
0.0
 10
60.26746689031508
 20
-76.69333765443778
 30
0.0
 10
60.16790363079136
 20
-76.76740720737065
 30
0.0
 10
60.11588268896408
 20
-76.91123994387983
 30
0.0
 10
60.11588268896408
 20
-76.91123994387983
 30
0.0
 10
60.94821775820045
 20
-76.91123994387983
 30
0.0
 10
60.94821775820045
 20
-76.91123994387983
 30
0.0
 10
60.94821775820045
 20
-76.91123994387983
 30
0.0
 10
60.94821775820045
 20
-77.11639538002646
 30
0.0
 10
60.94821775820045
 20
-77.11639538002646
 30
0.0
 10
60.94821775820045
 20
-77.11639538002646
 30
0.0
 10
59.84923229840575
 20
-77.11639538002646
 30
0.0
 10
59.84923229840575
 20
-77.11639538002646
 30
0.0
 10
59.88333874370972
 20
-76.75879446865753
 30
0.0
 10
59.9532741820603
 20
-76.68059080114236
 30
0.0
 10
60.36461858299913
 20
-76.38224553211973
 30
0.0
 10
60.63815916452796
 20
-76.1834635226208
 30
0.0
 10
60.70843911242706
 20
-76.11576739633564
 30
0.0
 10
60.70843911242706
 20
-75.97830808647417
 30
0.0
 10
60.70843911242706
 20
-75.85979680178158
 30
0.0
 10
60.63161348310599
 20
-75.72871091856783
 30
0.0
 10
60.42111814895722
 20
-75.72871091856783
 30
0.0
 10
60.14309894329756
 20
-75.72871091856783
 30
0.0
 10
60.13414169503591
 20
-75.95918780653103
 30
0.0
 10
60.12966307090509
 20
-76.07563203393248
 30
0.0
 10
60.12966307090509
 20
-76.07563203393248
 30
0.0
 10
59.8898844251317
 20
-76.07563203393248
 30
0.0
 10
59.8898844251317
 20
-76.07563203393248
 30
0.0
 10
59.89884167339335
 20
-75.94868026530102
 30
0.0
 10
59.91021048849467
 20
-75.83654240725615
 30
0.0
 10
59.99633787562592
 20
-75.71803112256354
 30
0.0
 10
60.11381563167294
 20
-75.55731741817665
 30
0.0
 10
60.31259764117186
 20
-75.52338322764693
 30
0.0
 10
60.43696558818937
 20
-75.52338322764693
 30
0.0
 10
60.73324379992086
 20
-75.52338322764693
 30
0.0
 10
60.95476343962243
 20
-75.70752358133353
 30
0.0
 10
60.95476343962243
 20
-75.98037514376533
 30
0.0
 10
60.95476343962243
 20
-76.20878497443739
 30
0.0
 10
60.83039549260491
 20
-76.30834823396111
 30
0.0
 10
60.50035534511797
 20
-76.53469100734202
 30
0.0
  0
HATCH
  5
D0
330
CB
100
AcDbEntity
  8
_U+30EC_U+30A4_U+30E4_U+30FC 1
 62
   179
420
  2234388
100
AcDbHatch
 10
0.0
 20
0.0
 30
0.0
210
0.0
220
0.0
230
1.0
  2
SOLID
 70
     1
 71
     0
 91
        1
 92
        1
 93
        1
 72
     4
 94
        3
 73
     0
 74
     1
 95
       44
 96
       40
 40
0.0
 40
0.0
 40
0.0
 40
0.0
 40
1.0
 40
1.0
 40
1.0
 40
2.0
 40
2.0
 40
2.0
 40
3.0
 40
3.0
 40
3.0
 40
4.0
 40
4.0
 40
4.0
 40
5.0
 40
5.0
 40
5.0
 40
6.0
 40
6.0
 40
6.0
 40
7.0
 40
7.0
 40
7.0
 40
8.0
 40
8.0
 40
8.0
 40
9.0
 40
9.0
 40
9.0
 40
10.0
 40
10.0
 40
10.0
 40
11.0
 40
11.0
 40
11.0
 40
12.0
 40
12.0
 40
12.0
 40
13.0
 40
13.0
 40
13.0
 40
13.0
 10
60.50035534511797
 20
-76.53469100734202
 10
60.26746689031508
 20
-76.69333765443778
 10
60.16790363079136
 20
-76.76740720737065
 10
60.11588268896408
 20
-76.91123994387983
 10
60.11588268896408
 20
-76.91123994387983
 10
60.94821775820045
 20
-76.91123994387983
 10
60.94821775820045
 20
-76.91123994387983
 10
60.94821775820045
 20
-76.91123994387983
 10
60.94821775820045
 20
-77.11639538002646
 10
60.94821775820045
 20
-77.11639538002646
 10
60.94821775820045
 20
-77.11639538002646
 10
59.84923229840575
 20
-77.11639538002646
 10
59.84923229840575
 20
-77.11639538002646
 10
59.88333874370972
 20
-76.75879446865753
 10
59.9532741820603
 20
-76.68059080114236
 10
60.36461858299913
 20
-76.38224553211973
 10
60.63815916452796
 20
-76.1834635226208
 10
60.70843911242706
 20
-76.11576739633564
 10
60.70843911242706
 20
-75.97830808647417
 10
60.70843911242706
 20
-75.85979680178158
 10
60.63161348310599
 20
-75.72871091856783
 10
60.42111814895722
 20
-75.72871091856783
 10
60.14309894329756
 20
-75.72871091856783
 10
60.13414169503591
 20
-75.95918780653103
 10
60.12966307090509
 20
-76.07563203393248
 10
60.12966307090509
 20
-76.07563203393248
 10
59.8898844251317
 20
-76.07563203393248
 10
59.8898844251317
 20
-76.07563203393248
 10
59.89884167339335
 20
-75.94868026530102
 10
59.91021048849467
 20
-75.83654240725615
 10
59.99633787562592
 20
-75.71803112256354
 10
60.11381563167294
 20
-75.55731741817665
 10
60.31259764117186
 20
-75.52338322764693
 10
60.43696558818937
 20
-75.52338322764693
 10
60.73324379992086
 20
-75.52338322764693
 10
60.95476343962243
 20
-75.70752358133353
 10
60.95476343962243
 20
-75.98037514376533
 10
60.95476343962243
 20
-76.20878497443739
 10
60.83039549260491
 20
-76.30834823396111
 10
60.50035534511797
 20
-76.53469100734202
 97
        0
 97
        0
 75
     2
 76
     1
 98
        0
  0
SPLINE
  5
D1
330
CB
100
AcDbEntity
  8
_U+30EC_U+30A4_U+30E4_U+30FC 1
370
     0
100
AcDbSpline
210
0.0
220
0.0
230
1.0
 70
    11
 71
     3
 72
    62
 73
    58
 74
     0
 42
0.0000000001
 43
0.0000000001
 12
1.0
 22
0.0
 32
0.0
 13
1.0
 23
0.0
 33
0.0
 40
0.0
 40
0.0
 40
0.0
 40
0.0
 40
1.0
 40
1.0
 40
1.0
 40
2.0
 40
2.0
 40
2.0
 40
3.0
 40
3.0
 40
3.0
 40
4.0
 40
4.0
 40
4.0
 40
5.0
 40
5.0
 40
5.0
 40
6.0
 40
6.0
 40
6.0
 40
7.0
 40
7.0
 40
7.0
 40
8.0
 40
8.0
 40
8.0
 40
9.0
 40
9.0
 40
9.0
 40
10.0
 40
10.0
 40
10.0
 40
11.0
 40
11.0
 40
11.0
 40
12.0
 40
12.0
 40
12.0
 40
13.0
 40
13.0
 40
13.0
 40
14.0
 40
14.0
 40
14.0
 40
15.0
 40
15.0
 40
15.0
 40
16.0
 40
16.0
 40
16.0
 40
17.0
 40
17.0
 40
17.0
 40
18.0
 40
18.0
 40
18.0
 40
19.0
 40
19.0
 40
19.0
 40
19.0
 10
61.64963919899731
 20
-77.16721053843389
 30
0.0
 10
61.54800888218244
 20
-77.16721053843389
 30
0.0
 10
61.31512042737955
 20
-77.14602320119961
 30
0.0
 10
61.18179523210038
 20
-76.95981579022185
 30
0.0
 10
61.10255803593964
 20
-76.84767793217698
 30
0.0
 10
61.09807941180882
 20
-76.74828692742751
 30
0.0
 10
61.09360078767799
 20
-76.66370983326463
 30
0.0
 10
61.09360078767799
 20
-76.66370983326463
 30
0.0
 10
61.32855629977203
 20
-76.66370983326463
 30
0.0
 10
61.32855629977203
 20
-76.66370983326463
 30
0.0
 10
61.33096786661171
 20
-76.7377793861975
 30
0.0
 10
61.34233668171303
 20
-76.97256264351728
 30
0.0
 10
61.64516057486649
 20
-76.97256264351728
 30
0.0
 10
61.79226615208666
 20
-76.97256264351728
 30
0.0
 10
61.95487465899045
 20
-76.90279945994097
 30
0.0
 10
61.95487465899045
 20
-76.67421737449465
 30
0.0
 10
61.95487465899045
 20
-76.55794540186746
 30
0.0
 10
61.9142225322645
 20
-76.50919730075118
 30
0.0
 10
61.88046059650905
 20
-76.47750242228688
 30
0.0
 10
61.80122340034831
 20
-76.403432869354
 30
0.0
 10
61.67685545333079
 20
-76.39085827083285
 30
0.0
 10
61.61794432053302
 20
-76.39085827083285
 30
0.0
 10
61.59761825717004
 20
-76.39085827083285
 30
0.0
 10
61.55937769728377
 20
-76.392925328124
 30
0.0
 10
61.52974987611062
 20
-76.3970594427063
 30
0.0
 10
61.52974987611062
 20
-76.3970594427063
 30
0.0
 10
61.52974987611062
 20
-76.20241154778968
 30
0.0
 10
61.52974987611062
 20
-76.20241154778968
 30
0.0
 10
61.57040200283657
 20
-76.20878497443739
 30
0.0
 10
61.61587726324187
 20
-76.2110242865028
 30
0.0
 10
61.62242294466384
 20
-76.2110242865028
 30
0.0
 10
61.69270289256294
 20
-76.2110242865028
 30
0.0
 10
61.90526528400285
 20
-76.18983694926851
 30
0.0
 10
61.90526528400285
 20
-75.95281437988332
 30
0.0
 10
61.90526528400285
 20
-75.7752197076187
 30
0.0
 10
61.76504989775319
 20
-75.7200981798547
 30
0.0
 10
61.64757214170616
 20
-75.7200981798547
 30
0.0
 10
61.36472980236715
 20
-75.7200981798547
 30
0.0
 10
61.35577255410551
 20
-75.95281437988332
 30
0.0
 10
61.35129392997468
 20
-76.02481687552505
 30
0.0
 10
61.35129392997468
 20
-76.02481687552505
 30
0.0
 10
61.13425291440394
 20
-76.02481687552505
 30
0.0
 10
61.13425291440394
 20
-76.02481687552505
 30
0.0
 10
61.14321016266559
 20
-75.89993216418475
 30
0.0
 10
61.17249347429021
 20
-75.52338322764693
 30
0.0
 10
61.66100801409864
 20
-75.52338322764693
 30
0.0
 10
61.90078665987203
 20
-75.52338322764693
 30
0.0
 10
62.15847980216871
 20
-75.65033499627839
 30
0.0
 10
62.15847980216871
 20
-75.94644095323561
 30
0.0
 10
62.15847980216871
 20
-76.13264836421337
 30
0.0
 10
62.05650497580532
 20
-76.2151584010851
 30
0.0
 10
61.95039603485963
 20
-76.27648110072255
 30
0.0
 10
62.01585284907937
 20
-76.30404186460454
 30
0.0
 10
62.21050074399599
 20
-76.38448484418514
 30
0.0
 10
62.21050074399599
 20
-76.66164277597348
 30
0.0
 10
62.21050074399599
 20
-77.00012340739927
 30
0.0
 10
61.9459174107288
 20
-77.16721053843389
 30
0.0
 10
61.64963919899731
 20
-77.16721053843389
 30
0.0
  0
HATCH
  5
D2
330
CB
100
AcDbEntity
  8
_U+30EC_U+30A4_U+30E4_U+30FC 1
 62
   179
420
  2234388
100
AcDbHatch
 10
0.0
 20
0.0
 30
0.0
210
0.0
220
0.0
230
1.0
  2
SOLID
 70
     1
 71
     0
 91
        1
 92
        1
 93
        1
 72
     4
 94
        3
 73
     0
 74
     1
 95
       62
 96
       58
 40
0.0
 40
0.0
 40
0.0
 40
0.0
 40
1.0
 40
1.0
 40
1.0
 40
2.0
 40
2.0
 40
2.0
 40
3.0
 40
3.0
 40
3.0
 40
4.0
 40
4.0
 40
4.0
 40
5.0
 40
5.0
 40
5.0
 40
6.0
 40
6.0
 40
6.0
 40
7.0
 40
7.0
 40
7.0
 40
8.0
 40
8.0
 40
8.0
 40
9.0
 40
9.0
 40
9.0
 40
10.0
 40
10.0
 40
10.0
 40
11.0
 40
11.0
 40
11.0
 40
12.0
 40
12.0
 40
12.0
 40
13.0
 40
13.0
 40
13.0
 40
14.0
 40
14.0
 40
14.0
 40
15.0
 40
15.0
 40
15.0
 40
16.0
 40
16.0
 40
16.0
 40
17.0
 40
17.0
 40
17.0
 40
18.0
 40
18.0
 40
18.0
 40
19.0
 40
19.0
 40
19.0
 40
19.0
 10
61.64963919899731
 20
-77.16721053843389
 10
61.54800888218244
 20
-77.16721053843389
 10
61.31512042737955
 20
-77.14602320119961
 10
61.18179523210038
 20
-76.95981579022185
 10
61.10255803593964
 20
-76.84767793217698
 10
61.09807941180882
 20
-76.74828692742751
 10
61.09360078767799
 20
-76.66370983326463
 10
61.09360078767799
 20
-76.66370983326463
 10
61.32855629977203
 20
-76.66370983326463
 10
61.32855629977203
 20
-76.66370983326463
 10
61.33096786661171
 20
-76.7377793861975
 10
61.34233668171303
 20
-76.97256264351728
 10
61.64516057486649
 20
-76.97256264351728
 10
61.79226615208666
 20
-76.97256264351728
 10
61.95487465899045
 20
-76.90279945994097
 10
61.95487465899045
 20
-76.67421737449465
 10
61.95487465899045
 20
-76.55794540186746
 10
61.9142225322645
 20
-76.50919730075118
 10
61.88046059650905
 20
-76.47750242228688
 10
61.80122340034831
 20
-76.403432869354
 10
61.67685545333079
 20
-76.39085827083285
 10
61.61794432053302
 20
-76.39085827083285
 10
61.59761825717004
 20
-76.39085827083285
 10
61.55937769728377
 20
-76.392925328124
 10
61.52974987611062
 20
-76.3970594427063
 10
61.52974987611062
 20
-76.3970594427063
 10
61.52974987611062
 20
-76.20241154778968
 10
61.52974987611062
 20
-76.20241154778968
 10
61.57040200283657
 20
-76.20878497443739
 10
61.61587726324187
 20
-76.2110242865028
 10
61.62242294466384
 20
-76.2110242865028
 10
61.69270289256294
 20
-76.2110242865028
 10
61.90526528400285
 20
-76.18983694926851
 10
61.90526528400285
 20
-75.95281437988332
 10
61.90526528400285
 20
-75.7752197076187
 10
61.76504989775319
 20
-75.7200981798547
 10
61.64757214170616
 20
-75.7200981798547
 10
61.36472980236715
 20
-75.7200981798547
 10
61.35577255410551
 20
-75.95281437988332
 10
61.35129392997468
 20
-76.02481687552505
 10
61.35129392997468
 20
-76.02481687552505
 10
61.13425291440394
 20
-76.02481687552505
 10
61.13425291440394
 20
-76.02481687552505
 10
61.14321016266559
 20
-75.89993216418475
 10
61.17249347429021
 20
-75.52338322764693
 10
61.66100801409864
 20
-75.52338322764693
 10
61.90078665987203
 20
-75.52338322764693
 10
62.15847980216871
 20
-75.65033499627839
 10
62.15847980216871
 20
-75.94644095323561
 10
62.15847980216871
 20
-76.13264836421337
 10
62.05650497580532
 20
-76.2151584010851
 10
61.95039603485963
 20
-76.27648110072255
 10
62.01585284907937
 20
-76.30404186460454
 10
62.21050074399599
 20
-76.38448484418514
 10
62.21050074399599
 20
-76.66164277597348
 10
62.21050074399599
 20
-77.00012340739927
 10
61.9459174107288
 20
-77.16721053843389
 10
61.64963919899731
 20
-77.16721053843389
 97
        0
 97
        0
 75
     2
 76
     1
 98
        0
  0
ENDBLK
  5
CE
330
CB
100
AcDbEntity
  8
0
100
AcDbBlockEnd
  0
BLOCK
  5
DD
330
DB
100
AcDbEntity
  8
0
100
AcDbBlockBegin
  2
block 6
 70
     0
 10
0.0
 20
0.0
 30
0.0
  3
block 6
  1

  0
SPLINE
  5
DF
330
DB
100
AcDbEntity
  8
_U+30EC_U+30A4_U+30E4_U+30FC 1
370
     0
100
AcDbSpline
210
0.0
220
0.0
230
1.0
 70
    11
 71
     3
 72
    26
 73
    22
 74
     0
 42
0.0000000001
 43
0.0000000001
 12
1.0
 22
0.0
 32
0.0
 13
1.0
 23
0.0
 33
0.0
 40
0.0
 40
0.0
 40
0.0
 40
0.0
 40
1.0
 40
1.0
 40
1.0
 40
2.0
 40
2.0
 40
2.0
 40
3.0
 40
3.0
 40
3.0
 40
4.0
 40
4.0
 40
4.0
 40
5.0
 40
5.0
 40
5.0
 40
6.0
 40
6.0
 40
6.0
 40
7.0
 40
7.0
 40
7.0
 40
7.0
 10
75.1781846600249
 20
-90.44994843658891
 30
0.0
 10
75.1781846600249
 20
-90.44994843658891
 30
0.0
 10
74.07403155700233
 20
-90.44994843658891
 30
0.0
 10
74.07403155700233
 20
-90.44994843658891
 30
0.0
 10
74.07403155700233
 20
-90.44994843658891
 30
0.0
 10
74.07403155700233
 20
-90.80238170472997
 30
0.0
 10
74.07403155700233
 20
-90.80238170472997
 30
0.0
 10
74.07403155700233
 20
-90.80238170472997
 30
0.0
 10
73.92589245113659
 20
-90.80238170472997
 30
0.0
 10
73.92589245113659
 20
-90.80238170472997
 30
0.0
 10
73.91107854055001
 20
-90.44753686974923
 30
0.0
 10
73.74812552409769
 20
-90.39792749476163
 30
0.0
 10
73.6337483539874
 20
-90.36623261629734
 30
0.0
 10
73.6337483539874
 20
-90.36623261629734
 30
0.0
 10
73.6337483539874
 20
-90.21016979081551
 30
0.0
 10
73.6337483539874
 20
-90.21016979081551
 30
0.0
 10
73.6337483539874
 20
-90.21016979081551
 30
0.0
 10
75.1781846600249
 20
-90.21016979081551
 30
0.0
 10
75.1781846600249
 20
-90.21016979081551
 30
0.0
 10
75.1781846600249
 20
-90.21016979081551
 30
0.0
 10
75.1781846600249
 20
-90.44994843658891
 30
0.0
 10
75.1781846600249
 20
-90.44994843658891
 30
0.0
  0
HATCH
  5
E0
330
DB
100
AcDbEntity
  8
_U+30EC_U+30A4_U+30E4_U+30FC 1
 62
   179
420
  2234388
100
AcDbHatch
 10
0.0
 20
0.0
 30
0.0
210
0.0
220
0.0
230
1.0
  2
SOLID
 70
     1
 71
     0
 91
        1
 92
        1
 93
        1
 72
     4
 94
        3
 73
     0
 74
     1
 95
       26
 96
       22
 40
0.0
 40
0.0
 40
0.0
 40
0.0
 40
1.0
 40
1.0
 40
1.0
 40
2.0
 40
2.0
 40
2.0
 40
3.0
 40
3.0
 40
3.0
 40
4.0
 40
4.0
 40
4.0
 40
5.0
 40
5.0
 40
5.0
 40
6.0
 40
6.0
 40
6.0
 40
7.0
 40
7.0
 40
7.0
 40
7.0
 10
75.1781846600249
 20
-90.44994843658891
 10
75.1781846600249
 20
-90.44994843658891
 10
74.07403155700233
 20
-90.44994843658891
 10
74.07403155700233
 20
-90.44994843658891
 10
74.07403155700233
 20
-90.44994843658891
 10
74.07403155700233
 20
-90.80238170472997
 10
74.07403155700233
 20
-90.80238170472997
 10
74.07403155700233
 20
-90.80238170472997
 10
73.92589245113659
 20
-90.80238170472997
 10
73.92589245113659
 20
-90.80238170472997
 10
73.91107854055001
 20
-90.44753686974923
 10
73.74812552409769
 20
-90.39792749476163
 10
73.6337483539874
 20
-90.36623261629734
 10
73.6337483539874
 20
-90.36623261629734
 10
73.6337483539874
 20
-90.21016979081551
 10
73.6337483539874
 20
-90.21016979081551
 10
73.6337483539874
 20
-90.21016979081551
 10
75.1781846600249
 20
-90.21016979081551
 10
75.1781846600249
 20
-90.21016979081551
 10
75.1781846600249
 20
-90.21016979081551
 10
75.1781846600249
 20
-90.44994843658891
 10
75.1781846600249
 20
-90.44994843658891
 97
        0
 97
        0
 75
     2
 76
     1
 98
        0
  0
SPLINE
  5
E1
330
DB
100
AcDbEntity
  8
_U+30EC_U+30A4_U+30E4_U+30FC 1
370
     0
100
AcDbSpline
210
0.0
220
0.0
230
1.0
 70
    11
 71
     3
 72
    62
 73
    58
 74
     0
 42
0.0000000001
 43
0.0000000001
 12
1.0
 22
0.0
 32
0.0
 13
1.0
 23
0.0
 33
0.0
 40
0.0
 40
0.0
 40
0.0
 40
0.0
 40
1.0
 40
1.0
 40
1.0
 40
2.0
 40
2.0
 40
2.0
 40
3.0
 40
3.0
 40
3.0
 40
4.0
 40
4.0
 40
4.0
 40
5.0
 40
5.0
 40
5.0
 40
6.0
 40
6.0
 40
6.0
 40
7.0
 40
7.0
 40
7.0
 40
8.0
 40
8.0
 40
8.0
 40
9.0
 40
9.0
 40
9.0
 40
10.0
 40
10.0
 40
10.0
 40
11.0
 40
11.0
 40
11.0
 40
12.0
 40
12.0
 40
12.0
 40
13.0
 40
13.0
 40
13.0
 40
14.0
 40
14.0
 40
14.0
 40
15.0
 40
15.0
 40
15.0
 40
16.0
 40
16.0
 40
16.0
 40
17.0
 40
17.0
 40
17.0
 40
18.0
 40
18.0
 40
18.0
 40
19.0
 40
19.0
 40
19.0
 40
19.0
 10
75.22882756365807
 20
-89.14908038135857
 30
0.0
 10
75.22882756365807
 20
-89.25071069817344
 30
0.0
 10
75.20781248119805
 20
-89.48359915297632
 30
0.0
 10
75.02177732499456
 20
-89.6169243482555
 30
0.0
 10
74.90946721217541
 20
-89.69616154441624
 30
0.0
 10
74.81024846220022
 20
-89.70064016854707
 30
0.0
 10
74.72549911326307
 20
-89.7051187926779
 30
0.0
 10
74.72549911326307
 20
-89.7051187926779
 30
0.0
 10
74.72549911326307
 20
-89.47016328058385
 30
0.0
 10
74.72549911326307
 20
-89.47016328058385
 30
0.0
 10
74.79956866619594
 20
-89.46775171374418
 30
0.0
 10
75.03417966874146
 20
-89.45638289864286
 30
0.0
 10
75.03417966874146
 20
-89.1535590054894
 30
0.0
 10
75.03417966874146
 20
-89.00645342826923
 30
0.0
 10
74.96458873993942
 20
-88.84384492136543
 30
0.0
 10
74.73617890926735
 20
-88.84384492136543
 30
0.0
 10
74.6197346818659
 20
-88.84384492136543
 30
0.0
 10
74.57115883552387
 20
-88.88449704809138
 30
0.0
 10
74.53946395705958
 20
-88.91860349339535
 30
0.0
 10
74.46539440412671
 20
-88.99749618000757
 30
0.0
 10
74.45264755083129
 20
-89.12186412702509
 30
0.0
 10
74.45264755083129
 20
-89.18077525982287
 30
0.0
 10
74.45264755083129
 20
-89.20110132318584
 30
0.0
 10
74.45471460812243
 20
-89.23934188307211
 30
0.0
 10
74.45884872270473
 20
-89.26896970424527
 30
0.0
 10
74.45884872270473
 20
-89.26896970424527
 30
0.0
 10
74.26420082778812
 20
-89.26896970424527
 30
0.0
 10
74.26420082778812
 20
-89.26896970424527
 30
0.0
 10
74.2707465092101
 20
-89.22831757751932
 30
0.0
 10
74.27281356650124
 20
-89.18284231711401
 30
0.0
 10
74.27281356650124
 20
-89.17629663569204
 30
0.0
 10
74.27281356650124
 20
-89.10601668779294
 30
0.0
 10
74.25145397449269
 20
-88.89345429635303
 30
0.0
 10
74.01477591465603
 20
-88.89345429635303
 30
0.0
 10
73.83700898761714
 20
-88.89345429635303
 30
0.0
 10
73.78188745985314
 20
-89.03366968260269
 30
0.0
 10
73.78188745985314
 20
-89.15114743864972
 30
0.0
 10
73.78188745985314
 20
-89.43398977798873
 30
0.0
 10
74.01477591465603
 20
-89.44294702625038
 30
0.0
 10
74.08643390074923
 20
-89.4474256503812
 30
0.0
 10
74.08643390074923
 20
-89.4474256503812
 30
0.0
 10
74.08643390074923
 20
-89.66446666595195
 30
0.0
 10
74.08643390074923
 20
-89.66446666595195
 30
0.0
 10
73.96172144418318
 20
-89.6555094176903
 30
0.0
 10
73.58517250764538
 20
-89.62622610606567
 30
0.0
 10
73.58517250764538
 20
-89.13771156625724
 30
0.0
 10
73.58517250764538
 20
-88.89793292048385
 30
0.0
 10
73.7122965310511
 20
-88.64023977818717
 30
0.0
 10
74.00823023323406
 20
-88.64023977818717
 30
0.0
 10
74.19460989898607
 20
-88.64023977818717
 30
0.0
 10
74.27694768108354
 20
-88.74221460455057
 30
0.0
 10
74.33827038072099
 20
-88.84832354549626
 30
0.0
 10
74.36583114460299
 20
-88.78286673127651
 30
0.0
 10
74.4461018694093
 20
-88.5882188363599
 30
0.0
 10
74.72343205597193
 20
-88.5882188363599
 30
0.0
 10
75.06174043262345
 20
-88.5882188363599
 30
0.0
 10
75.22882756365807
 20
-88.85280216962708
 30
0.0
 10
75.22882756365807
 20
-89.14908038135857
 30
0.0
  0
HATCH
  5
E2
330
DB
100
AcDbEntity
  8
_U+30EC_U+30A4_U+30E4_U+30FC 1
 62
   179
420
  2234388
100
AcDbHatch
 10
0.0
 20
0.0
 30
0.0
210
0.0
220
0.0
230
1.0
  2
SOLID
 70
     1
 71
     0
 91
        1
 92
        1
 93
        1
 72
     4
 94
        3
 73
     0
 74
     1
 95
       62
 96
       58
 40
0.0
 40
0.0
 40
0.0
 40
0.0
 40
1.0
 40
1.0
 40
1.0
 40
2.0
 40
2.0
 40
2.0
 40
3.0
 40
3.0
 40
3.0
 40
4.0
 40
4.0
 40
4.0
 40
5.0
 40
5.0
 40
5.0
 40
6.0
 40
6.0
 40
6.0
 40
7.0
 40
7.0
 40
7.0
 40
8.0
 40
8.0
 40
8.0
 40
9.0
 40
9.0
 40
9.0
 40
10.0
 40
10.0
 40
10.0
 40
11.0
 40
11.0
 40
11.0
 40
12.0
 40
12.0
 40
12.0
 40
13.0
 40
13.0
 40
13.0
 40
14.0
 40
14.0
 40
14.0
 40
15.0
 40
15.0
 40
15.0
 40
16.0
 40
16.0
 40
16.0
 40
17.0
 40
17.0
 40
17.0
 40
18.0
 40
18.0
 40
18.0
 40
19.0
 40
19.0
 40
19.0
 40
19.0
 10
75.22882756365807
 20
-89.14908038135857
 10
75.22882756365807
 20
-89.25071069817344
 10
75.20781248119805
 20
-89.48359915297632
 10
75.02177732499456
 20
-89.6169243482555
 10
74.90946721217541
 20
-89.69616154441624
 10
74.81024846220022
 20
-89.70064016854707
 10
74.72549911326307
 20
-89.7051187926779
 10
74.72549911326307
 20
-89.7051187926779
 10
74.72549911326307
 20
-89.47016328058385
 10
74.72549911326307
 20
-89.47016328058385
 10
74.79956866619594
 20
-89.46775171374418
 10
75.03417966874146
 20
-89.45638289864286
 10
75.03417966874146
 20
-89.1535590054894
 10
75.03417966874146
 20
-89.00645342826923
 10
74.96458873993942
 20
-88.84384492136543
 10
74.73617890926735
 20
-88.84384492136543
 10
74.6197346818659
 20
-88.84384492136543
 10
74.57115883552387
 20
-88.88449704809138
 10
74.53946395705958
 20
-88.91860349339535
 10
74.46539440412671
 20
-88.99749618000757
 10
74.45264755083129
 20
-89.12186412702509
 10
74.45264755083129
 20
-89.18077525982287
 10
74.45264755083129
 20
-89.20110132318584
 10
74.45471460812243
 20
-89.23934188307211
 10
74.45884872270473
 20
-89.26896970424527
 10
74.45884872270473
 20
-89.26896970424527
 10
74.26420082778812
 20
-89.26896970424527
 10
74.26420082778812
 20
-89.26896970424527
 10
74.2707465092101
 20
-89.22831757751932
 10
74.27281356650124
 20
-89.18284231711401
 10
74.27281356650124
 20
-89.17629663569204
 10
74.27281356650124
 20
-89.10601668779294
 10
74.25145397449269
 20
-88.89345429635303
 10
74.01477591465603
 20
-88.89345429635303
 10
73.83700898761714
 20
-88.89345429635303
 10
73.78188745985314
 20
-89.03366968260269
 10
73.78188745985314
 20
-89.15114743864972
 10
73.78188745985314
 20
-89.43398977798873
 10
74.01477591465603
 20
-89.44294702625038
 10
74.08643390074923
 20
-89.4474256503812
 10
74.08643390074923
 20
-89.4474256503812
 10
74.08643390074923
 20
-89.66446666595195
 10
74.08643390074923
 20
-89.66446666595195
 10
73.96172144418318
 20
-89.6555094176903
 10
73.58517250764538
 20
-89.62622610606567
 10
73.58517250764538
 20
-89.13771156625724
 10
73.58517250764538
 20
-88.89793292048385
 10
73.7122965310511
 20
-88.64023977818717
 10
74.00823023323406
 20
-88.64023977818717
 10
74.19460989898607
 20
-88.64023977818717
 10
74.27694768108354
 20
-88.74221460455057
 10
74.33827038072099
 20
-88.84832354549626
 10
74.36583114460299
 20
-88.78286673127651
 10
74.4461018694093
 20
-88.5882188363599
 10
74.72343205597193
 20
-88.5882188363599
 10
75.06174043262345
 20
-88.5882188363599
 10
75.22882756365807
 20
-88.85280216962708
 10
75.22882756365807
 20
-89.14908038135857
 97
        0
 97
        0
 75
     2
 76
     1
 98
        0
  0
ENDBLK
  5
DE
330
DB
100
AcDbEntity
  8
0
100
AcDbBlockEnd
  0
ENDSEC
  0
SECTION
  2
ENTITIES
  0
POLYLINE
  5
41
330
1F
100
AcDbEntity
  8
_U+30EC_U+30A4_U+30E4_U+30FC 1
 62
   179
420
  2234388
370
    25
100
AcDb2dPolyline
 66
     1
 10
0.0
 20
0.0
 30
0.0
  0
VERTEX
  5
42
330
41
100
AcDbEntity
  8
_U+30EC_U+30A4_U+30E4_U+30FC 1
 62
   179
420
  2234388
370
    25
100
AcDbVertex
100
AcDb2dVertex
 10
49.53081012525265
 20
-82.4685083127163
 30
0.0
  0
VERTEX
  5
43
330
41
100
AcDbEntity
  8
_U+30EC_U+30A4_U+30E4_U+30FC 1
 62
   179
420
  2234388
370
    25
100
AcDbVertex
100
AcDb2dVertex
 10
72.53061537181206
 20
-82.4685083127163
 30
0.0
  0
SEQEND
  5
44
330
41
100
AcDbEntity
  8
_U+30EC_U+30A4_U+30E4_U+30FC 1
 62
   179
420
  2234388
370
    25
  0
POLYLINE
  5
45
330
1F
100
AcDbEntity
  8
_U+30EC_U+30A4_U+30E4_U+30FC 1
 62
   179
420
  2234388
370
    25
100
AcDb2dPolyline
 66
     1
 10
0.0
 20
0.0
 30
0.0
  0
VERTEX
  5
46
330
45
100
AcDbEntity
  8
_U+30EC_U+30A4_U+30E4_U+30FC 1
 62
   179
420
  2234388
370
    25
100
AcDbVertex
100
AcDb2dVertex
 10
50.33076899373289
 20
-83.26846720140524
 30
0.0
  0
VERTEX
  5
47
330
45
100
AcDbEntity
  8
_U+30EC_U+30A4_U+30E4_U+30FC 1
 62
   179
420
  2234388
370
    25
100
AcDbVertex
100
AcDb2dVertex
 10
72.53061537181206
 20
-83.26846720140524
 30
0.0
  0
SEQEND
  5
48
330
45
100
AcDbEntity
  8
_U+30EC_U+30A4_U+30E4_U+30FC 1
 62
   179
420
  2234388
370
    25
  0
POLYLINE
  5
49
330
1F
100
AcDbEntity
  8
_U+30EC_U+30A4_U+30E4_U+30FC 1
 62
   179
420
  2234388
370
    25
100
AcDb2dPolyline
 66
     1
 10
0.0
 20
0.0
 30
0.0
  0
VERTEX
  5
4A
330
49
100
AcDbEntity
  8
_U+30EC_U+30A4_U+30E4_U+30FC 1
 62
   179
420
  2234388
370
    25
100
AcDbVertex
100
AcDb2dVertex
 10
72.53061537181206
 20
-82.4685083127163
 30
0.0
  0
VERTEX
  5
4B
330
49
100
AcDbEntity
  8
_U+30EC_U+30A4_U+30E4_U+30FC 1
 62
   179
420
  2234388
370
    25
100
AcDbVertex
100
AcDb2dVertex
 10
72.53061537181206
 20
-83.26846720140524
 30
0.0
  0
SEQEND
  5
4C
330
49
100
AcDbEntity
  8
_U+30EC_U+30A4_U+30E4_U+30FC 1
 62
   179
420
  2234388
370
    25
  0
POLYLINE
  5
4D
330
1F
100
AcDbEntity
  8
_U+30EC_U+30A4_U+30E4_U+30FC 1
 62
   179
420
  2234388
370
    25
100
AcDb2dPolyline
 66
     1
 10
0.0
 20
0.0
 30
0.0
  0
VERTEX
  5
4E
330
4D
100
AcDbEntity
  8
_U+30EC_U+30A4_U+30E4_U+30FC 1
 62
   179
420
  2234388
370
    25
100
AcDbVertex
100
AcDb2dVertex
 10
55.51462663925944
 20
-96.26801080926658
 30
0.0
  0
VERTEX
  5
4F
330
4D
100
AcDbEntity
  8
_U+30EC_U+30A4_U+30E4_U+30FC 1
 62
   179
420
  2234388
370
    25
100
AcDbVertex
100
AcDb2dVertex
 10
59.53054442956167
 20
-96.26801080926658
 30
0.0
  0
SEQEND
  5
50
330
4D
100
AcDbEntity
  8
_U+30EC_U+30A4_U+30E4_U+30FC 1
 62
   179
420
  2234388
370
    25
  0
POLYLINE
  5
51
330
1F
100
AcDbEntity
  8
_U+30EC_U+30A4_U+30E4_U+30FC 1
 62
   179
420
  2234388
370
    25
100
AcDb2dPolyline
 66
     1
 10
0.0
 20
0.0
 30
0.0
  0
VERTEX
  5
52
330
51
100
AcDbEntity
  8
_U+30EC_U+30A4_U+30E4_U+30FC 1
 62
   179
420
  2234388
370
    25
100
AcDbVertex
100
AcDb2dVertex
 10
49.53081012525265
 20
-99.26799775296094
 30
0.0
  0
VERTEX
  5
53
330
51
100
AcDbEntity
  8
_U+30EC_U+30A4_U+30E4_U+30FC 1
 62
   179
420
  2234388
370
    25
100
AcDbVertex
100
AcDb2dVertex
 10
59.53054442956167
 20
-99.26799775296094
 30
0.0
  0
SEQEND
  5
54
330
51
100
AcDbEntity
  8
_U+30EC_U+30A4_U+30E4_U+30FC 1
 62
   179
420
  2234388
370
    25
  0
POLYLINE
  5
55
330
1F
100
AcDbEntity
  8
_U+30EC_U+30A4_U+30E4_U+30FC 1
 62
   179
420
  2234388
370
    25
100
AcDb2dPolyline
 66
     1
 10
0.0
 20
0.0
 30
0.0
  0
VERTEX
  5
56
330
55
100
AcDbEntity
  8
_U+30EC_U+30A4_U+30E4_U+30FC 1
 62
   179
420
  2234388
370
    25
100
AcDbVertex
100
AcDb2dVertex
 10
59.53054442956167
 20
-96.26801080926658
 30
0.0
  0
VERTEX
  5
57
330
55
100
AcDbEntity
  8
_U+30EC_U+30A4_U+30E4_U+30FC 1
 62
   179
420
  2234388
370
    25
100
AcDbVertex
100
AcDb2dVertex
 10
59.53054442956167
 20
-99.26799775296094
 30
0.0
  0
SEQEND
  5
58
330
55
100
AcDbEntity
  8
_U+30EC_U+30A4_U+30E4_U+30FC 1
 62
   179
420
  2234388
370
    25
  0
POLYLINE
  5
59
330
1F
100
AcDbEntity
  8
_U+30EC_U+30A4_U+30E4_U+30FC 1
 62
   179
420
  2234388
370
    25
100
AcDb2dPolyline
 66
     1
 10
0.0
 20
0.0
 30
0.0
  0
VERTEX
  5
5A
330
59
100
AcDbEntity
  8
_U+30EC_U+30A4_U+30E4_U+30FC 1
 62
   179
420
  2234388
370
    25
100
AcDbVertex
100
AcDb2dVertex
 10
55.51462663925944
 20
-96.26801080926658
 30
0.0
  0
VERTEX
  5
5B
330
59
100
AcDbEntity
  8
_U+30EC_U+30A4_U+30E4_U+30FC 1
 62
   179
420
  2234388
370
    25
100
AcDbVertex
100
AcDb2dVertex
 10
55.51462663925944
 20
-97.06796969795522
 30
0.0
  0
SEQEND
  5
5C
330
59
100
AcDbEntity
  8
_U+30EC_U+30A4_U+30E4_U+30FC 1
 62
   179
420
  2234388
370
    25
  0
POLYLINE
  5
5D
330
1F
100
AcDbEntity
  8
_U+30EC_U+30A4_U+30E4_U+30FC 1
 62
   179
420
  2234388
370
    25
100
AcDb2dPolyline
 66
     1
 10
0.0
 20
0.0
 30
0.0
  0
VERTEX
  5
5E
330
5D
100
AcDbEntity
  8
_U+30EC_U+30A4_U+30E4_U+30FC 1
 62
   179
420
  2234388
370
    25
100
AcDbVertex
100
AcDb2dVertex
 10
50.33076899373289
 20
-98.46807414204983
 30
0.0
  0
VERTEX
  5
5F
330
5D
100
AcDbEntity
  8
_U+30EC_U+30A4_U+30E4_U+30FC 1
 62
   179
420
  2234388
370
    25
100
AcDbVertex
100
AcDb2dVertex
 10
58.73061933499041
 20
-98.46807414204983
 30
0.0
  0
SEQEND
  5
60
330
5D
100
AcDbEntity
  8
_U+30EC_U+30A4_U+30E4_U+30FC 1
 62
   179
420
  2234388
370
    25
  0
POLYLINE
  5
61
330
1F
100
AcDbEntity
  8
_U+30EC_U+30A4_U+30E4_U+30FC 1
 62
   179
420
  2234388
370
    25
100
AcDb2dPolyline
 66
     1
 10
0.0
 20
0.0
 30
0.0
  0
VERTEX
  5
62
330
61
100
AcDbEntity
  8
_U+30EC_U+30A4_U+30E4_U+30FC 1
 62
   179
420
  2234388
370
    25
100
AcDbVertex
100
AcDb2dVertex
 10
58.73061933499041
 20
-97.06796969795522
 30
0.0
  0
VERTEX
  5
63
330
61
100
AcDbEntity
  8
_U+30EC_U+30A4_U+30E4_U+30FC 1
 62
   179
420
  2234388
370
    25
100
AcDbVertex
100
AcDb2dVertex
 10
58.73061933499041
 20
-98.46807414204983
 30
0.0
  0
SEQEND
  5
64
330
61
100
AcDbEntity
  8
_U+30EC_U+30A4_U+30E4_U+30FC 1
 62
   179
420
  2234388
370
    25
  0
POLYLINE
  5
65
330
1F
100
AcDbEntity
  8
_U+30EC_U+30A4_U+30E4_U+30FC 1
 62
   179
420
  2234388
370
    25
100
AcDb2dPolyline
 66
     1
 10
0.0
 20
0.0
 30
0.0
  0
VERTEX
  5
66
330
65
100
AcDbEntity
  8
_U+30EC_U+30A4_U+30E4_U+30FC 1
 62
   179
420
  2234388
370
    25
100
AcDbVertex
100
AcDb2dVertex
 10
55.51462663925944
 20
-97.06796969795522
 30
0.0
  0
VERTEX
  5
67
330
65
100
AcDbEntity
  8
_U+30EC_U+30A4_U+30E4_U+30FC 1
 62
   179
420
  2234388
370
    25
100
AcDbVertex
100
AcDb2dVertex
 10
58.73061933499041
 20
-97.06796969795522
 30
0.0
  0
SEQEND
  5
68
330
65
100
AcDbEntity
  8
_U+30EC_U+30A4_U+30E4_U+30FC 1
 62
   179
420
  2234388
370
    25
  0
POLYLINE
  5
69
330
1F
100
AcDbEntity
  8
_U+30EC_U+30A4_U+30E4_U+30FC 1
 62
   179
420
  2234388
370
    25
100
AcDb2dPolyline
 66
     1
 10
0.0
 20
0.0
 30
0.0
  0
VERTEX
  5
6A
330
69
100
AcDbEntity
  8
_U+30EC_U+30A4_U+30E4_U+30FC 1
 62
   179
420
  2234388
370
    25
100
AcDbVertex
100
AcDb2dVertex
 10
49.53081012525265
 20
-82.4685083127163
 30
0.0
  0
VERTEX
  5
6B
330
69
100
AcDbEntity
  8
_U+30EC_U+30A4_U+30E4_U+30FC 1
 62
   179
420
  2234388
370
    25
100
AcDbVertex
100
AcDb2dVertex
 10
49.53081012525265
 20
-99.26799775296094
 30
0.0
  0
SEQEND
  5
6C
330
69
100
AcDbEntity
  8
_U+30EC_U+30A4_U+30E4_U+30FC 1
 62
   179
420
  2234388
370
    25
  0
POLYLINE
  5
6D
330
1F
100
AcDbEntity
  8
_U+30EC_U+30A4_U+30E4_U+30FC 1
 62
   179
420
  2234388
370
    25
100
AcDb2dPolyline
 66
     1
 10
0.0
 20
0.0
 30
0.0
  0
VERTEX
  5
6E
330
6D
100
AcDbEntity
  8
_U+30EC_U+30A4_U+30E4_U+30FC 1
 62
   179
420
  2234388
370
    25
100
AcDbVertex
100
AcDb2dVertex
 10
50.33076899373289
 20
-83.26846720140524
 30
0.0
  0
VERTEX
  5
6F
330
6D
100
AcDbEntity
  8
_U+30EC_U+30A4_U+30E4_U+30FC 1
 62
   179
420
  2234388
370
    25
100
AcDbVertex
100
AcDb2dVertex
 10
50.33076899373289
 20
-98.46807414204983
 30
0.0
  0
SEQEND
  5
70
330
6D
100
AcDbEntity
  8
_U+30EC_U+30A4_U+30E4_U+30FC 1
 62
   179
420
  2234388
370
    25
  0
SPLINE
  5
71
330
1F
100
AcDbEntity
  8
_U+30EC_U+30A4_U+30E4_U+30FC 1
 62
   179
420
  2234388
370
     9
100
AcDbSpline
210
0.0
220
0.0
230
1.0
 70
    11
 71
     3
 72
    17
 73
    13
 74
     0
 42
0.0000000001
 43
0.0000000001
 12
1.0
 22
0.0
 32
0.0
 13
1.0
 23
0.0
 33
0.0
 40
0.0
 40
0.0
 40
0.0
 40
0.0
 40
1.0
 40
1.0
 40
1.0
 40
2.0
 40
2.0
 40
2.0
 40
3.0
 40
3.0
 40
3.0
 40
4.0
 40
4.0
 40
4.0
 40
4.0
 10
76.630633878323
 20
-82.4685083127163
 30
0.0
 10
76.630633878323
 20
-82.41269886828586
 30
0.0
 10
76.5858663794651
 20
-82.36793136829696
 30
0.0
 10
76.53072721420516
 20
-82.36793136829696
 30
0.0
 10
76.47562332672209
 20
-82.36793136829696
 30
0.0
 10
76.43082055008732
 20
-82.41269886828586
 30
0.0
 10
76.43082055008732
 20
-82.4685083127163
 30
0.0
 10
76.43082055008732
 20
-82.52364747936905
 30
0.0
 10
76.47562332672209
 20
-82.56841497935793
 30
0.0
 10
76.53072721420516
 20
-82.56841497935793
 30
0.0
 10
76.5858663794651
 20
-82.56841497935793
 30
0.0
 10
76.630633878323
 20
-82.52364747936905
 30
0.0
 10
76.630633878323
 20
-82.4685083127163
 30
0.0
  0
SPLINE
  5
72
330
1F
100
AcDbEntity
  8
_U+30EC_U+30A4_U+30E4_U+30FC 1
 62
   179
420
  2234388
370
     9
100
AcDbSpline
210
0.0
220
0.0
230
1.0
 70
    11
 71
     3
 72
    17
 73
    13
 74
     0
 42
0.0000000001
 43
0.0000000001
 12
1.0
 22
0.0
 32
0.0
 13
1.0
 23
0.0
 33
0.0
 40
0.0
 40
0.0
 40
0.0
 40
0.0
 40
1.0
 40
1.0
 40
1.0
 40
2.0
 40
2.0
 40
2.0
 40
3.0
 40
3.0
 40
3.0
 40
4.0
 40
4.0
 40
4.0
 40
4.0
 10
76.630633878323
 20
-83.26846720140524
 30
0.0
 10
76.630633878323
 20
-83.21336331252999
 30
0.0
 10
76.5858663794651
 20
-83.16856053476327
 30
0.0
 10
76.53072721420516
 20
-83.16856053476327
 30
0.0
 10
76.47562332672209
 20
-83.16856053476327
 30
0.0
 10
76.43082055008732
 20
-83.21336331252999
 30
0.0
 10
76.43082055008732
 20
-83.26846720140524
 30
0.0
 10
76.43082055008732
 20
-83.323606368058
 30
0.0
 10
76.47562332672209
 20
-83.36837386804687
 30
0.0
 10
76.53072721420516
 20
-83.36837386804687
 30
0.0
 10
76.5858663794651
 20
-83.36837386804687
 30
0.0
 10
76.630633878323
 20
-83.323606368058
 30
0.0
 10
76.630633878323
 20
-83.26846720140524
 30
0.0
  0
SPLINE
  5
73
330
1F
100
AcDbEntity
  8
_U+30EC_U+30A4_U+30E4_U+30FC 1
 62
   179
420
  2234388
370
     9
100
AcDbSpline
210
0.0
220
0.0
230
1.0
 70
    11
 71
     3
 72
    17
 73
    13
 74
     0
 42
0.0000000001
 43
0.0000000001
 12
1.0
 22
0.0
 32
0.0
 13
1.0
 23
0.0
 33
0.0
 40
0.0
 40
0.0
 40
0.0
 40
0.0
 40
1.0
 40
1.0
 40
1.0
 40
2.0
 40
2.0
 40
2.0
 40
3.0
 40
3.0
 40
3.0
 40
4.0
 40
4.0
 40
4.0
 40
4.0
 10
72.63087481369868
 20
-78.46807886927172
 30
0.0
 10
72.63087481369868
 20
-78.41293970261897
 30
0.0
 10
72.58610731484079
 20
-78.36817220263009
 30
0.0
 10
72.53061537181206
 20
-78.36817220263009
 30
0.0
 10
72.47551148432899
 20
-78.36817220263009
 30
0.0
 10
72.43070870769424
 20
-78.41293970261897
 30
0.0
 10
72.43070870769424
 20
-78.46807886927172
 30
0.0
 10
72.43070870769424
 20
-78.52318275814696
 30
0.0
 10
72.47551148432899
 20
-78.56798553591368
 30
0.0
 10
72.53061537181206
 20
-78.56798553591368
 30
0.0
 10
72.58610731484079
 20
-78.56798553591368
 30
0.0
 10
72.63087481369868
 20
-78.52318275814696
 30
0.0
 10
72.63087481369868
 20
-78.46807886927172
 30
0.0
  0
SPLINE
  5
74
330
1F
100
AcDbEntity
  8
_U+30EC_U+30A4_U+30E4_U+30FC 1
 62
   179
420
  2234388
370
     9
100
AcDbSpline
210
0.0
220
0.0
230
1.0
 70
    11
 71
     3
 72
    17
 73
    13
 74
     0
 42
0.0000000001
 43
0.0000000001
 12
1.0
 22
0.0
 32
0.0
 13
1.0
 23
0.0
 33
0.0
 40
0.0
 40
0.0
 40
0.0
 40
0.0
 40
1.0
 40
1.0
 40
1.0
 40
2.0
 40
2.0
 40
2.0
 40
3.0
 40
3.0
 40
3.0
 40
4.0
 40
4.0
 40
4.0
 40
4.0
 10
59.63080236758038
 20
-103.2684624741827
 30
0.0
 10
59.63080236758038
 20
-103.2126530297523
 30
0.0
 10
59.58603486872249
 20
-103.1678502519855
 30
0.0
 10
59.53054442956167
 20
-103.1678502519855
 30
0.0
 10
59.47543903821069
 20
-103.1678502519855
 30
0.0
 10
59.43063626157593
 20
-103.2126530297523
 30
0.0
 10
59.43063626157593
 20
-103.2684624741827
 30
0.0
 10
59.43063626157593
 20
-103.3235663630583
 30
0.0
 10
59.47543903821069
 20
-103.3683691408243
 30
0.0
 10
59.53054442956167
 20
-103.3683691408243
 30
0.0
 10
59.58603486872249
 20
-103.3683691408243
 30
0.0
 10
59.63080236758038
 20
-103.3235663630583
 30
0.0
 10
59.63080236758038
 20
-103.2684624741827
 30
0.0
  0
SPLINE
  5
75
330
1F
100
AcDbEntity
  8
_U+30EC_U+30A4_U+30E4_U+30FC 1
 62
   179
420
  2234388
370
     9
100
AcDbSpline
210
0.0
220
0.0
230
1.0
 70
    11
 71
     3
 72
    17
 73
    13
 74
     0
 42
0.0000000001
 43
0.0000000001
 12
1.0
 22
0.0
 32
0.0
 13
1.0
 23
0.0
 33
0.0
 40
0.0
 40
0.0
 40
0.0
 40
0.0
 40
1.0
 40
1.0
 40
1.0
 40
2.0
 40
2.0
 40
2.0
 40
3.0
 40
3.0
 40
3.0
 40
4.0
 40
4.0
 40
4.0
 40
4.0
 10
76.630633878323
 20
-99.26799775296094
 30
0.0
 10
76.630633878323
 20
-99.21289386408537
 30
0.0
 10
76.5858663794651
 20
-99.1680910863193
 30
0.0
 10
76.53072721420516
 20
-99.1680910863193
 30
0.0
 10
76.47562332672209
 20
-99.1680910863193
 30
0.0
 10
76.43082055008732
 20
-99.21289386408537
 30
0.0
 10
76.43082055008732
 20
-99.26799775296094
 30
0.0
 10
76.43082055008732
 20
-99.32313691961338
 30
0.0
 10
76.47562332672209
 20
-99.3679396973801
 30
0.0
 10
76.53072721420516
 20
-99.3679396973801
 30
0.0
 10
76.5858663794651
 20
-99.3679396973801
 30
0.0
 10
76.630633878323
 20
-99.32313691961338
 30
0.0
 10
76.630633878323
 20
-99.26799775296094
 30
0.0
  0
SPLINE
  5
76
330
1F
100
AcDbEntity
  8
_U+30EC_U+30A4_U+30E4_U+30FC 1
 62
   179
420
  2234388
370
     9
100
AcDbSpline
210
0.0
220
0.0
230
1.0
 70
    11
 71
     3
 72
    17
 73
    13
 74
     0
 42
0.0000000001
 43
0.0000000001
 12
1.0
 22
0.0
 32
0.0
 13
1.0
 23
0.0
 33
0.0
 40
0.0
 40
0.0
 40
0.0
 40
0.0
 40
1.0
 40
1.0
 40
1.0
 40
2.0
 40
2.0
 40
2.0
 40
3.0
 40
3.0
 40
3.0
 40
4.0
 40
4.0
 40
4.0
 40
4.0
 10
76.630633878323
 20
-96.26801080926658
 30
0.0
 10
76.630633878323
 20
-96.21290692039103
 30
0.0
 10
76.5858663794651
 20
-96.16810414262495
 30
0.0
 10
76.53072721420516
 20
-96.16810414262495
 30
0.0
 10
76.47562332672209
 20
-96.16810414262495
 30
0.0
 10
76.43082055008732
 20
-96.21290692039103
 30
0.0
 10
76.43082055008732
 20
-96.26801080926658
 30
0.0
 10
76.43082055008732
 20
-96.32314997591902
 30
0.0
 10
76.47562332672209
 20
-96.36791747590823
 30
0.0
 10
76.53072721420516
 20
-96.36791747590823
 30
0.0
 10
76.5858663794651
 20
-96.36791747590823
 30
0.0
 10
76.630633878323
 20
-96.32314997591902
 30
0.0
 10
76.630633878323
 20
-96.26801080926658
 30
0.0
  0
SPLINE
  5
77
330
1F
100
AcDbEntity
  8
_U+30EC_U+30A4_U+30E4_U+30FC 1
 62
   179
420
  2234388
370
     9
100
AcDbSpline
210
0.0
220
0.0
230
1.0
 70
    11
 71
     3
 72
    17
 73
    13
 74
     0
 42
0.0000000001
 43
0.0000000001
 12
1.0
 22
0.0
 32
0.0
 13
1.0
 23
0.0
 33
0.0
 40
0.0
 40
0.0
 40
0.0
 40
0.0
 40
1.0
 40
1.0
 40
1.0
 40
2.0
 40
2.0
 40
2.0
 40
3.0
 40
3.0
 40
3.0
 40
4.0
 40
4.0
 40
4.0
 40
4.0
 10
49.63071678937048
 20
-78.46807886927172
 30
0.0
 10
49.63071678937048
 20
-78.41293970261897
 30
0.0
 10
49.58594929051259
 20
-78.36817220263009
 30
0.0
 10
49.53081012525265
 20
-78.36817220263009
 30
0.0
 10
49.47570623776958
 20
-78.36817220263009
 30
0.0
 10
49.43090346113481
 20
-78.41293970261897
 30
0.0
 10
49.43090346113481
 20
-78.46807886927172
 30
0.0
 10
49.43090346113481
 20
-78.52318275814696
 30
0.0
 10
49.47570623776958
 20
-78.56798553591368
 30
0.0
 10
49.53081012525265
 20
-78.56798553591368
 30
0.0
 10
49.58594929051259
 20
-78.56798553591368
 30
0.0
 10
49.63071678937048
 20
-78.52318275814696
 30
0.0
 10
49.63071678937048
 20
-78.46807886927172
 30
0.0
  0
SPLINE
  5
78
330
1F
100
AcDbEntity
  8
_U+30EC_U+30A4_U+30E4_U+30FC 1
 62
   179
420
  2234388
370
     9
100
AcDbSpline
210
0.0
220
0.0
230
1.0
 70
    11
 71
     3
 72
    17
 73
    13
 74
     0
 42
0.0000000001
 43
0.0000000001
 12
1.0
 22
0.0
 32
0.0
 13
1.0
 23
0.0
 33
0.0
 40
0.0
 40
0.0
 40
0.0
 40
0.0
 40
1.0
 40
1.0
 40
1.0
 40
2.0
 40
2.0
 40
2.0
 40
3.0
 40
3.0
 40
3.0
 40
4.0
 40
4.0
 40
4.0
 40
4.0
 10
49.63071678937048
 20
-103.2684624741827
 30
0.0
 10
49.63071678937048
 20
-103.2126530297523
 30
0.0
 10
49.58594929051259
 20
-103.1678502519855
 30
0.0
 10
49.53081012525265
 20
-103.1678502519855
 30
0.0
 10
49.47570623776958
 20
-103.1678502519855
 30
0.0
 10
49.43090346113481
 20
-103.2126530297523
 30
0.0
 10
49.43090346113481
 20
-103.2684624741827
 30
0.0
 10
49.43090346113481
 20
-103.3235663630583
 30
0.0
 10
49.47570623776958
 20
-103.3683691408243
 30
0.0
 10
49.53081012525265
 20
-103.3683691408243
 30
0.0
 10
49.58594929051259
 20
-103.3683691408243
 30
0.0
 10
49.63071678937048
 20
-103.3235663630583
 30
0.0
 10
49.63071678937048
 20
-103.2684624741827
 30
0.0
  0
POLYLINE
  5
79
330
1F
100
AcDbEntity
  8
_U+30EC_U+30A4_U+30E4_U+30FC 1
 62
   179
420
  2234388
370
     9
100
AcDb2dPolyline
 66
     1
 10
0.0
 20
0.0
 30
0.0
  0
VERTEX
  5
7A
330
79
100
AcDbEntity
  8
_U+30EC_U+30A4_U+30E4_U+30FC 1
 62
   179
420
  2234388
370
     9
100
AcDbVertex
100
AcDb2dVertex
 10
76.53072721420516
 20
-82.4685083127163
 30
0.0
  0
VERTEX
  5
7B
330
79
100
AcDbEntity
  8
_U+30EC_U+30A4_U+30E4_U+30FC 1
 62
   179
420
  2234388
370
     9
100
AcDbVertex
100
AcDb2dVertex
 10
76.53072721420516
 20
-77.21060248069739
 30
0.0
  0
SEQEND
  5
7C
330
79
100
AcDbEntity
  8
_U+30EC_U+30A4_U+30E4_U+30FC 1
 62
   179
420
  2234388
370
     9
  0
POLYLINE
  5
7D
330
1F
100
AcDbEntity
  8
_U+30EC_U+30A4_U+30E4_U+30FC 1
 62
   179
420
  2234388
370
     9
100
AcDb2dPolyline
 66
     1
 10
0.0
 20
0.0
 30
0.0
  0
VERTEX
  5
7E
330
7D
100
AcDbEntity
  8
_U+30EC_U+30A4_U+30E4_U+30FC 1
 62
   179
420
  2234388
370
     9
100
AcDbVertex
100
AcDb2dVertex
 10
76.53072721420516
 20
-82.4685083127163
 30
0.0
  0
VERTEX
  5
7F
330
7D
100
AcDbEntity
  8
_U+30EC_U+30A4_U+30E4_U+30FC 1
 62
   179
420
  2234388
370
     9
100
AcDbVertex
100
AcDb2dVertex
 10
76.53072721420516
 20
-83.26846720140524
 30
0.0
  0
SEQEND
  5
80
330
7D
100
AcDbEntity
  8
_U+30EC_U+30A4_U+30E4_U+30FC 1
 62
   179
420
  2234388
370
     9
  0
POLYLINE
  5
81
330
1F
100
AcDbEntity
  8
_U+30EC_U+30A4_U+30E4_U+30FC 1
 62
   179
420
  2234388
370
     9
100
AcDb2dPolyline
 66
     1
 10
0.0
 20
0.0
 30
0.0
  0
VERTEX
  5
82
330
81
100
AcDbEntity
  8
_U+30EC_U+30A4_U+30E4_U+30FC 1
 62
   179
420
  2234388
370
     9
100
AcDbVertex
100
AcDb2dVertex
 10
75.07068586256503
 20
-82.4685083127163
 30
0.0
  0
VERTEX
  5
83
330
81
100
AcDbEntity
  8
_U+30EC_U+30A4_U+30E4_U+30FC 1
 62
   179
420
  2234388
370
     9
100
AcDbVertex
100
AcDb2dVertex
 10
77.53085218868983
 20
-82.4685083127163
 30
0.0
  0
SEQEND
  5
84
330
81
100
AcDbEntity
  8
_U+30EC_U+30A4_U+30E4_U+30FC 1
 62
   179
420
  2234388
370
     9
  0
POLYLINE
  5
85
330
1F
100
AcDbEntity
  8
_U+30EC_U+30A4_U+30E4_U+30FC 1
 62
   179
420
  2234388
370
     9
100
AcDb2dPolyline
 66
     1
 10
0.0
 20
0.0
 30
0.0
  0
VERTEX
  5
86
330
85
100
AcDbEntity
  8
_U+30EC_U+30A4_U+30E4_U+30FC 1
 62
   179
420
  2234388
370
     9
100
AcDbVertex
100
AcDb2dVertex
 10
75.07068586256503
 20
-83.26846720140524
 30
0.0
  0
VERTEX
  5
87
330
85
100
AcDbEntity
  8
_U+30EC_U+30A4_U+30E4_U+30FC 1
 62
   179
420
  2234388
370
     9
100
AcDbVertex
100
AcDb2dVertex
 10
77.53085218868983
 20
-83.26846720140524
 30
0.0
  0
SEQEND
  5
88
330
85
100
AcDbEntity
  8
_U+30EC_U+30A4_U+30E4_U+30FC 1
 62
   179
420
  2234388
370
     9
  0
INSERT
  5
8A
330
1F
100
AcDbEntity
  8
_U+30EC_U+30A4_U+30E4_U+30FC 1
100
AcDbBlockReference
  2
block 2
 10
0.0
 20
0.0
 30
0.0
  0
POLYLINE
  5
9C
330
1F
100
AcDbEntity
  8
_U+30EC_U+30A4_U+30E4_U+30FC 1
 62
   179
420
  2234388
370
     9
100
AcDb2dPolyline
 66
     1
 10
0.0
 20
0.0
 30
0.0
  0
VERTEX
  5
9D
330
9C
100
AcDbEntity
  8
_U+30EC_U+30A4_U+30E4_U+30FC 1
 62
   179
420
  2234388
370
     9
100
AcDbVertex
100
AcDb2dVertex
 10
76.53072721420516
 20
-96.26801080926658
 30
0.0
  0
VERTEX
  5
9E
330
9C
100
AcDbEntity
  8
_U+30EC_U+30A4_U+30E4_U+30FC 1
 62
   179
420
  2234388
370
     9
100
AcDbVertex
100
AcDb2dVertex
 10
76.53072721420516
 20
-99.26799775296094
 30
0.0
  0
SEQEND
  5
9F
330
9C
100
AcDbEntity
  8
_U+30EC_U+30A4_U+30E4_U+30FC 1
 62
   179
420
  2234388
370
     9
  0
POLYLINE
  5
A0
330
1F
100
AcDbEntity
  8
_U+30EC_U+30A4_U+30E4_U+30FC 1
 62
   179
420
  2234388
370
     9
100
AcDb2dPolyline
 66
     1
 10
0.0
 20
0.0
 30
0.0
  0
VERTEX
  5
A1
330
A0
100
AcDbEntity
  8
_U+30EC_U+30A4_U+30E4_U+30FC 1
 62
   179
420
  2234388
370
     9
100
AcDbVertex
100
AcDb2dVertex
 10
62.07061341644673
 20
-99.26799775296094
 30
0.0
  0
VERTEX
  5
A2
330
A0
100
AcDbEntity
  8
_U+30EC_U+30A4_U+30E4_U+30FC 1
 62
   179
420
  2234388
370
     9
100
AcDbVertex
100
AcDb2dVertex
 10
77.53085218868983
 20
-99.26799775296094
 30
0.0
  0
SEQEND
  5
A3
330
A0
100
AcDbEntity
  8
_U+30EC_U+30A4_U+30E4_U+30FC 1
 62
   179
420
  2234388
370
     9
  0
INSERT
  5
A5
330
1F
100
AcDbEntity
  8
_U+30EC_U+30A4_U+30E4_U+30FC 1
100
AcDbBlockReference
  2
block 3
 10
0.0
 20
0.0
 30
0.0
  0
POLYLINE
  5
AA
330
1F
100
AcDbEntity
  8
_U+30EC_U+30A4_U+30E4_U+30FC 1
 62
   179
420
  2234388
370
     9
100
AcDb2dPolyline
 66
     1
 10
0.0
 20
0.0
 30
0.0
  0
VERTEX
  5
AB
330
AA
100
AcDbEntity
  8
_U+30EC_U+30A4_U+30E4_U+30FC 1
 62
   179
420
  2234388
370
     9
100
AcDbVertex
100
AcDb2dVertex
 10
49.53081012525265
 20
-103.2684624741827
 30
0.0
  0
VERTEX
  5
AC
330
AA
100
AcDbEntity
  8
_U+30EC_U+30A4_U+30E4_U+30FC 1
 62
   179
420
  2234388
370
     9
100
AcDbVertex
100
AcDb2dVertex
 10
59.53054442956167
 20
-103.2684624741827
 30
0.0
  0
SEQEND
  5
AD
330
AA
100
AcDbEntity
  8
_U+30EC_U+30A4_U+30E4_U+30FC 1
 62
   179
420
  2234388
370
     9
  0
POLYLINE
  5
AE
330
1F
100
AcDbEntity
  8
_U+30EC_U+30A4_U+30E4_U+30FC 1
 62
   179
420
  2234388
370
     9
100
AcDb2dPolyline
 66
     1
 10
0.0
 20
0.0
 30
0.0
  0
VERTEX
  5
AF
330
AE
100
AcDbEntity
  8
_U+30EC_U+30A4_U+30E4_U+30FC 1
 62
   179
420
  2234388
370
     9
100
AcDbVertex
100
AcDb2dVertex
 10
49.53081012525265
 20
-101.808421085659
 30
0.0
  0
VERTEX
  5
B0
330
AE
100
AcDbEntity
  8
_U+30EC_U+30A4_U+30E4_U+30FC 1
 62
   179
420
  2234388
370
     9
100
AcDbVertex
100
AcDb2dVertex
 10
49.53081012525265
 20
-104.2682346961552
 30
0.0
  0
SEQEND
  5
B1
330
AE
100
AcDbEntity
  8
_U+30EC_U+30A4_U+30E4_U+30FC 1
 62
   179
420
  2234388
370
     9
  0
POLYLINE
  5
B2
330
1F
100
AcDbEntity
  8
_U+30EC_U+30A4_U+30E4_U+30FC 1
 62
   179
420
  2234388
370
     9
100
AcDb2dPolyline
 66
     1
 10
0.0
 20
0.0
 30
0.0
  0
VERTEX
  5
B3
330
B2
100
AcDbEntity
  8
_U+30EC_U+30A4_U+30E4_U+30FC 1
 62
   179
420
  2234388
370
     9
100
AcDbVertex
100
AcDb2dVertex
 10
59.53054442956167
 20
-101.808421085659
 30
0.0
  0
VERTEX
  5
B4
330
B2
100
AcDbEntity
  8
_U+30EC_U+30A4_U+30E4_U+30FC 1
 62
   179
420
  2234388
370
     9
100
AcDbVertex
100
AcDb2dVertex
 10
59.53054442956167
 20
-104.2682346961552
 30
0.0
  0
SEQEND
  5
B5
330
B2
100
AcDbEntity
  8
_U+30EC_U+30A4_U+30E4_U+30FC 1
 62
   179
420
  2234388
370
     9
  0
INSERT
  5
B7
330
1F
100
AcDbEntity
  8
_U+30EC_U+30A4_U+30E4_U+30FC 1
100
AcDbBlockReference
  2
block 4
 10
0.0
 20
0.0
 30
0.0
  0
POLYLINE
  5
BF
330
1F
100
AcDbEntity
  8
_U+30EC_U+30A4_U+30E4_U+30FC 1
 62
   179
420
  2234388
370
     9
100
AcDb2dPolyline
 66
     1
 10
0.0
 20
0.0
 30
0.0
  0
VERTEX
  5
C0
330
BF
100
AcDbEntity
  8
_U+30EC_U+30A4_U+30E4_U+30FC 1
 62
   179
420
  2234388
370
     9
100
AcDbVertex
100
AcDb2dVertex
 10
49.53081012525265
 20
-78.46807886927172
 30
0.0
  0
VERTEX
  5
C1
330
BF
100
AcDbEntity
  8
_U+30EC_U+30A4_U+30E4_U+30FC 1
 62
   179
420
  2234388
370
     9
100
AcDbVertex
100
AcDb2dVertex
 10
72.53061537181206
 20
-78.46807886927172
 30
0.0
  0
SEQEND
  5
C2
330
BF
100
AcDbEntity
  8
_U+30EC_U+30A4_U+30E4_U+30FC 1
 62
   179
420
  2234388
370
     9
  0
POLYLINE
  5
C3
330
1F
100
AcDbEntity
  8
_U+30EC_U+30A4_U+30E4_U+30FC 1
 62
   179
420
  2234388
370
     9
100
AcDb2dPolyline
 66
     1
 10
0.0
 20
0.0
 30
0.0
  0
VERTEX
  5
C4
330
C3
100
AcDbEntity
  8
_U+30EC_U+30A4_U+30E4_U+30FC 1
 62
   179
420
  2234388
370
     9
100
AcDbVertex
100
AcDb2dVertex
 10
49.53081012525265
 20
-79.92812025779575
 30
0.0
  0
VERTEX
  5
C5
330
C3
100
AcDbEntity
  8
_U+30EC_U+30A4_U+30E4_U+30FC 1
 62
   179
420
  2234388
370
     9
100
AcDbVertex
100
AcDb2dVertex
 10
49.53081012525265
 20
-77.4683066472995
 30
0.0
  0
SEQEND
  5
C6
330
C3
100
AcDbEntity
  8
_U+30EC_U+30A4_U+30E4_U+30FC 1
 62
   179
420
  2234388
370
     9
  0
POLYLINE
  5
C7
330
1F
100
AcDbEntity
  8
_U+30EC_U+30A4_U+30E4_U+30FC 1
 62
   179
420
  2234388
370
     9
100
AcDb2dPolyline
 66
     1
 10
0.0
 20
0.0
 30
0.0
  0
VERTEX
  5
C8
330
C7
100
AcDbEntity
  8
_U+30EC_U+30A4_U+30E4_U+30FC 1
 62
   179
420
  2234388
370
     9
100
AcDbVertex
100
AcDb2dVertex
 10
72.53061537181206
 20
-79.92812025779575
 30
0.0
  0
VERTEX
  5
C9
330
C7
100
AcDbEntity
  8
_U+30EC_U+30A4_U+30E4_U+30FC 1
 62
   179
420
  2234388
370
     9
100
AcDbVertex
100
AcDb2dVertex
 10
72.53061537181206
 20
-77.4683066472995
 30
0.0
  0
SEQEND
  5
CA
330
C7
100
AcDbEntity
  8
_U+30EC_U+30A4_U+30E4_U+30FC 1
 62
   179
420
  2234388
370
     9
  0
INSERT
  5
CC
330
1F
100
AcDbEntity
  8
_U+30EC_U+30A4_U+30E4_U+30FC 1
100
AcDbBlockReference
  2
block 5
 10
0.0
 20
0.0
 30
0.0
  0
POLYLINE
  5
D3
330
1F
100
AcDbEntity
  8
_U+30EC_U+30A4_U+30E4_U+30FC 1
 62
   179
420
  2234388
370
     9
100
AcDb2dPolyline
 66
     1
 10
0.0
 20
0.0
 30
0.0
  0
VERTEX
  5
D4
330
D3
100
AcDbEntity
  8
_U+30EC_U+30A4_U+30E4_U+30FC 1
 62
   179
420
  2234388
370
     9
100
AcDbVertex
100
AcDb2dVertex
 10
76.53072721420516
 20
-96.26801080926658
 30
0.0
  0
VERTEX
  5
D5
330
D3
100
AcDbEntity
  8
_U+30EC_U+30A4_U+30E4_U+30FC 1
 62
   179
420
  2234388
370
     9
100
AcDbVertex
100
AcDb2dVertex
 10
76.53072721420516
 20
-83.26846720140524
 30
0.0
  0
SEQEND
  5
D6
330
D3
100
AcDbEntity
  8
_U+30EC_U+30A4_U+30E4_U+30FC 1
 62
   179
420
  2234388
370
     9
  0
POLYLINE
  5
D7
330
1F
100
AcDbEntity
  8
_U+30EC_U+30A4_U+30E4_U+30FC 1
 62
   179
420
  2234388
370
     9
100
AcDb2dPolyline
 66
     1
 10
0.0
 20
0.0
 30
0.0
  0
VERTEX
  5
D8
330
D7
100
AcDbEntity
  8
_U+30EC_U+30A4_U+30E4_U+30FC 1
 62
   179
420
  2234388
370
     9
100
AcDbVertex
100
AcDb2dVertex
 10
62.07061341644673
 20
-96.26801080926658
 30
0.0
  0
VERTEX
  5
D9
330
D7
100
AcDbEntity
  8
_U+30EC_U+30A4_U+30E4_U+30FC 1
 62
   179
420
  2234388
370
     9
100
AcDbVertex
100
AcDb2dVertex
 10
77.53085218868983
 20
-96.26801080926658
 30
0.0
  0
SEQEND
  5
DA
330
D7
100
AcDbEntity
  8
_U+30EC_U+30A4_U+30E4_U+30FC 1
 62
   179
420
  2234388
370
     9
  0
INSERT
  5
DC
330
1F
100
AcDbEntity
  8
_U+30EC_U+30A4_U+30E4_U+30FC 1
100
AcDbBlockReference
  2
block 6
 10
0.0
 20
0.0
 30
0.0
  0
ENDSEC
  0
SECTION
  2
OBJECTS
  0
DICTIONARY
  5
C
330
0
100
AcDbDictionary
281
     1
  3
ACAD_GROUP
350
D
  3
ACAD_LAYOUT
350
1A
  3
ACAD_MATERIAL
350
3B
  3
ACAD_MLEADERSTYLE
350
E4
  3
ACAD_MLINESTYLE
350
17
  3
ACAD_PLOTSETTINGS
350
19
  3
ACAD_PLOTSTYLENAME
350
E
  3
ACAD_TABLESTYLE
350
E3
  3
ACAD_VISUALSTYLE
350
2A
  0
SUN
  5
3F
330
29
100
AcDbSun
 90
        1
290
     0
 63
     7
421
 16777215
 40
1.0
291
     1
 91
  2455826
 92
 54000000
292
     0
 70
     2
 71
   256
280
     1
  0
DICTIONARY
  5
D
102
{ACAD_REACTORS
330
C
102
}
330
C
100
AcDbDictionary
281
     1
  0
DICTIONARY
  5
1A
102
{ACAD_REACTORS
330
C
102
}
330
C
100
AcDbDictionary
281
     1
  3
Layout1
350
1E
  3
Layout2
350
26
  3
Model
350
22
  0
DICTIONARY
  5
3B
102
{ACAD_REACTORS
330
C
102
}
330
C
100
AcDbDictionary
281
     1
  3
ByBlock
350
3D
  3
ByLayer
350
3C
  3
Global
350
3E
  0
DICTIONARY
  5
E4
102
{ACAD_REACTORS
330
C
102
}
330
C
100
AcDbDictionary
281
     1
  0
DICTIONARY
  5
17
102
{ACAD_REACTORS
330
C
102
}
330
C
100
AcDbDictionary
281
     1
  3
Standard
350
18
  0
DICTIONARY
  5
19
102
{ACAD_REACTORS
330
C
102
}
330
C
100
AcDbDictionary
281
     1
  0
ACDBDICTIONARYWDFLT
  5
E
102
{ACAD_REACTORS
330
C
102
}
330
C
100
AcDbDictionary
281
     1
  3
Normal
350
F
100
AcDbDictionaryWithDefault
340
F
  0
DICTIONARY
  5
E3
102
{ACAD_REACTORS
330
C
102
}
330
C
100
AcDbDictionary
281
     1
  0
DICTIONARY
  5
2A
102
{ACAD_REACTORS
330
C
102
}
330
C
100
AcDbDictionary
281
     1
  3
2dWireframe
350
2F
  3
3D Hidden
350
31
  3
3dWireframe
350
30
  3
Basic
350
32
  3
Brighten
350
36
  3
ColorChange
350
3A
  3
Conceptual
350
34
  3
Dim
350
35
  3
Facepattern
350
39
  3
Flat
350
2B
  3
FlatWithEdges
350
2C
  3
Gouraud
350
2D
  3
GouraudWithEdges
350
2E
  3
Linepattern
350
38
  3
Realistic
350
33
  3
Thicken
350
37
  0
LAYOUT
  5
1E
102
{ACAD_REACTORS
330
1A
102
}
330
1A
100
AcDbPlotSettings
  1

  2
none_device
  4

  6

 40
0.0
 41
0.0
 42
0.0
 43
0.0
 44
0.0
 45
0.0
 46
0.0
 47
0.0
 48
0.0
 49
0.0
140
0.0
141
0.0
142
1.0
143
1.0
 70
   688
 72
     0
 73
     0
 74
     5
  7

 75
    16
 76
     0
 77
     2
 78
   300
147
1.0
148
0.0
149
0.0
100
AcDbLayout
  1
Layout1
 70
     1
 71
     1
 10
0.0
 20
0.0
 11
12.0
 21
9.0
 12
0.0
 22
0.0
 32
0.0
 14
1.000000000000000E+20
 24
1.000000000000000E+20
 34
1.000000000000000E+20
 15
-1.000000000000000E+20
 25
-1.000000000000000E+20
 35
-1.000000000000000E+20
146
0.0
 13
0.0
 23
0.0
 33
0.0
 16
1.0
 26
0.0
 36
0.0
 17
0.0
 27
1.0
 37
0.0
 76
     0
330
1B
  0
LAYOUT
  5
26
102
{ACAD_REACTORS
330
1A
102
}
330
1A
100
AcDbPlotSettings
  1

  2
none_device
  4

  6

 40
0.0
 41
0.0
 42
0.0
 43
0.0
 44
0.0
 45
0.0
 46
0.0
 47
0.0
 48
0.0
 49
0.0
140
0.0
141
0.0
142
1.0
143
1.0
 70
   688
 72
     0
 73
     0
 74
     5
  7

 75
    16
 76
     0
 77
     2
 78
   300
147
1.0
148
0.0
149
0.0
100
AcDbLayout
  1
Layout2
 70
     1
 71
     2
 10
0.0
 20
0.0
 11
0.0
 21
0.0
 12
0.0
 22
0.0
 32
0.0
 14
0.0
 24
0.0
 34
0.0
 15
0.0
 25
0.0
 35
0.0
146
0.0
 13
0.0
 23
0.0
 33
0.0
 16
1.0
 26
0.0
 36
0.0
 17
0.0
 27
1.0
 37
0.0
 76
     0
330
23
  0
LAYOUT
  5
22
102
{ACAD_REACTORS
330
1A
102
}
330
1A
100
AcDbPlotSettings
  1

  2
none_device
  4

  6

 40
0.0
 41
0.0
 42
0.0
 43
0.0
 44
0.0
 45
0.0
 46
0.0
 47
0.0
 48
0.0
 49
0.0
140
0.0
141
0.0
142
1.0
143
1.0
 70
  1712
 72
     0
 73
     0
 74
     0
  7

 75
     0
 76
     0
 77
     2
 78
   300
147
1.0
148
0.0
149
0.0
100
AcDbLayout
  1
Model
 70
     1
 71
     0
 10
0.0
 20
0.0
 11
12.0
 21
9.0
 12
0.0
 22
0.0
 32
0.0
 14
1.000000000000000E+20
 24
1.000000000000000E+20
 34
1.000000000000000E+20
 15
-1.000000000000000E+20
 25
-1.000000000000000E+20
 35
-1.000000000000000E+20
146
0.0
 13
0.0
 23
0.0
 33
0.0
 16
1.0
 26
0.0
 36
0.0
 17
0.0
 27
1.0
 37
0.0
 76
     0
330
1F
331
29
  0
MATERIAL
  5
3D
102
{ACAD_REACTORS
330
3B
102
}
330
3B
100
AcDbMaterial
  1
ByBlock
 72
     1
 94
      127
  0
MATERIAL
  5
3C
102
{ACAD_REACTORS
330
3B
102
}
330
3B
100
AcDbMaterial
  1
ByLayer
 72
     1
 94
      127
  0
MATERIAL
  5
3E
102
{ACAD_REACTORS
330
3B
102
}
330
3B
100
AcDbMaterial
  1
Global
 72
     1
 94
      127
  0
MLINESTYLE
  5
18
102
{ACAD_REACTORS
330
17
102
}
330
17
100
AcDbMlineStyle
  2
Standard
 70
     0
  3

 62
   256
 51
90.0
 52
90.0
 71
     2
 49
0.5
 62
   256
  6
BYLAYER
 49
-0.5
 62
   256
  6
BYLAYER
  0
ACDBPLACEHOLDER
  5
F
102
{ACAD_REACTORS
330
E
102
}
330
E
  0
VISUALSTYLE
  5
2F
102
{ACAD_REACTORS
330
2A
102
}
330
2A
100
AcDbVisualStyle
  2
2dWireframe
 70
     4
177
     2
291
     0
 71
     0
176
     1
 72
     2
176
     1
 73
     0
176
     1
 90
        0
176
     1
 40
-0.6
176
     1
 41
-30.0
176
     1
 62
     5
 63
     7
421
 16777215
176
     1
 74
     1
176
     1
 91
        4
176
     1
 64
     7
176
     1
 65
   257
176
     1
 75
     1
176
     1
175
     1
176
     1
 42
1.0
176
     1
 92
        0
176
     1
 66
   257
176
     1
 43
1.0
176
     1
 76
     1
176
     1
 77
     6
176
     1
 78
     2
176
     1
 67
     7
176
     1
 79
     5
176
     1
170
     0
176
     1
171
     0
176
     1
290
     0
176
     1
 93
        1
176
     1
 44
0.0
176
     1
173
     0
176
     1
  0
VISUALSTYLE
  5
31
102
{ACAD_REACTORS
330
2A
102
}
330
2A
100
AcDbVisualStyle
  2
3D Hidden
 70
     6
177
     2
291
     0
 71
     1
176
     1
 72
     2
176
     1
 73
     2
176
     1
 90
        0
176
     1
 40
-0.6
176
     1
 41
-30.0
176
     1
 62
     5
 63
     7
421
 16777215
176
     1
 74
     2
176
     1
 91
        2
176
     1
 64
     7
176
     1
 65
   257
176
     1
 75
     2
176
     1
175
     1
176
     1
 42
40.0
176
     1
 92
        0
176
     1
 66
   257
176
     1
 43
1.0
176
     1
 76
     1
176
     1
 77
     6
176
     1
 78
     2
176
     1
 67
     7
176
     1
 79
     3
176
     1
170
     0
176
     1
171
     0
176
     1
290
     0
176
     1
 93
        1
176
     1
 44
0.0
176
     1
173
     0
176
     1
  0
VISUALSTYLE
  5
30
102
{ACAD_REACTORS
330
2A
102
}
330
2A
100
AcDbVisualStyle
  2
3dWireframe
 70
     5
177
     2
291
     0
 71
     0
176
     1
 72
     2
176
     1
 73
     0
176
     1
 90
        0
176
     1
 40
-0.6
176
     1
 41
-30.0
176
     1
 62
     5
 63
     7
421
 16777215
176
     1
 74
     1
176
     1
 91
        4
176
     1
 64
     7
176
     1
 65
   257
176
     1
 75
     1
176
     1
175
     1
176
     1
 42
1.0
176
     1
 92
        0
176
     1
 66
   257
176
     1
 43
1.0
176
     1
 76
     1
176
     1
 77
     6
176
     1
 78
     2
176
     1
 67
     7
176
     1
 79
     5
176
     1
170
     0
176
     1
171
     0
176
     1
290
     0
176
     1
 93
        1
176
     1
 44
0.0
176
     1
173
     0
176
     1
  0
VISUALSTYLE
  5
32
102
{ACAD_REACTORS
330
2A
102
}
330
2A
100
AcDbVisualStyle
  2
Basic
 70
     7
177
     2
291
     1
 71
     1
176
     1
 72
     0
176
     1
 73
     1
176
     1
 90
        0
176
     1
 40
-0.6
176
     1
 41
-30.0
176
     1
 62
     5
 63
     7
421
 16777215
176
     1
 74
     0
176
     1
 91
        4
176
     1
 64
     7
176
     1
 65
   257
176
     1
 75
     1
176
     1
175
     1
176
     1
 42
1.0
176
     1
 92
        8
176
     1
 66
     7
176
     1
 43
1.0
176
     1
 76
     1
176
     1
 77
     6
176
     1
 78
     2
176
     1
 67
     7
176
     1
 79
     5
176
     1
170
     0
176
     1
171
     0
176
     1
290
     0
176
     1
 93
        1
176
     1
 44
0.0
176
     1
173
     0
176
     1
  0
VISUALSTYLE
  5
36
102
{ACAD_REACTORS
330
2A
102
}
330
2A
100
AcDbVisualStyle
  2
Brighten
 70
    12
177
     2
291
     1
 71
     2
176
     1
 72
     2
176
     1
 73
     0
176
     1
 90
        0
176
     1
 40
-0.6
176
     1
 41
-30.0
176
     1
 62
     5
 63
     7
421
 16777215
176
     1
 74
     1
176
     1
 91
        4
176
     1
 64
     7
176
     1
 65
   257
176
     1
 75
     1
176
     1
175
     1
176
     1
 42
1.0
176
     1
 92
        8
176
     1
 66
     7
176
     1
 43
1.0
176
     1
 76
     1
176
     1
 77
     6
176
     1
 78
     2
176
     1
 67
     7
176
     1
 79
     5
176
     1
170
     0
176
     1
171
     0
176
     1
290
     0
176
     1
 93
        1
176
     1
 44
50.0
176
     1
173
     0
176
     1
  0
VISUALSTYLE
  5
3A
102
{ACAD_REACTORS
330
2A
102
}
330
2A
100
AcDbVisualStyle
  2
ColorChange
 70
    16
177
     2
291
     1
 71
     2
176
     1
 72
     2
176
     1
 73
     3
176
     1
 90
        0
176
     1
 40
-0.6
176
     1
 41
-30.0
176
     1
 62
     5
 63
     8
421
  8421504
176
     1
 74
     1
176
     1
 91
        4
176
     1
 64
     7
176
     1
 65
   257
176
     1
 75
     1
176
     1
175
     1
176
     1
 42
1.0
176
     1
 92
        8
176
     1
 66
     8
424
  8421504
176
     1
 43
1.0
176
     1
 76
     1
176
     1
 77
     6
176
     1
 78
     2
176
     1
 67
     7
176
     1
 79
     5
176
     1
170
     0
176
     1
171
     0
176
     1
290
     0
176
     1
 93
        1
176
     1
 44
0.0
176
     1
173
     0
176
     1
  0
VISUALSTYLE
  5
34
102
{ACAD_REACTORS
330
2A
102
}
330
2A
100
AcDbVisualStyle
  2
Conceptual
 70
     9
177
     2
291
     0
 71
     3
176
     1
 72
     2
176
     1
 73
     0
176
     1
 90
        0
176
     1
 40
-0.6
176
     1
 41
-30.0
176
     1
 62
     5
 63
     7
421
 16777215
176
     1
 74
     2
176
     1
 91
        2
176
     1
 64
     7
176
     1
 65
   257
176
     1
 75
     1
176
     1
175
     1
176
     1
 42
40.0
176
     1
 92
        8
176
     1
 66
     7
176
     1
 43
1.0
176
     1
 76
     1
176
     1
 77
     6
176
     1
 78
     2
176
     1
 67
     7
176
     1
 79
     3
176
     1
170
     0
176
     1
171
     0
176
     1
290
     0
176
     1
 93
        1
176
     1
 44
0.0
176
     1
173
     0
176
     1
  0
VISUALSTYLE
  5
35
102
{ACAD_REACTORS
330
2A
102
}
330
2A
100
AcDbVisualStyle
  2
Dim
 70
    11
177
     2
291
     1
 71
     2
176
     1
 72
     2
176
     1
 73
     0
176
     1
 90
        0
176
     1
 40
-0.6
176
     1
 41
-30.0
176
     1
 62
     5
 63
     7
421
 16777215
176
     1
 74
     1
176
     1
 91
        4
176
     1
 64
     7
176
     1
 65
   257
176
     1
 75
     1
176
     1
175
     1
176
     1
 42
1.0
176
     1
 92
        8
176
     1
 66
     7
176
     1
 43
1.0
176
     1
 76
     1
176
     1
 77
     6
176
     1
 78
     2
176
     1
 67
     7
176
     1
 79
     5
176
     1
170
     0
176
     1
171
     0
176
     1
290
     0
176
     1
 93
        1
176
     1
 44
-50.0
176
     1
173
     0
176
     1
  0
VISUALSTYLE
  5
39
102
{ACAD_REACTORS
330
2A
102
}
330
2A
100
AcDbVisualStyle
  2
Facepattern
 70
    15
177
     2
291
     1
 71
     2
176
     1
 72
     2
176
     1
 73
     0
176
     1
 90
        0
176
     1
 40
-0.6
176
     1
 41
-30.0
176
     1
 62
     5
 63
     7
421
 16777215
176
     1
 74
     1
176
     1
 91
        4
176
     1
 64
     7
176
     1
 65
   257
176
     1
 75
     1
176
     1
175
     1
176
     1
 42
1.0
176
     1
 92
        8
176
     1
 66
     7
176
     1
 43
1.0
176
     1
 76
     1
176
     1
 77
     6
176
     1
 78
     2
176
     1
 67
     7
176
     1
 79
     5
176
     1
170
     0
176
     1
171
     0
176
     1
290
     0
176
     1
 93
        1
176
     1
 44
0.0
176
     1
173
     0
176
     1
  0
VISUALSTYLE
  5
2B
102
{ACAD_REACTORS
330
2A
102
}
330
2A
100
AcDbVisualStyle
  2
Flat
 70
     0
177
     2
291
     1
 71
     2
176
     1
 72
     1
176
     1
 73
     1
176
     1
 90
        2
176
     1
 40
-0.6
176
     1
 41
30.0
176
     1
 62
     5
 63
     7
421
 16777215
176
     1
 74
     0
176
     1
 91
        4
176
     1
 64
     7
176
     1
 65
   257
176
     1
 75
     1
176
     1
175
     1
176
     1
 42
1.0
176
     1
 92
        8
176
     1
 66
     7
176
     1
 43
1.0
176
     1
 76
     1
176
     1
 77
     6
176
     1
 78
     2
176
     1
 67
     7
176
     1
 79
     5
176
     1
170
     0
176
     1
171
     0
176
     1
290
     0
176
     1
 93
       13
176
     1
 44
0.0
176
     1
173
     0
176
     1
  0
VISUALSTYLE
  5
2C
102
{ACAD_REACTORS
330
2A
102
}
330
2A
100
AcDbVisualStyle
  2
FlatWithEdges
 70
     1
177
     2
291
     1
 71
     2
176
     1
 72
     1
176
     1
 73
     1
176
     1
 90
        2
176
     1
 40
-0.6
176
     1
 41
30.0
176
     1
 62
     5
 63
     7
421
 16777215
176
     1
 74
     1
176
     1
 91
        4
176
     1
 64
     7
176
     1
 65
   257
176
     1
 75
     1
176
     1
175
     1
176
     1
 42
1.0
176
     1
 92
        0
176
     1
 66
   257
176
     1
 43
1.0
176
     1
 76
     1
176
     1
 77
     6
176
     1
 78
     2
176
     1
 67
     7
176
     1
 79
     5
176
     1
170
     0
176
     1
171
     0
176
     1
290
     0
176
     1
 93
       13
176
     1
 44
0.0
176
     1
173
     0
176
     1
  0
VISUALSTYLE
  5
2D
102
{ACAD_REACTORS
330
2A
102
}
330
2A
100
AcDbVisualStyle
  2
Gouraud
 70
     2
177
     2
291
     1
 71
     2
176
     1
 72
     2
176
     1
 73
     1
176
     1
 90
        2
176
     1
 40
-0.6
176
     1
 41
30.0
176
     1
 62
     5
 63
     7
421
 16777215
176
     1
 74
     0
176
     1
 91
        4
176
     1
 64
     7
176
     1
 65
   257
176
     1
 75
     1
176
     1
175
     1
176
     1
 42
1.0
176
     1
 92
        0
176
     1
 66
     7
176
     1
 43
1.0
176
     1
 76
     1
176
     1
 77
     6
176
     1
 78
     2
176
     1
 67
     7
176
     1
 79
     5
176
     1
170
     0
176
     1
171
     0
176
     1
290
     0
176
     1
 93
       13
176
     1
 44
0.0
176
     1
173
     0
176
     1
  0
VISUALSTYLE
  5
2E
102
{ACAD_REACTORS
330
2A
102
}
330
2A
100
AcDbVisualStyle
  2
GouraudWithEdges
 70
     3
177
     2
291
     1
 71
     2
176
     1
 72
     2
176
     1
 73
     1
176
     1
 90
        2
176
     1
 40
-0.6
176
     1
 41
30.0
176
     1
 62
     5
 63
     7
421
 16777215
176
     1
 74
     1
176
     1
 91
        4
176
     1
 64
     7
176
     1
 65
   257
176
     1
 75
     1
176
     1
175
     1
176
     1
 42
1.0
176
     1
 92
        0
176
     1
 66
   257
176
     1
 43
1.0
176
     1
 76
     1
176
     1
 77
     6
176
     1
 78
     2
176
     1
 67
     7
176
     1
 79
     5
176
     1
170
     0
176
     1
171
     0
176
     1
290
     0
176
     1
 93
       13
176
     1
 44
0.0
176
     1
173
     0
176
     1
  0
VISUALSTYLE
  5
38
102
{ACAD_REACTORS
330
2A
102
}
330
2A
100
AcDbVisualStyle
  2
Linepattern
 70
    14
177
     2
291
     1
 71
     2
176
     1
 72
     2
176
     1
 73
     0
176
     1
 90
        0
176
     1
 40
-0.6
176
     1
 41
-30.0
176
     1
 62
     5
 63
     7
421
 16777215
176
     1
 74
     1
176
     1
 91
        4
176
     1
 64
     7
176
     1
 65
   257
176
     1
 75
     7
176
     1
175
     7
176
     1
 42
1.0
176
     1
 92
        8
176
     1
 66
     7
176
     1
 43
1.0
176
     1
 76
     1
176
     1
 77
     6
176
     1
 78
     2
176
     1
 67
     7
176
     1
 79
     5
176
     1
170
     0
176
     1
171
     0
176
     1
290
     0
176
     1
 93
        1
176
     1
 44
0.0
176
     1
173
     0
176
     1
  0
VISUALSTYLE
  5
33
102
{ACAD_REACTORS
330
2A
102
}
330
2A
100
AcDbVisualStyle
  2
Realistic
 70
     8
177
     2
291
     0
 71
     2
176
     1
 72
     2
176
     1
 73
     0
176
     1
 90
        0
176
     1
 40
-0.6
176
     1
 41
-30.0
176
     1
 62
     5
 63
     7
421
 16777215
176
     1
 74
     1
176
     1
 91
        0
176
     1
 64
     7
176
     1
 65
   257
176
     1
 75
     1
176
     1
175
     1
176
     1
 42
1.0
176
     1
 92
        8
176
     1
 66
     8
424
  7895160
176
     1
 43
1.0
176
     1
 76
     1
176
     1
 77
     6
176
     1
 78
     2
176
     1
 67
     7
176
     1
 79
     5
176
     1
170
     0
176
     1
171
     0
176
     1
290
     0
176
     1
 93
       13
176
     1
 44
0.0
176
     1
173
     0
176
     1
  0
VISUALSTYLE
  5
37
102
{ACAD_REACTORS
330
2A
102
}
330
2A
100
AcDbVisualStyle
  2
Thicken
 70
    13
177
     2
291
     1
 71
     2
176
     1
 72
     2
176
     1
 73
     0
176
     1
 90
        0
176
     1
 40
-0.6
176
     1
 41
-30.0
176
     1
 62
     5
 63
     7
421
 16777215
176
     1
 74
     1
176
     1
 91
        4
176
     1
 64
     7
176
     1
 65
   257
176
     1
 75
     1
176
     1
175
     1
176
     1
 42
1.0
176
     1
 92
       12
176
     1
 66
     7
176
     1
 43
1.0
176
     1
 76
     1
176
     1
 77
     6
176
     1
 78
     2
176
     1
 67
     7
176
     1
 79
     5
176
     1
170
     0
176
     1
171
     0
176
     1
290
     0
176
     1
 93
        1
176
     1
 44
0.0
176
     1
173
     0
176
     1
  0
ENDSEC
  0
EOF
