  0
SECTION
  2
HEADER
  9
$ACADVER
  1
AC1024
  9
$ACADMAINTVER
 70
     6
  9
$DWGCODEPAGE
  3
UNDEFINED
  9
$INSBASE
 10
0.0
 20
0.0
 30
0.0
  9
$EXTMIN
 10
1.000000000000000E+20
 20
1.000000000000000E+20
 30
1.000000000000000E+20
  9
$EXTMAX
 10
-1.000000000000000E+20
 20
-1.000000000000000E+20
 30
-1.000000000000000E+20
  9
$LIMMIN
 10
0.0
 20
0.0
  9
$LIMMAX
 10
12.0
 20
9.0
  9
$ORTHOMODE
 70
     0
  9
$REGENMODE
 70
     1
  9
$FILLMODE
 70
     1
  9
$QTEXTMODE
 70
     0
  9
$MIRRTEXT
 70
     1
  9
$LTSCALE
 40
1.0
  9
$ATTMODE
 70
     1
  9
$TEXTSIZE
 40
0.2
  9
$TRACEWID
 40
0.05
  9
$TEXTSTYLE
  7
Standard
  9
$CLAYER
  8
0
  9
$CELTYPE
  6
ByLayer
  9
$CECOLOR
 62
   256
  9
$CELTSCALE
 40
1.0
  9
$DISPSILH
 70
     0
  9
$DIMSCALE
 40
1.0
  9
$DIMASZ
 40
0.18
  9
$DIMEXO
 40
0.0625
  9
$DIMDLI
 40
0.38
  9
$DIMRND
 40
0.0
  9
$DIMDLE
 40
0.0
  9
$DIMEXE
 40
0.18
  9
$DIMTP
 40
0.0
  9
$DIMTM
 40
0.0
  9
$DIMTXT
 40
0.18
  9
$DIMCEN
 40
0.09
  9
$DIMTSZ
 40
0.0
  9
$DIMTOL
 70
     0
  9
$DIMLIM
 70
     0
  9
$DIMTIH
 70
     1
  9
$DIMTOH
 70
     1
  9
$DIMSE1
 70
     0
  9
$DIMSE2
 70
     0
  9
$DIMTAD
 70
     0
  9
$DIMZIN
 70
     0
  9
$DIMBLK
  1

  9
$DIMASO
 70
     1
  9
$DIMSHO
 70
     1
  9
$DIMPOST
  1

  9
$DIMAPOST
  1

  9
$DIMALT
 70
     0
  9
$DIMALTD
 70
     2
  9
$DIMALTF
 40
25.4
  9
$DIMLFAC
 40
1.0
  9
$DIMTOFL
 70
     0
  9
$DIMTVP
 40
0.0
  9
$DIMTIX
 70
     0
  9
$DIMSOXD
 70
     0
  9
$DIMSAH
 70
     0
  9
$DIMBLK1
  1

  9
$DIMBLK2
  1

  9
$DIMSTYLE
  2
Standard
  9
$DIMCLRD
 70
     0
  9
$DIMCLRE
 70
     0
  9
$DIMCLRT
 70
     0
  9
$DIMTFAC
 40
1.0
  9
$DIMGAP
 40
0.09
  9
$DIMJUST
 70
     0
  9
$DIMSD1
 70
     0
  9
$DIMSD2
 70
     0
  9
$DIMTOLJ
 70
     1
  9
$DIMTZIN
 70
     0
  9
$DIMALTZ
 70
     0
  9
$DIMALTTZ
 70
     0
  9
$DIMUPT
 70
     0
  9
$DIMDEC
 70
     4
  9
$DIMTDEC
 70
     4
  9
$DIMALTU
 70
     2
  9
$DIMALTTD
 70
     2
  9
$DIMTXSTY
  7
Standard
  9
$DIMAUNIT
 70
     0
  9
$DIMADEC
 70
     0
  9
$DIMALTRND
 40
0.0
  9
$DIMAZIN
 70
     0
  9
$DIMDSEP
 70
    46
  9
$DIMATFIT
 70
     3
  9
$DIMFRAC
 70
     0
  9
$DIMLDRBLK
  1

  9
$DIMLUNIT
 70
     2
  9
$DIMLWD
 70
    -2
  9
$DIMLWE
 70
    -2
  9
$DIMTMOVE
 70
     0
  9
$DIMFXL
 40
1.0
  9
$DIMFXLON
 70
     0
  9
$DIMJOGANG
 40
0.7853981633974483
  9
$DIMTFILL
 70
     0
  9
$DIMTFILLCLR
 70
     0
  9
$DIMARCSYM
 70
     0
  9
$DIMLTYPE
  6

  9
$DIMLTEX1
  6

  9
$DIMLTEX2
  6

  9
$DIMTXTDIRECTION
 70
     0
  9
$LUNITS
 70
     2
  9
$LUPREC
 70
     4
  9
$SKETCHINC
 40
0.1
  9
$FILLETRAD
 40
0.5
  9
$AUNITS
 70
     0
  9
$AUPREC
 70
     0
  9
$MENU
  1
.
  9
$ELEVATION
 40
0.0
  9
$PELEVATION
 40
0.0
  9
$THICKNESS
 40
0.0
  9
$LIMCHECK
 70
     0
  9
$CHAMFERA
 40
0.5
  9
$CHAMFERB
 40
0.5
  9
$CHAMFERC
 40
1.0
  9
$CHAMFERD
 40
0.0
  9
$SKPOLY
 70
     0
  9
$TDCREATE
 40
2457917.589201377
  9
$TDUCREATE
 40
2457917.214201389
  9
$TDUPDATE
 40
2457917.589201377
  9
$TDUUPDATE
 40
2457917.214201389
  9
$TDINDWG
 40
0.0000000116
  9
$TDUSRTIMER
 40
0.0000000116
  9
$USRTIMER
 70
     1
  9
$ANGBASE
 50
0.0
  9
$ANGDIR
 70
     0
  9
$PDMODE
 70
     0
  9
$PDSIZE
 40
0.0
  9
$PLINEWID
 40
0.0
  9
$SPLFRAME
 70
     0
  9
$SPLINETYPE
 70
     6
  9
$SPLINESEGS
 70
     8
  9
$HANDSEED
  5
EA
  9
$SURFTAB1
 70
     6
  9
$SURFTAB2
 70
     6
  9
$SURFTYPE
 70
     6
  9
$SURFU
 70
     6
  9
$SURFV
 70
     6
  9
$UCSBASE
  2

  9
$UCSNAME
  2

  9
$UCSORG
 10
0.0
 20
0.0
 30
0.0
  9
$UCSXDIR
 10
1.0
 20
0.0
 30
0.0
  9
$UCSYDIR
 10
0.0
 20
1.0
 30
0.0
  9
$UCSORTHOREF
  2

  9
$UCSORTHOVIEW
 70
     0
  9
$UCSORGTOP
 10
0.0
 20
0.0
 30
0.0
  9
$UCSORGBOTTOM
 10
0.0
 20
0.0
 30
0.0
  9
$UCSORGLEFT
 10
0.0
 20
0.0
 30
0.0
  9
$UCSORGRIGHT
 10
0.0
 20
0.0
 30
0.0
  9
$UCSORGFRONT
 10
0.0
 20
0.0
 30
0.0
  9
$UCSORGBACK
 10
0.0
 20
0.0
 30
0.0
  9
$PUCSBASE
  2

  9
$PUCSNAME
  2

  9
$PUCSORG
 10
0.0
 20
0.0
 30
0.0
  9
$PUCSXDIR
 10
1.0
 20
0.0
 30
0.0
  9
$PUCSYDIR
 10
0.0
 20
1.0
 30
0.0
  9
$PUCSORTHOREF
  2

  9
$PUCSORTHOVIEW
 70
     0
  9
$PUCSORGTOP
 10
0.0
 20
0.0
 30
0.0
  9
$PUCSORGBOTTOM
 10
0.0
 20
0.0
 30
0.0
  9
$PUCSORGLEFT
 10
0.0
 20
0.0
 30
0.0
  9
$PUCSORGRIGHT
 10
0.0
 20
0.0
 30
0.0
  9
$PUCSORGFRONT
 10
0.0
 20
0.0
 30
0.0
  9
$PUCSORGBACK
 10
0.0
 20
0.0
 30
0.0
  9
$USERI1
 70
     0
  9
$USERI2
 70
     0
  9
$USERI3
 70
     0
  9
$USERI4
 70
     0
  9
$USERI5
 70
     0
  9
$USERR1
 40
0.0
  9
$USERR2
 40
0.0
  9
$USERR3
 40
0.0
  9
$USERR4
 40
0.0
  9
$USERR5
 40
0.0
  9
$WORLDVIEW
 70
     1
  9
$SHADEDGE
 70
     3
  9
$SHADEDIF
 70
    70
  9
$TILEMODE
 70
     1
  9
$MAXACTVP
 70
    64
  9
$PINSBASE
 10
0.0
 20
0.0
 30
0.0
  9
$PLIMCHECK
 70
     0
  9
$PEXTMIN
 10
1.000000000000000E+20
 20
1.000000000000000E+20
 30
1.000000000000000E+20
  9
$PEXTMAX
 10
-1.000000000000000E+20
 20
-1.000000000000000E+20
 30
-1.000000000000000E+20
  9
$PLIMMIN
 10
0.0
 20
0.0
  9
$PLIMMAX
 10
12.0
 20
9.0
  9
$UNITMODE
 70
     0
  9
$VISRETAIN
 70
     1
  9
$PLINEGEN
 70
     0
  9
$PSLTSCALE
 70
     1
  9
$TREEDEPTH
 70
  3020
  9
$CMLSTYLE
  2
Standard
  9
$CMLJUST
 70
     0
  9
$CMLSCALE
 40
1.0
  9
$PROXYGRAPHICS
 70
     1
  9
$MEASUREMENT
 70
     0
  9
$CELWEIGHT
370
    -1
  9
$ENDCAPS
280
     0
  9
$JOINSTYLE
280
     0
  9
$LWDISPLAY
290
     1
  9
$INSUNITS
 70
     1
  9
$HYPERLINKBASE
  1

  9
$STYLESHEET
  1

  9
$XEDIT
290
     1
  9
$CEPSNTYPE
380
     0
  9
$PSTYLEMODE
290
     1
  9
$FINGERPRINTGUID
  2
{299DC660-2EFC-4FEC-EBDD-7077B8BFBD3F}
  9
$VERSIONGUID
  2
{FAEB1C32-E019-11D5-929B-00C0DF256EC4}
  9
$EXTNAMES
290
     1
  9
$PSVPSCALE
 40
0.0
  9
$OLESTARTUP
290
     0
  9
$SORTENTS
280
   127
  9
$INDEXCTL
280
     0
  9
$HIDETEXT
280
     1
  9
$XCLIPFRAME
280
     2
  9
$HALOGAP
280
     0
  9
$OBSCOLOR
 70
   257
  9
$OBSLTYPE
280
     0
  9
$INTERSECTIONDISPLAY
280
     0
  9
$INTERSECTIONCOLOR
 70
   257
  9
$DIMASSOC
280
     2
  9
$PROJECTNAME
  1

  9
$CAMERADISPLAY
290
     0
  9
$LENSLENGTH
 40
50.0
  9
$CAMERAHEIGHT
 40
0.0
  9
$STEPSPERSEC
 40
2.0
  9
$STEPSIZE
 40
6.0
  9
$3DDWFPREC
 40
2.0
  9
$PSOLWIDTH
 40
0.25
  9
$PSOLHEIGHT
 40
4.0
  9
$LOFTANG1
 40
1.570796326794897
  9
$LOFTANG2
 40
1.570796326794897
  9
$LOFTMAG1
 40
0.0
  9
$LOFTMAG2
 40
0.0
  9
$LOFTPARAM
 70
     7
  9
$LOFTNORMALS
280
     1
  9
$LATITUDE
 40
37.795
  9
$LONGITUDE
 40
-122.394
  9
$NORTHDIRECTION
 40
0.0
  9
$TIMEZONE
 70
 -8000
  9
$LIGHTGLYPHDISPLAY
280
     1
  9
$TILEMODELIGHTSYNCH
280
     1
  9
$CMATERIAL
347
3C
  9
$SOLIDHIST
280
     1
  9
$SHOWHIST
280
     1
  9
$DWFFRAME
280
     2
  9
$DGNFRAME
280
     2
  9
$REALWORLDSCALE
290
     1
  9
$INTERFERECOLOR
 62
   256
  9
$CSHADOW
280
     0
  9
$SHADOWPLANELOCATION
 40
0.0
  0
ENDSEC
  0
SECTION
  2
CLASSES
  0
CLASS
  1
ACDBDICTIONARYWDFLT
  2
AcDbDictionaryWithDefault
  3
ObjectDBX Classes
 90
        0
 91
        4
280
     0
281
     0
  0
CLASS
  1
VISUALSTYLE
  2
AcDbVisualStyle
  3
ObjectDBX Classes
 90
     4095
 91
        4
280
     0
281
     0
  0
CLASS
  1
MATERIAL
  2
AcDbMaterial
  3
ObjectDBX Classes
 90
     1153
 91
        4
280
     0
281
     0
  0
CLASS
  1
SUN
  2
AcDbSun
  3
SCENEOE
 90
     1024
 91
        4
280
     0
281
     0
  0
ENDSEC
  0
SECTION
  2
TABLES
  0
TABLE
  2
VPORT
  5
8
330
0
100
AcDbSymbolTable
 70
     1
  0
VPORT
  5
29
330
8
100
AcDbSymbolTableRecord
100
AcDbViewportTableRecord
  2
*Active
 70
     0
 10
0.0
 20
0.0
 11
1.0
 21
1.0
 12
0.0
 22
0.0
 13
0.0
 23
0.0
 14
0.5
 24
0.5
 15
0.5
 25
0.5
 16
0.0
 26
0.0
 36
1.0
 17
63.499999984125
 27
-89.00059456108309
 37
0.0
 40
178.0011891221662
 41
0.7134783795241226
 42
50.0
 43
0.0
 44
0.0
 50
0.0
 51
0.0
 71
     0
 72
   100
 73
     1
 74
     3
 75
     0
 76
     0
 77
     0
 78
     0
281
     0
 65
     1
110
0.0
120
0.0
130
0.0
111
1.0
121
0.0
131
0.0
112
0.0
122
1.0
132
0.0
 79
     0
146
0.0
 60
     3
 61
     5
292
     1
282
     1
141
0.0
142
0.0
 63
   250
361
3F
  0
ENDTAB
  0
TABLE
  2
LTYPE
  5
5
330
0
100
AcDbSymbolTable
 70
     1
  0
LTYPE
  5
14
330
5
100
AcDbSymbolTableRecord
100
AcDbLinetypeTableRecord
  2
ByBlock
 70
     0
  3

 72
    65
 73
     0
 40
0.0
  0
LTYPE
  5
15
330
5
100
AcDbSymbolTableRecord
100
AcDbLinetypeTableRecord
  2
ByLayer
 70
     0
  3

 72
    65
 73
     0
 40
0.0
  0
LTYPE
  5
16
330
5
100
AcDbSymbolTableRecord
100
AcDbLinetypeTableRecord
  2
Continuous
 70
     0
  3
Solid line
 72
    65
 73
     0
 40
0.0
  0
ENDTAB
  0
TABLE
  2
LAYER
  5
2
330
0
100
AcDbSymbolTable
 70
     2
  0
LAYER
  5
10
330
2
100
AcDbSymbolTableRecord
100
AcDbLayerTableRecord
  2
0
 70
     0
 62
     7
  6
Continuous
370
    -3
390
F
347
3E
  0
LAYER
  5
40
330
2
100
AcDbSymbolTableRecord
100
AcDbLayerTableRecord
  2
_U+30EC_U+30A4_U+30E4_U+30FC 1
 70
     0
 62
     7
  6
Continuous
370
    -3
390
F
347
3E
  0
ENDTAB
  0
TABLE
  2
STYLE
  5
3
330
0
100
AcDbSymbolTable
 70
     1
  0
STYLE
  5
11
330
3
100
AcDbSymbolTableRecord
100
AcDbTextStyleTableRecord
  2
Standard
 70
     0
 40
0.0
 41
1.0
 50
0.0
 71
     0
 42
0.2
  3
txt
  4

  0
ENDTAB
  0
TABLE
  2
VIEW
  5
6
330
0
100
AcDbSymbolTable
 70
     0
  0
ENDTAB
  0
TABLE
  2
UCS
  5
7
330
0
100
AcDbSymbolTable
 70
     0
  0
ENDTAB
  0
TABLE
  2
APPID
  5
9
330
0
100
AcDbSymbolTable
 70
     1
  0
APPID
  5
12
330
9
100
AcDbSymbolTableRecord
100
AcDbRegAppTableRecord
  2
ACAD
 70
     0
  0
ENDTAB
  0
TABLE
  2
DIMSTYLE
  5
A
330
0
100
AcDbSymbolTable
 70
     1
100
AcDbDimStyleTable
  0
DIMSTYLE
105
27
330
A
100
AcDbSymbolTableRecord
100
AcDbDimStyleTableRecord
  2
Standard
 70
     0
178
     0
340
11
  0
ENDTAB
  0
TABLE
  2
BLOCK_RECORD
  5
1
330
0
100
AcDbSymbolTable
 70
     7
  0
BLOCK_RECORD
  5
1F
330
1
100
AcDbSymbolTableRecord
100
AcDbBlockTableRecord
  2
*Model_Space
340
22
 70
     0
280
     1
281
     0
  0
BLOCK_RECORD
  5
1B
330
1
100
AcDbSymbolTableRecord
100
AcDbBlockTableRecord
  2
*Paper_Space
340
1E
 70
     0
280
     1
281
     0
  0
BLOCK_RECORD
  5
23
330
1
100
AcDbSymbolTableRecord
100
AcDbBlockTableRecord
  2
*Paper_Space0
340
26
 70
     0
280
     1
281
     0
  0
BLOCK_RECORD
  5
41
330
1
100
AcDbSymbolTableRecord
100
AcDbBlockTableRecord
  2
block 2
340
0
102
{BLKREFS
331
42
102
}
 70
     0
280
     1
281
     0
  0
BLOCK_RECORD
  5
8D
330
1
100
AcDbSymbolTableRecord
100
AcDbBlockTableRecord
  2
block 3
340
0
102
{BLKREFS
331
8E
102
}
 70
     0
280
     1
281
     0
  0
BLOCK_RECORD
  5
A8
330
1
100
AcDbSymbolTableRecord
100
AcDbBlockTableRecord
  2
block 4
340
0
102
{BLKREFS
331
A9
102
}
 70
     0
280
     1
281
     0
  0
BLOCK_RECORD
  5
B9
330
1
100
AcDbSymbolTableRecord
100
AcDbBlockTableRecord
  2
block 5
340
0
102
{BLKREFS
331
BA
102
}
 70
     0
280
     1
281
     0
  0
BLOCK_RECORD
  5
CB
330
1
100
AcDbSymbolTableRecord
100
AcDbBlockTableRecord
  2
block 6
340
0
102
{BLKREFS
331
CC
102
}
 70
     0
280
     1
281
     0
  0
BLOCK_RECORD
  5
E0
330
1
100
AcDbSymbolTableRecord
100
AcDbBlockTableRecord
  2
block 7
340
0
102
{BLKREFS
331
E1
102
}
 70
     0
280
     1
281
     0
  0
ENDTAB
  0
ENDSEC
  0
SECTION
  2
BLOCKS
  0
BLOCK
  5
20
330
1F
100
AcDbEntity
  8
0
100
AcDbBlockBegin
  2
*Model_Space
 70
     0
 10
0.0
 20
0.0
 30
0.0
  3
*Model_Space
  1

  0
ENDBLK
  5
21
330
1F
100
AcDbEntity
  8
0
100
AcDbBlockEnd
  0
BLOCK
  5
1C
330
1B
100
AcDbEntity
 67
     1
  8
0
100
AcDbBlockBegin
  2
*Paper_Space
 70
     0
 10
0.0
 20
0.0
 30
0.0
  3
*Paper_Space
  1

  0
ENDBLK
  5
1D
330
1B
100
AcDbEntity
 67
     1
  8
0
100
AcDbBlockEnd
  0
BLOCK
  5
24
330
23
100
AcDbEntity
  8
0
100
AcDbBlockBegin
  2
*Paper_Space0
 70
     0
 10
0.0
 20
0.0
 30
0.0
  3
*Paper_Space0
  1

  0
ENDBLK
  5
25
330
23
100
AcDbEntity
  8
0
100
AcDbBlockEnd
  0
BLOCK
  5
43
330
41
100
AcDbEntity
  8
0
100
AcDbBlockBegin
  2
block 2
 70
     0
 10
0.0
 20
0.0
 30
0.0
  3
block 2
  1

  0
POLYLINE
  5
45
330
41
100
AcDbEntity
  8
_U+30EC_U+30A4_U+30E4_U+30FC 1
 62
   179
420
  2234388
370
    25
100
AcDb2dPolyline
 66
     1
 10
0.0
 20
0.0
 30
0.0
  0
VERTEX
  5
46
330
45
100
AcDbEntity
  8
_U+30EC_U+30A4_U+30E4_U+30FC 1
 62
   179
420
  2234388
370
    25
100
AcDbVertex
100
AcDb2dVertex
 10
49.57077984645516
 20
-84.16300581229252
 30
0.0
  0
VERTEX
  5
47
330
45
100
AcDbEntity
  8
_U+30EC_U+30A4_U+30E4_U+30FC 1
 62
   179
420
  2234388
370
    25
100
AcDbVertex
100
AcDb2dVertex
 10
72.57058509301457
 20
-84.16300581229252
 30
0.0
  0
SEQEND
  5
48
330
45
100
AcDbEntity
  8
_U+30EC_U+30A4_U+30E4_U+30FC 1
 62
   179
420
  2234388
370
    25
  0
POLYLINE
  5
49
330
41
100
AcDbEntity
  8
_U+30EC_U+30A4_U+30E4_U+30FC 1
 62
   179
420
  2234388
370
    25
100
AcDb2dPolyline
 66
     1
 10
0.0
 20
0.0
 30
0.0
  0
VERTEX
  5
4A
330
49
100
AcDbEntity
  8
_U+30EC_U+30A4_U+30E4_U+30FC 1
 62
   179
420
  2234388
370
    25
100
AcDbVertex
100
AcDb2dVertex
 10
50.3707387149354
 20
-84.96292942320362
 30
0.0
  0
VERTEX
  5
4B
330
49
100
AcDbEntity
  8
_U+30EC_U+30A4_U+30E4_U+30FC 1
 62
   179
420
  2234388
370
    25
100
AcDbVertex
100
AcDb2dVertex
 10
72.57058509301457
 20
-84.96292942320362
 30
0.0
  0
SEQEND
  5
4C
330
49
100
AcDbEntity
  8
_U+30EC_U+30A4_U+30E4_U+30FC 1
 62
   179
420
  2234388
370
    25
  0
POLYLINE
  5
4D
330
41
100
AcDbEntity
  8
_U+30EC_U+30A4_U+30E4_U+30FC 1
 62
   179
420
  2234388
370
    25
100
AcDb2dPolyline
 66
     1
 10
0.0
 20
0.0
 30
0.0
  0
VERTEX
  5
4E
330
4D
100
AcDbEntity
  8
_U+30EC_U+30A4_U+30E4_U+30FC 1
 62
   179
420
  2234388
370
    25
100
AcDbVertex
100
AcDb2dVertex
 10
72.57058509301457
 20
-84.16300581229252
 30
0.0
  0
VERTEX
  5
4F
330
4D
100
AcDbEntity
  8
_U+30EC_U+30A4_U+30E4_U+30FC 1
 62
   179
420
  2234388
370
    25
100
AcDbVertex
100
AcDb2dVertex
 10
72.57058509301457
 20
-84.96292942320362
 30
0.0
  0
SEQEND
  5
50
330
4D
100
AcDbEntity
  8
_U+30EC_U+30A4_U+30E4_U+30FC 1
 62
   179
420
  2234388
370
    25
  0
POLYLINE
  5
51
330
41
100
AcDbEntity
  8
_U+30EC_U+30A4_U+30E4_U+30FC 1
 62
   179
420
  2234388
370
    25
100
AcDb2dPolyline
 66
     1
 10
0.0
 20
0.0
 30
0.0
  0
VERTEX
  5
52
330
51
100
AcDbEntity
  8
_U+30EC_U+30A4_U+30E4_U+30FC 1
 62
   179
420
  2234388
370
    25
100
AcDbVertex
100
AcDb2dVertex
 10
55.55456108268507
 20
-94.9626624762592
 30
0.0
  0
VERTEX
  5
53
330
51
100
AcDbEntity
  8
_U+30EC_U+30A4_U+30E4_U+30FC 1
 62
   179
420
  2234388
370
    25
100
AcDbVertex
100
AcDb2dVertex
 10
59.57051264689628
 20
-94.9626624762592
 30
0.0
  0
SEQEND
  5
54
330
51
100
AcDbEntity
  8
_U+30EC_U+30A4_U+30E4_U+30FC 1
 62
   179
420
  2234388
370
    25
  0
POLYLINE
  5
55
330
41
100
AcDbEntity
  8
_U+30EC_U+30A4_U+30E4_U+30FC 1
 62
   179
420
  2234388
370
    25
100
AcDb2dPolyline
 66
     1
 10
0.0
 20
0.0
 30
0.0
  0
VERTEX
  5
56
330
55
100
AcDbEntity
  8
_U+30EC_U+30A4_U+30E4_U+30FC 1
 62
   179
420
  2234388
370
    25
100
AcDbVertex
100
AcDb2dVertex
 10
49.57077984645516
 20
-97.9626846977317
 30
0.0
  0
VERTEX
  5
57
330
55
100
AcDbEntity
  8
_U+30EC_U+30A4_U+30E4_U+30FC 1
 62
   179
420
  2234388
370
    25
100
AcDbVertex
100
AcDb2dVertex
 10
59.57051264689628
 20
-97.9626846977317
 30
0.0
  0
SEQEND
  5
58
330
55
100
AcDbEntity
  8
_U+30EC_U+30A4_U+30E4_U+30FC 1
 62
   179
420
  2234388
370
    25
  0
POLYLINE
  5
59
330
41
100
AcDbEntity
  8
_U+30EC_U+30A4_U+30E4_U+30FC 1
 62
   179
420
  2234388
370
    25
100
AcDb2dPolyline
 66
     1
 10
0.0
 20
0.0
 30
0.0
  0
VERTEX
  5
5A
330
59
100
AcDbEntity
  8
_U+30EC_U+30A4_U+30E4_U+30FC 1
 62
   179
420
  2234388
370
    25
100
AcDbVertex
100
AcDb2dVertex
 10
59.57051264689628
 20
-94.9626624762592
 30
0.0
  0
VERTEX
  5
5B
330
59
100
AcDbEntity
  8
_U+30EC_U+30A4_U+30E4_U+30FC 1
 62
   179
420
  2234388
370
    25
100
AcDbVertex
100
AcDb2dVertex
 10
59.57051264689628
 20
-97.9626846977317
 30
0.0
  0
SEQEND
  5
5C
330
59
100
AcDbEntity
  8
_U+30EC_U+30A4_U+30E4_U+30FC 1
 62
   179
420
  2234388
370
    25
  0
POLYLINE
  5
5D
330
41
100
AcDbEntity
  8
_U+30EC_U+30A4_U+30E4_U+30FC 1
 62
   179
420
  2234388
370
    25
100
AcDb2dPolyline
 66
     1
 10
0.0
 20
0.0
 30
0.0
  0
VERTEX
  5
5E
330
5D
100
AcDbEntity
  8
_U+30EC_U+30A4_U+30E4_U+30FC 1
 62
   179
420
  2234388
370
    25
100
AcDbVertex
100
AcDb2dVertex
 10
55.55456108268507
 20
-94.9626624762592
 30
0.0
  0
VERTEX
  5
5F
330
5D
100
AcDbEntity
  8
_U+30EC_U+30A4_U+30E4_U+30FC 1
 62
   179
420
  2234388
370
    25
100
AcDbVertex
100
AcDb2dVertex
 10
55.55456108268507
 20
-95.76262136494846
 30
0.0
  0
SEQEND
  5
60
330
5D
100
AcDbEntity
  8
_U+30EC_U+30A4_U+30E4_U+30FC 1
 62
   179
420
  2234388
370
    25
  0
POLYLINE
  5
61
330
41
100
AcDbEntity
  8
_U+30EC_U+30A4_U+30E4_U+30FC 1
 62
   179
420
  2234388
370
    25
100
AcDb2dPolyline
 66
     1
 10
0.0
 20
0.0
 30
0.0
  0
VERTEX
  5
62
330
61
100
AcDbEntity
  8
_U+30EC_U+30A4_U+30E4_U+30FC 1
 62
   179
420
  2234388
370
    25
100
AcDbVertex
100
AcDb2dVertex
 10
50.3707387149354
 20
-97.16272580904243
 30
0.0
  0
VERTEX
  5
63
330
61
100
AcDbEntity
  8
_U+30EC_U+30A4_U+30E4_U+30FC 1
 62
   179
420
  2234388
370
    25
100
AcDbVertex
100
AcDb2dVertex
 10
58.77058905619292
 20
-97.16272580904243
 30
0.0
  0
SEQEND
  5
64
330
61
100
AcDbEntity
  8
_U+30EC_U+30A4_U+30E4_U+30FC 1
 62
   179
420
  2234388
370
    25
  0
POLYLINE
  5
65
330
41
100
AcDbEntity
  8
_U+30EC_U+30A4_U+30E4_U+30FC 1
 62
   179
420
  2234388
370
    25
100
AcDb2dPolyline
 66
     1
 10
0.0
 20
0.0
 30
0.0
  0
VERTEX
  5
66
330
65
100
AcDbEntity
  8
_U+30EC_U+30A4_U+30E4_U+30FC 1
 62
   179
420
  2234388
370
    25
100
AcDbVertex
100
AcDb2dVertex
 10
58.77058905619292
 20
-95.76262136494846
 30
0.0
  0
VERTEX
  5
67
330
65
100
AcDbEntity
  8
_U+30EC_U+30A4_U+30E4_U+30FC 1
 62
   179
420
  2234388
370
    25
100
AcDbVertex
100
AcDb2dVertex
 10
58.77058905619292
 20
-97.16272580904243
 30
0.0
  0
SEQEND
  5
68
330
65
100
AcDbEntity
  8
_U+30EC_U+30A4_U+30E4_U+30FC 1
 62
   179
420
  2234388
370
    25
  0
POLYLINE
  5
69
330
41
100
AcDbEntity
  8
_U+30EC_U+30A4_U+30E4_U+30FC 1
 62
   179
420
  2234388
370
    25
100
AcDb2dPolyline
 66
     1
 10
0.0
 20
0.0
 30
0.0
  0
VERTEX
  5
6A
330
69
100
AcDbEntity
  8
_U+30EC_U+30A4_U+30E4_U+30FC 1
 62
   179
420
  2234388
370
    25
100
AcDbVertex
100
AcDb2dVertex
 10
55.55456108268507
 20
-95.76262136494846
 30
0.0
  0
VERTEX
  5
6B
330
69
100
AcDbEntity
  8
_U+30EC_U+30A4_U+30E4_U+30FC 1
 62
   179
420
  2234388
370
    25
100
AcDbVertex
100
AcDb2dVertex
 10
58.77058905619292
 20
-95.76262136494846
 30
0.0
  0
SEQEND
  5
6C
330
69
100
AcDbEntity
  8
_U+30EC_U+30A4_U+30E4_U+30FC 1
 62
   179
420
  2234388
370
    25
  0
POLYLINE
  5
6D
330
41
100
AcDbEntity
  8
_U+30EC_U+30A4_U+30E4_U+30FC 1
 62
   179
420
  2234388
370
    25
100
AcDb2dPolyline
 66
     1
 10
0.0
 20
0.0
 30
0.0
  0
VERTEX
  5
6E
330
6D
100
AcDbEntity
  8
_U+30EC_U+30A4_U+30E4_U+30FC 1
 62
   179
420
  2234388
370
    25
100
AcDbVertex
100
AcDb2dVertex
 10
49.57077984645516
 20
-84.16300581229252
 30
0.0
  0
VERTEX
  5
6F
330
6D
100
AcDbEntity
  8
_U+30EC_U+30A4_U+30E4_U+30FC 1
 62
   179
420
  2234388
370
    25
100
AcDbVertex
100
AcDb2dVertex
 10
49.57077984645516
 20
-97.9626846977317
 30
0.0
  0
SEQEND
  5
70
330
6D
100
AcDbEntity
  8
_U+30EC_U+30A4_U+30E4_U+30FC 1
 62
   179
420
  2234388
370
    25
  0
POLYLINE
  5
71
330
41
100
AcDbEntity
  8
_U+30EC_U+30A4_U+30E4_U+30FC 1
 62
   179
420
  2234388
370
    25
100
AcDb2dPolyline
 66
     1
 10
0.0
 20
0.0
 30
0.0
  0
VERTEX
  5
72
330
71
100
AcDbEntity
  8
_U+30EC_U+30A4_U+30E4_U+30FC 1
 62
   179
420
  2234388
370
    25
100
AcDbVertex
100
AcDb2dVertex
 10
50.3707387149354
 20
-84.96292942320362
 30
0.0
  0
VERTEX
  5
73
330
71
100
AcDbEntity
  8
_U+30EC_U+30A4_U+30E4_U+30FC 1
 62
   179
420
  2234388
370
    25
100
AcDbVertex
100
AcDb2dVertex
 10
50.3707387149354
 20
-97.16272580904243
 30
0.0
  0
SEQEND
  5
74
330
71
100
AcDbEntity
  8
_U+30EC_U+30A4_U+30E4_U+30FC 1
 62
   179
420
  2234388
370
    25
  0
ENDBLK
  5
44
330
41
100
AcDbEntity
  8
0
100
AcDbBlockEnd
  0
BLOCK
  5
8F
330
8D
100
AcDbEntity
  8
0
100
AcDbBlockBegin
  2
block 3
 70
     0
 10
0.0
 20
0.0
 30
0.0
  3
block 3
  1

  0
SPLINE
  5
91
330
8D
100
AcDbEntity
  8
_U+30EC_U+30A4_U+30E4_U+30FC 1
370
     0
100
AcDbSpline
210
0.0
220
0.0
230
1.0
 70
    11
 71
     3
 72
    29
 73
    25
 74
     0
 42
0.0000000001
 43
0.0000000001
 12
1.0
 22
0.0
 32
0.0
 13
1.0
 23
0.0
 33
0.0
 40
0.0
 40
0.0
 40
0.0
 40
0.0
 40
1.0
 40
1.0
 40
1.0
 40
2.0
 40
2.0
 40
2.0
 40
3.0
 40
3.0
 40
3.0
 40
4.0
 40
4.0
 40
4.0
 40
5.0
 40
5.0
 40
5.0
 40
6.0
 40
6.0
 40
6.0
 40
7.0
 40
7.0
 40
7.0
 40
8.0
 40
8.0
 40
8.0
 40
8.0
 10
75.04106985971195
 20
-81.65944279642542
 30
0.0
 10
75.25053166521515
 20
-81.77485349518129
 30
0.0
 10
75.26947969038402
 20
-81.96019963228773
 30
0.0
 10
75.26947969038402
 20
-82.08456757930526
 30
0.0
 10
75.26947969038402
 20
-82.25613333447069
 30
0.0
 10
75.22297090133316
 20
-82.40771753582169
 30
0.0
 10
75.04106985971195
 20
-82.50934785263655
 30
0.0
 10
74.84642196479534
 20
-82.6202799272616
 30
0.0
 10
74.60939939541015
 20
-82.64060599062458
 30
0.0
 10
74.44679088850636
 20
-82.64060599062458
 30
0.0
 10
74.30278589722292
 20
-82.64060599062458
 30
0.0
 10
74.05094941725116
 20
-82.62234698455275
 30
0.0
 10
73.85216740775223
 20
-82.50934785263655
 30
0.0
 10
73.64925128367102
 20
-82.39428166342921
 30
0.0
 10
73.62582463437133
 20
-82.22237139871524
 30
0.0
 10
73.62582463437133
 20
-82.08456757930526
 30
0.0
 10
73.62582463437133
 20
-81.91472437188243
 30
0.0
 10
73.67026636613105
 20
-81.76107311324029
 30
0.0
 10
73.85216740775223
 20
-81.65944279642542
 30
0.0
 10
74.0447482453777
 20
-81.5529893459312
 30
0.0
 10
74.27315807604977
 20
-81.5281846584374
 30
0.0
 10
74.44679088850636
 20
-81.5281846584374
 30
0.0
 10
74.61801213412328
 20
-81.5281846584374
 30
0.0
 10
74.8484890220865
 20
-81.55092228864005
 30
0.0
 10
75.04106985971195
 20
-81.65944279642542
 30
0.0
  0
SPLINE
  5
92
330
8D
100
AcDbEntity
  8
_U+30EC_U+30A4_U+30E4_U+30FC 1
370
     0
100
AcDbSpline
210
0.0
220
0.0
230
1.0
 70
    11
 71
     3
 72
    17
 73
    13
 74
     0
 42
0.0000000001
 43
0.0000000001
 12
1.0
 22
0.0
 32
0.0
 13
1.0
 23
0.0
 33
0.0
 40
0.0
 40
0.0
 40
0.0
 40
0.0
 40
1.0
 40
1.0
 40
1.0
 40
2.0
 40
2.0
 40
2.0
 40
3.0
 40
3.0
 40
3.0
 40
4.0
 40
4.0
 40
4.0
 40
4.0
 10
73.8184054719968
 20
-82.08456757930526
 30
0.0
 10
73.8184054719968
 20
-82.35121796986358
 30
0.0
 10
74.10193683043285
 20
-82.40082734485118
 30
0.0
 10
74.44679088850636
 20
-82.40082734485118
 30
0.0
 10
74.76615123998901
 20
-82.40082734485118
 30
0.0
 10
75.0748317954674
 20
-82.36258678496492
 30
0.0
 10
75.0748317954674
 20
-82.08456757930526
 30
0.0
 10
75.0748317954674
 20
-81.81998424603806
 30
0.0
 10
74.79371200387102
 20
-81.7679633042108
 30
0.0
 10
74.44679088850636
 20
-81.7679633042108
 30
0.0
 10
74.12708602747517
 20
-81.7679633042108
 30
0.0
 10
73.8184054719968
 20
-81.80861543093674
 30
0.0
 10
73.8184054719968
 20
-82.08456757930526
 30
0.0
  0
HATCH
  5
93
330
8D
100
AcDbEntity
  8
_U+30EC_U+30A4_U+30E4_U+30FC 1
 62
   179
420
  2234388
100
AcDbHatch
 10
0.0
 20
0.0
 30
0.0
210
0.0
220
0.0
230
1.0
  2
SOLID
 70
     1
 71
     0
 91
        2
 92
        1
 93
        1
 72
     4
 94
        3
 73
     0
 74
     1
 95
       29
 96
       25
 40
0.0
 40
0.0
 40
0.0
 40
0.0
 40
1.0
 40
1.0
 40
1.0
 40
2.0
 40
2.0
 40
2.0
 40
3.0
 40
3.0
 40
3.0
 40
4.0
 40
4.0
 40
4.0
 40
5.0
 40
5.0
 40
5.0
 40
6.0
 40
6.0
 40
6.0
 40
7.0
 40
7.0
 40
7.0
 40
8.0
 40
8.0
 40
8.0
 40
8.0
 10
75.04106985971195
 20
-81.65944279642542
 10
75.25053166521515
 20
-81.77485349518129
 10
75.26947969038402
 20
-81.96019963228773
 10
75.26947969038402
 20
-82.08456757930526
 10
75.26947969038402
 20
-82.25613333447069
 10
75.22297090133316
 20
-82.40771753582169
 10
75.04106985971195
 20
-82.50934785263655
 10
74.84642196479534
 20
-82.6202799272616
 10
74.60939939541015
 20
-82.64060599062458
 10
74.44679088850636
 20
-82.64060599062458
 10
74.30278589722292
 20
-82.64060599062458
 10
74.05094941725116
 20
-82.62234698455275
 10
73.85216740775223
 20
-82.50934785263655
 10
73.64925128367102
 20
-82.39428166342921
 10
73.62582463437133
 20
-82.22237139871524
 10
73.62582463437133
 20
-82.08456757930526
 10
73.62582463437133
 20
-81.91472437188243
 10
73.67026636613105
 20
-81.76107311324029
 10
73.85216740775223
 20
-81.65944279642542
 10
74.0447482453777
 20
-81.5529893459312
 10
74.27315807604977
 20
-81.5281846584374
 10
74.44679088850636
 20
-81.5281846584374
 10
74.61801213412328
 20
-81.5281846584374
 10
74.8484890220865
 20
-81.55092228864005
 10
75.04106985971195
 20
-81.65944279642542
 97
        0
 97
        0
 92
        1
 93
        1
 72
     4
 94
        3
 73
     0
 74
     1
 95
       17
 96
       13
 40
0.0
 40
0.0
 40
0.0
 40
0.0
 40
1.0
 40
1.0
 40
1.0
 40
2.0
 40
2.0
 40
2.0
 40
3.0
 40
3.0
 40
3.0
 40
4.0
 40
4.0
 40
4.0
 40
4.0
 10
73.8184054719968
 20
-82.08456757930526
 10
73.8184054719968
 20
-82.35121796986358
 10
74.10193683043285
 20
-82.40082734485118
 10
74.44679088850636
 20
-82.40082734485118
 10
74.76615123998901
 20
-82.40082734485118
 10
75.0748317954674
 20
-82.36258678496492
 10
75.0748317954674
 20
-82.08456757930526
 10
75.0748317954674
 20
-81.81998424603806
 10
74.79371200387102
 20
-81.7679633042108
 10
74.44679088850636
 20
-81.7679633042108
 10
74.12708602747517
 20
-81.7679633042108
 10
73.8184054719968
 20
-81.80861543093674
 10
73.8184054719968
 20
-82.08456757930526
 97
        0
 97
        0
 75
     2
 76
     1
 98
        0
  0
POLYLINE
  5
94
330
8D
100
AcDbEntity
  8
_U+30EC_U+30A4_U+30E4_U+30FC 1
370
     0
100
AcDb2dPolyline
 66
     1
 10
0.0
 20
0.0
 30
0.0
  0
VERTEX
  5
95
330
94
100
AcDbEntity
  8
_U+30EC_U+30A4_U+30E4_U+30FC 1
370
     0
100
AcDbVertex
100
AcDb2dVertex
 10
75.21883678675086
 20
-81.29701875137714
 30
0.0
  0
VERTEX
  5
96
330
94
100
AcDbEntity
  8
_U+30EC_U+30A4_U+30E4_U+30FC 1
370
     0
100
AcDbVertex
100
AcDb2dVertex
 10
74.96700030677908
 20
-81.29701875137714
 30
0.0
  0
VERTEX
  5
97
330
94
100
AcDbEntity
  8
_U+30EC_U+30A4_U+30E4_U+30FC 1
370
     0
100
AcDbVertex
100
AcDb2dVertex
 10
74.96700030677908
 20
-81.02795679397913
 30
0.0
  0
VERTEX
  5
98
330
94
100
AcDbEntity
  8
_U+30EC_U+30A4_U+30E4_U+30FC 1
370
     0
100
AcDbVertex
100
AcDb2dVertex
 10
75.21883678675086
 20
-81.02795679397913
 30
0.0
  0
VERTEX
  5
99
330
94
100
AcDbEntity
  8
_U+30EC_U+30A4_U+30E4_U+30FC 1
370
     0
100
AcDbVertex
100
AcDb2dVertex
 10
75.21883678675086
 20
-81.29701875137714
 30
0.0
  0
SEQEND
  5
9A
330
94
100
AcDbEntity
  8
_U+30EC_U+30A4_U+30E4_U+30FC 1
370
     0
  0
HATCH
  5
9B
330
8D
100
AcDbEntity
  8
_U+30EC_U+30A4_U+30E4_U+30FC 1
 62
   179
420
  2234388
100
AcDbHatch
 10
0.0
 20
0.0
 30
0.0
210
0.0
220
0.0
230
1.0
  2
SOLID
 70
     1
 71
     0
 91
        1
 92
        1
 93
        4
 72
     1
 10
75.21883678675086
 20
-81.29701875137714
 11
74.96700030677908
 21
-81.29701875137714
 72
     1
 10
74.96700030677908
 20
-81.29701875137714
 11
74.96700030677908
 21
-81.02795679397913
 72
     1
 10
74.96700030677908
 20
-81.02795679397913
 11
75.21883678675086
 21
-81.02795679397913
 72
     1
 10
75.21883678675086
 20
-81.02795679397913
 11
75.21883678675086
 21
-81.29701875137714
 97
        0
 75
     2
 76
     1
 98
        0
  0
SPLINE
  5
9C
330
8D
100
AcDbEntity
  8
_U+30EC_U+30A4_U+30E4_U+30FC 1
370
     0
100
AcDbSpline
210
0.0
220
0.0
230
1.0
 70
    11
 71
     3
 72
    29
 73
    25
 74
     0
 42
0.0000000001
 43
0.0000000001
 12
1.0
 22
0.0
 32
0.0
 13
1.0
 23
0.0
 33
0.0
 40
0.0
 40
0.0
 40
0.0
 40
0.0
 40
1.0
 40
1.0
 40
1.0
 40
2.0
 40
2.0
 40
2.0
 40
3.0
 40
3.0
 40
3.0
 40
4.0
 40
4.0
 40
4.0
 40
5.0
 40
5.0
 40
5.0
 40
6.0
 40
6.0
 40
6.0
 40
7.0
 40
7.0
 40
7.0
 40
8.0
 40
8.0
 40
8.0
 40
8.0
 10
75.26947969038402
 20
-80.24075247559954
 30
0.0
 10
75.26947969038402
 20
-80.5256618722297
 30
0.0
 10
75.13202038052255
 20
-80.79679088691886
 30
0.0
 10
74.78303220786674
 20
-80.79679088691886
 30
0.0
 10
74.52706161331268
 20
-80.79679088691886
 30
0.0
 10
74.43197697791979
 20
-80.64520668556787
 30
0.0
 10
74.37065427828234
 20
-80.53220755365167
 30
0.0
 10
74.31139863593604
 20
-80.66553274893084
 30
0.0
 10
74.19702146582574
 20
-80.74718151193126
 30
0.0
 10
74.03613550666458
 20
-80.74718151193126
 30
0.0
 10
73.76121688694164
 20
-80.74718151193126
 30
0.0
 10
73.62582463437133
 20
-80.53461912049134
 30
0.0
 10
73.62582463437133
 20
-80.24075247559954
 30
0.0
 10
73.62582463437133
 20
-79.93758407289755
 30
0.0
 10
73.76982962565476
 20
-79.73432343926781
 30
0.0
 10
74.03613550666458
 20
-79.73432343926781
 30
0.0
 10
74.19702146582574
 20
-79.73432343926781
 30
0.0
 10
74.31139863593604
 20
-79.81769475001086
 30
0.0
 10
74.37065427828234
 20
-79.95136445483855
 30
0.0
 10
74.4212971819155
 20
-79.85627981944566
 30
0.0
 10
74.51638181730841
 20
-79.68678112157136
 30
0.0
 10
74.77889809328444
 20
-79.68678112157136
 30
0.0
 10
75.1533799725311
 20
-79.68678112157136
 30
0.0
 10
75.26947969038402
 20
-79.985126390594
 30
0.0
 10
75.26947969038402
 20
-80.24075247559954
 30
0.0
  0
SPLINE
  5
9D
330
8D
100
AcDbEntity
  8
_U+30EC_U+30A4_U+30E4_U+30FC 1
370
     0
100
AcDbSpline
210
0.0
220
0.0
230
1.0
 70
    11
 71
     3
 72
    17
 73
    13
 74
     0
 42
0.0000000001
 43
0.0000000001
 12
1.0
 22
0.0
 32
0.0
 13
1.0
 23
0.0
 33
0.0
 40
0.0
 40
0.0
 40
0.0
 40
0.0
 40
1.0
 40
1.0
 40
1.0
 40
2.0
 40
2.0
 40
2.0
 40
3.0
 40
3.0
 40
3.0
 40
4.0
 40
4.0
 40
4.0
 40
4.0
 10
73.8184054719968
 20
-80.24075247559954
 30
0.0
 10
73.8184054719968
 20
-80.41679685489581
 30
0.0
 10
73.91349010738969
 20
-80.50740286615788
 30
0.0
 10
74.04888235996
 20
-80.50740286615788
 30
0.0
 10
74.1715277592349
 20
-80.50740286615788
 30
0.0
 10
74.2900390439275
 20
-80.4305772368368
 30
0.0
 10
74.2900390439275
 20
-80.24075247559954
 30
0.0
 10
74.2900390439275
 20
-80.05058320481375
 30
0.0
 10
74.1715277592349
 20
-79.97375757549267
 30
0.0
 10
74.04888235996
 20
-79.97375757549267
 30
0.0
 10
73.91349010738969
 20
-79.97375757549267
 30
0.0
 10
73.8184054719968
 20
-80.0664306440459
 30
0.0
 10
73.8184054719968
 20
-80.24075247559954
 30
0.0
  0
SPLINE
  5
9E
330
8D
100
AcDbEntity
  8
_U+30EC_U+30A4_U+30E4_U+30FC 1
370
     0
100
AcDbSpline
210
0.0
220
0.0
230
1.0
 70
    11
 71
     3
 72
    17
 73
    13
 74
     0
 42
0.0000000001
 43
0.0000000001
 12
1.0
 22
0.0
 32
0.0
 13
1.0
 23
0.0
 33
0.0
 40
0.0
 40
0.0
 40
0.0
 40
0.0
 40
1.0
 40
1.0
 40
1.0
 40
2.0
 40
2.0
 40
2.0
 40
3.0
 40
3.0
 40
3.0
 40
4.0
 40
4.0
 40
4.0
 40
4.0
 10
74.47848576697066
 20
-80.24075247559954
 30
0.0
 10
74.47848576697066
 20
-80.39440373424168
 30
0.0
 10
74.56530217319896
 20
-80.55701224114547
 30
0.0
 10
74.76821829728017
 20
-80.55701224114547
 30
0.0
 10
74.97354598820107
 20
-80.55701224114547
 30
0.0
 10
75.0748317954674
 20
-80.42161998857516
 30
0.0
 10
75.0748317954674
 20
-80.24075247559954
 30
0.0
 10
75.0748317954674
 20
-80.0416259565521
 30
0.0
 10
74.95218639619252
 20
-79.92414820050507
 30
0.0
 10
74.77441946915361
 20
-79.92414820050507
 30
0.0
 10
74.55255531990353
 20
-79.92414820050507
 30
0.0
 10
74.47848576697066
 20
-80.09812552251019
 30
0.0
 10
74.47848576697066
 20
-80.24075247559954
 30
0.0
  0
HATCH
  5
9F
330
8D
100
AcDbEntity
  8
_U+30EC_U+30A4_U+30E4_U+30FC 1
 62
   179
420
  2234388
100
AcDbHatch
 10
0.0
 20
0.0
 30
0.0
210
0.0
220
0.0
230
1.0
  2
SOLID
 70
     1
 71
     0
 91
        3
 92
        1
 93
        1
 72
     4
 94
        3
 73
     0
 74
     1
 95
       29
 96
       25
 40
0.0
 40
0.0
 40
0.0
 40
0.0
 40
1.0
 40
1.0
 40
1.0
 40
2.0
 40
2.0
 40
2.0
 40
3.0
 40
3.0
 40
3.0
 40
4.0
 40
4.0
 40
4.0
 40
5.0
 40
5.0
 40
5.0
 40
6.0
 40
6.0
 40
6.0
 40
7.0
 40
7.0
 40
7.0
 40
8.0
 40
8.0
 40
8.0
 40
8.0
 10
75.26947969038402
 20
-80.24075247559954
 10
75.26947969038402
 20
-80.5256618722297
 10
75.13202038052255
 20
-80.79679088691886
 10
74.78303220786674
 20
-80.79679088691886
 10
74.52706161331268
 20
-80.79679088691886
 10
74.43197697791979
 20
-80.64520668556787
 10
74.37065427828234
 20
-80.53220755365167
 10
74.31139863593604
 20
-80.66553274893084
 10
74.19702146582574
 20
-80.74718151193126
 10
74.03613550666458
 20
-80.74718151193126
 10
73.76121688694164
 20
-80.74718151193126
 10
73.62582463437133
 20
-80.53461912049134
 10
73.62582463437133
 20
-80.24075247559954
 10
73.62582463437133
 20
-79.93758407289755
 10
73.76982962565476
 20
-79.73432343926781
 10
74.03613550666458
 20
-79.73432343926781
 10
74.19702146582574
 20
-79.73432343926781
 10
74.31139863593604
 20
-79.81769475001086
 10
74.37065427828234
 20
-79.95136445483855
 10
74.4212971819155
 20
-79.85627981944566
 10
74.51638181730841
 20
-79.68678112157136
 10
74.77889809328444
 20
-79.68678112157136
 10
75.1533799725311
 20
-79.68678112157136
 10
75.26947969038402
 20
-79.985126390594
 10
75.26947969038402
 20
-80.24075247559954
 97
        0
 97
        0
 92
        1
 93
        1
 72
     4
 94
        3
 73
     0
 74
     1
 95
       17
 96
       13
 40
0.0
 40
0.0
 40
0.0
 40
0.0
 40
1.0
 40
1.0
 40
1.0
 40
2.0
 40
2.0
 40
2.0
 40
3.0
 40
3.0
 40
3.0
 40
4.0
 40
4.0
 40
4.0
 40
4.0
 10
73.8184054719968
 20
-80.24075247559954
 10
73.8184054719968
 20
-80.41679685489581
 10
73.91349010738969
 20
-80.50740286615788
 10
74.04888235996
 20
-80.50740286615788
 10
74.1715277592349
 20
-80.50740286615788
 10
74.2900390439275
 20
-80.4305772368368
 10
74.2900390439275
 20
-80.24075247559954
 10
74.2900390439275
 20
-80.05058320481375
 10
74.1715277592349
 20
-79.97375757549267
 10
74.04888235996
 20
-79.97375757549267
 10
73.91349010738969
 20
-79.97375757549267
 10
73.8184054719968
 20
-80.0664306440459
 10
73.8184054719968
 20
-80.24075247559954
 97
        0
 97
        0
 92
        1
 93
        1
 72
     4
 94
        3
 73
     0
 74
     1
 95
       17
 96
       13
 40
0.0
 40
0.0
 40
0.0
 40
0.0
 40
1.0
 40
1.0
 40
1.0
 40
2.0
 40
2.0
 40
2.0
 40
3.0
 40
3.0
 40
3.0
 40
4.0
 40
4.0
 40
4.0
 40
4.0
 10
74.47848576697066
 20
-80.24075247559954
 10
74.47848576697066
 20
-80.39440373424168
 10
74.56530217319896
 20
-80.55701224114547
 10
74.76821829728017
 20
-80.55701224114547
 10
74.97354598820107
 20
-80.55701224114547
 10
75.0748317954674
 20
-80.42161998857516
 10
75.0748317954674
 20
-80.24075247559954
 10
75.0748317954674
 20
-80.0416259565521
 10
74.95218639619252
 20
-79.92414820050507
 10
74.77441946915361
 20
-79.92414820050507
 10
74.55255531990353
 20
-79.92414820050507
 10
74.47848576697066
 20
-80.09812552251019
 10
74.47848576697066
 20
-80.24075247559954
 97
        0
 97
        0
 75
     2
 76
     1
 98
        0
  0
ENDBLK
  5
90
330
8D
100
AcDbEntity
  8
0
100
AcDbBlockEnd
  0
BLOCK
  5
AA
330
A8
100
AcDbEntity
  8
0
100
AcDbBlockBegin
  2
block 4
 70
     0
 10
0.0
 20
0.0
 30
0.0
  3
block 4
  1

  0
SPLINE
  5
AC
330
A8
100
AcDbEntity
  8
_U+30EC_U+30A4_U+30E4_U+30FC 1
370
     0
100
AcDbSpline
210
0.0
220
0.0
230
1.0
 70
    11
 71
     3
 72
    26
 73
    22
 74
     0
 42
0.0000000001
 43
0.0000000001
 12
1.0
 22
0.0
 32
0.0
 13
1.0
 23
0.0
 33
0.0
 40
0.0
 40
0.0
 40
0.0
 40
0.0
 40
1.0
 40
1.0
 40
1.0
 40
2.0
 40
2.0
 40
2.0
 40
3.0
 40
3.0
 40
3.0
 40
4.0
 40
4.0
 40
4.0
 40
5.0
 40
5.0
 40
5.0
 40
6.0
 40
6.0
 40
6.0
 40
7.0
 40
7.0
 40
7.0
 40
7.0
 10
75.21883678675086
 20
-90.64390731240847
 30
0.0
 10
75.21883678675086
 20
-90.64390731240847
 30
0.0
 10
74.11468368372827
 20
-90.64390731240847
 30
0.0
 10
74.11468368372827
 20
-90.64390731240847
 30
0.0
 10
74.11468368372827
 20
-90.64390731240847
 30
0.0
 10
74.11468368372827
 20
-90.99634058054953
 30
0.0
 10
74.11468368372827
 20
-90.99634058054953
 30
0.0
 10
74.11468368372827
 20
-90.99634058054953
 30
0.0
 10
73.96654457786254
 20
-90.99634058054953
 30
0.0
 10
73.96654457786254
 20
-90.99634058054953
 30
0.0
 10
73.95173066727595
 20
-90.6414957455688
 30
0.0
 10
73.78877765082365
 20
-90.5918863705812
 30
0.0
 10
73.67440048071335
 20
-90.5601914921169
 30
0.0
 10
73.67440048071335
 20
-90.5601914921169
 30
0.0
 10
73.67440048071335
 20
-90.40412866663509
 30
0.0
 10
73.67440048071335
 20
-90.40412866663509
 30
0.0
 10
73.67440048071335
 20
-90.40412866663509
 30
0.0
 10
75.21883678675086
 20
-90.40412866663509
 30
0.0
 10
75.21883678675086
 20
-90.40412866663509
 30
0.0
 10
75.21883678675086
 20
-90.40412866663509
 30
0.0
 10
75.21883678675086
 20
-90.64390731240847
 30
0.0
 10
75.21883678675086
 20
-90.64390731240847
 30
0.0
  0
HATCH
  5
AD
330
A8
100
AcDbEntity
  8
_U+30EC_U+30A4_U+30E4_U+30FC 1
 62
   179
420
  2234388
100
AcDbHatch
 10
0.0
 20
0.0
 30
0.0
210
0.0
220
0.0
230
1.0
  2
SOLID
 70
     1
 71
     0
 91
        1
 92
        1
 93
        1
 72
     4
 94
        3
 73
     0
 74
     1
 95
       26
 96
       22
 40
0.0
 40
0.0
 40
0.0
 40
0.0
 40
1.0
 40
1.0
 40
1.0
 40
2.0
 40
2.0
 40
2.0
 40
3.0
 40
3.0
 40
3.0
 40
4.0
 40
4.0
 40
4.0
 40
5.0
 40
5.0
 40
5.0
 40
6.0
 40
6.0
 40
6.0
 40
7.0
 40
7.0
 40
7.0
 40
7.0
 10
75.21883678675086
 20
-90.64390731240847
 10
75.21883678675086
 20
-90.64390731240847
 10
74.11468368372827
 20
-90.64390731240847
 10
74.11468368372827
 20
-90.64390731240847
 10
74.11468368372827
 20
-90.64390731240847
 10
74.11468368372827
 20
-90.99634058054953
 10
74.11468368372827
 20
-90.99634058054953
 10
74.11468368372827
 20
-90.99634058054953
 10
73.96654457786254
 20
-90.99634058054953
 10
73.96654457786254
 20
-90.99634058054953
 10
73.95173066727595
 20
-90.6414957455688
 10
73.78877765082365
 20
-90.5918863705812
 10
73.67440048071335
 20
-90.5601914921169
 10
73.67440048071335
 20
-90.5601914921169
 10
73.67440048071335
 20
-90.40412866663509
 10
73.67440048071335
 20
-90.40412866663509
 10
73.67440048071335
 20
-90.40412866663509
 10
75.21883678675086
 20
-90.40412866663509
 10
75.21883678675086
 20
-90.40412866663509
 10
75.21883678675086
 20
-90.40412866663509
 10
75.21883678675086
 20
-90.64390731240847
 10
75.21883678675086
 20
-90.64390731240847
 97
        0
 97
        0
 75
     2
 76
     1
 98
        0
  0
SPLINE
  5
AE
330
A8
100
AcDbEntity
  8
_U+30EC_U+30A4_U+30E4_U+30FC 1
370
     0
100
AcDbSpline
210
0.0
220
0.0
230
1.0
 70
    11
 71
     3
 72
    29
 73
    25
 74
     0
 42
0.0000000001
 43
0.0000000001
 12
1.0
 22
0.0
 32
0.0
 13
1.0
 23
0.0
 33
0.0
 40
0.0
 40
0.0
 40
0.0
 40
0.0
 40
1.0
 40
1.0
 40
1.0
 40
2.0
 40
2.0
 40
2.0
 40
3.0
 40
3.0
 40
3.0
 40
4.0
 40
4.0
 40
4.0
 40
5.0
 40
5.0
 40
5.0
 40
6.0
 40
6.0
 40
6.0
 40
7.0
 40
7.0
 40
7.0
 40
8.0
 40
8.0
 40
8.0
 40
8.0
 10
75.04106985971195
 20
-88.90895722603665
 30
0.0
 10
75.25053166521515
 20
-89.02436792479253
 30
0.0
 10
75.26947969038402
 20
-89.20971406189896
 30
0.0
 10
75.26947969038402
 20
-89.33408200891648
 30
0.0
 10
75.26947969038402
 20
-89.50564776408193
 30
0.0
 10
75.22297090133316
 20
-89.65723196543291
 30
0.0
 10
75.04106985971195
 20
-89.75886228224779
 30
0.0
 10
74.84642196479534
 20
-89.86979435687283
 30
0.0
 10
74.60939939541015
 20
-89.8901204202358
 30
0.0
 10
74.44679088850636
 20
-89.8901204202358
 30
0.0
 10
74.30278589722292
 20
-89.8901204202358
 30
0.0
 10
74.05094941725116
 20
-89.87220592371251
 30
0.0
 10
73.85216740775223
 20
-89.75886228224779
 30
0.0
 10
73.64925128367102
 20
-89.64379609304045
 30
0.0
 10
73.62582463437133
 20
-89.47188582832648
 30
0.0
 10
73.62582463437133
 20
-89.33408200891648
 30
0.0
 10
73.62582463437133
 20
-89.16423880149367
 30
0.0
 10
73.67026636613105
 20
-89.01058754285152
 30
0.0
 10
73.85216740775223
 20
-88.90895722603665
 30
0.0
 10
74.0447482453777
 20
-88.80250377554243
 30
0.0
 10
74.27315807604977
 20
-88.77769908804864
 30
0.0
 10
74.44679088850636
 20
-88.77769908804864
 30
0.0
 10
74.61801213412328
 20
-88.77769908804864
 30
0.0
 10
74.8484890220865
 20
-88.80043671825129
 30
0.0
 10
75.04106985971195
 20
-88.90895722603665
 30
0.0
  0
SPLINE
  5
AF
330
A8
100
AcDbEntity
  8
_U+30EC_U+30A4_U+30E4_U+30FC 1
370
     0
100
AcDbSpline
210
0.0
220
0.0
230
1.0
 70
    11
 71
     3
 72
    17
 73
    13
 74
     0
 42
0.0000000001
 43
0.0000000001
 12
1.0
 22
0.0
 32
0.0
 13
1.0
 23
0.0
 33
0.0
 40
0.0
 40
0.0
 40
0.0
 40
0.0
 40
1.0
 40
1.0
 40
1.0
 40
2.0
 40
2.0
 40
2.0
 40
3.0
 40
3.0
 40
3.0
 40
4.0
 40
4.0
 40
4.0
 40
4.0
 10
73.8184054719968
 20
-89.33408200891648
 30
0.0
 10
73.8184054719968
 20
-89.60073239947482
 30
0.0
 10
74.10193683043285
 20
-89.65034177446242
 30
0.0
 10
74.44679088850636
 20
-89.65034177446242
 30
0.0
 10
74.76615123998901
 20
-89.65034177446242
 30
0.0
 10
75.0748317954674
 20
-89.61210121457614
 30
0.0
 10
75.0748317954674
 20
-89.33408200891648
 30
0.0
 10
75.0748317954674
 20
-89.0694986756493
 30
0.0
 10
74.79371200387102
 20
-89.01747773382202
 30
0.0
 10
74.44679088850636
 20
-89.01747773382202
 30
0.0
 10
74.12708602747517
 20
-89.01747773382202
 30
0.0
 10
73.8184054719968
 20
-89.05812986054796
 30
0.0
 10
73.8184054719968
 20
-89.33408200891648
 30
0.0
  0
HATCH
  5
B0
330
A8
100
AcDbEntity
  8
_U+30EC_U+30A4_U+30E4_U+30FC 1
 62
   179
420
  2234388
100
AcDbHatch
 10
0.0
 20
0.0
 30
0.0
210
0.0
220
0.0
230
1.0
  2
SOLID
 70
     1
 71
     0
 91
        2
 92
        1
 93
        1
 72
     4
 94
        3
 73
     0
 74
     1
 95
       29
 96
       25
 40
0.0
 40
0.0
 40
0.0
 40
0.0
 40
1.0
 40
1.0
 40
1.0
 40
2.0
 40
2.0
 40
2.0
 40
3.0
 40
3.0
 40
3.0
 40
4.0
 40
4.0
 40
4.0
 40
5.0
 40
5.0
 40
5.0
 40
6.0
 40
6.0
 40
6.0
 40
7.0
 40
7.0
 40
7.0
 40
8.0
 40
8.0
 40
8.0
 40
8.0
 10
75.04106985971195
 20
-88.90895722603665
 10
75.25053166521515
 20
-89.02436792479253
 10
75.26947969038402
 20
-89.20971406189896
 10
75.26947969038402
 20
-89.33408200891648
 10
75.26947969038402
 20
-89.50564776408193
 10
75.22297090133316
 20
-89.65723196543291
 10
75.04106985971195
 20
-89.75886228224779
 10
74.84642196479534
 20
-89.86979435687283
 10
74.60939939541015
 20
-89.8901204202358
 10
74.44679088850636
 20
-89.8901204202358
 10
74.30278589722292
 20
-89.8901204202358
 10
74.05094941725116
 20
-89.87220592371251
 10
73.85216740775223
 20
-89.75886228224779
 10
73.64925128367102
 20
-89.64379609304045
 10
73.62582463437133
 20
-89.47188582832648
 10
73.62582463437133
 20
-89.33408200891648
 10
73.62582463437133
 20
-89.16423880149367
 10
73.67026636613105
 20
-89.01058754285152
 10
73.85216740775223
 20
-88.90895722603665
 10
74.0447482453777
 20
-88.80250377554243
 10
74.27315807604977
 20
-88.77769908804864
 10
74.44679088850636
 20
-88.77769908804864
 10
74.61801213412328
 20
-88.77769908804864
 10
74.8484890220865
 20
-88.80043671825129
 10
75.04106985971195
 20
-88.90895722603665
 97
        0
 97
        0
 92
        1
 93
        1
 72
     4
 94
        3
 73
     0
 74
     1
 95
       17
 96
       13
 40
0.0
 40
0.0
 40
0.0
 40
0.0
 40
1.0
 40
1.0
 40
1.0
 40
2.0
 40
2.0
 40
2.0
 40
3.0
 40
3.0
 40
3.0
 40
4.0
 40
4.0
 40
4.0
 40
4.0
 10
73.8184054719968
 20
-89.33408200891648
 10
73.8184054719968
 20
-89.60073239947482
 10
74.10193683043285
 20
-89.65034177446242
 10
74.44679088850636
 20
-89.65034177446242
 10
74.76615123998901
 20
-89.65034177446242
 10
75.0748317954674
 20
-89.61210121457614
 10
75.0748317954674
 20
-89.33408200891648
 10
75.0748317954674
 20
-89.0694986756493
 10
74.79371200387102
 20
-89.01747773382202
 10
74.44679088850636
 20
-89.01747773382202
 10
74.12708602747517
 20
-89.01747773382202
 10
73.8184054719968
 20
-89.05812986054796
 10
73.8184054719968
 20
-89.33408200891648
 97
        0
 97
        0
 75
     2
 76
     1
 98
        0
  0
ENDBLK
  5
AB
330
A8
100
AcDbEntity
  8
0
100
AcDbBlockEnd
  0
BLOCK
  5
BB
330
B9
100
AcDbEntity
  8
0
100
AcDbBlockBegin
  2
block 5
 70
     0
 10
0.0
 20
0.0
 30
0.0
  3
block 5
  1

  0
SPLINE
  5
BD
330
B9
100
AcDbEntity
  8
_U+30EC_U+30A4_U+30E4_U+30FC 1
370
     0
100
AcDbSpline
210
0.0
220
0.0
230
1.0
 70
    11
 71
     3
 72
    62
 73
    58
 74
     0
 42
0.0000000001
 43
0.0000000001
 12
1.0
 22
0.0
 32
0.0
 13
1.0
 23
0.0
 33
0.0
 40
0.0
 40
0.0
 40
0.0
 40
0.0
 40
1.0
 40
1.0
 40
1.0
 40
2.0
 40
2.0
 40
2.0
 40
3.0
 40
3.0
 40
3.0
 40
4.0
 40
4.0
 40
4.0
 40
5.0
 40
5.0
 40
5.0
 40
6.0
 40
6.0
 40
6.0
 40
7.0
 40
7.0
 40
7.0
 40
8.0
 40
8.0
 40
8.0
 40
9.0
 40
9.0
 40
9.0
 40
10.0
 40
10.0
 40
10.0
 40
11.0
 40
11.0
 40
11.0
 40
12.0
 40
12.0
 40
12.0
 40
13.0
 40
13.0
 40
13.0
 40
14.0
 40
14.0
 40
14.0
 40
15.0
 40
15.0
 40
15.0
 40
16.0
 40
16.0
 40
16.0
 40
17.0
 40
17.0
 40
17.0
 40
18.0
 40
18.0
 40
18.0
 40
19.0
 40
19.0
 40
19.0
 40
19.0
 10
75.26947969038402
 20
-96.47197534480563
 30
0.0
 10
75.26947969038402
 20
-96.57360566162049
 30
0.0
 10
75.24846460792399
 20
-96.80649411642338
 30
0.0
 10
75.0624294517205
 20
-96.93981931170255
 30
0.0
 10
74.95011933890136
 20
-97.0190565078633
 30
0.0
 10
74.85090058892617
 20
-97.02353513199412
 30
0.0
 10
74.76615123998901
 20
-97.02801375612495
 30
0.0
 10
74.76615123998901
 20
-97.02801375612495
 30
0.0
 10
74.76615123998901
 20
-96.7930582440309
 30
0.0
 10
74.76615123998901
 20
-96.7930582440309
 30
0.0
 10
74.8402207929219
 20
-96.79064667719123
 30
0.0
 10
75.0748317954674
 20
-96.77927786208991
 30
0.0
 10
75.0748317954674
 20
-96.47645396893644
 30
0.0
 10
75.0748317954674
 20
-96.32934839171628
 30
0.0
 10
75.00524086666536
 20
-96.16673988481249
 30
0.0
 10
74.7768310359933
 20
-96.16673988481249
 30
0.0
 10
74.66038680859185
 20
-96.16673988481249
 30
0.0
 10
74.61181096224983
 20
-96.20739201153843
 30
0.0
 10
74.58011608378553
 20
-96.24149845684241
 30
0.0
 10
74.50604653085266
 20
-96.32039114345463
 30
0.0
 10
74.49329967755723
 20
-96.44475909047215
 30
0.0
 10
74.49329967755723
 20
-96.50367022326992
 30
0.0
 10
74.49329967755723
 20
-96.5239962866329
 30
0.0
 10
74.49536673484839
 20
-96.56223684651917
 30
0.0
 10
74.49950084943069
 20
-96.59186466769232
 30
0.0
 10
74.49950084943069
 20
-96.59186466769232
 30
0.0
 10
74.30485295451406
 20
-96.59186466769232
 30
0.0
 10
74.30485295451406
 20
-96.59186466769232
 30
0.0
 10
74.31139863593604
 20
-96.55121254096636
 30
0.0
 10
74.31346569322719
 20
-96.50573728056106
 30
0.0
 10
74.31346569322719
 20
-96.4991915991391
 30
0.0
 10
74.31346569322719
 20
-96.42891165124
 30
0.0
 10
74.29210610121865
 20
-96.21634925980008
 30
0.0
 10
74.05542804138199
 20
-96.21634925980008
 30
0.0
 10
73.87766111434308
 20
-96.21634925980008
 30
0.0
 10
73.8225395865791
 20
-96.35656464604975
 30
0.0
 10
73.8225395865791
 20
-96.47404240209677
 30
0.0
 10
73.8225395865791
 20
-96.75688474143578
 30
0.0
 10
74.05542804138199
 20
-96.76584198969744
 30
0.0
 10
74.12708602747517
 20
-96.77032061382826
 30
0.0
 10
74.12708602747517
 20
-96.77032061382826
 30
0.0
 10
74.12708602747517
 20
-96.987361629399
 30
0.0
 10
74.12708602747517
 20
-96.987361629399
 30
0.0
 10
74.00237357090913
 20
-96.97840438113735
 30
0.0
 10
73.62582463437133
 20
-96.94912106951273
 30
0.0
 10
73.62582463437133
 20
-96.4606065297043
 30
0.0
 10
73.62582463437133
 20
-96.22082788393091
 30
0.0
 10
73.75294865777704
 20
-95.96313474163422
 30
0.0
 10
74.04888235996
 20
-95.96313474163422
 30
0.0
 10
74.23526202571202
 20
-95.96313474163422
 30
0.0
 10
74.31759980780949
 20
-96.06510956799761
 30
0.0
 10
74.37892250744694
 20
-96.17121850894331
 30
0.0
 10
74.40648327132894
 20
-96.10576169472357
 30
0.0
 10
74.48675399613526
 20
-95.91111379980696
 30
0.0
 10
74.76408418269787
 20
-95.91111379980696
 30
0.0
 10
75.10239255934941
 20
-95.91111379980696
 30
0.0
 10
75.26947969038402
 20
-96.17569713307414
 30
0.0
 10
75.26947969038402
 20
-96.47197534480563
 30
0.0
  0
HATCH
  5
BE
330
B9
100
AcDbEntity
  8
_U+30EC_U+30A4_U+30E4_U+30FC 1
 62
   179
420
  2234388
100
AcDbHatch
 10
0.0
 20
0.0
 30
0.0
210
0.0
220
0.0
230
1.0
  2
SOLID
 70
     1
 71
     0
 91
        1
 92
        1
 93
        1
 72
     4
 94
        3
 73
     0
 74
     1
 95
       62
 96
       58
 40
0.0
 40
0.0
 40
0.0
 40
0.0
 40
1.0
 40
1.0
 40
1.0
 40
2.0
 40
2.0
 40
2.0
 40
3.0
 40
3.0
 40
3.0
 40
4.0
 40
4.0
 40
4.0
 40
5.0
 40
5.0
 40
5.0
 40
6.0
 40
6.0
 40
6.0
 40
7.0
 40
7.0
 40
7.0
 40
8.0
 40
8.0
 40
8.0
 40
9.0
 40
9.0
 40
9.0
 40
10.0
 40
10.0
 40
10.0
 40
11.0
 40
11.0
 40
11.0
 40
12.0
 40
12.0
 40
12.0
 40
13.0
 40
13.0
 40
13.0
 40
14.0
 40
14.0
 40
14.0
 40
15.0
 40
15.0
 40
15.0
 40
16.0
 40
16.0
 40
16.0
 40
17.0
 40
17.0
 40
17.0
 40
18.0
 40
18.0
 40
18.0
 40
19.0
 40
19.0
 40
19.0
 40
19.0
 10
75.26947969038402
 20
-96.47197534480563
 10
75.26947969038402
 20
-96.57360566162049
 10
75.24846460792399
 20
-96.80649411642338
 10
75.0624294517205
 20
-96.93981931170255
 10
74.95011933890136
 20
-97.0190565078633
 10
74.85090058892617
 20
-97.02353513199412
 10
74.76615123998901
 20
-97.02801375612495
 10
74.76615123998901
 20
-97.02801375612495
 10
74.76615123998901
 20
-96.7930582440309
 10
74.76615123998901
 20
-96.7930582440309
 10
74.8402207929219
 20
-96.79064667719123
 10
75.0748317954674
 20
-96.77927786208991
 10
75.0748317954674
 20
-96.47645396893644
 10
75.0748317954674
 20
-96.32934839171628
 10
75.00524086666536
 20
-96.16673988481249
 10
74.7768310359933
 20
-96.16673988481249
 10
74.66038680859185
 20
-96.16673988481249
 10
74.61181096224983
 20
-96.20739201153843
 10
74.58011608378553
 20
-96.24149845684241
 10
74.50604653085266
 20
-96.32039114345463
 10
74.49329967755723
 20
-96.44475909047215
 10
74.49329967755723
 20
-96.50367022326992
 10
74.49329967755723
 20
-96.5239962866329
 10
74.49536673484839
 20
-96.56223684651917
 10
74.49950084943069
 20
-96.59186466769232
 10
74.49950084943069
 20
-96.59186466769232
 10
74.30485295451406
 20
-96.59186466769232
 10
74.30485295451406
 20
-96.59186466769232
 10
74.31139863593604
 20
-96.55121254096636
 10
74.31346569322719
 20
-96.50573728056106
 10
74.31346569322719
 20
-96.4991915991391
 10
74.31346569322719
 20
-96.42891165124
 10
74.29210610121865
 20
-96.21634925980008
 10
74.05542804138199
 20
-96.21634925980008
 10
73.87766111434308
 20
-96.21634925980008
 10
73.8225395865791
 20
-96.35656464604975
 10
73.8225395865791
 20
-96.47404240209677
 10
73.8225395865791
 20
-96.75688474143578
 10
74.05542804138199
 20
-96.76584198969744
 10
74.12708602747517
 20
-96.77032061382826
 10
74.12708602747517
 20
-96.77032061382826
 10
74.12708602747517
 20
-96.987361629399
 10
74.12708602747517
 20
-96.987361629399
 10
74.00237357090913
 20
-96.97840438113735
 10
73.62582463437133
 20
-96.94912106951273
 10
73.62582463437133
 20
-96.4606065297043
 10
73.62582463437133
 20
-96.22082788393091
 10
73.75294865777704
 20
-95.96313474163422
 10
74.04888235996
 20
-95.96313474163422
 10
74.23526202571202
 20
-95.96313474163422
 10
74.31759980780949
 20
-96.06510956799761
 10
74.37892250744694
 20
-96.17121850894331
 10
74.40648327132894
 20
-96.10576169472357
 10
74.48675399613526
 20
-95.91111379980696
 10
74.76408418269787
 20
-95.91111379980696
 10
75.10239255934941
 20
-95.91111379980696
 10
75.26947969038402
 20
-96.17569713307414
 10
75.26947969038402
 20
-96.47197534480563
 97
        0
 97
        0
 75
     2
 76
     1
 98
        0
  0
ENDBLK
  5
BC
330
B9
100
AcDbEntity
  8
0
100
AcDbBlockEnd
  0
BLOCK
  5
CD
330
CB
100
AcDbEntity
  8
0
100
AcDbBlockBegin
  2
block 6
 70
     0
 10
0.0
 20
0.0
 30
0.0
  3
block 6
  1

  0
SPLINE
  5
CF
330
CB
100
AcDbEntity
  8
_U+30EC_U+30A4_U+30E4_U+30FC 1
370
     0
100
AcDbSpline
210
0.0
220
0.0
230
1.0
 70
    11
 71
     3
 72
    26
 73
    22
 74
     0
 42
0.0000000001
 43
0.0000000001
 12
1.0
 22
0.0
 32
0.0
 13
1.0
 23
0.0
 33
0.0
 40
0.0
 40
0.0
 40
0.0
 40
0.0
 40
1.0
 40
1.0
 40
1.0
 40
2.0
 40
2.0
 40
2.0
 40
3.0
 40
3.0
 40
3.0
 40
4.0
 40
4.0
 40
4.0
 40
5.0
 40
5.0
 40
5.0
 40
6.0
 40
6.0
 40
6.0
 40
7.0
 40
7.0
 40
7.0
 40
7.0
 10
53.88938936369779
 20
-100.6112575703333
 30
0.0
 10
53.88938936369779
 20
-100.6112575703333
 30
0.0
 10
53.88938936369779
 20
-99.50710446731073
 30
0.0
 10
53.88938936369779
 20
-99.50710446731073
 30
0.0
 10
53.88938936369779
 20
-99.50710446731073
 30
0.0
 10
53.53661158600821
 20
-99.50710446731073
 30
0.0
 10
53.53661158600821
 20
-99.50710446731073
 30
0.0
 10
53.53661158600821
 20
-99.50710446731073
 30
0.0
 10
53.53661158600821
 20
-99.35896536144499
 30
0.0
 10
53.53661158600821
 20
-99.35896536144499
 30
0.0
 10
53.89162867576321
 20
-99.3441514508584
 30
0.0
 10
53.94141030552507
 20
-99.1811984344061
 30
0.0
 10
53.9729329292151
 20
-99.0668212642958
 30
0.0
 10
53.9729329292151
 20
-99.0668212642958
 30
0.0
 10
54.12899575469692
 20
-99.0668212642958
 30
0.0
 10
54.12899575469692
 20
-99.0668212642958
 30
0.0
 10
54.12899575469692
 20
-99.0668212642958
 30
0.0
 10
54.12899575469692
 20
-100.6112575703333
 30
0.0
 10
54.12899575469692
 20
-100.6112575703333
 30
0.0
 10
54.12899575469692
 20
-100.6112575703333
 30
0.0
 10
53.88938936369779
 20
-100.6112575703333
 30
0.0
 10
53.88938936369779
 20
-100.6112575703333
 30
0.0
  0
HATCH
  5
D0
330
CB
100
AcDbEntity
  8
_U+30EC_U+30A4_U+30E4_U+30FC 1
 62
   179
420
  2234388
100
AcDbHatch
 10
0.0
 20
0.0
 30
0.0
210
0.0
220
0.0
230
1.0
  2
SOLID
 70
     1
 71
     0
 91
        1
 92
        1
 93
        1
 72
     4
 94
        3
 73
     0
 74
     1
 95
       26
 96
       22
 40
0.0
 40
0.0
 40
0.0
 40
0.0
 40
1.0
 40
1.0
 40
1.0
 40
2.0
 40
2.0
 40
2.0
 40
3.0
 40
3.0
 40
3.0
 40
4.0
 40
4.0
 40
4.0
 40
5.0
 40
5.0
 40
5.0
 40
6.0
 40
6.0
 40
6.0
 40
7.0
 40
7.0
 40
7.0
 40
7.0
 10
53.88938936369779
 20
-100.6112575703333
 10
53.88938936369779
 20
-100.6112575703333
 10
53.88938936369779
 20
-99.50710446731073
 10
53.88938936369779
 20
-99.50710446731073
 10
53.88938936369779
 20
-99.50710446731073
 10
53.53661158600821
 20
-99.50710446731073
 10
53.53661158600821
 20
-99.50710446731073
 10
53.53661158600821
 20
-99.50710446731073
 10
53.53661158600821
 20
-99.35896536144499
 10
53.53661158600821
 20
-99.35896536144499
 10
53.89162867576321
 20
-99.3441514508584
 10
53.94141030552507
 20
-99.1811984344061
 10
53.9729329292151
 20
-99.0668212642958
 10
53.9729329292151
 20
-99.0668212642958
 10
54.12899575469692
 20
-99.0668212642958
 10
54.12899575469692
 20
-99.0668212642958
 10
54.12899575469692
 20
-99.0668212642958
 10
54.12899575469692
 20
-100.6112575703333
 10
54.12899575469692
 20
-100.6112575703333
 10
54.12899575469692
 20
-100.6112575703333
 10
53.88938936369779
 20
-100.6112575703333
 10
53.88938936369779
 20
-100.6112575703333
 97
        0
 97
        0
 75
     2
 76
     1
 98
        0
  0
SPLINE
  5
D1
330
CB
100
AcDbEntity
  8
_U+30EC_U+30A4_U+30E4_U+30FC 1
370
     0
100
AcDbSpline
210
0.0
220
0.0
230
1.0
 70
    11
 71
     3
 72
    29
 73
    25
 74
     0
 42
0.0000000001
 43
0.0000000001
 12
1.0
 22
0.0
 32
0.0
 13
1.0
 23
0.0
 33
0.0
 40
0.0
 40
0.0
 40
0.0
 40
0.0
 40
1.0
 40
1.0
 40
1.0
 40
2.0
 40
2.0
 40
2.0
 40
3.0
 40
3.0
 40
3.0
 40
4.0
 40
4.0
 40
4.0
 40
5.0
 40
5.0
 40
5.0
 40
6.0
 40
6.0
 40
6.0
 40
7.0
 40
7.0
 40
7.0
 40
8.0
 40
8.0
 40
8.0
 40
8.0
 10
55.62416719529535
 20
-100.4334906432944
 30
0.0
 10
55.50892875131374
 20
-100.6429524487976
 30
0.0
 10
55.3235826142073
 20
-100.6619004739665
 30
0.0
 10
55.19921466718979
 20
-100.6619004739665
 30
0.0
 10
55.02730440247581
 20
-100.6619004739665
 30
0.0
 10
54.87589245589908
 20
-100.6153916849156
 30
0.0
 10
54.77408988430995
 20
-100.4334906432944
 30
0.0
 10
54.66333006445917
 20
-100.2388427483778
 30
0.0
 10
54.64300400109619
 20
-100.0021646885411
 30
0.0
 10
54.64300400109619
 20
-99.83921167208881
 30
0.0
 10
54.64300400109619
 20
-99.69520668080537
 30
0.0
 10
54.66109075239375
 20
-99.44337020083361
 30
0.0
 10
54.77408988430995
 20
-99.24458819133469
 30
0.0
 10
54.88950058306582
 20
-99.04167206725347
 30
0.0
 10
55.06123859300553
 20
-99.01824541795378
 30
0.0
 10
55.19921466718979
 20
-99.01824541795378
 30
0.0
 10
55.36871336506407
 20
-99.01824541795378
 30
0.0
 10
55.52253687848048
 20
-99.0626871497135
 30
0.0
 10
55.62416719529535
 20
-99.24458819133469
 30
0.0
 10
55.73044839101531
 20
-99.43716902896016
 30
0.0
 10
55.75542533328337
 20
-99.66557885963222
 30
0.0
 10
55.75542533328337
 20
-99.83921167208881
 30
0.0
 10
55.75542533328337
 20
-100.0104329177057
 30
0.0
 10
55.73268770308072
 20
-100.2409098056689
 30
0.0
 10
55.62416719529535
 20
-100.4334906432944
 30
0.0
  0
SPLINE
  5
D2
330
CB
100
AcDbEntity
  8
_U+30EC_U+30A4_U+30E4_U+30FC 1
370
     0
100
AcDbSpline
210
0.0
220
0.0
230
1.0
 70
    11
 71
     3
 72
    17
 73
    13
 74
     0
 42
0.0000000001
 43
0.0000000001
 12
1.0
 22
0.0
 32
0.0
 13
1.0
 23
0.0
 33
0.0
 40
0.0
 40
0.0
 40
0.0
 40
0.0
 40
1.0
 40
1.0
 40
1.0
 40
2.0
 40
2.0
 40
2.0
 40
3.0
 40
3.0
 40
3.0
 40
4.0
 40
4.0
 40
4.0
 40
4.0
 10
55.19921466718979
 20
-99.21082625557925
 30
0.0
 10
54.93239202185718
 20
-99.21082625557925
 30
0.0
 10
54.88261039209532
 20
-99.4943576140153
 30
0.0
 10
54.88261039209532
 20
-99.83921167208881
 30
0.0
 10
54.88261039209532
 20
-100.1585720235715
 30
0.0
 10
54.92102320675586
 20
-100.4672525790499
 30
0.0
 10
55.19921466718979
 20
-100.4672525790499
 30
0.0
 10
55.46362574568271
 20
-100.4672525790499
 30
0.0
 10
55.51564668750998
 20
-100.1861327874535
 30
0.0
 10
55.51564668750998
 20
-99.83921167208881
 30
0.0
 10
55.51564668750998
 20
-99.51950681105762
 30
0.0
 10
55.47499456078403
 20
-99.21082625557925
 30
0.0
 10
55.19921466718979
 20
-99.21082625557925
 30
0.0
  0
HATCH
  5
D3
330
CB
100
AcDbEntity
  8
_U+30EC_U+30A4_U+30E4_U+30FC 1
 62
   179
420
  2234388
100
AcDbHatch
 10
0.0
 20
0.0
 30
0.0
210
0.0
220
0.0
230
1.0
  2
SOLID
 70
     1
 71
     0
 91
        2
 92
        1
 93
        1
 72
     4
 94
        3
 73
     0
 74
     1
 95
       29
 96
       25
 40
0.0
 40
0.0
 40
0.0
 40
0.0
 40
1.0
 40
1.0
 40
1.0
 40
2.0
 40
2.0
 40
2.0
 40
3.0
 40
3.0
 40
3.0
 40
4.0
 40
4.0
 40
4.0
 40
5.0
 40
5.0
 40
5.0
 40
6.0
 40
6.0
 40
6.0
 40
7.0
 40
7.0
 40
7.0
 40
8.0
 40
8.0
 40
8.0
 40
8.0
 10
55.62416719529535
 20
-100.4334906432944
 10
55.50892875131374
 20
-100.6429524487976
 10
55.3235826142073
 20
-100.6619004739665
 10
55.19921466718979
 20
-100.6619004739665
 10
55.02730440247581
 20
-100.6619004739665
 10
54.87589245589908
 20
-100.6153916849156
 10
54.77408988430995
 20
-100.4334906432944
 10
54.66333006445917
 20
-100.2388427483778
 10
54.64300400109619
 20
-100.0021646885411
 10
54.64300400109619
 20
-99.83921167208881
 10
54.64300400109619
 20
-99.69520668080537
 10
54.66109075239375
 20
-99.44337020083361
 10
54.77408988430995
 20
-99.24458819133469
 10
54.88950058306582
 20
-99.04167206725347
 10
55.06123859300553
 20
-99.01824541795378
 10
55.19921466718979
 20
-99.01824541795378
 10
55.36871336506407
 20
-99.01824541795378
 10
55.52253687848048
 20
-99.0626871497135
 10
55.62416719529535
 20
-99.24458819133469
 10
55.73044839101531
 20
-99.43716902896016
 10
55.75542533328337
 20
-99.66557885963222
 10
55.75542533328337
 20
-99.83921167208881
 10
55.75542533328337
 20
-100.0104329177057
 10
55.73268770308072
 20
-100.2409098056689
 10
55.62416719529535
 20
-100.4334906432944
 97
        0
 97
        0
 92
        1
 93
        1
 72
     4
 94
        3
 73
     0
 74
     1
 95
       17
 96
       13
 40
0.0
 40
0.0
 40
0.0
 40
0.0
 40
1.0
 40
1.0
 40
1.0
 40
2.0
 40
2.0
 40
2.0
 40
3.0
 40
3.0
 40
3.0
 40
4.0
 40
4.0
 40
4.0
 40
4.0
 10
55.19921466718979
 20
-99.21082625557925
 10
54.93239202185718
 20
-99.21082625557925
 10
54.88261039209532
 20
-99.4943576140153
 10
54.88261039209532
 20
-99.83921167208881
 10
54.88261039209532
 20
-100.1585720235715
 10
54.92102320675586
 20
-100.4672525790499
 10
55.19921466718979
 20
-100.4672525790499
 10
55.46362574568271
 20
-100.4672525790499
 10
55.51564668750998
 20
-100.1861327874535
 10
55.51564668750998
 20
-99.83921167208881
 10
55.51564668750998
 20
-99.51950681105762
 10
55.47499456078403
 20
-99.21082625557925
 10
55.19921466718979
 20
-99.21082625557925
 97
        0
 97
        0
 75
     2
 76
     1
 98
        0
  0
ENDBLK
  5
CE
330
CB
100
AcDbEntity
  8
0
100
AcDbBlockEnd
  0
BLOCK
  5
E2
330
E0
100
AcDbEntity
  8
0
100
AcDbBlockBegin
  2
block 7
 70
     0
 10
0.0
 20
0.0
 30
0.0
  3
block 7
  1

  0
SPLINE
  5
E4
330
E0
100
AcDbEntity
  8
_U+30EC_U+30A4_U+30E4_U+30FC 1
370
     0
100
AcDbSpline
210
0.0
220
0.0
230
1.0
 70
    11
 71
     3
 72
    44
 73
    40
 74
     0
 42
0.0000000001
 43
0.0000000001
 12
1.0
 22
0.0
 32
0.0
 13
1.0
 23
0.0
 33
0.0
 40
0.0
 40
0.0
 40
0.0
 40
0.0
 40
1.0
 40
1.0
 40
1.0
 40
2.0
 40
2.0
 40
2.0
 40
3.0
 40
3.0
 40
3.0
 40
4.0
 40
4.0
 40
4.0
 40
5.0
 40
5.0
 40
5.0
 40
6.0
 40
6.0
 40
6.0
 40
7.0
 40
7.0
 40
7.0
 40
8.0
 40
8.0
 40
8.0
 40
9.0
 40
9.0
 40
9.0
 40
10.0
 40
10.0
 40
10.0
 40
11.0
 40
11.0
 40
11.0
 40
12.0
 40
12.0
 40
12.0
 40
13.0
 40
13.0
 40
13.0
 40
13.0
 10
60.54100747184392
 20
-78.22933347653642
 30
0.0
 10
60.30811901704103
 20
-78.38798012363218
 30
0.0
 10
60.20855575751731
 20
-78.46204967656504
 30
0.0
 10
60.15687932523856
 20
-78.60588241307423
 30
0.0
 10
60.15687932523856
 20
-78.60588241307423
 30
0.0
 10
60.98852537537787
 20
-78.60588241307423
 30
0.0
 10
60.98852537537787
 20
-78.60588241307423
 30
0.0
 10
60.98852537537787
 20
-78.60588241307423
 30
0.0
 10
60.98852537537787
 20
-78.81103784922085
 30
0.0
 10
60.98852537537787
 20
-78.81103784922085
 30
0.0
 10
60.98852537537787
 20
-78.81103784922085
 30
0.0
 10
59.8898844251317
 20
-78.81103784922085
 30
0.0
 10
59.8898844251317
 20
-78.81103784922085
 30
0.0
 10
59.92399087043567
 20
-78.45343693785192
 30
0.0
 10
59.99392630878624
 20
-78.37523327033675
 30
0.0
 10
60.40527070972507
 20
-78.07688800131412
 30
0.0
 10
60.67881129125391
 20
-77.8781059918152
 30
0.0
 10
60.74909123915301
 20
-77.81040986553003
 30
0.0
 10
60.74909123915301
 20
-77.67295055566858
 30
0.0
 10
60.74909123915301
 20
-77.55443927097598
 30
0.0
 10
60.67226560983194
 20
-77.42335338776222
 30
0.0
 10
60.46177027568317
 20
-77.42335338776222
 30
0.0
 10
60.18375107002351
 20
-77.42335338776222
 30
0.0
 10
60.17479382176186
 20
-77.65383027572544
 30
0.0
 10
60.17031519763103
 20
-77.77027450312688
 30
0.0
 10
60.17031519763103
 20
-77.77027450312688
 30
0.0
 10
59.93053655185765
 20
-77.77027450312688
 30
0.0
 10
59.93053655185765
 20
-77.77027450312688
 30
0.0
 10
59.93983830966782
 20
-77.64332273449543
 30
0.0
 10
59.95086261522062
 20
-77.53118487645054
 30
0.0
 10
60.03699000235186
 20
-77.41267359175795
 30
0.0
 10
60.15446775839889
 20
-77.25195988737104
 30
0.0
 10
60.3532497678978
 20
-77.21802569684134
 30
0.0
 10
60.47761771491532
 20
-77.21802569684134
 30
0.0
 10
60.77389592664681
 20
-77.21802569684134
 30
0.0
 10
60.99541556634837
 20
-77.40216605052794
 30
0.0
 10
60.99541556634837
 20
-77.67501761295972
 30
0.0
 10
60.99541556634837
 20
-77.90342744363178
 30
0.0
 10
60.87104761933085
 20
-78.0029907031555
 30
0.0
 10
60.54100747184392
 20
-78.22933347653642
 30
0.0
  0
HATCH
  5
E5
330
E0
100
AcDbEntity
  8
_U+30EC_U+30A4_U+30E4_U+30FC 1
 62
   179
420
  2234388
100
AcDbHatch
 10
0.0
 20
0.0
 30
0.0
210
0.0
220
0.0
230
1.0
  2
SOLID
 70
     1
 71
     0
 91
        1
 92
        1
 93
        1
 72
     4
 94
        3
 73
     0
 74
     1
 95
       44
 96
       40
 40
0.0
 40
0.0
 40
0.0
 40
0.0
 40
1.0
 40
1.0
 40
1.0
 40
2.0
 40
2.0
 40
2.0
 40
3.0
 40
3.0
 40
3.0
 40
4.0
 40
4.0
 40
4.0
 40
5.0
 40
5.0
 40
5.0
 40
6.0
 40
6.0
 40
6.0
 40
7.0
 40
7.0
 40
7.0
 40
8.0
 40
8.0
 40
8.0
 40
9.0
 40
9.0
 40
9.0
 40
10.0
 40
10.0
 40
10.0
 40
11.0
 40
11.0
 40
11.0
 40
12.0
 40
12.0
 40
12.0
 40
13.0
 40
13.0
 40
13.0
 40
13.0
 10
60.54100747184392
 20
-78.22933347653642
 10
60.30811901704103
 20
-78.38798012363218
 10
60.20855575751731
 20
-78.46204967656504
 10
60.15687932523856
 20
-78.60588241307423
 10
60.15687932523856
 20
-78.60588241307423
 10
60.98852537537787
 20
-78.60588241307423
 10
60.98852537537787
 20
-78.60588241307423
 10
60.98852537537787
 20
-78.60588241307423
 10
60.98852537537787
 20
-78.81103784922085
 10
60.98852537537787
 20
-78.81103784922085
 10
60.98852537537787
 20
-78.81103784922085
 10
59.8898844251317
 20
-78.81103784922085
 10
59.8898844251317
 20
-78.81103784922085
 10
59.92399087043567
 20
-78.45343693785192
 10
59.99392630878624
 20
-78.37523327033675
 10
60.40527070972507
 20
-78.07688800131412
 10
60.67881129125391
 20
-77.8781059918152
 10
60.74909123915301
 20
-77.81040986553003
 10
60.74909123915301
 20
-77.67295055566858
 10
60.74909123915301
 20
-77.55443927097598
 10
60.67226560983194
 20
-77.42335338776222
 10
60.46177027568317
 20
-77.42335338776222
 10
60.18375107002351
 20
-77.42335338776222
 10
60.17479382176186
 20
-77.65383027572544
 10
60.17031519763103
 20
-77.77027450312688
 10
60.17031519763103
 20
-77.77027450312688
 10
59.93053655185765
 20
-77.77027450312688
 10
59.93053655185765
 20
-77.77027450312688
 10
59.93983830966782
 20
-77.64332273449543
 10
59.95086261522062
 20
-77.53118487645054
 10
60.03699000235186
 20
-77.41267359175795
 10
60.15446775839889
 20
-77.25195988737104
 10
60.3532497678978
 20
-77.21802569684134
 10
60.47761771491532
 20
-77.21802569684134
 10
60.77389592664681
 20
-77.21802569684134
 10
60.99541556634837
 20
-77.40216605052794
 10
60.99541556634837
 20
-77.67501761295972
 10
60.99541556634837
 20
-77.90342744363178
 10
60.87104761933085
 20
-78.0029907031555
 10
60.54100747184392
 20
-78.22933347653642
 97
        0
 97
        0
 75
     2
 76
     1
 98
        0
  0
SPLINE
  5
E6
330
E0
100
AcDbEntity
  8
_U+30EC_U+30A4_U+30E4_U+30FC 1
370
     0
100
AcDbSpline
210
0.0
220
0.0
230
1.0
 70
    11
 71
     3
 72
    62
 73
    58
 74
     0
 42
0.0000000001
 43
0.0000000001
 12
1.0
 22
0.0
 32
0.0
 13
1.0
 23
0.0
 33
0.0
 40
0.0
 40
0.0
 40
0.0
 40
0.0
 40
1.0
 40
1.0
 40
1.0
 40
2.0
 40
2.0
 40
2.0
 40
3.0
 40
3.0
 40
3.0
 40
4.0
 40
4.0
 40
4.0
 40
5.0
 40
5.0
 40
5.0
 40
6.0
 40
6.0
 40
6.0
 40
7.0
 40
7.0
 40
7.0
 40
8.0
 40
8.0
 40
8.0
 40
9.0
 40
9.0
 40
9.0
 40
10.0
 40
10.0
 40
10.0
 40
11.0
 40
11.0
 40
11.0
 40
12.0
 40
12.0
 40
12.0
 40
13.0
 40
13.0
 40
13.0
 40
14.0
 40
14.0
 40
14.0
 40
15.0
 40
15.0
 40
15.0
 40
16.0
 40
16.0
 40
16.0
 40
17.0
 40
17.0
 40
17.0
 40
18.0
 40
18.0
 40
18.0
 40
19.0
 40
19.0
 40
19.0
 40
19.0
 10
61.69029132572327
 20
-78.86185300762828
 30
0.0
 10
61.5886610089084
 20
-78.86185300762828
 30
0.0
 10
61.35577255410551
 20
-78.840665670394
 30
0.0
 10
61.22244735882634
 20
-78.65445825941624
 30
0.0
 10
61.14321016266559
 20
-78.54232040137137
 30
0.0
 10
61.13873153853476
 20
-78.4429293966219
 30
0.0
 10
61.13425291440394
 20
-78.35835230245902
 30
0.0
 10
61.13425291440394
 20
-78.35835230245902
 30
0.0
 10
61.36920842649798
 20
-78.35835230245902
 30
0.0
 10
61.36920842649798
 20
-78.35835230245902
 30
0.0
 10
61.37161999333765
 20
-78.4324218553919
 30
0.0
 10
61.38298880843898
 20
-78.66720511271167
 30
0.0
 10
61.68581270159244
 20
-78.66720511271167
 30
0.0
 10
61.83291827881261
 20
-78.66720511271167
 30
0.0
 10
61.9955267857164
 20
-78.59744192913537
 30
0.0
 10
61.9955267857164
 20
-78.36885984368904
 30
0.0
 10
61.9955267857164
 20
-78.25258787106186
 30
0.0
 10
61.95487465899045
 20
-78.20383976994557
 30
0.0
 10
61.92076821368648
 20
-78.17214489148127
 30
0.0
 10
61.84187552707426
 20
-78.0980753385484
 30
0.0
 10
61.71750758005674
 20
-78.08550074002724
 30
0.0
 10
61.65859644725897
 20
-78.08550074002724
 30
0.0
 10
61.63827038389599
 20
-78.08550074002724
 30
0.0
 10
61.60002982400972
 20
-78.08756779731839
 30
0.0
 10
61.57040200283657
 20
-78.09170191190069
 30
0.0
 10
61.57040200283657
 20
-78.09170191190069
 30
0.0
 10
61.57040200283657
 20
-77.89705401698407
 30
0.0
 10
61.57040200283657
 20
-77.89705401698407
 30
0.0
 10
61.61105412956252
 20
-77.90342744363178
 30
0.0
 10
61.65652938996782
 20
-77.9056667556972
 30
0.0
 10
61.66307507138979
 20
-77.9056667556972
 30
0.0
 10
61.73335501928889
 20
-77.9056667556972
 30
0.0
 10
61.9459174107288
 20
-77.88447941846292
 30
0.0
 10
61.9459174107288
 20
-77.64745684907773
 30
0.0
 10
61.9459174107288
 20
-77.4698621768131
 30
0.0
 10
61.80570202447913
 20
-77.4147406490491
 30
0.0
 10
61.68822426843212
 20
-77.4147406490491
 30
0.0
 10
61.4053819290931
 20
-77.4147406490491
 30
0.0
 10
61.39642468083145
 20
-77.64745684907773
 30
0.0
 10
61.39194605670063
 20
-77.71945934471944
 30
0.0
 10
61.39194605670063
 20
-77.71945934471944
 30
0.0
 10
61.17490504112989
 20
-77.71945934471944
 30
0.0
 10
61.17490504112989
 20
-77.71945934471944
 30
0.0
 10
61.18386228939153
 20
-77.59457463337914
 30
0.0
 10
61.21314560101616
 20
-77.21802569684134
 30
0.0
 10
61.70166014082459
 20
-77.21802569684134
 30
0.0
 10
61.94143878659798
 20
-77.21802569684134
 30
0.0
 10
62.19913192889467
 20
-77.34497746547278
 30
0.0
 10
62.19913192889467
 20
-77.64108342243001
 30
0.0
 10
62.19913192889467
 20
-77.82729083340776
 30
0.0
 10
62.09715710253127
 20
-77.9098008702795
 30
0.0
 10
61.99104816158557
 20
-77.97112356991694
 30
0.0
 10
62.05650497580532
 20
-77.99868433379895
 30
0.0
 10
62.25115287072194
 20
-78.07912731337953
 30
0.0
 10
62.25115287072194
 20
-78.35628524516788
 30
0.0
 10
62.25115287072194
 20
-78.69476587659368
 30
0.0
 10
61.98656953745475
 20
-78.86185300762828
 30
0.0
 10
61.69029132572327
 20
-78.86185300762828
 30
0.0
  0
HATCH
  5
E7
330
E0
100
AcDbEntity
  8
_U+30EC_U+30A4_U+30E4_U+30FC 1
 62
   179
420
  2234388
100
AcDbHatch
 10
0.0
 20
0.0
 30
0.0
210
0.0
220
0.0
230
1.0
  2
SOLID
 70
     1
 71
     0
 91
        1
 92
        1
 93
        1
 72
     4
 94
        3
 73
     0
 74
     1
 95
       62
 96
       58
 40
0.0
 40
0.0
 40
0.0
 40
0.0
 40
1.0
 40
1.0
 40
1.0
 40
2.0
 40
2.0
 40
2.0
 40
3.0
 40
3.0
 40
3.0
 40
4.0
 40
4.0
 40
4.0
 40
5.0
 40
5.0
 40
5.0
 40
6.0
 40
6.0
 40
6.0
 40
7.0
 40
7.0
 40
7.0
 40
8.0
 40
8.0
 40
8.0
 40
9.0
 40
9.0
 40
9.0
 40
10.0
 40
10.0
 40
10.0
 40
11.0
 40
11.0
 40
11.0
 40
12.0
 40
12.0
 40
12.0
 40
13.0
 40
13.0
 40
13.0
 40
14.0
 40
14.0
 40
14.0
 40
15.0
 40
15.0
 40
15.0
 40
16.0
 40
16.0
 40
16.0
 40
17.0
 40
17.0
 40
17.0
 40
18.0
 40
18.0
 40
18.0
 40
19.0
 40
19.0
 40
19.0
 40
19.0
 10
61.69029132572327
 20
-78.86185300762828
 10
61.5886610089084
 20
-78.86185300762828
 10
61.35577255410551
 20
-78.840665670394
 10
61.22244735882634
 20
-78.65445825941624
 10
61.14321016266559
 20
-78.54232040137137
 10
61.13873153853476
 20
-78.4429293966219
 10
61.13425291440394
 20
-78.35835230245902
 10
61.13425291440394
 20
-78.35835230245902
 10
61.36920842649798
 20
-78.35835230245902
 10
61.36920842649798
 20
-78.35835230245902
 10
61.37161999333765
 20
-78.4324218553919
 10
61.38298880843898
 20
-78.66720511271167
 10
61.68581270159244
 20
-78.66720511271167
 10
61.83291827881261
 20
-78.66720511271167
 10
61.9955267857164
 20
-78.59744192913537
 10
61.9955267857164
 20
-78.36885984368904
 10
61.9955267857164
 20
-78.25258787106186
 10
61.95487465899045
 20
-78.20383976994557
 10
61.92076821368648
 20
-78.17214489148127
 10
61.84187552707426
 20
-78.0980753385484
 10
61.71750758005674
 20
-78.08550074002724
 10
61.65859644725897
 20
-78.08550074002724
 10
61.63827038389599
 20
-78.08550074002724
 10
61.60002982400972
 20
-78.08756779731839
 10
61.57040200283657
 20
-78.09170191190069
 10
61.57040200283657
 20
-78.09170191190069
 10
61.57040200283657
 20
-77.89705401698407
 10
61.57040200283657
 20
-77.89705401698407
 10
61.61105412956252
 20
-77.90342744363178
 10
61.65652938996782
 20
-77.9056667556972
 10
61.66307507138979
 20
-77.9056667556972
 10
61.73335501928889
 20
-77.9056667556972
 10
61.9459174107288
 20
-77.88447941846292
 10
61.9459174107288
 20
-77.64745684907773
 10
61.9459174107288
 20
-77.4698621768131
 10
61.80570202447913
 20
-77.4147406490491
 10
61.68822426843212
 20
-77.4147406490491
 10
61.4053819290931
 20
-77.4147406490491
 10
61.39642468083145
 20
-77.64745684907773
 10
61.39194605670063
 20
-77.71945934471944
 10
61.39194605670063
 20
-77.71945934471944
 10
61.17490504112989
 20
-77.71945934471944
 10
61.17490504112989
 20
-77.71945934471944
 10
61.18386228939153
 20
-77.59457463337914
 10
61.21314560101616
 20
-77.21802569684134
 10
61.70166014082459
 20
-77.21802569684134
 10
61.94143878659798
 20
-77.21802569684134
 10
62.19913192889467
 20
-77.34497746547278
 10
62.19913192889467
 20
-77.64108342243001
 10
62.19913192889467
 20
-77.82729083340776
 10
62.09715710253127
 20
-77.9098008702795
 10
61.99104816158557
 20
-77.97112356991694
 10
62.05650497580532
 20
-77.99868433379895
 10
62.25115287072194
 20
-78.07912731337953
 10
62.25115287072194
 20
-78.35628524516788
 10
62.25115287072194
 20
-78.69476587659368
 10
61.98656953745475
 20
-78.86185300762828
 10
61.69029132572327
 20
-78.86185300762828
 97
        0
 97
        0
 75
     2
 76
     1
 98
        0
  0
ENDBLK
  5
E3
330
E0
100
AcDbEntity
  8
0
100
AcDbBlockEnd
  0
ENDSEC
  0
SECTION
  2
ENTITIES
  0
INSERT
  5
42
330
1F
100
AcDbEntity
  8
_U+30EC_U+30A4_U+30E4_U+30FC 1
100
AcDbBlockReference
  2
block 2
 10
0.0
 20
0.0
 30
0.0
  0
SPLINE
  5
75
330
1F
100
AcDbEntity
  8
_U+30EC_U+30A4_U+30E4_U+30FC 1
 62
   179
420
  2234388
370
     9
100
AcDbSpline
210
0.0
220
0.0
230
1.0
 70
    11
 71
     3
 72
    17
 73
    13
 74
     0
 42
0.0000000001
 43
0.0000000001
 12
1.0
 22
0.0
 32
0.0
 13
1.0
 23
0.0
 33
0.0
 40
0.0
 40
0.0
 40
0.0
 40
0.0
 40
1.0
 40
1.0
 40
1.0
 40
2.0
 40
2.0
 40
2.0
 40
3.0
 40
3.0
 40
3.0
 40
4.0
 40
4.0
 40
4.0
 40
4.0
 10
76.67060553638817
 20
-84.16300581229252
 30
0.0
 10
76.67060553638817
 20
-84.10719636786207
 30
0.0
 10
76.62580275862145
 20
-84.06309914565088
 30
0.0
 10
76.57069693540767
 20
-84.06309914565088
 30
0.0
 10
76.51555777014771
 20
-84.06309914565088
 30
0.0
 10
76.47079027128983
 20
-84.10719636786207
 30
0.0
 10
76.47079027128983
 20
-84.16300581229252
 30
0.0
 10
76.47079027128983
 20
-84.21810970116776
 30
0.0
 10
76.51555777014771
 20
-84.26291247893415
 30
0.0
 10
76.57069693540767
 20
-84.26291247893415
 30
0.0
 10
76.62580275862145
 20
-84.26291247893415
 30
0.0
 10
76.67060553638817
 20
-84.21810970116776
 30
0.0
 10
76.67060553638817
 20
-84.16300581229252
 30
0.0
  0
SPLINE
  5
76
330
1F
100
AcDbEntity
  8
_U+30EC_U+30A4_U+30E4_U+30FC 1
 62
   179
420
  2234388
370
     9
100
AcDbSpline
210
0.0
220
0.0
230
1.0
 70
    11
 71
     3
 72
    17
 73
    13
 74
     0
 42
0.0000000001
 43
0.0000000001
 12
1.0
 22
0.0
 32
0.0
 13
1.0
 23
0.0
 33
0.0
 40
0.0
 40
0.0
 40
0.0
 40
0.0
 40
1.0
 40
1.0
 40
1.0
 40
2.0
 40
2.0
 40
2.0
 40
3.0
 40
3.0
 40
3.0
 40
4.0
 40
4.0
 40
4.0
 40
4.0
 10
76.67060553638817
 20
-84.96292942320362
 30
0.0
 10
76.67060553638817
 20
-84.90782553432871
 30
0.0
 10
76.62580275862145
 20
-84.86302275656199
 30
0.0
 10
76.57069693540767
 20
-84.86302275656199
 30
0.0
 10
76.51555777014771
 20
-84.86302275656199
 30
0.0
 10
76.47079027128983
 20
-84.90782553432871
 30
0.0
 10
76.47079027128983
 20
-84.96292942320362
 30
0.0
 10
76.47079027128983
 20
-85.0180685898567
 30
0.0
 10
76.51555777014771
 20
-85.06283608984526
 30
0.0
 10
76.57069693540767
 20
-85.06283608984526
 30
0.0
 10
76.62580275862145
 20
-85.06283608984526
 30
0.0
 10
76.67060553638817
 20
-85.0180685898567
 30
0.0
 10
76.67060553638817
 20
-84.96292942320362
 30
0.0
  0
SPLINE
  5
77
330
1F
100
AcDbEntity
  8
_U+30EC_U+30A4_U+30E4_U+30FC 1
 62
   179
420
  2234388
370
     9
100
AcDbSpline
210
0.0
220
0.0
230
1.0
 70
    11
 71
     3
 72
    17
 73
    13
 74
     0
 42
0.0000000001
 43
0.0000000001
 12
1.0
 22
0.0
 32
0.0
 13
1.0
 23
0.0
 33
0.0
 40
0.0
 40
0.0
 40
0.0
 40
0.0
 40
1.0
 40
1.0
 40
1.0
 40
2.0
 40
2.0
 40
2.0
 40
3.0
 40
3.0
 40
3.0
 40
4.0
 40
4.0
 40
4.0
 40
4.0
 10
72.67084453490119
 20
-80.16254109107044
 30
0.0
 10
72.67084453490119
 20
-80.10743720219551
 30
0.0
 10
72.62604175826642
 20
-80.0626344244288
 30
0.0
 10
72.57058509301457
 20
-80.0626344244288
 30
0.0
 10
72.5154812055315
 20
-80.0626344244288
 30
0.0
 10
72.47067842889673
 20
-80.10743720219551
 30
0.0
 10
72.47067842889673
 20
-80.16254109107044
 30
0.0
 10
72.47067842889673
 20
-80.21768025772352
 30
0.0
 10
72.5154812055315
 20
-80.26244775771207
 30
0.0
 10
72.57058509301457
 20
-80.26244775771207
 30
0.0
 10
72.62604175826642
 20
-80.26244775771207
 30
0.0
 10
72.67084453490119
 20
-80.21768025772352
 30
0.0
 10
72.67084453490119
 20
-80.16254109107044
 30
0.0
  0
SPLINE
  5
78
330
1F
100
AcDbEntity
  8
_U+30EC_U+30A4_U+30E4_U+30FC 1
 62
   179
420
  2234388
370
     9
100
AcDbSpline
210
0.0
220
0.0
230
1.0
 70
    11
 71
     3
 72
    17
 73
    13
 74
     0
 42
0.0000000001
 43
0.0000000001
 12
1.0
 22
0.0
 32
0.0
 13
1.0
 23
0.0
 33
0.0
 40
0.0
 40
0.0
 40
0.0
 40
0.0
 40
1.0
 40
1.0
 40
1.0
 40
2.0
 40
2.0
 40
2.0
 40
3.0
 40
3.0
 40
3.0
 40
4.0
 40
4.0
 40
4.0
 40
4.0
 10
59.67077208878289
 20
-101.963114141176
 30
0.0
 10
59.67077208878289
 20
-101.9073046967455
 30
0.0
 10
59.626004589925
 20
-101.8625019189788
 30
0.0
 10
59.57051264689628
 20
-101.8625019189788
 30
0.0
 10
59.51540875941321
 20
-101.8625019189788
 30
0.0
 10
59.47060598277844
 20
-101.9073046967455
 30
0.0
 10
59.47060598277844
 20
-101.963114141176
 30
0.0
 10
59.47060598277844
 20
-102.0182180300509
 30
0.0
 10
59.51540875941321
 20
-102.0630208078176
 30
0.0
 10
59.57051264689628
 20
-102.0630208078176
 30
0.0
 10
59.626004589925
 20
-102.0630208078176
 30
0.0
 10
59.67077208878289
 20
-102.0182180300509
 30
0.0
 10
59.67077208878289
 20
-101.963114141176
 30
0.0
  0
SPLINE
  5
79
330
1F
100
AcDbEntity
  8
_U+30EC_U+30A4_U+30E4_U+30FC 1
 62
   179
420
  2234388
370
     9
100
AcDbSpline
210
0.0
220
0.0
230
1.0
 70
    11
 71
     3
 72
    17
 73
    13
 74
     0
 42
0.0000000001
 43
0.0000000001
 12
1.0
 22
0.0
 32
0.0
 13
1.0
 23
0.0
 33
0.0
 40
0.0
 40
0.0
 40
0.0
 40
0.0
 40
1.0
 40
1.0
 40
1.0
 40
2.0
 40
2.0
 40
2.0
 40
3.0
 40
3.0
 40
3.0
 40
4.0
 40
4.0
 40
4.0
 40
4.0
 10
76.67060553638817
 20
-97.9626846977317
 30
0.0
 10
76.67060553638817
 20
-97.90754553107863
 30
0.0
 10
76.62580275862145
 20
-97.86277803109006
 30
0.0
 10
76.57069693540767
 20
-97.86277803109006
 30
0.0
 10
76.51555777014771
 20
-97.86277803109006
 30
0.0
 10
76.47079027128983
 20
-97.90754553107863
 30
0.0
 10
76.47079027128983
 20
-97.9626846977317
 30
0.0
 10
76.47079027128983
 20
-98.01778858660661
 30
0.0
 10
76.51555777014771
 20
-98.06259136437333
 30
0.0
 10
76.57069693540767
 20
-98.06259136437333
 30
0.0
 10
76.62580275862145
 20
-98.06259136437333
 30
0.0
 10
76.67060553638817
 20
-98.01778858660661
 30
0.0
 10
76.67060553638817
 20
-97.9626846977317
 30
0.0
  0
SPLINE
  5
7A
330
1F
100
AcDbEntity
  8
_U+30EC_U+30A4_U+30E4_U+30FC 1
 62
   179
420
  2234388
370
     9
100
AcDbSpline
210
0.0
220
0.0
230
1.0
 70
    11
 71
     3
 72
    17
 73
    13
 74
     0
 42
0.0000000001
 43
0.0000000001
 12
1.0
 22
0.0
 32
0.0
 13
1.0
 23
0.0
 33
0.0
 40
0.0
 40
0.0
 40
0.0
 40
0.0
 40
1.0
 40
1.0
 40
1.0
 40
2.0
 40
2.0
 40
2.0
 40
3.0
 40
3.0
 40
3.0
 40
4.0
 40
4.0
 40
4.0
 40
4.0
 10
76.67060553638817
 20
-94.9626624762592
 30
0.0
 10
76.67060553638817
 20
-94.90755858738427
 30
0.0
 10
76.62580275862145
 20
-94.86275580961755
 30
0.0
 10
76.57069693540767
 20
-94.86275580961755
 30
0.0
 10
76.51555777014771
 20
-94.86275580961755
 30
0.0
 10
76.47079027128983
 20
-94.90755858738427
 30
0.0
 10
76.47079027128983
 20
-94.9626624762592
 30
0.0
 10
76.47079027128983
 20
-95.01780164291227
 30
0.0
 10
76.51555777014771
 20
-95.062604420679
 30
0.0
 10
76.57069693540767
 20
-95.062604420679
 30
0.0
 10
76.62580275862145
 20
-95.062604420679
 30
0.0
 10
76.67060553638817
 20
-95.01780164291227
 30
0.0
 10
76.67060553638817
 20
-94.9626624762592
 30
0.0
  0
SPLINE
  5
7B
330
1F
100
AcDbEntity
  8
_U+30EC_U+30A4_U+30E4_U+30FC 1
 62
   179
420
  2234388
370
     9
100
AcDbSpline
210
0.0
220
0.0
230
1.0
 70
    11
 71
     3
 72
    17
 73
    13
 74
     0
 42
0.0000000001
 43
0.0000000001
 12
1.0
 22
0.0
 32
0.0
 13
1.0
 23
0.0
 33
0.0
 40
0.0
 40
0.0
 40
0.0
 40
0.0
 40
1.0
 40
1.0
 40
1.0
 40
2.0
 40
2.0
 40
2.0
 40
3.0
 40
3.0
 40
3.0
 40
4.0
 40
4.0
 40
4.0
 40
4.0
 10
49.67068651057299
 20
-80.16254109107044
 30
0.0
 10
49.67068651057299
 20
-80.10743720219551
 30
0.0
 10
49.62591901171511
 20
-80.0626344244288
 30
0.0
 10
49.57077984645516
 20
-80.0626344244288
 30
0.0
 10
49.51567595897209
 20
-80.0626344244288
 30
0.0
 10
49.47087318233732
 20
-80.10743720219551
 30
0.0
 10
49.47087318233732
 20
-80.16254109107044
 30
0.0
 10
49.47087318233732
 20
-80.21768025772352
 30
0.0
 10
49.51567595897209
 20
-80.26244775771207
 30
0.0
 10
49.57077984645516
 20
-80.26244775771207
 30
0.0
 10
49.62591901171511
 20
-80.26244775771207
 30
0.0
 10
49.67068651057299
 20
-80.21768025772352
 30
0.0
 10
49.67068651057299
 20
-80.16254109107044
 30
0.0
  0
SPLINE
  5
7C
330
1F
100
AcDbEntity
  8
_U+30EC_U+30A4_U+30E4_U+30FC 1
 62
   179
420
  2234388
370
     9
100
AcDbSpline
210
0.0
220
0.0
230
1.0
 70
    11
 71
     3
 72
    17
 73
    13
 74
     0
 42
0.0000000001
 43
0.0000000001
 12
1.0
 22
0.0
 32
0.0
 13
1.0
 23
0.0
 33
0.0
 40
0.0
 40
0.0
 40
0.0
 40
0.0
 40
1.0
 40
1.0
 40
1.0
 40
2.0
 40
2.0
 40
2.0
 40
3.0
 40
3.0
 40
3.0
 40
4.0
 40
4.0
 40
4.0
 40
4.0
 10
49.67068651057299
 20
-101.963114141176
 30
0.0
 10
49.67068651057299
 20
-101.9073046967455
 30
0.0
 10
49.62591901171511
 20
-101.8625019189788
 30
0.0
 10
49.57077984645516
 20
-101.8625019189788
 30
0.0
 10
49.51567595897209
 20
-101.8625019189788
 30
0.0
 10
49.47087318233732
 20
-101.9073046967455
 30
0.0
 10
49.47087318233732
 20
-101.963114141176
 30
0.0
 10
49.47087318233732
 20
-102.0182180300509
 30
0.0
 10
49.51567595897209
 20
-102.0630208078176
 30
0.0
 10
49.57077984645516
 20
-102.0630208078176
 30
0.0
 10
49.62591901171511
 20
-102.0630208078176
 30
0.0
 10
49.67068651057299
 20
-102.0182180300509
 30
0.0
 10
49.67068651057299
 20
-101.963114141176
 30
0.0
  0
POLYLINE
  5
7D
330
1F
100
AcDbEntity
  8
_U+30EC_U+30A4_U+30E4_U+30FC 1
 62
   179
420
  2234388
370
     9
100
AcDb2dPolyline
 66
     1
 10
0.0
 20
0.0
 30
0.0
  0
VERTEX
  5
7E
330
7D
100
AcDbEntity
  8
_U+30EC_U+30A4_U+30E4_U+30FC 1
 62
   179
420
  2234388
370
     9
100
AcDbVertex
100
AcDb2dVertex
 10
76.57069693540767
 20
-84.16300581229252
 30
0.0
  0
VERTEX
  5
7F
330
7D
100
AcDbEntity
  8
_U+30EC_U+30A4_U+30E4_U+30FC 1
 62
   179
420
  2234388
370
     9
100
AcDbVertex
100
AcDb2dVertex
 10
76.57069693540767
 20
-78.9050999802736
 30
0.0
  0
SEQEND
  5
80
330
7D
100
AcDbEntity
  8
_U+30EC_U+30A4_U+30E4_U+30FC 1
 62
   179
420
  2234388
370
     9
  0
POLYLINE
  5
81
330
1F
100
AcDbEntity
  8
_U+30EC_U+30A4_U+30E4_U+30FC 1
 62
   179
420
  2234388
370
     9
100
AcDb2dPolyline
 66
     1
 10
0.0
 20
0.0
 30
0.0
  0
VERTEX
  5
82
330
81
100
AcDbEntity
  8
_U+30EC_U+30A4_U+30E4_U+30FC 1
 62
   179
420
  2234388
370
     9
100
AcDbVertex
100
AcDb2dVertex
 10
76.57069693540767
 20
-84.16300581229252
 30
0.0
  0
VERTEX
  5
83
330
81
100
AcDbEntity
  8
_U+30EC_U+30A4_U+30E4_U+30FC 1
 62
   179
420
  2234388
370
     9
100
AcDbVertex
100
AcDb2dVertex
 10
76.57069693540767
 20
-84.96292942320362
 30
0.0
  0
SEQEND
  5
84
330
81
100
AcDbEntity
  8
_U+30EC_U+30A4_U+30E4_U+30FC 1
 62
   179
420
  2234388
370
     9
  0
POLYLINE
  5
85
330
1F
100
AcDbEntity
  8
_U+30EC_U+30A4_U+30E4_U+30FC 1
 62
   179
420
  2234388
370
     9
100
AcDb2dPolyline
 66
     1
 10
0.0
 20
0.0
 30
0.0
  0
VERTEX
  5
86
330
85
100
AcDbEntity
  8
_U+30EC_U+30A4_U+30E4_U+30FC 1
 62
   179
420
  2234388
370
     9
100
AcDbVertex
100
AcDb2dVertex
 10
75.11065558376754
 20
-84.16300581229252
 30
0.0
  0
VERTEX
  5
87
330
85
100
AcDbEntity
  8
_U+30EC_U+30A4_U+30E4_U+30FC 1
 62
   179
420
  2234388
370
     9
100
AcDbVertex
100
AcDb2dVertex
 10
77.57078663211547
 20
-84.16300581229252
 30
0.0
  0
SEQEND
  5
88
330
85
100
AcDbEntity
  8
_U+30EC_U+30A4_U+30E4_U+30FC 1
 62
   179
420
  2234388
370
     9
  0
POLYLINE
  5
89
330
1F
100
AcDbEntity
  8
_U+30EC_U+30A4_U+30E4_U+30FC 1
 62
   179
420
  2234388
370
     9
100
AcDb2dPolyline
 66
     1
 10
0.0
 20
0.0
 30
0.0
  0
VERTEX
  5
8A
330
89
100
AcDbEntity
  8
_U+30EC_U+30A4_U+30E4_U+30FC 1
 62
   179
420
  2234388
370
     9
100
AcDbVertex
100
AcDb2dVertex
 10
75.11065558376754
 20
-84.96292942320362
 30
0.0
  0
VERTEX
  5
8B
330
89
100
AcDbEntity
  8
_U+30EC_U+30A4_U+30E4_U+30FC 1
 62
   179
420
  2234388
370
     9
100
AcDbVertex
100
AcDb2dVertex
 10
77.57078663211547
 20
-84.96292942320362
 30
0.0
  0
SEQEND
  5
8C
330
89
100
AcDbEntity
  8
_U+30EC_U+30A4_U+30E4_U+30FC 1
 62
   179
420
  2234388
370
     9
  0
INSERT
  5
8E
330
1F
100
AcDbEntity
  8
_U+30EC_U+30A4_U+30E4_U+30FC 1
100
AcDbBlockReference
  2
block 3
 10
0.0
 20
0.0
 30
0.0
  0
POLYLINE
  5
A0
330
1F
100
AcDbEntity
  8
_U+30EC_U+30A4_U+30E4_U+30FC 1
 62
   179
420
  2234388
370
     9
100
AcDb2dPolyline
 66
     1
 10
0.0
 20
0.0
 30
0.0
  0
VERTEX
  5
A1
330
A0
100
AcDbEntity
  8
_U+30EC_U+30A4_U+30E4_U+30FC 1
 62
   179
420
  2234388
370
     9
100
AcDbVertex
100
AcDb2dVertex
 10
76.57069693540767
 20
-94.9626624762592
 30
0.0
  0
VERTEX
  5
A2
330
A0
100
AcDbEntity
  8
_U+30EC_U+30A4_U+30E4_U+30FC 1
 62
   179
420
  2234388
370
     9
100
AcDbVertex
100
AcDb2dVertex
 10
76.57069693540767
 20
-84.96292942320362
 30
0.0
  0
SEQEND
  5
A3
330
A0
100
AcDbEntity
  8
_U+30EC_U+30A4_U+30E4_U+30FC 1
 62
   179
420
  2234388
370
     9
  0
POLYLINE
  5
A4
330
1F
100
AcDbEntity
  8
_U+30EC_U+30A4_U+30E4_U+30FC 1
 62
   179
420
  2234388
370
     9
100
AcDb2dPolyline
 66
     1
 10
0.0
 20
0.0
 30
0.0
  0
VERTEX
  5
A5
330
A4
100
AcDbEntity
  8
_U+30EC_U+30A4_U+30E4_U+30FC 1
 62
   179
420
  2234388
370
     9
100
AcDbVertex
100
AcDb2dVertex
 10
62.11058313764924
 20
-94.9626624762592
 30
0.0
  0
VERTEX
  5
A6
330
A4
100
AcDbEntity
  8
_U+30EC_U+30A4_U+30E4_U+30FC 1
 62
   179
420
  2234388
370
     9
100
AcDbVertex
100
AcDb2dVertex
 10
77.57078663211547
 20
-94.9626624762592
 30
0.0
  0
SEQEND
  5
A7
330
A4
100
AcDbEntity
  8
_U+30EC_U+30A4_U+30E4_U+30FC 1
 62
   179
420
  2234388
370
     9
  0
INSERT
  5
A9
330
1F
100
AcDbEntity
  8
_U+30EC_U+30A4_U+30E4_U+30FC 1
100
AcDbBlockReference
  2
block 4
 10
0.0
 20
0.0
 30
0.0
  0
POLYLINE
  5
B1
330
1F
100
AcDbEntity
  8
_U+30EC_U+30A4_U+30E4_U+30FC 1
 62
   179
420
  2234388
370
     9
100
AcDb2dPolyline
 66
     1
 10
0.0
 20
0.0
 30
0.0
  0
VERTEX
  5
B2
330
B1
100
AcDbEntity
  8
_U+30EC_U+30A4_U+30E4_U+30FC 1
 62
   179
420
  2234388
370
     9
100
AcDbVertex
100
AcDb2dVertex
 10
76.57069693540767
 20
-94.9626624762592
 30
0.0
  0
VERTEX
  5
B3
330
B1
100
AcDbEntity
  8
_U+30EC_U+30A4_U+30E4_U+30FC 1
 62
   179
420
  2234388
370
     9
100
AcDbVertex
100
AcDb2dVertex
 10
76.57069693540767
 20
-97.9626846977317
 30
0.0
  0
SEQEND
  5
B4
330
B1
100
AcDbEntity
  8
_U+30EC_U+30A4_U+30E4_U+30FC 1
 62
   179
420
  2234388
370
     9
  0
POLYLINE
  5
B5
330
1F
100
AcDbEntity
  8
_U+30EC_U+30A4_U+30E4_U+30FC 1
 62
   179
420
  2234388
370
     9
100
AcDb2dPolyline
 66
     1
 10
0.0
 20
0.0
 30
0.0
  0
VERTEX
  5
B6
330
B5
100
AcDbEntity
  8
_U+30EC_U+30A4_U+30E4_U+30FC 1
 62
   179
420
  2234388
370
     9
100
AcDbVertex
100
AcDb2dVertex
 10
62.11058313764924
 20
-97.9626846977317
 30
0.0
  0
VERTEX
  5
B7
330
B5
100
AcDbEntity
  8
_U+30EC_U+30A4_U+30E4_U+30FC 1
 62
   179
420
  2234388
370
     9
100
AcDbVertex
100
AcDb2dVertex
 10
77.57078663211547
 20
-97.9626846977317
 30
0.0
  0
SEQEND
  5
B8
330
B5
100
AcDbEntity
  8
_U+30EC_U+30A4_U+30E4_U+30FC 1
 62
   179
420
  2234388
370
     9
  0
INSERT
  5
BA
330
1F
100
AcDbEntity
  8
_U+30EC_U+30A4_U+30E4_U+30FC 1
100
AcDbBlockReference
  2
block 5
 10
0.0
 20
0.0
 30
0.0
  0
POLYLINE
  5
BF
330
1F
100
AcDbEntity
  8
_U+30EC_U+30A4_U+30E4_U+30FC 1
 62
   179
420
  2234388
370
     9
100
AcDb2dPolyline
 66
     1
 10
0.0
 20
0.0
 30
0.0
  0
VERTEX
  5
C0
330
BF
100
AcDbEntity
  8
_U+30EC_U+30A4_U+30E4_U+30FC 1
 62
   179
420
  2234388
370
     9
100
AcDbVertex
100
AcDb2dVertex
 10
49.57077984645516
 20
-101.963114141176
 30
0.0
  0
VERTEX
  5
C1
330
BF
100
AcDbEntity
  8
_U+30EC_U+30A4_U+30E4_U+30FC 1
 62
   179
420
  2234388
370
     9
100
AcDbVertex
100
AcDb2dVertex
 10
59.57051264689628
 20
-101.963114141176
 30
0.0
  0
SEQEND
  5
C2
330
BF
100
AcDbEntity
  8
_U+30EC_U+30A4_U+30E4_U+30FC 1
 62
   179
420
  2234388
370
     9
  0
POLYLINE
  5
C3
330
1F
100
AcDbEntity
  8
_U+30EC_U+30A4_U+30E4_U+30FC 1
 62
   179
420
  2234388
370
     9
100
AcDb2dPolyline
 66
     1
 10
0.0
 20
0.0
 30
0.0
  0
VERTEX
  5
C4
330
C3
100
AcDbEntity
  8
_U+30EC_U+30A4_U+30E4_U+30FC 1
 62
   179
420
  2234388
370
     9
100
AcDbVertex
100
AcDb2dVertex
 10
49.57077984645516
 20
-100.5030727526522
 30
0.0
  0
VERTEX
  5
C5
330
C3
100
AcDbEntity
  8
_U+30EC_U+30A4_U+30E4_U+30FC 1
 62
   179
420
  2234388
370
     9
100
AcDbVertex
100
AcDb2dVertex
 10
49.57077984645516
 20
-102.9628863631485
 30
0.0
  0
SEQEND
  5
C6
330
C3
100
AcDbEntity
  8
_U+30EC_U+30A4_U+30E4_U+30FC 1
 62
   179
420
  2234388
370
     9
  0
POLYLINE
  5
C7
330
1F
100
AcDbEntity
  8
_U+30EC_U+30A4_U+30E4_U+30FC 1
 62
   179
420
  2234388
370
     9
100
AcDb2dPolyline
 66
     1
 10
0.0
 20
0.0
 30
0.0
  0
VERTEX
  5
C8
330
C7
100
AcDbEntity
  8
_U+30EC_U+30A4_U+30E4_U+30FC 1
 62
   179
420
  2234388
370
     9
100
AcDbVertex
100
AcDb2dVertex
 10
59.57051264689628
 20
-100.5030727526522
 30
0.0
  0
VERTEX
  5
C9
330
C7
100
AcDbEntity
  8
_U+30EC_U+30A4_U+30E4_U+30FC 1
 62
   179
420
  2234388
370
     9
100
AcDbVertex
100
AcDb2dVertex
 10
59.57051264689628
 20
-102.9628863631485
 30
0.0
  0
SEQEND
  5
CA
330
C7
100
AcDbEntity
  8
_U+30EC_U+30A4_U+30E4_U+30FC 1
 62
   179
420
  2234388
370
     9
  0
INSERT
  5
CC
330
1F
100
AcDbEntity
  8
_U+30EC_U+30A4_U+30E4_U+30FC 1
100
AcDbBlockReference
  2
block 6
 10
0.0
 20
0.0
 30
0.0
  0
POLYLINE
  5
D4
330
1F
100
AcDbEntity
  8
_U+30EC_U+30A4_U+30E4_U+30FC 1
 62
   179
420
  2234388
370
     9
100
AcDb2dPolyline
 66
     1
 10
0.0
 20
0.0
 30
0.0
  0
VERTEX
  5
D5
330
D4
100
AcDbEntity
  8
_U+30EC_U+30A4_U+30E4_U+30FC 1
 62
   179
420
  2234388
370
     9
100
AcDbVertex
100
AcDb2dVertex
 10
49.57077984645516
 20
-80.16254109107044
 30
0.0
  0
VERTEX
  5
D6
330
D4
100
AcDbEntity
  8
_U+30EC_U+30A4_U+30E4_U+30FC 1
 62
   179
420
  2234388
370
     9
100
AcDbVertex
100
AcDb2dVertex
 10
72.57058509301457
 20
-80.16254109107044
 30
0.0
  0
SEQEND
  5
D7
330
D4
100
AcDbEntity
  8
_U+30EC_U+30A4_U+30E4_U+30FC 1
 62
   179
420
  2234388
370
     9
  0
POLYLINE
  5
D8
330
1F
100
AcDbEntity
  8
_U+30EC_U+30A4_U+30E4_U+30FC 1
 62
   179
420
  2234388
370
     9
100
AcDb2dPolyline
 66
     1
 10
0.0
 20
0.0
 30
0.0
  0
VERTEX
  5
D9
330
D8
100
AcDbEntity
  8
_U+30EC_U+30A4_U+30E4_U+30FC 1
 62
   179
420
  2234388
370
     9
100
AcDbVertex
100
AcDb2dVertex
 10
49.57077984645516
 20
-81.62258247959446
 30
0.0
  0
VERTEX
  5
DA
330
D8
100
AcDbEntity
  8
_U+30EC_U+30A4_U+30E4_U+30FC 1
 62
   179
420
  2234388
370
     9
100
AcDbVertex
100
AcDb2dVertex
 10
49.57077984645516
 20
-79.16276886909822
 30
0.0
  0
SEQEND
  5
DB
330
D8
100
AcDbEntity
  8
_U+30EC_U+30A4_U+30E4_U+30FC 1
 62
   179
420
  2234388
370
     9
  0
POLYLINE
  5
DC
330
1F
100
AcDbEntity
  8
_U+30EC_U+30A4_U+30E4_U+30FC 1
 62
   179
420
  2234388
370
     9
100
AcDb2dPolyline
 66
     1
 10
0.0
 20
0.0
 30
0.0
  0
VERTEX
  5
DD
330
DC
100
AcDbEntity
  8
_U+30EC_U+30A4_U+30E4_U+30FC 1
 62
   179
420
  2234388
370
     9
100
AcDbVertex
100
AcDb2dVertex
 10
72.57058509301457
 20
-81.62258247959446
 30
0.0
  0
VERTEX
  5
DE
330
DC
100
AcDbEntity
  8
_U+30EC_U+30A4_U+30E4_U+30FC 1
 62
   179
420
  2234388
370
     9
100
AcDbVertex
100
AcDb2dVertex
 10
72.57058509301457
 20
-79.16276886909822
 30
0.0
  0
SEQEND
  5
DF
330
DC
100
AcDbEntity
  8
_U+30EC_U+30A4_U+30E4_U+30FC 1
 62
   179
420
  2234388
370
     9
  0
INSERT
  5
E1
330
1F
100
AcDbEntity
  8
_U+30EC_U+30A4_U+30E4_U+30FC 1
100
AcDbBlockReference
  2
block 7
 10
0.0
 20
0.0
 30
0.0
  0
ENDSEC
  0
SECTION
  2
OBJECTS
  0
DICTIONARY
  5
C
330
0
100
AcDbDictionary
281
     1
  3
ACAD_GROUP
350
D
  3
ACAD_LAYOUT
350
1A
  3
ACAD_MATERIAL
350
3B
  3
ACAD_MLEADERSTYLE
350
E9
  3
ACAD_MLINESTYLE
350
17
  3
ACAD_PLOTSETTINGS
350
19
  3
ACAD_PLOTSTYLENAME
350
E
  3
ACAD_TABLESTYLE
350
E8
  3
ACAD_VISUALSTYLE
350
2A
  0
SUN
  5
3F
330
29
100
AcDbSun
 90
        1
290
     0
 63
     7
421
 16777215
 40
1.0
291
     1
 91
  2455826
 92
 54000000
292
     0
 70
     2
 71
   256
280
     1
  0
DICTIONARY
  5
D
102
{ACAD_REACTORS
330
C
102
}
330
C
100
AcDbDictionary
281
     1
  0
DICTIONARY
  5
1A
102
{ACAD_REACTORS
330
C
102
}
330
C
100
AcDbDictionary
281
     1
  3
Layout1
350
1E
  3
Layout2
350
26
  3
Model
350
22
  0
DICTIONARY
  5
3B
102
{ACAD_REACTORS
330
C
102
}
330
C
100
AcDbDictionary
281
     1
  3
ByBlock
350
3D
  3
ByLayer
350
3C
  3
Global
350
3E
  0
DICTIONARY
  5
E9
102
{ACAD_REACTORS
330
C
102
}
330
C
100
AcDbDictionary
281
     1
  0
DICTIONARY
  5
17
102
{ACAD_REACTORS
330
C
102
}
330
C
100
AcDbDictionary
281
     1
  3
Standard
350
18
  0
DICTIONARY
  5
19
102
{ACAD_REACTORS
330
C
102
}
330
C
100
AcDbDictionary
281
     1
  0
ACDBDICTIONARYWDFLT
  5
E
102
{ACAD_REACTORS
330
C
102
}
330
C
100
AcDbDictionary
281
     1
  3
Normal
350
F
100
AcDbDictionaryWithDefault
340
F
  0
DICTIONARY
  5
E8
102
{ACAD_REACTORS
330
C
102
}
330
C
100
AcDbDictionary
281
     1
  0
DICTIONARY
  5
2A
102
{ACAD_REACTORS
330
C
102
}
330
C
100
AcDbDictionary
281
     1
  3
2dWireframe
350
2F
  3
3D Hidden
350
31
  3
3dWireframe
350
30
  3
Basic
350
32
  3
Brighten
350
36
  3
ColorChange
350
3A
  3
Conceptual
350
34
  3
Dim
350
35
  3
Facepattern
350
39
  3
Flat
350
2B
  3
FlatWithEdges
350
2C
  3
Gouraud
350
2D
  3
GouraudWithEdges
350
2E
  3
Linepattern
350
38
  3
Realistic
350
33
  3
Thicken
350
37
  0
LAYOUT
  5
1E
102
{ACAD_REACTORS
330
1A
102
}
330
1A
100
AcDbPlotSettings
  1

  2
none_device
  4

  6

 40
0.0
 41
0.0
 42
0.0
 43
0.0
 44
0.0
 45
0.0
 46
0.0
 47
0.0
 48
0.0
 49
0.0
140
0.0
141
0.0
142
1.0
143
1.0
 70
   688
 72
     0
 73
     0
 74
     5
  7

 75
    16
 76
     0
 77
     2
 78
   300
147
1.0
148
0.0
149
0.0
100
AcDbLayout
  1
Layout1
 70
     1
 71
     1
 10
0.0
 20
0.0
 11
12.0
 21
9.0
 12
0.0
 22
0.0
 32
0.0
 14
1.000000000000000E+20
 24
1.000000000000000E+20
 34
1.000000000000000E+20
 15
-1.000000000000000E+20
 25
-1.000000000000000E+20
 35
-1.000000000000000E+20
146
0.0
 13
0.0
 23
0.0
 33
0.0
 16
1.0
 26
0.0
 36
0.0
 17
0.0
 27
1.0
 37
0.0
 76
     0
330
1B
  0
LAYOUT
  5
26
102
{ACAD_REACTORS
330
1A
102
}
330
1A
100
AcDbPlotSettings
  1

  2
none_device
  4

  6

 40
0.0
 41
0.0
 42
0.0
 43
0.0
 44
0.0
 45
0.0
 46
0.0
 47
0.0
 48
0.0
 49
0.0
140
0.0
141
0.0
142
1.0
143
1.0
 70
   688
 72
     0
 73
     0
 74
     5
  7

 75
    16
 76
     0
 77
     2
 78
   300
147
1.0
148
0.0
149
0.0
100
AcDbLayout
  1
Layout2
 70
     1
 71
     2
 10
0.0
 20
0.0
 11
0.0
 21
0.0
 12
0.0
 22
0.0
 32
0.0
 14
0.0
 24
0.0
 34
0.0
 15
0.0
 25
0.0
 35
0.0
146
0.0
 13
0.0
 23
0.0
 33
0.0
 16
1.0
 26
0.0
 36
0.0
 17
0.0
 27
1.0
 37
0.0
 76
     0
330
23
  0
LAYOUT
  5
22
102
{ACAD_REACTORS
330
1A
102
}
330
1A
100
AcDbPlotSettings
  1

  2
none_device
  4

  6

 40
0.0
 41
0.0
 42
0.0
 43
0.0
 44
0.0
 45
0.0
 46
0.0
 47
0.0
 48
0.0
 49
0.0
140
0.0
141
0.0
142
1.0
143
1.0
 70
  1712
 72
     0
 73
     0
 74
     0
  7

 75
     0
 76
     0
 77
     2
 78
   300
147
1.0
148
0.0
149
0.0
100
AcDbLayout
  1
Model
 70
     1
 71
     0
 10
0.0
 20
0.0
 11
12.0
 21
9.0
 12
0.0
 22
0.0
 32
0.0
 14
1.000000000000000E+20
 24
1.000000000000000E+20
 34
1.000000000000000E+20
 15
-1.000000000000000E+20
 25
-1.000000000000000E+20
 35
-1.000000000000000E+20
146
0.0
 13
0.0
 23
0.0
 33
0.0
 16
1.0
 26
0.0
 36
0.0
 17
0.0
 27
1.0
 37
0.0
 76
     0
330
1F
331
29
  0
MATERIAL
  5
3D
102
{ACAD_REACTORS
330
3B
102
}
330
3B
100
AcDbMaterial
  1
ByBlock
 72
     1
 94
      127
  0
MATERIAL
  5
3C
102
{ACAD_REACTORS
330
3B
102
}
330
3B
100
AcDbMaterial
  1
ByLayer
 72
     1
 94
      127
  0
MATERIAL
  5
3E
102
{ACAD_REACTORS
330
3B
102
}
330
3B
100
AcDbMaterial
  1
Global
 72
     1
 94
      127
  0
MLINESTYLE
  5
18
102
{ACAD_REACTORS
330
17
102
}
330
17
100
AcDbMlineStyle
  2
Standard
 70
     0
  3

 62
   256
 51
90.0
 52
90.0
 71
     2
 49
0.5
 62
   256
  6
BYLAYER
 49
-0.5
 62
   256
  6
BYLAYER
  0
ACDBPLACEHOLDER
  5
F
102
{ACAD_REACTORS
330
E
102
}
330
E
  0
VISUALSTYLE
  5
2F
102
{ACAD_REACTORS
330
2A
102
}
330
2A
100
AcDbVisualStyle
  2
2dWireframe
 70
     4
177
     2
291
     0
 71
     0
176
     1
 72
     2
176
     1
 73
     0
176
     1
 90
        0
176
     1
 40
-0.6
176
     1
 41
-30.0
176
     1
 62
     5
 63
     7
421
 16777215
176
     1
 74
     1
176
     1
 91
        4
176
     1
 64
     7
176
     1
 65
   257
176
     1
 75
     1
176
     1
175
     1
176
     1
 42
1.0
176
     1
 92
        0
176
     1
 66
   257
176
     1
 43
1.0
176
     1
 76
     1
176
     1
 77
     6
176
     1
 78
     2
176
     1
 67
     7
176
     1
 79
     5
176
     1
170
     0
176
     1
171
     0
176
     1
290
     0
176
     1
 93
        1
176
     1
 44
0.0
176
     1
173
     0
176
     1
  0
VISUALSTYLE
  5
31
102
{ACAD_REACTORS
330
2A
102
}
330
2A
100
AcDbVisualStyle
  2
3D Hidden
 70
     6
177
     2
291
     0
 71
     1
176
     1
 72
     2
176
     1
 73
     2
176
     1
 90
        0
176
     1
 40
-0.6
176
     1
 41
-30.0
176
     1
 62
     5
 63
     7
421
 16777215
176
     1
 74
     2
176
     1
 91
        2
176
     1
 64
     7
176
     1
 65
   257
176
     1
 75
     2
176
     1
175
     1
176
     1
 42
40.0
176
     1
 92
        0
176
     1
 66
   257
176
     1
 43
1.0
176
     1
 76
     1
176
     1
 77
     6
176
     1
 78
     2
176
     1
 67
     7
176
     1
 79
     3
176
     1
170
     0
176
     1
171
     0
176
     1
290
     0
176
     1
 93
        1
176
     1
 44
0.0
176
     1
173
     0
176
     1
  0
VISUALSTYLE
  5
30
102
{ACAD_REACTORS
330
2A
102
}
330
2A
100
AcDbVisualStyle
  2
3dWireframe
 70
     5
177
     2
291
     0
 71
     0
176
     1
 72
     2
176
     1
 73
     0
176
     1
 90
        0
176
     1
 40
-0.6
176
     1
 41
-30.0
176
     1
 62
     5
 63
     7
421
 16777215
176
     1
 74
     1
176
     1
 91
        4
176
     1
 64
     7
176
     1
 65
   257
176
     1
 75
     1
176
     1
175
     1
176
     1
 42
1.0
176
     1
 92
        0
176
     1
 66
   257
176
     1
 43
1.0
176
     1
 76
     1
176
     1
 77
     6
176
     1
 78
     2
176
     1
 67
     7
176
     1
 79
     5
176
     1
170
     0
176
     1
171
     0
176
     1
290
     0
176
     1
 93
        1
176
     1
 44
0.0
176
     1
173
     0
176
     1
  0
VISUALSTYLE
  5
32
102
{ACAD_REACTORS
330
2A
102
}
330
2A
100
AcDbVisualStyle
  2
Basic
 70
     7
177
     2
291
     1
 71
     1
176
     1
 72
     0
176
     1
 73
     1
176
     1
 90
        0
176
     1
 40
-0.6
176
     1
 41
-30.0
176
     1
 62
     5
 63
     7
421
 16777215
176
     1
 74
     0
176
     1
 91
        4
176
     1
 64
     7
176
     1
 65
   257
176
     1
 75
     1
176
     1
175
     1
176
     1
 42
1.0
176
     1
 92
        8
176
     1
 66
     7
176
     1
 43
1.0
176
     1
 76
     1
176
     1
 77
     6
176
     1
 78
     2
176
     1
 67
     7
176
     1
 79
     5
176
     1
170
     0
176
     1
171
     0
176
     1
290
     0
176
     1
 93
        1
176
     1
 44
0.0
176
     1
173
     0
176
     1
  0
VISUALSTYLE
  5
36
102
{ACAD_REACTORS
330
2A
102
}
330
2A
100
AcDbVisualStyle
  2
Brighten
 70
    12
177
     2
291
     1
 71
     2
176
     1
 72
     2
176
     1
 73
     0
176
     1
 90
        0
176
     1
 40
-0.6
176
     1
 41
-30.0
176
     1
 62
     5
 63
     7
421
 16777215
176
     1
 74
     1
176
     1
 91
        4
176
     1
 64
     7
176
     1
 65
   257
176
     1
 75
     1
176
     1
175
     1
176
     1
 42
1.0
176
     1
 92
        8
176
     1
 66
     7
176
     1
 43
1.0
176
     1
 76
     1
176
     1
 77
     6
176
     1
 78
     2
176
     1
 67
     7
176
     1
 79
     5
176
     1
170
     0
176
     1
171
     0
176
     1
290
     0
176
     1
 93
        1
176
     1
 44
50.0
176
     1
173
     0
176
     1
  0
VISUALSTYLE
  5
3A
102
{ACAD_REACTORS
330
2A
102
}
330
2A
100
AcDbVisualStyle
  2
ColorChange
 70
    16
177
     2
291
     1
 71
     2
176
     1
 72
     2
176
     1
 73
     3
176
     1
 90
        0
176
     1
 40
-0.6
176
     1
 41
-30.0
176
     1
 62
     5
 63
     8
421
  8421504
176
     1
 74
     1
176
     1
 91
        4
176
     1
 64
     7
176
     1
 65
   257
176
     1
 75
     1
176
     1
175
     1
176
     1
 42
1.0
176
     1
 92
        8
176
     1
 66
     8
424
  8421504
176
     1
 43
1.0
176
     1
 76
     1
176
     1
 77
     6
176
     1
 78
     2
176
     1
 67
     7
176
     1
 79
     5
176
     1
170
     0
176
     1
171
     0
176
     1
290
     0
176
     1
 93
        1
176
     1
 44
0.0
176
     1
173
     0
176
     1
  0
VISUALSTYLE
  5
34
102
{ACAD_REACTORS
330
2A
102
}
330
2A
100
AcDbVisualStyle
  2
Conceptual
 70
     9
177
     2
291
     0
 71
     3
176
     1
 72
     2
176
     1
 73
     0
176
     1
 90
        0
176
     1
 40
-0.6
176
     1
 41
-30.0
176
     1
 62
     5
 63
     7
421
 16777215
176
     1
 74
     2
176
     1
 91
        2
176
     1
 64
     7
176
     1
 65
   257
176
     1
 75
     1
176
     1
175
     1
176
     1
 42
40.0
176
     1
 92
        8
176
     1
 66
     7
176
     1
 43
1.0
176
     1
 76
     1
176
     1
 77
     6
176
     1
 78
     2
176
     1
 67
     7
176
     1
 79
     3
176
     1
170
     0
176
     1
171
     0
176
     1
290
     0
176
     1
 93
        1
176
     1
 44
0.0
176
     1
173
     0
176
     1
  0
VISUALSTYLE
  5
35
102
{ACAD_REACTORS
330
2A
102
}
330
2A
100
AcDbVisualStyle
  2
Dim
 70
    11
177
     2
291
     1
 71
     2
176
     1
 72
     2
176
     1
 73
     0
176
     1
 90
        0
176
     1
 40
-0.6
176
     1
 41
-30.0
176
     1
 62
     5
 63
     7
421
 16777215
176
     1
 74
     1
176
     1
 91
        4
176
     1
 64
     7
176
     1
 65
   257
176
     1
 75
     1
176
     1
175
     1
176
     1
 42
1.0
176
     1
 92
        8
176
     1
 66
     7
176
     1
 43
1.0
176
     1
 76
     1
176
     1
 77
     6
176
     1
 78
     2
176
     1
 67
     7
176
     1
 79
     5
176
     1
170
     0
176
     1
171
     0
176
     1
290
     0
176
     1
 93
        1
176
     1
 44
-50.0
176
     1
173
     0
176
     1
  0
VISUALSTYLE
  5
39
102
{ACAD_REACTORS
330
2A
102
}
330
2A
100
AcDbVisualStyle
  2
Facepattern
 70
    15
177
     2
291
     1
 71
     2
176
     1
 72
     2
176
     1
 73
     0
176
     1
 90
        0
176
     1
 40
-0.6
176
     1
 41
-30.0
176
     1
 62
     5
 63
     7
421
 16777215
176
     1
 74
     1
176
     1
 91
        4
176
     1
 64
     7
176
     1
 65
   257
176
     1
 75
     1
176
     1
175
     1
176
     1
 42
1.0
176
     1
 92
        8
176
     1
 66
     7
176
     1
 43
1.0
176
     1
 76
     1
176
     1
 77
     6
176
     1
 78
     2
176
     1
 67
     7
176
     1
 79
     5
176
     1
170
     0
176
     1
171
     0
176
     1
290
     0
176
     1
 93
        1
176
     1
 44
0.0
176
     1
173
     0
176
     1
  0
VISUALSTYLE
  5
2B
102
{ACAD_REACTORS
330
2A
102
}
330
2A
100
AcDbVisualStyle
  2
Flat
 70
     0
177
     2
291
     1
 71
     2
176
     1
 72
     1
176
     1
 73
     1
176
     1
 90
        2
176
     1
 40
-0.6
176
     1
 41
30.0
176
     1
 62
     5
 63
     7
421
 16777215
176
     1
 74
     0
176
     1
 91
        4
176
     1
 64
     7
176
     1
 65
   257
176
     1
 75
     1
176
     1
175
     1
176
     1
 42
1.0
176
     1
 92
        8
176
     1
 66
     7
176
     1
 43
1.0
176
     1
 76
     1
176
     1
 77
     6
176
     1
 78
     2
176
     1
 67
     7
176
     1
 79
     5
176
     1
170
     0
176
     1
171
     0
176
     1
290
     0
176
     1
 93
       13
176
     1
 44
0.0
176
     1
173
     0
176
     1
  0
VISUALSTYLE
  5
2C
102
{ACAD_REACTORS
330
2A
102
}
330
2A
100
AcDbVisualStyle
  2
FlatWithEdges
 70
     1
177
     2
291
     1
 71
     2
176
     1
 72
     1
176
     1
 73
     1
176
     1
 90
        2
176
     1
 40
-0.6
176
     1
 41
30.0
176
     1
 62
     5
 63
     7
421
 16777215
176
     1
 74
     1
176
     1
 91
        4
176
     1
 64
     7
176
     1
 65
   257
176
     1
 75
     1
176
     1
175
     1
176
     1
 42
1.0
176
     1
 92
        0
176
     1
 66
   257
176
     1
 43
1.0
176
     1
 76
     1
176
     1
 77
     6
176
     1
 78
     2
176
     1
 67
     7
176
     1
 79
     5
176
     1
170
     0
176
     1
171
     0
176
     1
290
     0
176
     1
 93
       13
176
     1
 44
0.0
176
     1
173
     0
176
     1
  0
VISUALSTYLE
  5
2D
102
{ACAD_REACTORS
330
2A
102
}
330
2A
100
AcDbVisualStyle
  2
Gouraud
 70
     2
177
     2
291
     1
 71
     2
176
     1
 72
     2
176
     1
 73
     1
176
     1
 90
        2
176
     1
 40
-0.6
176
     1
 41
30.0
176
     1
 62
     5
 63
     7
421
 16777215
176
     1
 74
     0
176
     1
 91
        4
176
     1
 64
     7
176
     1
 65
   257
176
     1
 75
     1
176
     1
175
     1
176
     1
 42
1.0
176
     1
 92
        0
176
     1
 66
     7
176
     1
 43
1.0
176
     1
 76
     1
176
     1
 77
     6
176
     1
 78
     2
176
     1
 67
     7
176
     1
 79
     5
176
     1
170
     0
176
     1
171
     0
176
     1
290
     0
176
     1
 93
       13
176
     1
 44
0.0
176
     1
173
     0
176
     1
  0
VISUALSTYLE
  5
2E
102
{ACAD_REACTORS
330
2A
102
}
330
2A
100
AcDbVisualStyle
  2
GouraudWithEdges
 70
     3
177
     2
291
     1
 71
     2
176
     1
 72
     2
176
     1
 73
     1
176
     1
 90
        2
176
     1
 40
-0.6
176
     1
 41
30.0
176
     1
 62
     5
 63
     7
421
 16777215
176
     1
 74
     1
176
     1
 91
        4
176
     1
 64
     7
176
     1
 65
   257
176
     1
 75
     1
176
     1
175
     1
176
     1
 42
1.0
176
     1
 92
        0
176
     1
 66
   257
176
     1
 43
1.0
176
     1
 76
     1
176
     1
 77
     6
176
     1
 78
     2
176
     1
 67
     7
176
     1
 79
     5
176
     1
170
     0
176
     1
171
     0
176
     1
290
     0
176
     1
 93
       13
176
     1
 44
0.0
176
     1
173
     0
176
     1
  0
VISUALSTYLE
  5
38
102
{ACAD_REACTORS
330
2A
102
}
330
2A
100
AcDbVisualStyle
  2
Linepattern
 70
    14
177
     2
291
     1
 71
     2
176
     1
 72
     2
176
     1
 73
     0
176
     1
 90
        0
176
     1
 40
-0.6
176
     1
 41
-30.0
176
     1
 62
     5
 63
     7
421
 16777215
176
     1
 74
     1
176
     1
 91
        4
176
     1
 64
     7
176
     1
 65
   257
176
     1
 75
     7
176
     1
175
     7
176
     1
 42
1.0
176
     1
 92
        8
176
     1
 66
     7
176
     1
 43
1.0
176
     1
 76
     1
176
     1
 77
     6
176
     1
 78
     2
176
     1
 67
     7
176
     1
 79
     5
176
     1
170
     0
176
     1
171
     0
176
     1
290
     0
176
     1
 93
        1
176
     1
 44
0.0
176
     1
173
     0
176
     1
  0
VISUALSTYLE
  5
33
102
{ACAD_REACTORS
330
2A
102
}
330
2A
100
AcDbVisualStyle
  2
Realistic
 70
     8
177
     2
291
     0
 71
     2
176
     1
 72
     2
176
     1
 73
     0
176
     1
 90
        0
176
     1
 40
-0.6
176
     1
 41
-30.0
176
     1
 62
     5
 63
     7
421
 16777215
176
     1
 74
     1
176
     1
 91
        0
176
     1
 64
     7
176
     1
 65
   257
176
     1
 75
     1
176
     1
175
     1
176
     1
 42
1.0
176
     1
 92
        8
176
     1
 66
     8
424
  7895160
176
     1
 43
1.0
176
     1
 76
     1
176
     1
 77
     6
176
     1
 78
     2
176
     1
 67
     7
176
     1
 79
     5
176
     1
170
     0
176
     1
171
     0
176
     1
290
     0
176
     1
 93
       13
176
     1
 44
0.0
176
     1
173
     0
176
     1
  0
VISUALSTYLE
  5
37
102
{ACAD_REACTORS
330
2A
102
}
330
2A
100
AcDbVisualStyle
  2
Thicken
 70
    13
177
     2
291
     1
 71
     2
176
     1
 72
     2
176
     1
 73
     0
176
     1
 90
        0
176
     1
 40
-0.6
176
     1
 41
-30.0
176
     1
 62
     5
 63
     7
421
 16777215
176
     1
 74
     1
176
     1
 91
        4
176
     1
 64
     7
176
     1
 65
   257
176
     1
 75
     1
176
     1
175
     1
176
     1
 42
1.0
176
     1
 92
       12
176
     1
 66
     7
176
     1
 43
1.0
176
     1
 76
     1
176
     1
 77
     6
176
     1
 78
     2
176
     1
 67
     7
176
     1
 79
     5
176
     1
170
     0
176
     1
171
     0
176
     1
290
     0
176
     1
 93
        1
176
     1
 44
0.0
176
     1
173
     0
176
     1
  0
ENDSEC
  0
EOF
