  0
SECTION
  2
HEADER
  9
$ACADVER
  1
AC1024
  9
$ACADMAINTVER
 70
     6
  9
$DWGCODEPAGE
  3
UNDEFINED
  9
$INSBASE
 10
0.0
 20
0.0
 30
0.0
  9
$EXTMIN
 10
1.000000000000000E+20
 20
1.000000000000000E+20
 30
1.000000000000000E+20
  9
$EXTMAX
 10
-1.000000000000000E+20
 20
-1.000000000000000E+20
 30
-1.000000000000000E+20
  9
$LIMMIN
 10
0.0
 20
0.0
  9
$LIMMAX
 10
12.0
 20
9.0
  9
$ORTHOMODE
 70
     0
  9
$REGENMODE
 70
     1
  9
$FILLMODE
 70
     1
  9
$QTEXTMODE
 70
     0
  9
$MIRRTEXT
 70
     1
  9
$LTSCALE
 40
1.0
  9
$ATTMODE
 70
     1
  9
$TEXTSIZE
 40
0.2
  9
$TRACEWID
 40
0.05
  9
$TEXTSTYLE
  7
Standard
  9
$CLAYER
  8
0
  9
$CELTYPE
  6
ByLayer
  9
$CECOLOR
 62
   256
  9
$CELTSCALE
 40
1.0
  9
$DISPSILH
 70
     0
  9
$DIMSCALE
 40
1.0
  9
$DIMASZ
 40
0.18
  9
$DIMEXO
 40
0.0625
  9
$DIMDLI
 40
0.38
  9
$DIMRND
 40
0.0
  9
$DIMDLE
 40
0.0
  9
$DIMEXE
 40
0.18
  9
$DIMTP
 40
0.0
  9
$DIMTM
 40
0.0
  9
$DIMTXT
 40
0.18
  9
$DIMCEN
 40
0.09
  9
$DIMTSZ
 40
0.0
  9
$DIMTOL
 70
     0
  9
$DIMLIM
 70
     0
  9
$DIMTIH
 70
     1
  9
$DIMTOH
 70
     1
  9
$DIMSE1
 70
     0
  9
$DIMSE2
 70
     0
  9
$DIMTAD
 70
     0
  9
$DIMZIN
 70
     0
  9
$DIMBLK
  1

  9
$DIMASO
 70
     1
  9
$DIMSHO
 70
     1
  9
$DIMPOST
  1

  9
$DIMAPOST
  1

  9
$DIMALT
 70
     0
  9
$DIMALTD
 70
     2
  9
$DIMALTF
 40
25.4
  9
$DIMLFAC
 40
1.0
  9
$DIMTOFL
 70
     0
  9
$DIMTVP
 40
0.0
  9
$DIMTIX
 70
     0
  9
$DIMSOXD
 70
     0
  9
$DIMSAH
 70
     0
  9
$DIMBLK1
  1

  9
$DIMBLK2
  1

  9
$DIMSTYLE
  2
Standard
  9
$DIMCLRD
 70
     0
  9
$DIMCLRE
 70
     0
  9
$DIMCLRT
 70
     0
  9
$DIMTFAC
 40
1.0
  9
$DIMGAP
 40
0.09
  9
$DIMJUST
 70
     0
  9
$DIMSD1
 70
     0
  9
$DIMSD2
 70
     0
  9
$DIMTOLJ
 70
     1
  9
$DIMTZIN
 70
     0
  9
$DIMALTZ
 70
     0
  9
$DIMALTTZ
 70
     0
  9
$DIMUPT
 70
     0
  9
$DIMDEC
 70
     4
  9
$DIMTDEC
 70
     4
  9
$DIMALTU
 70
     2
  9
$DIMALTTD
 70
     2
  9
$DIMTXSTY
  7
Standard
  9
$DIMAUNIT
 70
     0
  9
$DIMADEC
 70
     0
  9
$DIMALTRND
 40
0.0
  9
$DIMAZIN
 70
     0
  9
$DIMDSEP
 70
    46
  9
$DIMATFIT
 70
     3
  9
$DIMFRAC
 70
     0
  9
$DIMLDRBLK
  1

  9
$DIMLUNIT
 70
     2
  9
$DIMLWD
 70
    -2
  9
$DIMLWE
 70
    -2
  9
$DIMTMOVE
 70
     0
  9
$DIMFXL
 40
1.0
  9
$DIMFXLON
 70
     0
  9
$DIMJOGANG
 40
0.7853981633974483
  9
$DIMTFILL
 70
     0
  9
$DIMTFILLCLR
 70
     0
  9
$DIMARCSYM
 70
     0
  9
$DIMLTYPE
  6

  9
$DIMLTEX1
  6

  9
$DIMLTEX2
  6

  9
$DIMTXTDIRECTION
 70
     0
  9
$LUNITS
 70
     2
  9
$LUPREC
 70
     4
  9
$SKETCHINC
 40
0.1
  9
$FILLETRAD
 40
0.5
  9
$AUNITS
 70
     0
  9
$AUPREC
 70
     0
  9
$MENU
  1
.
  9
$ELEVATION
 40
0.0
  9
$PELEVATION
 40
0.0
  9
$THICKNESS
 40
0.0
  9
$LIMCHECK
 70
     0
  9
$CHAMFERA
 40
0.5
  9
$CHAMFERB
 40
0.5
  9
$CHAMFERC
 40
1.0
  9
$CHAMFERD
 40
0.0
  9
$SKPOLY
 70
     0
  9
$TDCREATE
 40
2457917.5896875
  9
$TDUCREATE
 40
2457917.2146875
  9
$TDUPDATE
 40
2457917.5896875
  9
$TDUUPDATE
 40
2457917.2146875
  9
$TDINDWG
 40
0.0000000116
  9
$TDUSRTIMER
 40
0.0000000116
  9
$USRTIMER
 70
     1
  9
$ANGBASE
 50
0.0
  9
$ANGDIR
 70
     0
  9
$PDMODE
 70
     0
  9
$PDSIZE
 40
0.0
  9
$PLINEWID
 40
0.0
  9
$SPLFRAME
 70
     0
  9
$SPLINETYPE
 70
     6
  9
$SPLINESEGS
 70
     8
  9
$HANDSEED
  5
FF
  9
$SURFTAB1
 70
     6
  9
$SURFTAB2
 70
     6
  9
$SURFTYPE
 70
     6
  9
$SURFU
 70
     6
  9
$SURFV
 70
     6
  9
$UCSBASE
  2

  9
$UCSNAME
  2

  9
$UCSORG
 10
0.0
 20
0.0
 30
0.0
  9
$UCSXDIR
 10
1.0
 20
0.0
 30
0.0
  9
$UCSYDIR
 10
0.0
 20
1.0
 30
0.0
  9
$UCSORTHOREF
  2

  9
$UCSORTHOVIEW
 70
     0
  9
$UCSORGTOP
 10
0.0
 20
0.0
 30
0.0
  9
$UCSORGBOTTOM
 10
0.0
 20
0.0
 30
0.0
  9
$UCSORGLEFT
 10
0.0
 20
0.0
 30
0.0
  9
$UCSORGRIGHT
 10
0.0
 20
0.0
 30
0.0
  9
$UCSORGFRONT
 10
0.0
 20
0.0
 30
0.0
  9
$UCSORGBACK
 10
0.0
 20
0.0
 30
0.0
  9
$PUCSBASE
  2

  9
$PUCSNAME
  2

  9
$PUCSORG
 10
0.0
 20
0.0
 30
0.0
  9
$PUCSXDIR
 10
1.0
 20
0.0
 30
0.0
  9
$PUCSYDIR
 10
0.0
 20
1.0
 30
0.0
  9
$PUCSORTHOREF
  2

  9
$PUCSORTHOVIEW
 70
     0
  9
$PUCSORGTOP
 10
0.0
 20
0.0
 30
0.0
  9
$PUCSORGBOTTOM
 10
0.0
 20
0.0
 30
0.0
  9
$PUCSORGLEFT
 10
0.0
 20
0.0
 30
0.0
  9
$PUCSORGRIGHT
 10
0.0
 20
0.0
 30
0.0
  9
$PUCSORGFRONT
 10
0.0
 20
0.0
 30
0.0
  9
$PUCSORGBACK
 10
0.0
 20
0.0
 30
0.0
  9
$USERI1
 70
     0
  9
$USERI2
 70
     0
  9
$USERI3
 70
     0
  9
$USERI4
 70
     0
  9
$USERI5
 70
     0
  9
$USERR1
 40
0.0
  9
$USERR2
 40
0.0
  9
$USERR3
 40
0.0
  9
$USERR4
 40
0.0
  9
$USERR5
 40
0.0
  9
$WORLDVIEW
 70
     1
  9
$SHADEDGE
 70
     3
  9
$SHADEDIF
 70
    70
  9
$TILEMODE
 70
     1
  9
$MAXACTVP
 70
    64
  9
$PINSBASE
 10
0.0
 20
0.0
 30
0.0
  9
$PLIMCHECK
 70
     0
  9
$PEXTMIN
 10
1.000000000000000E+20
 20
1.000000000000000E+20
 30
1.000000000000000E+20
  9
$PEXTMAX
 10
-1.000000000000000E+20
 20
-1.000000000000000E+20
 30
-1.000000000000000E+20
  9
$PLIMMIN
 10
0.0
 20
0.0
  9
$PLIMMAX
 10
12.0
 20
9.0
  9
$UNITMODE
 70
     0
  9
$VISRETAIN
 70
     1
  9
$PLINEGEN
 70
     0
  9
$PSLTSCALE
 70
     1
  9
$TREEDEPTH
 70
  3020
  9
$CMLSTYLE
  2
Standard
  9
$CMLJUST
 70
     0
  9
$CMLSCALE
 40
1.0
  9
$PROXYGRAPHICS
 70
     1
  9
$MEASUREMENT
 70
     0
  9
$CELWEIGHT
370
    -1
  9
$ENDCAPS
280
     0
  9
$JOINSTYLE
280
     0
  9
$LWDISPLAY
290
     1
  9
$INSUNITS
 70
     1
  9
$HYPERLINKBASE
  1

  9
$STYLESHEET
  1

  9
$XEDIT
290
     1
  9
$CEPSNTYPE
380
     0
  9
$PSTYLEMODE
290
     1
  9
$FINGERPRINTGUID
  2
{22D62E90-55B5-02B7-69D0-488246198974}
  9
$VERSIONGUID
  2
{FAEB1C32-E019-11D5-929B-00C0DF256EC4}
  9
$EXTNAMES
290
     1
  9
$PSVPSCALE
 40
0.0
  9
$OLESTARTUP
290
     0
  9
$SORTENTS
280
   127
  9
$INDEXCTL
280
     0
  9
$HIDETEXT
280
     1
  9
$XCLIPFRAME
280
     2
  9
$HALOGAP
280
     0
  9
$OBSCOLOR
 70
   257
  9
$OBSLTYPE
280
     0
  9
$INTERSECTIONDISPLAY
280
     0
  9
$INTERSECTIONCOLOR
 70
   257
  9
$DIMASSOC
280
     2
  9
$PROJECTNAME
  1

  9
$CAMERADISPLAY
290
     0
  9
$LENSLENGTH
 40
50.0
  9
$CAMERAHEIGHT
 40
0.0
  9
$STEPSPERSEC
 40
2.0
  9
$STEPSIZE
 40
6.0
  9
$3DDWFPREC
 40
2.0
  9
$PSOLWIDTH
 40
0.25
  9
$PSOLHEIGHT
 40
4.0
  9
$LOFTANG1
 40
1.570796326794897
  9
$LOFTANG2
 40
1.570796326794897
  9
$LOFTMAG1
 40
0.0
  9
$LOFTMAG2
 40
0.0
  9
$LOFTPARAM
 70
     7
  9
$LOFTNORMALS
280
     1
  9
$LATITUDE
 40
37.795
  9
$LONGITUDE
 40
-122.394
  9
$NORTHDIRECTION
 40
0.0
  9
$TIMEZONE
 70
 -8000
  9
$LIGHTGLYPHDISPLAY
280
     1
  9
$TILEMODELIGHTSYNCH
280
     1
  9
$CMATERIAL
347
3C
  9
$SOLIDHIST
280
     1
  9
$SHOWHIST
280
     1
  9
$DWFFRAME
280
     2
  9
$DGNFRAME
280
     2
  9
$REALWORLDSCALE
290
     1
  9
$INTERFERECOLOR
 62
   256
  9
$CSHADOW
280
     0
  9
$SHADOWPLANELOCATION
 40
0.0
  0
ENDSEC
  0
SECTION
  2
CLASSES
  0
CLASS
  1
ACDBDICTIONARYWDFLT
  2
AcDbDictionaryWithDefault
  3
ObjectDBX Classes
 90
        0
 91
        4
280
     0
281
     0
  0
CLASS
  1
VISUALSTYLE
  2
AcDbVisualStyle
  3
ObjectDBX Classes
 90
     4095
 91
        4
280
     0
281
     0
  0
CLASS
  1
MATERIAL
  2
AcDbMaterial
  3
ObjectDBX Classes
 90
     1153
 91
        4
280
     0
281
     0
  0
CLASS
  1
SUN
  2
AcDbSun
  3
SCENEOE
 90
     1024
 91
        4
280
     0
281
     0
  0
ENDSEC
  0
SECTION
  2
TABLES
  0
TABLE
  2
VPORT
  5
8
330
0
100
AcDbSymbolTable
 70
     1
  0
VPORT
  5
29
330
8
100
AcDbSymbolTableRecord
100
AcDbViewportTableRecord
  2
*Active
 70
     0
 10
0.0
 20
0.0
 11
1.0
 21
1.0
 12
0.0
 22
0.0
 13
0.0
 23
0.0
 14
0.5
 24
0.5
 15
0.5
 25
0.5
 16
0.0
 26
0.0
 36
1.0
 17
91.00082462281999
 27
-128.4993055234307
 37
0.0
 40
256.9986110468615
 41
0.7081814508812795
 42
50.0
 43
0.0
 44
0.0
 50
0.0
 51
0.0
 71
     0
 72
   100
 73
     1
 74
     3
 75
     0
 76
     0
 77
     0
 78
     0
281
     0
 65
     1
110
0.0
120
0.0
130
0.0
111
1.0
121
0.0
131
0.0
112
0.0
122
1.0
132
0.0
 79
     0
146
0.0
 60
     3
 61
     5
292
     1
282
     1
141
0.0
142
0.0
 63
   250
361
3F
  0
ENDTAB
  0
TABLE
  2
LTYPE
  5
5
330
0
100
AcDbSymbolTable
 70
     2
  0
LTYPE
  5
14
330
5
100
AcDbSymbolTableRecord
100
AcDbLinetypeTableRecord
  2
ByBlock
 70
     0
  3

 72
    65
 73
     0
 40
0.0
  0
LTYPE
  5
15
330
5
100
AcDbSymbolTableRecord
100
AcDbLinetypeTableRecord
  2
ByLayer
 70
     0
  3

 72
    65
 73
     0
 40
0.0
  0
LTYPE
  5
16
330
5
100
AcDbSymbolTableRecord
100
AcDbLinetypeTableRecord
  2
Continuous
 70
     0
  3
Solid line
 72
    65
 73
     0
 40
0.0
  0
LTYPE
  5
44
330
5
100
AcDbSymbolTableRecord
100
AcDbLinetypeTableRecord
  2
AI-Linetype-1
 70
     0
  3
Adobe Illustrator Linetype No. 1
 72
    65
 73
     2
 40
1.411111110758333
 49
0.7055555553791667
 74
     0
 49
-0.7055555553791667
 74
     0
  0
ENDTAB
  0
TABLE
  2
LAYER
  5
2
330
0
100
AcDbSymbolTable
 70
     2
  0
LAYER
  5
10
330
2
100
AcDbSymbolTableRecord
100
AcDbLayerTableRecord
  2
0
 70
     0
 62
     7
  6
Continuous
370
    -3
390
F
347
3E
  0
LAYER
  5
40
330
2
100
AcDbSymbolTableRecord
100
AcDbLayerTableRecord
  2
_U+30EC_U+30A4_U+30E4_U+30FC 1
 70
     0
 62
     7
  6
Continuous
370
    -3
390
F
347
3E
  0
ENDTAB
  0
TABLE
  2
STYLE
  5
3
330
0
100
AcDbSymbolTable
 70
     1
  0
STYLE
  5
11
330
3
100
AcDbSymbolTableRecord
100
AcDbTextStyleTableRecord
  2
Standard
 70
     0
 40
0.0
 41
1.0
 50
0.0
 71
     0
 42
0.2
  3
txt
  4

  0
ENDTAB
  0
TABLE
  2
VIEW
  5
6
330
0
100
AcDbSymbolTable
 70
     0
  0
ENDTAB
  0
TABLE
  2
UCS
  5
7
330
0
100
AcDbSymbolTable
 70
     0
  0
ENDTAB
  0
TABLE
  2
APPID
  5
9
330
0
100
AcDbSymbolTable
 70
     1
  0
APPID
  5
12
330
9
100
AcDbSymbolTableRecord
100
AcDbRegAppTableRecord
  2
ACAD
 70
     0
  0
ENDTAB
  0
TABLE
  2
DIMSTYLE
  5
A
330
0
100
AcDbSymbolTable
 70
     1
100
AcDbDimStyleTable
  0
DIMSTYLE
105
27
330
A
100
AcDbSymbolTableRecord
100
AcDbDimStyleTableRecord
  2
Standard
 70
     0
178
     0
340
11
  0
ENDTAB
  0
TABLE
  2
BLOCK_RECORD
  5
1
330
0
100
AcDbSymbolTable
 70
     7
  0
BLOCK_RECORD
  5
1F
330
1
100
AcDbSymbolTableRecord
100
AcDbBlockTableRecord
  2
*Model_Space
340
22
 70
     0
280
     1
281
     0
  0
BLOCK_RECORD
  5
1B
330
1
100
AcDbSymbolTableRecord
100
AcDbBlockTableRecord
  2
*Paper_Space
340
1E
 70
     0
280
     1
281
     0
  0
BLOCK_RECORD
  5
23
330
1
100
AcDbSymbolTableRecord
100
AcDbBlockTableRecord
  2
*Paper_Space0
340
26
 70
     0
280
     1
281
     0
  0
BLOCK_RECORD
  5
52
330
1
100
AcDbSymbolTableRecord
100
AcDbBlockTableRecord
  2
block 2
340
0
102
{BLKREFS
331
53
102
}
 70
     0
280
     1
281
     0
  0
BLOCK_RECORD
  5
7A
330
1
100
AcDbSymbolTableRecord
100
AcDbBlockTableRecord
  2
block 3
340
0
102
{BLKREFS
331
7B
102
}
 70
     0
280
     1
281
     0
  0
BLOCK_RECORD
  5
B1
330
1
100
AcDbSymbolTableRecord
100
AcDbBlockTableRecord
  2
block 4
340
0
102
{BLKREFS
331
B2
102
}
 70
     0
280
     1
281
     0
  0
BLOCK_RECORD
  5
CE
330
1
100
AcDbSymbolTableRecord
100
AcDbBlockTableRecord
  2
block 5
340
0
102
{BLKREFS
331
CF
102
}
 70
     0
280
     1
281
     0
  0
BLOCK_RECORD
  5
E0
330
1
100
AcDbSymbolTableRecord
100
AcDbBlockTableRecord
  2
block 6
340
0
102
{BLKREFS
331
E1
102
}
 70
     0
280
     1
281
     0
  0
BLOCK_RECORD
  5
E6
330
1
100
AcDbSymbolTableRecord
100
AcDbBlockTableRecord
  2
block 7
340
0
102
{BLKREFS
331
E7
102
}
 70
     0
280
     1
281
     0
  0
ENDTAB
  0
ENDSEC
  0
SECTION
  2
BLOCKS
  0
BLOCK
  5
20
330
1F
100
AcDbEntity
  8
0
100
AcDbBlockBegin
  2
*Model_Space
 70
     0
 10
0.0
 20
0.0
 30
0.0
  3
*Model_Space
  1

  0
ENDBLK
  5
21
330
1F
100
AcDbEntity
  8
0
100
AcDbBlockEnd
  0
BLOCK
  5
1C
330
1B
100
AcDbEntity
 67
     1
  8
0
100
AcDbBlockBegin
  2
*Paper_Space
 70
     0
 10
0.0
 20
0.0
 30
0.0
  3
*Paper_Space
  1

  0
ENDBLK
  5
1D
330
1B
100
AcDbEntity
 67
     1
  8
0
100
AcDbBlockEnd
  0
BLOCK
  5
24
330
23
100
AcDbEntity
  8
0
100
AcDbBlockBegin
  2
*Paper_Space0
 70
     0
 10
0.0
 20
0.0
 30
0.0
  3
*Paper_Space0
  1

  0
ENDBLK
  5
25
330
23
100
AcDbEntity
  8
0
100
AcDbBlockEnd
  0
BLOCK
  5
54
330
52
100
AcDbEntity
  8
0
100
AcDbBlockBegin
  2
block 2
 70
     0
 10
0.0
 20
0.0
 30
0.0
  3
block 2
  1

  0
SPLINE
  5
56
330
52
100
AcDbEntity
  8
_U+30EC_U+30A4_U+30E4_U+30FC 1
370
     0
100
AcDbSpline
210
0.0
220
0.0
230
1.0
 70
    11
 71
     3
 72
   242
 73
   238
 74
     0
 42
0.0000000001
 43
0.0000000001
 12
1.0
 22
0.0
 32
0.0
 13
1.0
 23
0.0
 33
0.0
 40
0.0
 40
0.0
 40
0.0
 40
0.0
 40
1.0
 40
1.0
 40
1.0
 40
2.0
 40
2.0
 40
2.0
 40
3.0
 40
3.0
 40
3.0
 40
4.0
 40
4.0
 40
4.0
 40
5.0
 40
5.0
 40
5.0
 40
6.0
 40
6.0
 40
6.0
 40
7.0
 40
7.0
 40
7.0
 40
8.0
 40
8.0
 40
8.0
 40
9.0
 40
9.0
 40
9.0
 40
10.0
 40
10.0
 40
10.0
 40
11.0
 40
11.0
 40
11.0
 40
12.0
 40
12.0
 40
12.0
 40
13.0
 40
13.0
 40
13.0
 40
14.0
 40
14.0
 40
14.0
 40
15.0
 40
15.0
 40
15.0
 40
16.0
 40
16.0
 40
16.0
 40
17.0
 40
17.0
 40
17.0
 40
18.0
 40
18.0
 40
18.0
 40
19.0
 40
19.0
 40
19.0
 40
20.0
 40
20.0
 40
20.0
 40
21.0
 40
21.0
 40
21.0
 40
22.0
 40
22.0
 40
22.0
 40
23.0
 40
23.0
 40
23.0
 40
24.0
 40
24.0
 40
24.0
 40
25.0
 40
25.0
 40
25.0
 40
26.0
 40
26.0
 40
26.0
 40
27.0
 40
27.0
 40
27.0
 40
28.0
 40
28.0
 40
28.0
 40
29.0
 40
29.0
 40
29.0
 40
30.0
 40
30.0
 40
30.0
 40
31.0
 40
31.0
 40
31.0
 40
32.0
 40
32.0
 40
32.0
 40
33.0
 40
33.0
 40
33.0
 40
34.0
 40
34.0
 40
34.0
 40
35.0
 40
35.0
 40
35.0
 40
36.0
 40
36.0
 40
36.0
 40
37.0
 40
37.0
 40
37.0
 40
38.0
 40
38.0
 40
38.0
 40
39.0
 40
39.0
 40
39.0
 40
40.0
 40
40.0
 40
40.0
 40
41.0
 40
41.0
 40
41.0
 40
42.0
 40
42.0
 40
42.0
 40
43.0
 40
43.0
 40
43.0
 40
44.0
 40
44.0
 40
44.0
 40
45.0
 40
45.0
 40
45.0
 40
46.0
 40
46.0
 40
46.0
 40
47.0
 40
47.0
 40
47.0
 40
48.0
 40
48.0
 40
48.0
 40
49.0
 40
49.0
 40
49.0
 40
50.0
 40
50.0
 40
50.0
 40
51.0
 40
51.0
 40
51.0
 40
52.0
 40
52.0
 40
52.0
 40
53.0
 40
53.0
 40
53.0
 40
54.0
 40
54.0
 40
54.0
 40
55.0
 40
55.0
 40
55.0
 40
56.0
 40
56.0
 40
56.0
 40
57.0
 40
57.0
 40
57.0
 40
58.0
 40
58.0
 40
58.0
 40
59.0
 40
59.0
 40
59.0
 40
60.0
 40
60.0
 40
60.0
 40
61.0
 40
61.0
 40
61.0
 40
62.0
 40
62.0
 40
62.0
 40
63.0
 40
63.0
 40
63.0
 40
64.0
 40
64.0
 40
64.0
 40
65.0
 40
65.0
 40
65.0
 40
66.0
 40
66.0
 40
66.0
 40
67.0
 40
67.0
 40
67.0
 40
68.0
 40
68.0
 40
68.0
 40
69.0
 40
69.0
 40
69.0
 40
70.0
 40
70.0
 40
70.0
 40
71.0
 40
71.0
 40
71.0
 40
72.0
 40
72.0
 40
72.0
 40
73.0
 40
73.0
 40
73.0
 40
74.0
 40
74.0
 40
74.0
 40
75.0
 40
75.0
 40
75.0
 40
76.0
 40
76.0
 40
76.0
 40
77.0
 40
77.0
 40
77.0
 40
78.0
 40
78.0
 40
78.0
 40
79.0
 40
79.0
 40
79.0
 40
79.0
 10
68.03770750252183
 20
-134.0186930003495
 30
0.0
 10
68.03770750252183
 20
-134.0186930003495
 30
0.0
 10
67.78380396525891
 20
-134.0186930003495
 30
0.0
 10
67.78380396525891
 20
-134.0186930003495
 30
0.0
 10
67.78380396525891
 20
-134.0186930003495
 30
0.0
 10
67.50681828824483
 20
-134.0186930003495
 30
0.0
 10
67.50681828824483
 20
-134.0186930003495
 30
0.0
 10
67.50681828824483
 20
-134.0186930003495
 30
0.0
 10
67.63359780210202
 20
-134.0610676748181
 30
0.0
 10
67.63359780210202
 20
-134.0610676748181
 30
0.0
 10
67.6442775981063
 20
-134.0655462989489
 30
0.0
 10
67.65702445140172
 20
-134.0717474708223
 30
0.0
 10
67.65702445140172
 20
-134.0844943241178
 30
0.0
 10
67.65702445140172
 20
-134.1055094065778
 30
0.0
 10
67.62498506338889
 20
-134.1120550879998
 30
0.0
 10
67.60396998092887
 20
-134.1161892025821
 30
0.0
 10
67.5932901849246
 20
-134.1392713423332
 30
0.0
 10
67.56366236375145
 20
-134.2050726661015
 30
0.0
 10
67.54471433858258
 20
-134.2495143978612
 30
0.0
 10
67.54471433858258
 20
-134.2495143978612
 30
0.0
 10
67.8154988437232
 20
-134.2495143978612
 30
0.0
 10
67.8154988437232
 20
-134.2495143978612
 30
0.0
 10
67.90644936453381
 20
-134.2495143978612
 30
0.0
 10
68.10316431674157
 20
-134.2450357737304
 30
0.0
 10
68.24510225073386
 20
-134.2367675445658
 30
0.0
 10
68.24510225073386
 20
-134.2367675445658
 30
0.0
 10
68.24510225073386
 20
-134.4145344716047
 30
0.0
 10
68.24510225073386
 20
-134.4145344716047
 30
0.0
 10
68.16241995908787
 20
-134.4100558474739
 30
0.0
 10
68.14140487662785
 20
-134.4100558474739
 30
0.0
 10
67.9615708922978
 20
-134.4059217328916
 30
0.0
 10
67.9298760138335
 20
-134.5602620106308
 30
0.0
 10
67.88543428207379
 20
-134.6408772449856
 30
0.0
 10
67.84099255031406
 20
-134.7104681737877
 30
0.0
 10
67.9615708922978
 20
-134.769723816134
 30
0.0
 10
68.06733532369498
 20
-134.8375921971934
 30
0.0
 10
68.171032697801
 20
-134.9199299792909
 30
0.0
 10
68.171032697801
 20
-134.9199299792909
 30
0.0
 10
68.0525214131084
 20
-135.0870171103255
 30
0.0
 10
68.0525214131084
 20
-135.0870171103255
 30
0.0
 10
68.0290947638087
 20
-135.0680690851566
 30
0.0
 10
68.01634791051328
 20
-135.059800855992
 30
0.0
 10
67.90438230724266
 20
-134.9750515070548
 30
0.0
 10
67.85580646090064
 20
-134.9368109471686
 30
0.0
 10
67.79655081855434
 20
-134.900981954122
 30
0.0
 10
67.71593558419949
 20
-134.8565402223623
 30
0.0
 10
67.50440672140515
 20
-135.0429198881143
 30
0.0
 10
67.29942354003279
 20
-135.0660020278654
 30
0.0
 10
67.00934650017474
 20
-135.0956298490386
 30
0.0
 10
67.00934650017474
 20
-135.0956298490386
 30
0.0
 10
66.90599363561725
 20
-134.9157958647086
 30
0.0
 10
66.90599363561725
 20
-134.9157958647086
 30
0.0
 10
67.22328692980876
 20
-134.9116617501263
 30
0.0
 10
67.39864229000798
 20
-134.8861680435354
 30
0.0
 10
67.55091551045602
 20
-134.7762694975559
 30
0.0
 10
67.43274873531196
 20
-134.7252820843742
 30
0.0
 10
67.34386527179251
 20
-134.6980658300408
 30
0.0
 10
67.30769176919739
 20
-134.6853189767454
 30
0.0
 10
67.28874374402851
 20
-134.7128797406273
 30
0.0
 10
67.27392983344194
 20
-134.7318277657962
 30
0.0
 10
67.24636906955993
 20
-134.7655897015517
 30
0.0
 10
67.24636906955993
 20
-134.7655897015517
 30
0.0
 10
67.04965411735218
 20
-134.6832519194542
 30
0.0
 10
67.04965411735218
 20
-134.6832519194542
 30
0.0
 10
67.13233640899817
 20
-134.6026366850994
 30
0.0
 10
67.19365910863561
 20
-134.5075520497064
 30
0.0
 10
67.25050318414223
 20
-134.4059217328916
 30
0.0
 10
67.06033391335644
 20
-134.4100558474739
 30
0.0
 10
67.0389743213479
 20
-134.4100558474739
 30
0.0
 10
66.95663653925043
 20
-134.4145344716047
 30
0.0
 10
66.95663653925043
 20
-134.4145344716047
 30
0.0
 10
66.95663653925043
 20
-134.2367675445658
 30
0.0
 10
66.95663653925043
 20
-134.2367675445658
 30
0.0
 10
67.09616290640305
 20
-134.2429687164393
 30
0.0
 10
67.30562471190623
 20
-134.2474473405701
 30
0.0
 10
67.33111841849708
 20
-134.2474473405701
 30
0.0
 10
67.34799938637481
 20
-134.2133408952661
 30
0.0
 10
67.40312091413881
 20
-134.0927625532824
 30
0.0
 10
67.42206893930768
 20
-134.0186930003495
 30
0.0
 10
67.40312091413881
 20
-134.0186930003495
 30
0.0
 10
67.22535398709991
 20
-134.0252386817715
 30
0.0
 10
67.0307060921833
 20
-134.0379855350669
 30
0.0
 10
67.0307060921833
 20
-134.0379855350669
 30
0.0
 10
67.0307060921833
 20
-134.1713107303461
 30
0.0
 10
67.0307060921833
 20
-134.1713107303461
 30
0.0
 10
66.98213024584128
 20
-134.1964599273884
 30
0.0
 10
66.92287460349498
 20
-134.2281548058527
 30
0.0
 10
66.7895494082158
 20
-134.293956129621
 30
0.0
 10
66.7895494082158
 20
-134.293956129621
 30
0.0
 10
66.7895494082158
 20
-134.439683668647
 30
0.0
 10
66.7895494082158
 20
-134.439683668647
 30
0.0
 10
66.7895494082158
 20
-134.439683668647
 30
0.0
 10
66.7895494082158
 20
-134.907527635544
 30
0.0
 10
66.7895494082158
 20
-134.907527635544
 30
0.0
 10
66.7895494082158
 20
-135.0343071494011
 30
0.0
 10
66.75337590562069
 20
-135.0935627917474
 30
0.0
 10
66.47018905673315
 20
-135.0849500530343
 30
0.0
 10
66.47018905673315
 20
-135.0849500530343
 30
0.0
 10
66.36649168262713
 20
-134.8778998143708
 30
0.0
 10
66.36649168262713
 20
-134.8778998143708
 30
0.0
 10
66.42988143955573
 20
-134.8903021581177
 30
0.0
 10
66.47845728589775
 20
-134.8947807822485
 30
0.0
 10
66.51876490307518
 20
-134.8947807822485
 30
0.0
 10
66.59490151329919
 20
-134.8947807822485
 30
0.0
 10
66.60558130930347
 20
-134.8713541329488
 30
0.0
 10
66.60558130930347
 20
-134.8058973187291
 30
0.0
 10
66.60558130930347
 20
-134.8058973187291
 30
0.0
 10
66.60558130930347
 20
-134.3762939117184
 30
0.0
 10
66.60558130930347
 20
-134.3762939117184
 30
0.0
 10
66.5080851070709
 20
-134.4166015288959
 30
0.0
 10
66.49120413919317
 20
-134.4228027007693
 30
0.0
 10
66.4446953501423
 20
-134.4420952354867
 30
0.0
 10
66.44056123556
 20
-134.4631103179467
 30
0.0
 10
66.43608261142917
 20
-134.4927381391199
 30
0.0
 10
66.4171345862603
 20
-134.4927381391199
 30
0.0
 10
66.4088663570957
 20
-134.4927381391199
 30
0.0
 10
66.39818656109144
 20
-134.4886040245376
 30
0.0
 10
66.39164087966945
 20
-134.4651773752379
 30
0.0
 10
66.39164087966945
 20
-134.4651773752379
 30
0.0
 10
66.33893091874513
 20
-134.2725965376124
 30
0.0
 10
66.33893091874513
 20
-134.2725965376124
 30
0.0
 10
66.48500296731973
 20
-134.2260877485616
 30
0.0
 10
66.55045978153947
 20
-134.2030056088104
 30
0.0
 10
66.60558130930347
 20
-134.1816460168018
 30
0.0
 10
66.60558130930347
 20
-134.1816460168018
 30
0.0
 10
66.60558130930347
 20
-133.7692680872174
 30
0.0
 10
66.60558130930347
 20
-133.7692680872174
 30
0.0
 10
66.60558130930347
 20
-133.7692680872174
 30
0.0
 10
66.55252683883062
 20
-133.7692680872174
 30
0.0
 10
66.55252683883062
 20
-133.7692680872174
 30
0.0
 10
66.55252683883062
 20
-133.7692680872174
 30
0.0
 10
66.47432317131545
 20
-133.7692680872174
 30
0.0
 10
66.47432317131545
 20
-133.7692680872174
 30
0.0
 10
66.40645479025603
 20
-133.7692680872174
 30
0.0
 10
66.39818656109144
 20
-133.7692680872174
 30
0.0
 10
66.3620130584963
 20
-133.7754692590909
 30
0.0
 10
66.3620130584963
 20
-133.7754692590909
 30
0.0
 10
66.3620130584963
 20
-133.5808213641743
 30
0.0
 10
66.3620130584963
 20
-133.5808213641743
 30
0.0
 10
66.38957382237831
 20
-133.5873670455962
 30
0.0
 10
66.39818656109144
 20
-133.5873670455962
 30
0.0
 10
66.46777748989348
 20
-133.5873670455962
 30
0.0
 10
66.46777748989348
 20
-133.5873670455962
 30
0.0
 10
66.60110268517265
 20
-133.5873670455962
 30
0.0
 10
66.60110268517265
 20
-133.5873670455962
 30
0.0
 10
66.60110268517265
 20
-133.5174316072456
 30
0.0
 10
66.60110268517265
 20
-133.4350938251482
 30
0.0
 10
66.59903562788149
 20
-133.4306152010174
 30
0.0
 10
66.59076739871689
 20
-133.2507812166873
 30
0.0
 10
66.59076739871689
 20
-133.2318331915184
 30
0.0
 10
66.58835583187722
 20
-133.1853244024676
 30
0.0
 10
66.58835583187722
 20
-133.1853244024676
 30
0.0
 10
66.80436331880239
 20
-133.1939371411807
 30
0.0
 10
66.80436331880239
 20
-133.1939371411807
 30
0.0
 10
66.81504311480666
 20
-133.1939371411807
 30
0.0
 10
66.83605819726668
 20
-133.1960041984718
 30
0.0
 10
66.83605819726668
 20
-133.2128851663496
 30
0.0
 10
66.83605819726668
 20
-133.2318331915184
 30
0.0
 10
66.82124428668011
 20
-133.2425129875227
 30
0.0
 10
66.79575058008926
 20
-133.2614610126916
 30
0.0
 10
66.79575058008926
 20
-133.3121039163248
 30
0.0
 10
66.7895494082158
 20
-133.5408582565453
 30
0.0
 10
66.79161646550696
 20
-133.5873670455962
 30
0.0
 10
66.92080754620383
 20
-133.5873670455962
 30
0.0
 10
66.93320988995073
 20
-133.5873670455962
 30
0.0
 10
67.0307060921833
 20
-133.5787543068831
 30
0.0
 10
67.0307060921833
 20
-133.5787543068831
 30
0.0
 10
67.0307060921833
 20
-133.7734022017997
 30
0.0
 10
67.0307060921833
 20
-133.7734022017997
 30
0.0
 10
66.99246553229703
 20
-133.7713351445086
 30
0.0
 10
66.92494166078613
 20
-133.7672010299263
 30
0.0
 10
66.7895494082158
 20
-133.7692680872174
 30
0.0
 10
66.7895494082158
 20
-133.7692680872174
 30
0.0
 10
66.7895494082158
 20
-134.107576463869
 30
0.0
 10
66.7895494082158
 20
-134.107576463869
 30
0.0
 10
66.8446709359798
 20
-134.0844943241178
 30
0.0
 10
66.91012775019955
 20
-134.0569335602358
 30
0.0
 10
66.95870359654158
 20
-134.0335069109361
 30
0.0
 10
66.95870359654158
 20
-134.0335069109361
 30
0.0
 10
66.95870359654158
 20
-133.8560844934457
 30
0.0
 10
66.95870359654158
 20
-133.8560844934457
 30
0.0
 10
67.07308076665187
 20
-133.8684868371926
 30
0.0
 10
67.19159205134447
 20
-133.8684868371926
 30
0.0
 10
67.30769176919739
 20
-133.8684868371926
 30
0.0
 10
67.28460962944621
 20
-133.7734022017997
 30
0.0
 10
67.25704886556422
 20
-133.6910644197022
 30
0.0
 10
67.19365910863561
 20
-133.5577392244231
 30
0.0
 10
67.1492173768759
 20
-133.5598062817142
 30
0.0
 10
67.0665350852299
 20
-133.5639403962965
 30
0.0
 10
67.02863903489215
 20
-133.5660074535877
 30
0.0
 10
67.02863903489215
 20
-133.5660074535877
 30
0.0
 10
67.02863903489215
 20
-133.3861734692576
 30
0.0
 10
67.02863903489215
 20
-133.3861734692576
 30
0.0
 10
67.1533514914582
 20
-133.3947862079708
 30
0.0
 10
67.32698430391478
 20
-133.3989203225531
 30
0.0
 10
67.40932208601225
 20
-133.3989203225531
 30
0.0
 10
67.40932208601225
 20
-133.3989203225531
 30
0.0
 10
67.49200437765825
 20
-133.3989203225531
 30
0.0
 10
67.49200437765825
 20
-133.3989203225531
 30
0.0
 10
67.49200437765825
 20
-133.2359673061007
 30
0.0
 10
67.49200437765825
 20
-133.225632019645
 30
0.0
 10
67.48959281081858
 20
-133.170510491881
 30
0.0
 10
67.48959281081858
 20
-133.170510491881
 30
0.0
 10
67.71386852690834
 20
-133.1960041984718
 30
0.0
 10
67.71386852690834
 20
-133.1960041984718
 30
0.0
 10
67.71834715103917
 20
-133.1960041984718
 30
0.0
 10
67.7393622334992
 20
-133.198071255763
 30
0.0
 10
67.7393622334992
 20
-133.2149522236407
 30
0.0
 10
67.7393622334992
 20
-133.2297661342273
 30
0.0
 10
67.72868243749491
 20
-133.2383788729404
 30
0.0
 10
67.70112167361292
 20
-133.253192783527
 30
0.0
 10
67.69492050173946
 20
-133.3186495977467
 30
0.0
 10
67.69285344444832
 20
-133.3396646802068
 30
0.0
 10
67.69285344444832
 20
-133.3989203225531
 30
0.0
 10
67.69285344444832
 20
-133.3989203225531
 30
0.0
 10
67.78793807984121
 20
-133.3989203225531
 30
0.0
 10
67.78793807984121
 20
-133.3989203225531
 30
0.0
 10
67.8706203714872
 20
-133.3989203225531
 30
0.0
 10
68.04390867439528
 20
-133.3947862079708
 30
0.0
 10
68.16896564050984
 20
-133.3861734692576
 30
0.0
 10
68.16896564050984
 20
-133.3861734692576
 30
0.0
 10
68.16896564050984
 20
-133.5660074535877
 30
0.0
 10
68.16896564050984
 20
-133.5660074535877
 30
0.0
 10
68.1393378193367
 20
-133.5639403962965
 30
0.0
 10
68.0208265346441
 20
-133.5598062817142
 30
0.0
 10
67.98051891746668
 20
-133.5577392244231
 30
0.0
 10
67.9657050068801
 20
-133.6083821280562
 30
0.0
 10
67.93194307112465
 20
-133.7206922408754
 30
0.0
 10
67.86614174735638
 20
-133.860218608028
 30
0.0
 10
67.90851642182496
 20
-133.860218608028
 30
0.0
 10
68.18584660838756
 20
-133.8412705828591
 30
0.0
 10
68.24716930802502
 20
-133.8388590160195
 30
0.0
 10
68.24716930802502
 20
-133.8388590160195
 30
0.0
 10
68.24716930802502
 20
-134.0231716244803
 30
0.0
 10
68.24716930802502
 20
-134.0231716244803
 30
0.0
 10
68.21754148685187
 20
-134.0231716244803
 30
0.0
 10
68.20066051897415
 20
-134.0186930003495
 30
0.0
 10
68.03770750252183
 20
-134.0186930003495
 30
0.0
  0
SPLINE
  5
57
330
52
100
AcDbEntity
  8
_U+30EC_U+30A4_U+30E4_U+30FC 1
370
     0
100
AcDbSpline
210
0.0
220
0.0
230
1.0
 70
    11
 71
     3
 72
    20
 73
    16
 74
     0
 42
0.0000000001
 43
0.0000000001
 12
1.0
 22
0.0
 32
0.0
 13
1.0
 23
0.0
 33
0.0
 40
0.0
 40
0.0
 40
0.0
 40
0.0
 40
1.0
 40
1.0
 40
1.0
 40
2.0
 40
2.0
 40
2.0
 40
3.0
 40
3.0
 40
3.0
 40
4.0
 40
4.0
 40
4.0
 40
5.0
 40
5.0
 40
5.0
 40
5.0
 10
67.40932208601225
 20
-133.5536051098408
 30
0.0
 10
67.40932208601225
 20
-133.5536051098408
 30
0.0
 10
67.37762720754796
 20
-133.5536051098408
 30
0.0
 10
67.37762720754796
 20
-133.5536051098408
 30
0.0
 10
67.42413599659884
 20
-133.652823859816
 30
0.0
 10
67.45583087506313
 20
-133.7330945846223
 30
0.0
 10
67.48959281081858
 20
-133.860218608028
 30
0.0
 10
67.48959281081858
 20
-133.860218608028
 30
0.0
 10
67.69698755903062
 20
-133.860218608028
 30
0.0
 10
67.69698755903062
 20
-133.860218608028
 30
0.0
 10
67.72868243749491
 20
-133.7672010299263
 30
0.0
 10
67.75210908679462
 20
-133.6824516809891
 30
0.0
 10
67.77519122654579
 20
-133.5536051098408
 30
0.0
 10
67.77519122654579
 20
-133.5536051098408
 30
0.0
 10
67.40932208601225
 20
-133.5536051098408
 30
0.0
 10
67.40932208601225
 20
-133.5536051098408
 30
0.0
  0
SPLINE
  5
58
330
52
100
AcDbEntity
  8
_U+30EC_U+30A4_U+30E4_U+30FC 1
370
     0
100
AcDbSpline
210
0.0
220
0.0
230
1.0
 70
    11
 71
     3
 72
    17
 73
    13
 74
     0
 42
0.0000000001
 43
0.0000000001
 12
1.0
 22
0.0
 32
0.0
 13
1.0
 23
0.0
 33
0.0
 40
0.0
 40
0.0
 40
0.0
 40
0.0
 40
1.0
 40
1.0
 40
1.0
 40
2.0
 40
2.0
 40
2.0
 40
3.0
 40
3.0
 40
3.0
 40
4.0
 40
4.0
 40
4.0
 40
4.0
 10
67.47271184294085
 20
-134.4038546756004
 30
0.0
 10
67.45583087506313
 20
-134.4334824967736
 30
0.0
 10
67.40518797142995
 20
-134.5265000748753
 30
0.0
 10
67.39450817542568
 20
-134.5454481000442
 30
0.0
 10
67.58502195576
 20
-134.6047037423905
 30
0.0
 10
67.60603703822002
 20
-134.6112494238125
 30
0.0
 10
67.67803953386175
 20
-134.6388101876945
 30
0.0
 10
67.73316106162574
 20
-134.5519937814662
 30
0.0
 10
67.75624320137692
 20
-134.4779242285333
 30
0.0
 10
67.77105711196349
 20
-134.4038546756004
 30
0.0
 10
67.77105711196349
 20
-134.4038546756004
 30
0.0
 10
67.47271184294085
 20
-134.4038546756004
 30
0.0
 10
67.47271184294085
 20
-134.4038546756004
 30
0.0
  0
HATCH
  5
59
330
52
100
AcDbEntity
  8
_U+30EC_U+30A4_U+30E4_U+30FC 1
 62
   179
420
  2234388
100
AcDbHatch
 10
0.0
 20
0.0
 30
0.0
210
0.0
220
0.0
230
1.0
  2
SOLID
 70
     1
 71
     0
 91
        3
 92
        1
 93
        1
 72
     4
 94
        3
 73
     0
 74
     1
 95
      242
 96
      238
 40
0.0
 40
0.0
 40
0.0
 40
0.0
 40
1.0
 40
1.0
 40
1.0
 40
2.0
 40
2.0
 40
2.0
 40
3.0
 40
3.0
 40
3.0
 40
4.0
 40
4.0
 40
4.0
 40
5.0
 40
5.0
 40
5.0
 40
6.0
 40
6.0
 40
6.0
 40
7.0
 40
7.0
 40
7.0
 40
8.0
 40
8.0
 40
8.0
 40
9.0
 40
9.0
 40
9.0
 40
10.0
 40
10.0
 40
10.0
 40
11.0
 40
11.0
 40
11.0
 40
12.0
 40
12.0
 40
12.0
 40
13.0
 40
13.0
 40
13.0
 40
14.0
 40
14.0
 40
14.0
 40
15.0
 40
15.0
 40
15.0
 40
16.0
 40
16.0
 40
16.0
 40
17.0
 40
17.0
 40
17.0
 40
18.0
 40
18.0
 40
18.0
 40
19.0
 40
19.0
 40
19.0
 40
20.0
 40
20.0
 40
20.0
 40
21.0
 40
21.0
 40
21.0
 40
22.0
 40
22.0
 40
22.0
 40
23.0
 40
23.0
 40
23.0
 40
24.0
 40
24.0
 40
24.0
 40
25.0
 40
25.0
 40
25.0
 40
26.0
 40
26.0
 40
26.0
 40
27.0
 40
27.0
 40
27.0
 40
28.0
 40
28.0
 40
28.0
 40
29.0
 40
29.0
 40
29.0
 40
30.0
 40
30.0
 40
30.0
 40
31.0
 40
31.0
 40
31.0
 40
32.0
 40
32.0
 40
32.0
 40
33.0
 40
33.0
 40
33.0
 40
34.0
 40
34.0
 40
34.0
 40
35.0
 40
35.0
 40
35.0
 40
36.0
 40
36.0
 40
36.0
 40
37.0
 40
37.0
 40
37.0
 40
38.0
 40
38.0
 40
38.0
 40
39.0
 40
39.0
 40
39.0
 40
40.0
 40
40.0
 40
40.0
 40
41.0
 40
41.0
 40
41.0
 40
42.0
 40
42.0
 40
42.0
 40
43.0
 40
43.0
 40
43.0
 40
44.0
 40
44.0
 40
44.0
 40
45.0
 40
45.0
 40
45.0
 40
46.0
 40
46.0
 40
46.0
 40
47.0
 40
47.0
 40
47.0
 40
48.0
 40
48.0
 40
48.0
 40
49.0
 40
49.0
 40
49.0
 40
50.0
 40
50.0
 40
50.0
 40
51.0
 40
51.0
 40
51.0
 40
52.0
 40
52.0
 40
52.0
 40
53.0
 40
53.0
 40
53.0
 40
54.0
 40
54.0
 40
54.0
 40
55.0
 40
55.0
 40
55.0
 40
56.0
 40
56.0
 40
56.0
 40
57.0
 40
57.0
 40
57.0
 40
58.0
 40
58.0
 40
58.0
 40
59.0
 40
59.0
 40
59.0
 40
60.0
 40
60.0
 40
60.0
 40
61.0
 40
61.0
 40
61.0
 40
62.0
 40
62.0
 40
62.0
 40
63.0
 40
63.0
 40
63.0
 40
64.0
 40
64.0
 40
64.0
 40
65.0
 40
65.0
 40
65.0
 40
66.0
 40
66.0
 40
66.0
 40
67.0
 40
67.0
 40
67.0
 40
68.0
 40
68.0
 40
68.0
 40
69.0
 40
69.0
 40
69.0
 40
70.0
 40
70.0
 40
70.0
 40
71.0
 40
71.0
 40
71.0
 40
72.0
 40
72.0
 40
72.0
 40
73.0
 40
73.0
 40
73.0
 40
74.0
 40
74.0
 40
74.0
 40
75.0
 40
75.0
 40
75.0
 40
76.0
 40
76.0
 40
76.0
 40
77.0
 40
77.0
 40
77.0
 40
78.0
 40
78.0
 40
78.0
 40
79.0
 40
79.0
 40
79.0
 40
79.0
 10
68.03770750252183
 20
-134.0186930003495
 10
68.03770750252183
 20
-134.0186930003495
 10
67.78380396525891
 20
-134.0186930003495
 10
67.78380396525891
 20
-134.0186930003495
 10
67.78380396525891
 20
-134.0186930003495
 10
67.50681828824483
 20
-134.0186930003495
 10
67.50681828824483
 20
-134.0186930003495
 10
67.50681828824483
 20
-134.0186930003495
 10
67.63359780210202
 20
-134.0610676748181
 10
67.63359780210202
 20
-134.0610676748181
 10
67.6442775981063
 20
-134.0655462989489
 10
67.65702445140172
 20
-134.0717474708223
 10
67.65702445140172
 20
-134.0844943241178
 10
67.65702445140172
 20
-134.1055094065778
 10
67.62498506338889
 20
-134.1120550879998
 10
67.60396998092887
 20
-134.1161892025821
 10
67.5932901849246
 20
-134.1392713423332
 10
67.56366236375145
 20
-134.2050726661015
 10
67.54471433858258
 20
-134.2495143978612
 10
67.54471433858258
 20
-134.2495143978612
 10
67.8154988437232
 20
-134.2495143978612
 10
67.8154988437232
 20
-134.2495143978612
 10
67.90644936453381
 20
-134.2495143978612
 10
68.10316431674157
 20
-134.2450357737304
 10
68.24510225073386
 20
-134.2367675445658
 10
68.24510225073386
 20
-134.2367675445658
 10
68.24510225073386
 20
-134.4145344716047
 10
68.24510225073386
 20
-134.4145344716047
 10
68.16241995908787
 20
-134.4100558474739
 10
68.14140487662785
 20
-134.4100558474739
 10
67.9615708922978
 20
-134.4059217328916
 10
67.9298760138335
 20
-134.5602620106308
 10
67.88543428207379
 20
-134.6408772449856
 10
67.84099255031406
 20
-134.7104681737877
 10
67.9615708922978
 20
-134.769723816134
 10
68.06733532369498
 20
-134.8375921971934
 10
68.171032697801
 20
-134.9199299792909
 10
68.171032697801
 20
-134.9199299792909
 10
68.0525214131084
 20
-135.0870171103255
 10
68.0525214131084
 20
-135.0870171103255
 10
68.0290947638087
 20
-135.0680690851566
 10
68.01634791051328
 20
-135.059800855992
 10
67.90438230724266
 20
-134.9750515070548
 10
67.85580646090064
 20
-134.9368109471686
 10
67.79655081855434
 20
-134.900981954122
 10
67.71593558419949
 20
-134.8565402223623
 10
67.50440672140515
 20
-135.0429198881143
 10
67.29942354003279
 20
-135.0660020278654
 10
67.00934650017474
 20
-135.0956298490386
 10
67.00934650017474
 20
-135.0956298490386
 10
66.90599363561725
 20
-134.9157958647086
 10
66.90599363561725
 20
-134.9157958647086
 10
67.22328692980876
 20
-134.9116617501263
 10
67.39864229000798
 20
-134.8861680435354
 10
67.55091551045602
 20
-134.7762694975559
 10
67.43274873531196
 20
-134.7252820843742
 10
67.34386527179251
 20
-134.6980658300408
 10
67.30769176919739
 20
-134.6853189767454
 10
67.28874374402851
 20
-134.7128797406273
 10
67.27392983344194
 20
-134.7318277657962
 10
67.24636906955993
 20
-134.7655897015517
 10
67.24636906955993
 20
-134.7655897015517
 10
67.04965411735218
 20
-134.6832519194542
 10
67.04965411735218
 20
-134.6832519194542
 10
67.13233640899817
 20
-134.6026366850994
 10
67.19365910863561
 20
-134.5075520497064
 10
67.25050318414223
 20
-134.4059217328916
 10
67.06033391335644
 20
-134.4100558474739
 10
67.0389743213479
 20
-134.4100558474739
 10
66.95663653925043
 20
-134.4145344716047
 10
66.95663653925043
 20
-134.4145344716047
 10
66.95663653925043
 20
-134.2367675445658
 10
66.95663653925043
 20
-134.2367675445658
 10
67.09616290640305
 20
-134.2429687164393
 10
67.30562471190623
 20
-134.2474473405701
 10
67.33111841849708
 20
-134.2474473405701
 10
67.34799938637481
 20
-134.2133408952661
 10
67.40312091413881
 20
-134.0927625532824
 10
67.42206893930768
 20
-134.0186930003495
 10
67.40312091413881
 20
-134.0186930003495
 10
67.22535398709991
 20
-134.0252386817715
 10
67.0307060921833
 20
-134.0379855350669
 10
67.0307060921833
 20
-134.0379855350669
 10
67.0307060921833
 20
-134.1713107303461
 10
67.0307060921833
 20
-134.1713107303461
 10
66.98213024584128
 20
-134.1964599273884
 10
66.92287460349498
 20
-134.2281548058527
 10
66.7895494082158
 20
-134.293956129621
 10
66.7895494082158
 20
-134.293956129621
 10
66.7895494082158
 20
-134.439683668647
 10
66.7895494082158
 20
-134.439683668647
 10
66.7895494082158
 20
-134.439683668647
 10
66.7895494082158
 20
-134.907527635544
 10
66.7895494082158
 20
-134.907527635544
 10
66.7895494082158
 20
-135.0343071494011
 10
66.75337590562069
 20
-135.0935627917474
 10
66.47018905673315
 20
-135.0849500530343
 10
66.47018905673315
 20
-135.0849500530343
 10
66.36649168262713
 20
-134.8778998143708
 10
66.36649168262713
 20
-134.8778998143708
 10
66.42988143955573
 20
-134.8903021581177
 10
66.47845728589775
 20
-134.8947807822485
 10
66.51876490307518
 20
-134.8947807822485
 10
66.59490151329919
 20
-134.8947807822485
 10
66.60558130930347
 20
-134.8713541329488
 10
66.60558130930347
 20
-134.8058973187291
 10
66.60558130930347
 20
-134.8058973187291
 10
66.60558130930347
 20
-134.3762939117184
 10
66.60558130930347
 20
-134.3762939117184
 10
66.5080851070709
 20
-134.4166015288959
 10
66.49120413919317
 20
-134.4228027007693
 10
66.4446953501423
 20
-134.4420952354867
 10
66.44056123556
 20
-134.4631103179467
 10
66.43608261142917
 20
-134.4927381391199
 10
66.4171345862603
 20
-134.4927381391199
 10
66.4088663570957
 20
-134.4927381391199
 10
66.39818656109144
 20
-134.4886040245376
 10
66.39164087966945
 20
-134.4651773752379
 10
66.39164087966945
 20
-134.4651773752379
 10
66.33893091874513
 20
-134.2725965376124
 10
66.33893091874513
 20
-134.2725965376124
 10
66.48500296731973
 20
-134.2260877485616
 10
66.55045978153947
 20
-134.2030056088104
 10
66.60558130930347
 20
-134.1816460168018
 10
66.60558130930347
 20
-134.1816460168018
 10
66.60558130930347
 20
-133.7692680872174
 10
66.60558130930347
 20
-133.7692680872174
 10
66.60558130930347
 20
-133.7692680872174
 10
66.55252683883062
 20
-133.7692680872174
 10
66.55252683883062
 20
-133.7692680872174
 10
66.55252683883062
 20
-133.7692680872174
 10
66.47432317131545
 20
-133.7692680872174
 10
66.47432317131545
 20
-133.7692680872174
 10
66.40645479025603
 20
-133.7692680872174
 10
66.39818656109144
 20
-133.7692680872174
 10
66.3620130584963
 20
-133.7754692590909
 10
66.3620130584963
 20
-133.7754692590909
 10
66.3620130584963
 20
-133.5808213641743
 10
66.3620130584963
 20
-133.5808213641743
 10
66.38957382237831
 20
-133.5873670455962
 10
66.39818656109144
 20
-133.5873670455962
 10
66.46777748989348
 20
-133.5873670455962
 10
66.46777748989348
 20
-133.5873670455962
 10
66.60110268517265
 20
-133.5873670455962
 10
66.60110268517265
 20
-133.5873670455962
 10
66.60110268517265
 20
-133.5174316072456
 10
66.60110268517265
 20
-133.4350938251482
 10
66.59903562788149
 20
-133.4306152010174
 10
66.59076739871689
 20
-133.2507812166873
 10
66.59076739871689
 20
-133.2318331915184
 10
66.58835583187722
 20
-133.1853244024676
 10
66.58835583187722
 20
-133.1853244024676
 10
66.80436331880239
 20
-133.1939371411807
 10
66.80436331880239
 20
-133.1939371411807
 10
66.81504311480666
 20
-133.1939371411807
 10
66.83605819726668
 20
-133.1960041984718
 10
66.83605819726668
 20
-133.2128851663496
 10
66.83605819726668
 20
-133.2318331915184
 10
66.82124428668011
 20
-133.2425129875227
 10
66.79575058008926
 20
-133.2614610126916
 10
66.79575058008926
 20
-133.3121039163248
 10
66.7895494082158
 20
-133.5408582565453
 10
66.79161646550696
 20
-133.5873670455962
 10
66.92080754620383
 20
-133.5873670455962
 10
66.93320988995073
 20
-133.5873670455962
 10
67.0307060921833
 20
-133.5787543068831
 10
67.0307060921833
 20
-133.5787543068831
 10
67.0307060921833
 20
-133.7734022017997
 10
67.0307060921833
 20
-133.7734022017997
 10
66.99246553229703
 20
-133.7713351445086
 10
66.92494166078613
 20
-133.7672010299263
 10
66.7895494082158
 20
-133.7692680872174
 10
66.7895494082158
 20
-133.7692680872174
 10
66.7895494082158
 20
-134.107576463869
 10
66.7895494082158
 20
-134.107576463869
 10
66.8446709359798
 20
-134.0844943241178
 10
66.91012775019955
 20
-134.0569335602358
 10
66.95870359654158
 20
-134.0335069109361
 10
66.95870359654158
 20
-134.0335069109361
 10
66.95870359654158
 20
-133.8560844934457
 10
66.95870359654158
 20
-133.8560844934457
 10
67.07308076665187
 20
-133.8684868371926
 10
67.19159205134447
 20
-133.8684868371926
 10
67.30769176919739
 20
-133.8684868371926
 10
67.28460962944621
 20
-133.7734022017997
 10
67.25704886556422
 20
-133.6910644197022
 10
67.19365910863561
 20
-133.5577392244231
 10
67.1492173768759
 20
-133.5598062817142
 10
67.0665350852299
 20
-133.5639403962965
 10
67.02863903489215
 20
-133.5660074535877
 10
67.02863903489215
 20
-133.5660074535877
 10
67.02863903489215
 20
-133.3861734692576
 10
67.02863903489215
 20
-133.3861734692576
 10
67.1533514914582
 20
-133.3947862079708
 10
67.32698430391478
 20
-133.3989203225531
 10
67.40932208601225
 20
-133.3989203225531
 10
67.40932208601225
 20
-133.3989203225531
 10
67.49200437765825
 20
-133.3989203225531
 10
67.49200437765825
 20
-133.3989203225531
 10
67.49200437765825
 20
-133.2359673061007
 10
67.49200437765825
 20
-133.225632019645
 10
67.48959281081858
 20
-133.170510491881
 10
67.48959281081858
 20
-133.170510491881
 10
67.71386852690834
 20
-133.1960041984718
 10
67.71386852690834
 20
-133.1960041984718
 10
67.71834715103917
 20
-133.1960041984718
 10
67.7393622334992
 20
-133.198071255763
 10
67.7393622334992
 20
-133.2149522236407
 10
67.7393622334992
 20
-133.2297661342273
 10
67.72868243749491
 20
-133.2383788729404
 10
67.70112167361292
 20
-133.253192783527
 10
67.69492050173946
 20
-133.3186495977467
 10
67.69285344444832
 20
-133.3396646802068
 10
67.69285344444832
 20
-133.3989203225531
 10
67.69285344444832
 20
-133.3989203225531
 10
67.78793807984121
 20
-133.3989203225531
 10
67.78793807984121
 20
-133.3989203225531
 10
67.8706203714872
 20
-133.3989203225531
 10
68.04390867439528
 20
-133.3947862079708
 10
68.16896564050984
 20
-133.3861734692576
 10
68.16896564050984
 20
-133.3861734692576
 10
68.16896564050984
 20
-133.5660074535877
 10
68.16896564050984
 20
-133.5660074535877
 10
68.1393378193367
 20
-133.5639403962965
 10
68.0208265346441
 20
-133.5598062817142
 10
67.98051891746668
 20
-133.5577392244231
 10
67.9657050068801
 20
-133.6083821280562
 10
67.93194307112465
 20
-133.7206922408754
 10
67.86614174735638
 20
-133.860218608028
 10
67.90851642182496
 20
-133.860218608028
 10
68.18584660838756
 20
-133.8412705828591
 10
68.24716930802502
 20
-133.8388590160195
 10
68.24716930802502
 20
-133.8388590160195
 10
68.24716930802502
 20
-134.0231716244803
 10
68.24716930802502
 20
-134.0231716244803
 10
68.21754148685187
 20
-134.0231716244803
 10
68.20066051897415
 20
-134.0186930003495
 10
68.03770750252183
 20
-134.0186930003495
 97
        0
 97
        0
 92
        1
 93
        1
 72
     4
 94
        3
 73
     0
 74
     1
 95
       20
 96
       16
 40
0.0
 40
0.0
 40
0.0
 40
0.0
 40
1.0
 40
1.0
 40
1.0
 40
2.0
 40
2.0
 40
2.0
 40
3.0
 40
3.0
 40
3.0
 40
4.0
 40
4.0
 40
4.0
 40
5.0
 40
5.0
 40
5.0
 40
5.0
 10
67.40932208601225
 20
-133.5536051098408
 10
67.40932208601225
 20
-133.5536051098408
 10
67.37762720754796
 20
-133.5536051098408
 10
67.37762720754796
 20
-133.5536051098408
 10
67.42413599659884
 20
-133.652823859816
 10
67.45583087506313
 20
-133.7330945846223
 10
67.48959281081858
 20
-133.860218608028
 10
67.48959281081858
 20
-133.860218608028
 10
67.69698755903062
 20
-133.860218608028
 10
67.69698755903062
 20
-133.860218608028
 10
67.72868243749491
 20
-133.7672010299263
 10
67.75210908679462
 20
-133.6824516809891
 10
67.77519122654579
 20
-133.5536051098408
 10
67.77519122654579
 20
-133.5536051098408
 10
67.40932208601225
 20
-133.5536051098408
 10
67.40932208601225
 20
-133.5536051098408
 97
        0
 97
        0
 92
        1
 93
        1
 72
     4
 94
        3
 73
     0
 74
     1
 95
       17
 96
       13
 40
0.0
 40
0.0
 40
0.0
 40
0.0
 40
1.0
 40
1.0
 40
1.0
 40
2.0
 40
2.0
 40
2.0
 40
3.0
 40
3.0
 40
3.0
 40
4.0
 40
4.0
 40
4.0
 40
4.0
 10
67.47271184294085
 20
-134.4038546756004
 10
67.45583087506313
 20
-134.4334824967736
 10
67.40518797142995
 20
-134.5265000748753
 10
67.39450817542568
 20
-134.5454481000442
 10
67.58502195576
 20
-134.6047037423905
 10
67.60603703822002
 20
-134.6112494238125
 10
67.67803953386175
 20
-134.6388101876945
 10
67.73316106162574
 20
-134.5519937814662
 10
67.75624320137692
 20
-134.4779242285333
 10
67.77105711196349
 20
-134.4038546756004
 10
67.77105711196349
 20
-134.4038546756004
 10
67.47271184294085
 20
-134.4038546756004
 10
67.47271184294085
 20
-134.4038546756004
 97
        0
 97
        0
 75
     2
 76
     1
 98
        0
  0
SPLINE
  5
5A
330
52
100
AcDbEntity
  8
_U+30EC_U+30A4_U+30E4_U+30FC 1
370
     0
100
AcDbSpline
210
0.0
220
0.0
230
1.0
 70
    11
 71
     3
 72
   203
 73
   199
 74
     0
 42
0.0000000001
 43
0.0000000001
 12
1.0
 22
0.0
 32
0.0
 13
1.0
 23
0.0
 33
0.0
 40
0.0
 40
0.0
 40
0.0
 40
0.0
 40
1.0
 40
1.0
 40
1.0
 40
2.0
 40
2.0
 40
2.0
 40
3.0
 40
3.0
 40
3.0
 40
4.0
 40
4.0
 40
4.0
 40
5.0
 40
5.0
 40
5.0
 40
6.0
 40
6.0
 40
6.0
 40
7.0
 40
7.0
 40
7.0
 40
8.0
 40
8.0
 40
8.0
 40
9.0
 40
9.0
 40
9.0
 40
10.0
 40
10.0
 40
10.0
 40
11.0
 40
11.0
 40
11.0
 40
12.0
 40
12.0
 40
12.0
 40
13.0
 40
13.0
 40
13.0
 40
14.0
 40
14.0
 40
14.0
 40
15.0
 40
15.0
 40
15.0
 40
16.0
 40
16.0
 40
16.0
 40
17.0
 40
17.0
 40
17.0
 40
18.0
 40
18.0
 40
18.0
 40
19.0
 40
19.0
 40
19.0
 40
20.0
 40
20.0
 40
20.0
 40
21.0
 40
21.0
 40
21.0
 40
22.0
 40
22.0
 40
22.0
 40
23.0
 40
23.0
 40
23.0
 40
24.0
 40
24.0
 40
24.0
 40
25.0
 40
25.0
 40
25.0
 40
26.0
 40
26.0
 40
26.0
 40
27.0
 40
27.0
 40
27.0
 40
28.0
 40
28.0
 40
28.0
 40
29.0
 40
29.0
 40
29.0
 40
30.0
 40
30.0
 40
30.0
 40
31.0
 40
31.0
 40
31.0
 40
32.0
 40
32.0
 40
32.0
 40
33.0
 40
33.0
 40
33.0
 40
34.0
 40
34.0
 40
34.0
 40
35.0
 40
35.0
 40
35.0
 40
36.0
 40
36.0
 40
36.0
 40
37.0
 40
37.0
 40
37.0
 40
38.0
 40
38.0
 40
38.0
 40
39.0
 40
39.0
 40
39.0
 40
40.0
 40
40.0
 40
40.0
 40
41.0
 40
41.0
 40
41.0
 40
42.0
 40
42.0
 40
42.0
 40
43.0
 40
43.0
 40
43.0
 40
44.0
 40
44.0
 40
44.0
 40
45.0
 40
45.0
 40
45.0
 40
46.0
 40
46.0
 40
46.0
 40
47.0
 40
47.0
 40
47.0
 40
48.0
 40
48.0
 40
48.0
 40
49.0
 40
49.0
 40
49.0
 40
50.0
 40
50.0
 40
50.0
 40
51.0
 40
51.0
 40
51.0
 40
52.0
 40
52.0
 40
52.0
 40
53.0
 40
53.0
 40
53.0
 40
54.0
 40
54.0
 40
54.0
 40
55.0
 40
55.0
 40
55.0
 40
56.0
 40
56.0
 40
56.0
 40
57.0
 40
57.0
 40
57.0
 40
58.0
 40
58.0
 40
58.0
 40
59.0
 40
59.0
 40
59.0
 40
60.0
 40
60.0
 40
60.0
 40
61.0
 40
61.0
 40
61.0
 40
62.0
 40
62.0
 40
62.0
 40
63.0
 40
63.0
 40
63.0
 40
64.0
 40
64.0
 40
64.0
 40
65.0
 40
65.0
 40
65.0
 40
66.0
 40
66.0
 40
66.0
 40
66.0
 10
69.7292493857795
 20
-134.0865613814089
 30
0.0
 10
69.7292493857795
 20
-134.0865613814089
 30
0.0
 10
69.17045489807197
 20
-134.0865613814089
 30
0.0
 10
69.17045489807197
 20
-134.0865613814089
 30
0.0
 10
69.16011961161622
 20
-134.1310031131686
 30
0.0
 10
69.1515068729031
 20
-134.1626979916329
 30
0.0
 10
69.13876001960767
 20
-134.2009385515192
 30
0.0
 10
69.16425372619852
 20
-134.2009385515192
 30
0.0
 10
69.17906763678509
 20
-134.2030056088104
 30
0.0
 10
69.18526880865855
 20
-134.2030056088104
 30
0.0
 10
69.18526880865855
 20
-134.2030056088104
 30
0.0
 10
69.37371553170172
 20
-134.2030056088104
 30
0.0
 10
69.37371553170172
 20
-134.2030056088104
 30
0.0
 10
69.37371553170172
 20
-134.2030056088104
 30
0.0
 10
69.74819741094836
 20
-134.2030056088104
 30
0.0
 10
69.74819741094836
 20
-134.2030056088104
 30
0.0
 10
69.79884031458154
 20
-134.2030056088104
 30
0.0
 10
70.0823716730176
 20
-134.1902587555149
 30
0.0
 10
70.1140665514819
 20
-134.1902587555149
 30
0.0
 10
70.11199949419075
 20
-134.217819519397
 30
0.0
 10
70.1099324368996
 20
-134.2367675445658
 30
0.0
 10
70.1099324368996
 20
-134.266395365739
 30
0.0
 10
70.10786537960846
 20
-134.2980902442033
 30
0.0
 10
70.10786537960846
 20
-134.4334824967736
 30
0.0
 10
70.10786537960846
 20
-134.4610432606556
 30
0.0
 10
70.10786537960846
 20
-134.4610432606556
 30
0.0
 10
70.10786537960846
 20
-134.7063340592054
 30
0.0
 10
70.10786537960846
 20
-134.7063340592054
 30
0.0
 10
70.10786537960846
 20
-134.7507757909651
 30
0.0
 10
70.11199949419075
 20
-134.9474907431729
 30
0.0
 10
70.11613360877305
 20
-135.0997639636209
 30
0.0
 10
70.11613360877305
 20
-135.0997639636209
 30
0.0
 10
69.88979083539213
 20
-135.0997639636209
 30
0.0
 10
69.88979083539213
 20
-135.0997639636209
 30
0.0
 10
69.88979083539213
 20
-135.0997639636209
 30
0.0
 10
69.89185789268329
 20
-135.0660020278654
 30
0.0
 10
69.89185789268329
 20
-135.0660020278654
 30
0.0
 10
69.89185789268329
 20
-135.0660020278654
 30
0.0
 10
69.18974743278937
 20
-135.0660020278654
 30
0.0
 10
69.18974743278937
 20
-135.0660020278654
 30
0.0
 10
69.18974743278937
 20
-135.0660020278654
 30
0.0
 10
69.19181449008052
 20
-135.0997639636209
 30
0.0
 10
69.19181449008052
 20
-135.0997639636209
 30
0.0
 10
69.19181449008052
 20
-135.0997639636209
 30
0.0
 10
68.97373994586421
 20
-135.0997639636209
 30
0.0
 10
68.97373994586421
 20
-135.0997639636209
 30
0.0
 10
68.97821856999504
 20
-135.0449869454054
 30
0.0
 10
68.97821856999504
 20
-135.03224009211
 30
0.0
 10
68.98441974186848
 20
-134.9178629219997
 30
0.0
 10
68.98648679915964
 20
-134.8903021581177
 30
0.0
 10
68.98855385645078
 20
-134.7573214723871
 30
0.0
 10
68.98855385645078
 20
-134.7380289376697
 30
0.0
 10
68.98855385645078
 20
-134.7380289376697
 30
0.0
 10
68.98855385645078
 20
-134.5351128135885
 30
0.0
 10
68.98855385645078
 20
-134.5351128135885
 30
0.0
 10
68.84902748929817
 20
-134.7845377267205
 30
0.0
 10
68.67987330097239
 20
-134.9157958647086
 30
0.0
 10
68.57410886957523
 20
-134.9812526789283
 30
0.0
 10
68.57410886957523
 20
-134.9812526789283
 30
0.0
 10
68.40047605711864
 20
-134.8417263117757
 30
0.0
 10
68.40047605711864
 20
-134.8417263117757
 30
0.0
 10
68.48935952063808
 20
-134.7910834081425
 30
0.0
 10
68.63336451192153
 20
-134.7042670019142
 30
0.0
 10
68.770823821783
 20
-134.5096191069976
 30
0.0
 10
68.86177434259359
 20
-134.3828395931404
 30
0.0
 10
68.92723115681333
 20
-134.238834601857
 30
0.0
 10
68.96133760211731
 20
-134.0865613814089
 30
0.0
 10
68.73258326189672
 20
-134.0886284387001
 30
0.0
 10
68.55274927756668
 20
-134.095174120122
 30
0.0
 10
68.45766464217378
 20
-134.0972411774132
 30
0.0
 10
68.45766464217378
 20
-134.0972411774132
 30
0.0
 10
68.45766464217378
 20
-133.9194742503743
 30
0.0
 10
68.45766464217378
 20
-133.9194742503743
 30
0.0
 10
68.65437959438155
 20
-133.9256754222478
 30
0.0
 10
68.9379109528176
 20
-133.9301540463786
 30
0.0
 10
69.0881171159745
 20
-133.9301540463786
 30
0.0
 10
69.0881171159745
 20
-133.9301540463786
 30
0.0
 10
69.30171303606
 20
-133.9301540463786
 30
0.0
 10
69.30171303606
 20
-133.9301540463786
 30
0.0
 10
69.30171303606
 20
-133.9301540463786
 30
0.0
 10
69.30171303606
 20
-133.8219780481417
 30
0.0
 10
69.30171303606
 20
-133.8219780481417
 30
0.0
 10
69.30171303606
 20
-133.8219780481417
 30
0.0
 10
69.1556409874854
 20
-133.8219780481417
 30
0.0
 10
69.1556409874854
 20
-133.8219780481417
 30
0.0
 10
68.98648679915964
 20
-133.8219780481417
 30
0.0
 10
68.81733261083386
 20
-133.8264566722726
 30
0.0
 10
68.65024547979925
 20
-133.832657844146
 30
0.0
 10
68.65024547979925
 20
-133.832657844146
 30
0.0
 10
68.65024547979925
 20
-133.6614365985291
 30
0.0
 10
68.65024547979925
 20
-133.6614365985291
 30
0.0
 10
68.80458575753843
 20
-133.6717718849848
 30
0.0
 10
68.99062091374194
 20
-133.6717718849848
 30
0.0
 10
69.1556409874854
 20
-133.6717718849848
 30
0.0
 10
69.1556409874854
 20
-133.6717718849848
 30
0.0
 10
69.30171303606
 20
-133.6717718849848
 30
0.0
 10
69.30171303606
 20
-133.6717718849848
 30
0.0
 10
69.30171303606
 20
-133.6717718849848
 30
0.0
 10
69.30171303606
 20
-133.5536051098408
 30
0.0
 10
69.30171303606
 20
-133.5536051098408
 30
0.0
 10
69.30171303606
 20
-133.5536051098408
 30
0.0
 10
69.17045489807197
 20
-133.5536051098408
 30
0.0
 10
69.17045489807197
 20
-133.5536051098408
 30
0.0
 10
69.1239461090211
 20
-133.5536051098408
 30
0.0
 10
68.92102998493988
 20
-133.5618733390054
 30
0.0
 10
68.87865531047132
 20
-133.5618733390054
 30
0.0
 10
68.67573918639009
 20
-133.5660074535877
 30
0.0
 10
68.59925806661755
 20
-133.5680745108788
 30
0.0
 10
68.52105439910238
 20
-133.5704860777185
 30
0.0
 10
68.52105439910238
 20
-133.5704860777185
 30
0.0
 10
68.52105439910238
 20
-133.3861734692576
 30
0.0
 10
68.52105439910238
 20
-133.3861734692576
 30
0.0
 10
68.63543156921267
 20
-133.3947862079708
 30
0.0
 10
68.67987330097239
 20
-133.3947862079708
 30
0.0
 10
69.06262340938365
 20
-133.4033989466839
 30
0.0
 10
68.99923365245506
 20
-133.3079698017424
 30
0.0
 10
68.97167288857305
 20
-133.2804090378605
 30
0.0
 10
68.93584389552646
 20
-133.2445800448139
 30
0.0
 10
68.93584389552646
 20
-133.2445800448139
 30
0.0
 10
69.11119925572568
 20
-133.1618977531679
 30
0.0
 10
69.11119925572568
 20
-133.1618977531679
 30
0.0
 10
69.1515068729031
 20
-133.198071255763
 30
0.0
 10
69.19594860466282
 20
-133.2404459302316
 30
0.0
 10
69.27001815759569
 20
-133.350344476211
 30
0.0
 10
69.27001815759569
 20
-133.350344476211
 30
0.0
 10
69.1556409874854
 20
-133.405466003975
 30
0.0
 10
69.1556409874854
 20
-133.405466003975
 30
0.0
 10
69.1556409874854
 20
-133.405466003975
 30
0.0
 10
69.16632078348967
 20
-133.405466003975
 30
0.0
 10
69.16632078348967
 20
-133.405466003975
 30
0.0
 10
69.16632078348967
 20
-133.405466003975
 30
0.0
 10
69.68894176860208
 20
-133.405466003975
 30
0.0
 10
69.68894176860208
 20
-133.405466003975
 30
0.0
 10
69.68894176860208
 20
-133.405466003975
 30
0.0
 10
69.59385713320918
 20
-133.3610242722153
 30
0.0
 10
69.59385713320918
 20
-133.3610242722153
 30
0.0
 10
69.62107338754265
 20
-133.322783712329
 30
0.0
 10
69.6782619725978
 20
-133.2425129875227
 30
0.0
 10
69.69307588318438
 20
-133.1684434345898
 30
0.0
 10
69.69307588318438
 20
-133.1684434345898
 30
0.0
 10
69.90667180326986
 20
-133.2318331915184
 30
0.0
 10
69.90667180326986
 20
-133.2318331915184
 30
0.0
 10
69.91528454198298
 20
-133.2339002488096
 30
0.0
 10
69.93629962444301
 20
-133.2445800448139
 30
0.0
 10
69.93629962444301
 20
-133.2655951272739
 30
0.0
 10
69.93629962444301
 20
-133.3038356871602
 30
0.0
 10
69.87084281022327
 20
-133.3038356871602
 30
0.0
 10
69.85189478505438
 20
-133.3038356871602
 30
0.0
 10
69.84121498905012
 20
-133.322783712329
 30
0.0
 10
69.81778833975042
 20
-133.3630913295065
 30
0.0
 10
69.78816051857727
 20
-133.4033989466839
 30
0.0
 10
70.18813610441478
 20
-133.3968532652619
 30
0.0
 10
70.21776392558792
 20
-133.3947862079708
 30
0.0
 10
70.29390053581194
 20
-133.3885850360973
 30
0.0
 10
70.29390053581194
 20
-133.3885850360973
 30
0.0
 10
70.29390053581194
 20
-133.5704860777185
 30
0.0
 10
70.29390053581194
 20
-133.5704860777185
 30
0.0
 10
70.27495251064308
 20
-133.5704860777185
 30
0.0
 10
70.24945880405222
 20
-133.5680745108788
 30
0.0
 10
70.02966171209329
 20
-133.5598062817142
 30
0.0
 10
69.97867429891159
 20
-133.5577392244231
 30
0.0
 10
69.75887720695265
 20
-133.5536051098408
 30
0.0
 10
69.71443547519293
 20
-133.5536051098408
 30
0.0
 10
69.71443547519293
 20
-133.5536051098408
 30
0.0
 10
69.49842798826776
 20
-133.5536051098408
 30
0.0
 10
69.49842798826776
 20
-133.5536051098408
 30
0.0
 10
69.49842798826776
 20
-133.5536051098408
 30
0.0
 10
69.49842798826776
 20
-133.6717718849848
 30
0.0
 10
69.49842798826776
 20
-133.6717718849848
 30
0.0
 10
69.49842798826776
 20
-133.6717718849848
 30
0.0
 10
69.67206080072435
 20
-133.6717718849848
 30
0.0
 10
69.67206080072435
 20
-133.6717718849848
 30
0.0
 10
69.83501381717667
 20
-133.6717718849848
 30
0.0
 10
70.02518308796246
 20
-133.6717718849848
 30
0.0
 10
70.18193493254132
 20
-133.6614365985291
 30
0.0
 10
70.18193493254132
 20
-133.6614365985291
 30
0.0
 10
70.18193493254132
 20
-133.832657844146
 30
0.0
 10
70.18193493254132
 20
-133.832657844146
 30
0.0
 10
69.97247312703813
 20
-133.8243896149814
 30
0.0
 10
69.77575817483037
 20
-133.8219780481417
 30
0.0
 10
69.67206080072435
 20
-133.8219780481417
 30
0.0
 10
69.67206080072435
 20
-133.8219780481417
 30
0.0
 10
69.49842798826776
 20
-133.8219780481417
 30
0.0
 10
69.49842798826776
 20
-133.8219780481417
 30
0.0
 10
69.49842798826776
 20
-133.8219780481417
 30
0.0
 10
69.49842798826776
 20
-133.9301540463786
 30
0.0
 10
69.49842798826776
 20
-133.9301540463786
 30
0.0
 10
69.49842798826776
 20
-133.9301540463786
 30
0.0
 10
69.7292493857795
 20
-133.9301540463786
 30
0.0
 10
69.7292493857795
 20
-133.9301540463786
 30
0.0
 10
69.86223007151014
 20
-133.9301540463786
 30
0.0
 10
70.15024005407703
 20
-133.9256754222478
 30
0.0
 10
70.35935735003169
 20
-133.9194742503743
 30
0.0
 10
70.35935735003169
 20
-133.9194742503743
 30
0.0
 10
70.35935735003169
 20
-134.0972411774132
 30
0.0
 10
70.35935735003169
 20
-134.0972411774132
 30
0.0
 10
70.16712102195476
 20
-134.0906954959912
 30
0.0
 10
69.85396184234554
 20
-134.0865613814089
 30
0.0
 10
69.7292493857795
 20
-134.0865613814089
 30
0.0
  0
POLYLINE
  5
5B
330
52
100
AcDbEntity
  8
_U+30EC_U+30A4_U+30E4_U+30FC 1
370
     0
100
AcDb2dPolyline
 66
     1
 10
0.0
 20
0.0
 30
0.0
  0
VERTEX
  5
5C
330
5B
100
AcDbEntity
  8
_U+30EC_U+30A4_U+30E4_U+30FC 1
370
     0
100
AcDbVertex
100
AcDb2dVertex
 10
69.89426945952296
 20
-134.342531975963
 30
0.0
  0
VERTEX
  5
5D
330
5B
100
AcDbEntity
  8
_U+30EC_U+30A4_U+30E4_U+30FC 1
370
     0
100
AcDbVertex
100
AcDb2dVertex
 10
69.18768037549822
 20
-134.342531975963
 30
0.0
  0
VERTEX
  5
5E
330
5B
100
AcDbEntity
  8
_U+30EC_U+30A4_U+30E4_U+30FC 1
370
     0
100
AcDbVertex
100
AcDb2dVertex
 10
69.18768037549822
 20
-134.4503634646513
 30
0.0
  0
VERTEX
  5
5F
330
5B
100
AcDbEntity
  8
_U+30EC_U+30A4_U+30E4_U+30FC 1
370
     0
100
AcDbVertex
100
AcDb2dVertex
 10
69.89426945952296
 20
-134.4503634646513
 30
0.0
  0
VERTEX
  5
60
330
5B
100
AcDbEntity
  8
_U+30EC_U+30A4_U+30E4_U+30FC 1
370
     0
100
AcDbVertex
100
AcDb2dVertex
 10
69.89426945952296
 20
-134.342531975963
 30
0.0
  0
SEQEND
  5
61
330
5B
100
AcDbEntity
  8
_U+30EC_U+30A4_U+30E4_U+30FC 1
370
     0
  0
POLYLINE
  5
62
330
52
100
AcDbEntity
  8
_U+30EC_U+30A4_U+30E4_U+30FC 1
370
     0
100
AcDb2dPolyline
 66
     1
 10
0.0
 20
0.0
 30
0.0
  0
VERTEX
  5
63
330
62
100
AcDbEntity
  8
_U+30EC_U+30A4_U+30E4_U+30FC 1
370
     0
100
AcDbVertex
100
AcDb2dVertex
 10
69.89426945952296
 20
-134.5750759212173
 30
0.0
  0
VERTEX
  5
64
330
62
100
AcDbEntity
  8
_U+30EC_U+30A4_U+30E4_U+30FC 1
370
     0
100
AcDbVertex
100
AcDb2dVertex
 10
69.18768037549822
 20
-134.5750759212173
 30
0.0
  0
VERTEX
  5
65
330
62
100
AcDbEntity
  8
_U+30EC_U+30A4_U+30E4_U+30FC 1
370
     0
100
AcDbVertex
100
AcDb2dVertex
 10
69.18768037549822
 20
-134.6894530913276
 30
0.0
  0
VERTEX
  5
66
330
62
100
AcDbEntity
  8
_U+30EC_U+30A4_U+30E4_U+30FC 1
370
     0
100
AcDbVertex
100
AcDb2dVertex
 10
69.89426945952296
 20
-134.6894530913276
 30
0.0
  0
VERTEX
  5
67
330
62
100
AcDbEntity
  8
_U+30EC_U+30A4_U+30E4_U+30FC 1
370
     0
100
AcDbVertex
100
AcDb2dVertex
 10
69.89426945952296
 20
-134.5750759212173
 30
0.0
  0
SEQEND
  5
68
330
62
100
AcDbEntity
  8
_U+30EC_U+30A4_U+30E4_U+30FC 1
370
     0
  0
POLYLINE
  5
69
330
52
100
AcDbEntity
  8
_U+30EC_U+30A4_U+30E4_U+30FC 1
370
     0
100
AcDb2dPolyline
 66
     1
 10
0.0
 20
0.0
 30
0.0
  0
VERTEX
  5
6A
330
69
100
AcDbEntity
  8
_U+30EC_U+30A4_U+30E4_U+30FC 1
370
     0
100
AcDbVertex
100
AcDb2dVertex
 10
69.89426945952296
 20
-134.8186441720245
 30
0.0
  0
VERTEX
  5
6B
330
69
100
AcDbEntity
  8
_U+30EC_U+30A4_U+30E4_U+30FC 1
370
     0
100
AcDbVertex
100
AcDb2dVertex
 10
69.18768037549822
 20
-134.8186441720245
 30
0.0
  0
VERTEX
  5
6C
330
69
100
AcDbEntity
  8
_U+30EC_U+30A4_U+30E4_U+30FC 1
370
     0
100
AcDbVertex
100
AcDb2dVertex
 10
69.18768037549822
 20
-134.9326768325863
 30
0.0
  0
VERTEX
  5
6D
330
69
100
AcDbEntity
  8
_U+30EC_U+30A4_U+30E4_U+30FC 1
370
     0
100
AcDbVertex
100
AcDb2dVertex
 10
69.89426945952296
 20
-134.9326768325863
 30
0.0
  0
VERTEX
  5
6E
330
69
100
AcDbEntity
  8
_U+30EC_U+30A4_U+30E4_U+30FC 1
370
     0
100
AcDbVertex
100
AcDb2dVertex
 10
69.89426945952296
 20
-134.8186441720245
 30
0.0
  0
SEQEND
  5
6F
330
69
100
AcDbEntity
  8
_U+30EC_U+30A4_U+30E4_U+30FC 1
370
     0
  0
HATCH
  5
70
330
52
100
AcDbEntity
  8
_U+30EC_U+30A4_U+30E4_U+30FC 1
 62
   179
420
  2234388
100
AcDbHatch
 10
0.0
 20
0.0
 30
0.0
210
0.0
220
0.0
230
1.0
  2
SOLID
 70
     1
 71
     0
 91
        4
 92
        1
 93
        1
 72
     4
 94
        3
 73
     0
 74
     1
 95
      203
 96
      199
 40
0.0
 40
0.0
 40
0.0
 40
0.0
 40
1.0
 40
1.0
 40
1.0
 40
2.0
 40
2.0
 40
2.0
 40
3.0
 40
3.0
 40
3.0
 40
4.0
 40
4.0
 40
4.0
 40
5.0
 40
5.0
 40
5.0
 40
6.0
 40
6.0
 40
6.0
 40
7.0
 40
7.0
 40
7.0
 40
8.0
 40
8.0
 40
8.0
 40
9.0
 40
9.0
 40
9.0
 40
10.0
 40
10.0
 40
10.0
 40
11.0
 40
11.0
 40
11.0
 40
12.0
 40
12.0
 40
12.0
 40
13.0
 40
13.0
 40
13.0
 40
14.0
 40
14.0
 40
14.0
 40
15.0
 40
15.0
 40
15.0
 40
16.0
 40
16.0
 40
16.0
 40
17.0
 40
17.0
 40
17.0
 40
18.0
 40
18.0
 40
18.0
 40
19.0
 40
19.0
 40
19.0
 40
20.0
 40
20.0
 40
20.0
 40
21.0
 40
21.0
 40
21.0
 40
22.0
 40
22.0
 40
22.0
 40
23.0
 40
23.0
 40
23.0
 40
24.0
 40
24.0
 40
24.0
 40
25.0
 40
25.0
 40
25.0
 40
26.0
 40
26.0
 40
26.0
 40
27.0
 40
27.0
 40
27.0
 40
28.0
 40
28.0
 40
28.0
 40
29.0
 40
29.0
 40
29.0
 40
30.0
 40
30.0
 40
30.0
 40
31.0
 40
31.0
 40
31.0
 40
32.0
 40
32.0
 40
32.0
 40
33.0
 40
33.0
 40
33.0
 40
34.0
 40
34.0
 40
34.0
 40
35.0
 40
35.0
 40
35.0
 40
36.0
 40
36.0
 40
36.0
 40
37.0
 40
37.0
 40
37.0
 40
38.0
 40
38.0
 40
38.0
 40
39.0
 40
39.0
 40
39.0
 40
40.0
 40
40.0
 40
40.0
 40
41.0
 40
41.0
 40
41.0
 40
42.0
 40
42.0
 40
42.0
 40
43.0
 40
43.0
 40
43.0
 40
44.0
 40
44.0
 40
44.0
 40
45.0
 40
45.0
 40
45.0
 40
46.0
 40
46.0
 40
46.0
 40
47.0
 40
47.0
 40
47.0
 40
48.0
 40
48.0
 40
48.0
 40
49.0
 40
49.0
 40
49.0
 40
50.0
 40
50.0
 40
50.0
 40
51.0
 40
51.0
 40
51.0
 40
52.0
 40
52.0
 40
52.0
 40
53.0
 40
53.0
 40
53.0
 40
54.0
 40
54.0
 40
54.0
 40
55.0
 40
55.0
 40
55.0
 40
56.0
 40
56.0
 40
56.0
 40
57.0
 40
57.0
 40
57.0
 40
58.0
 40
58.0
 40
58.0
 40
59.0
 40
59.0
 40
59.0
 40
60.0
 40
60.0
 40
60.0
 40
61.0
 40
61.0
 40
61.0
 40
62.0
 40
62.0
 40
62.0
 40
63.0
 40
63.0
 40
63.0
 40
64.0
 40
64.0
 40
64.0
 40
65.0
 40
65.0
 40
65.0
 40
66.0
 40
66.0
 40
66.0
 40
66.0
 10
69.7292493857795
 20
-134.0865613814089
 10
69.7292493857795
 20
-134.0865613814089
 10
69.17045489807197
 20
-134.0865613814089
 10
69.17045489807197
 20
-134.0865613814089
 10
69.16011961161622
 20
-134.1310031131686
 10
69.1515068729031
 20
-134.1626979916329
 10
69.13876001960767
 20
-134.2009385515192
 10
69.16425372619852
 20
-134.2009385515192
 10
69.17906763678509
 20
-134.2030056088104
 10
69.18526880865855
 20
-134.2030056088104
 10
69.18526880865855
 20
-134.2030056088104
 10
69.37371553170172
 20
-134.2030056088104
 10
69.37371553170172
 20
-134.2030056088104
 10
69.37371553170172
 20
-134.2030056088104
 10
69.74819741094836
 20
-134.2030056088104
 10
69.74819741094836
 20
-134.2030056088104
 10
69.79884031458154
 20
-134.2030056088104
 10
70.0823716730176
 20
-134.1902587555149
 10
70.1140665514819
 20
-134.1902587555149
 10
70.11199949419075
 20
-134.217819519397
 10
70.1099324368996
 20
-134.2367675445658
 10
70.1099324368996
 20
-134.266395365739
 10
70.10786537960846
 20
-134.2980902442033
 10
70.10786537960846
 20
-134.4334824967736
 10
70.10786537960846
 20
-134.4610432606556
 10
70.10786537960846
 20
-134.4610432606556
 10
70.10786537960846
 20
-134.7063340592054
 10
70.10786537960846
 20
-134.7063340592054
 10
70.10786537960846
 20
-134.7507757909651
 10
70.11199949419075
 20
-134.9474907431729
 10
70.11613360877305
 20
-135.0997639636209
 10
70.11613360877305
 20
-135.0997639636209
 10
69.88979083539213
 20
-135.0997639636209
 10
69.88979083539213
 20
-135.0997639636209
 10
69.88979083539213
 20
-135.0997639636209
 10
69.89185789268329
 20
-135.0660020278654
 10
69.89185789268329
 20
-135.0660020278654
 10
69.89185789268329
 20
-135.0660020278654
 10
69.18974743278937
 20
-135.0660020278654
 10
69.18974743278937
 20
-135.0660020278654
 10
69.18974743278937
 20
-135.0660020278654
 10
69.19181449008052
 20
-135.0997639636209
 10
69.19181449008052
 20
-135.0997639636209
 10
69.19181449008052
 20
-135.0997639636209
 10
68.97373994586421
 20
-135.0997639636209
 10
68.97373994586421
 20
-135.0997639636209
 10
68.97821856999504
 20
-135.0449869454054
 10
68.97821856999504
 20
-135.03224009211
 10
68.98441974186848
 20
-134.9178629219997
 10
68.98648679915964
 20
-134.8903021581177
 10
68.98855385645078
 20
-134.7573214723871
 10
68.98855385645078
 20
-134.7380289376697
 10
68.98855385645078
 20
-134.7380289376697
 10
68.98855385645078
 20
-134.5351128135885
 10
68.98855385645078
 20
-134.5351128135885
 10
68.84902748929817
 20
-134.7845377267205
 10
68.67987330097239
 20
-134.9157958647086
 10
68.57410886957523
 20
-134.9812526789283
 10
68.57410886957523
 20
-134.9812526789283
 10
68.40047605711864
 20
-134.8417263117757
 10
68.40047605711864
 20
-134.8417263117757
 10
68.48935952063808
 20
-134.7910834081425
 10
68.63336451192153
 20
-134.7042670019142
 10
68.770823821783
 20
-134.5096191069976
 10
68.86177434259359
 20
-134.3828395931404
 10
68.92723115681333
 20
-134.238834601857
 10
68.96133760211731
 20
-134.0865613814089
 10
68.73258326189672
 20
-134.0886284387001
 10
68.55274927756668
 20
-134.095174120122
 10
68.45766464217378
 20
-134.0972411774132
 10
68.45766464217378
 20
-134.0972411774132
 10
68.45766464217378
 20
-133.9194742503743
 10
68.45766464217378
 20
-133.9194742503743
 10
68.65437959438155
 20
-133.9256754222478
 10
68.9379109528176
 20
-133.9301540463786
 10
69.0881171159745
 20
-133.9301540463786
 10
69.0881171159745
 20
-133.9301540463786
 10
69.30171303606
 20
-133.9301540463786
 10
69.30171303606
 20
-133.9301540463786
 10
69.30171303606
 20
-133.9301540463786
 10
69.30171303606
 20
-133.8219780481417
 10
69.30171303606
 20
-133.8219780481417
 10
69.30171303606
 20
-133.8219780481417
 10
69.1556409874854
 20
-133.8219780481417
 10
69.1556409874854
 20
-133.8219780481417
 10
68.98648679915964
 20
-133.8219780481417
 10
68.81733261083386
 20
-133.8264566722726
 10
68.65024547979925
 20
-133.832657844146
 10
68.65024547979925
 20
-133.832657844146
 10
68.65024547979925
 20
-133.6614365985291
 10
68.65024547979925
 20
-133.6614365985291
 10
68.80458575753843
 20
-133.6717718849848
 10
68.99062091374194
 20
-133.6717718849848
 10
69.1556409874854
 20
-133.6717718849848
 10
69.1556409874854
 20
-133.6717718849848
 10
69.30171303606
 20
-133.6717718849848
 10
69.30171303606
 20
-133.6717718849848
 10
69.30171303606
 20
-133.6717718849848
 10
69.30171303606
 20
-133.5536051098408
 10
69.30171303606
 20
-133.5536051098408
 10
69.30171303606
 20
-133.5536051098408
 10
69.17045489807197
 20
-133.5536051098408
 10
69.17045489807197
 20
-133.5536051098408
 10
69.1239461090211
 20
-133.5536051098408
 10
68.92102998493988
 20
-133.5618733390054
 10
68.87865531047132
 20
-133.5618733390054
 10
68.67573918639009
 20
-133.5660074535877
 10
68.59925806661755
 20
-133.5680745108788
 10
68.52105439910238
 20
-133.5704860777185
 10
68.52105439910238
 20
-133.5704860777185
 10
68.52105439910238
 20
-133.3861734692576
 10
68.52105439910238
 20
-133.3861734692576
 10
68.63543156921267
 20
-133.3947862079708
 10
68.67987330097239
 20
-133.3947862079708
 10
69.06262340938365
 20
-133.4033989466839
 10
68.99923365245506
 20
-133.3079698017424
 10
68.97167288857305
 20
-133.2804090378605
 10
68.93584389552646
 20
-133.2445800448139
 10
68.93584389552646
 20
-133.2445800448139
 10
69.11119925572568
 20
-133.1618977531679
 10
69.11119925572568
 20
-133.1618977531679
 10
69.1515068729031
 20
-133.198071255763
 10
69.19594860466282
 20
-133.2404459302316
 10
69.27001815759569
 20
-133.350344476211
 10
69.27001815759569
 20
-133.350344476211
 10
69.1556409874854
 20
-133.405466003975
 10
69.1556409874854
 20
-133.405466003975
 10
69.1556409874854
 20
-133.405466003975
 10
69.16632078348967
 20
-133.405466003975
 10
69.16632078348967
 20
-133.405466003975
 10
69.16632078348967
 20
-133.405466003975
 10
69.68894176860208
 20
-133.405466003975
 10
69.68894176860208
 20
-133.405466003975
 10
69.68894176860208
 20
-133.405466003975
 10
69.59385713320918
 20
-133.3610242722153
 10
69.59385713320918
 20
-133.3610242722153
 10
69.62107338754265
 20
-133.322783712329
 10
69.6782619725978
 20
-133.2425129875227
 10
69.69307588318438
 20
-133.1684434345898
 10
69.69307588318438
 20
-133.1684434345898
 10
69.90667180326986
 20
-133.2318331915184
 10
69.90667180326986
 20
-133.2318331915184
 10
69.91528454198298
 20
-133.2339002488096
 10
69.93629962444301
 20
-133.2445800448139
 10
69.93629962444301
 20
-133.2655951272739
 10
69.93629962444301
 20
-133.3038356871602
 10
69.87084281022327
 20
-133.3038356871602
 10
69.85189478505438
 20
-133.3038356871602
 10
69.84121498905012
 20
-133.322783712329
 10
69.81778833975042
 20
-133.3630913295065
 10
69.78816051857727
 20
-133.4033989466839
 10
70.18813610441478
 20
-133.3968532652619
 10
70.21776392558792
 20
-133.3947862079708
 10
70.29390053581194
 20
-133.3885850360973
 10
70.29390053581194
 20
-133.3885850360973
 10
70.29390053581194
 20
-133.5704860777185
 10
70.29390053581194
 20
-133.5704860777185
 10
70.27495251064308
 20
-133.5704860777185
 10
70.24945880405222
 20
-133.5680745108788
 10
70.02966171209329
 20
-133.5598062817142
 10
69.97867429891159
 20
-133.5577392244231
 10
69.75887720695265
 20
-133.5536051098408
 10
69.71443547519293
 20
-133.5536051098408
 10
69.71443547519293
 20
-133.5536051098408
 10
69.49842798826776
 20
-133.5536051098408
 10
69.49842798826776
 20
-133.5536051098408
 10
69.49842798826776
 20
-133.5536051098408
 10
69.49842798826776
 20
-133.6717718849848
 10
69.49842798826776
 20
-133.6717718849848
 10
69.49842798826776
 20
-133.6717718849848
 10
69.67206080072435
 20
-133.6717718849848
 10
69.67206080072435
 20
-133.6717718849848
 10
69.83501381717667
 20
-133.6717718849848
 10
70.02518308796246
 20
-133.6717718849848
 10
70.18193493254132
 20
-133.6614365985291
 10
70.18193493254132
 20
-133.6614365985291
 10
70.18193493254132
 20
-133.832657844146
 10
70.18193493254132
 20
-133.832657844146
 10
69.97247312703813
 20
-133.8243896149814
 10
69.77575817483037
 20
-133.8219780481417
 10
69.67206080072435
 20
-133.8219780481417
 10
69.67206080072435
 20
-133.8219780481417
 10
69.49842798826776
 20
-133.8219780481417
 10
69.49842798826776
 20
-133.8219780481417
 10
69.49842798826776
 20
-133.8219780481417
 10
69.49842798826776
 20
-133.9301540463786
 10
69.49842798826776
 20
-133.9301540463786
 10
69.49842798826776
 20
-133.9301540463786
 10
69.7292493857795
 20
-133.9301540463786
 10
69.7292493857795
 20
-133.9301540463786
 10
69.86223007151014
 20
-133.9301540463786
 10
70.15024005407703
 20
-133.9256754222478
 10
70.35935735003169
 20
-133.9194742503743
 10
70.35935735003169
 20
-133.9194742503743
 10
70.35935735003169
 20
-134.0972411774132
 10
70.35935735003169
 20
-134.0972411774132
 10
70.16712102195476
 20
-134.0906954959912
 10
69.85396184234554
 20
-134.0865613814089
 10
69.7292493857795
 20
-134.0865613814089
 97
        0
 97
        0
 92
        1
 93
        4
 72
     1
 10
69.89426945952296
 20
-134.342531975963
 11
69.18768037549822
 21
-134.342531975963
 72
     1
 10
69.18768037549822
 20
-134.342531975963
 11
69.18768037549822
 21
-134.4503634646513
 72
     1
 10
69.18768037549822
 20
-134.4503634646513
 11
69.89426945952296
 21
-134.4503634646513
 72
     1
 10
69.89426945952296
 20
-134.4503634646513
 11
69.89426945952296
 21
-134.342531975963
 97
        0
 92
        1
 93
        4
 72
     1
 10
69.89426945952296
 20
-134.5750759212173
 11
69.18768037549822
 21
-134.5750759212173
 72
     1
 10
69.18768037549822
 20
-134.5750759212173
 11
69.18768037549822
 21
-134.6894530913276
 72
     1
 10
69.18768037549822
 20
-134.6894530913276
 11
69.89426945952296
 21
-134.6894530913276
 72
     1
 10
69.89426945952296
 20
-134.6894530913276
 11
69.89426945952296
 21
-134.5750759212173
 97
        0
 92
        1
 93
        4
 72
     1
 10
69.89426945952296
 20
-134.8186441720245
 11
69.18768037549822
 21
-134.8186441720245
 72
     1
 10
69.18768037549822
 20
-134.8186441720245
 11
69.18768037549822
 21
-134.9326768325863
 72
     1
 10
69.18768037549822
 20
-134.9326768325863
 11
69.89426945952296
 21
-134.9326768325863
 72
     1
 10
69.89426945952296
 20
-134.9326768325863
 11
69.89426945952296
 21
-134.8186441720245
 97
        0
 75
     2
 76
     1
 98
        0
  0
SPLINE
  5
71
330
52
100
AcDbEntity
  8
_U+30EC_U+30A4_U+30E4_U+30FC 1
370
     0
100
AcDbSpline
210
0.0
220
0.0
230
1.0
 70
    11
 71
     3
 72
    47
 73
    43
 74
     0
 42
0.0000000001
 43
0.0000000001
 12
1.0
 22
0.0
 32
0.0
 13
1.0
 23
0.0
 33
0.0
 40
0.0
 40
0.0
 40
0.0
 40
0.0
 40
1.0
 40
1.0
 40
1.0
 40
2.0
 40
2.0
 40
2.0
 40
3.0
 40
3.0
 40
3.0
 40
4.0
 40
4.0
 40
4.0
 40
5.0
 40
5.0
 40
5.0
 40
6.0
 40
6.0
 40
6.0
 40
7.0
 40
7.0
 40
7.0
 40
8.0
 40
8.0
 40
8.0
 40
9.0
 40
9.0
 40
9.0
 40
10.0
 40
10.0
 40
10.0
 40
11.0
 40
11.0
 40
11.0
 40
12.0
 40
12.0
 40
12.0
 40
13.0
 40
13.0
 40
13.0
 40
14.0
 40
14.0
 40
14.0
 40
14.0
 10
71.70604517521585
 20
-134.0631347321092
 30
0.0
 10
71.70604517521585
 20
-134.0631347321092
 30
0.0
 10
71.60441485840099
 20
-134.0631347321092
 30
0.0
 10
71.60441485840099
 20
-134.0631347321092
 30
0.0
 10
71.60441485840099
 20
-134.1499511383375
 30
0.0
 10
71.58339977594096
 20
-134.5392469281707
 30
0.0
 10
71.38668482373319
 20
-134.7593885296782
 30
0.0
 10
71.23406709373663
 20
-134.928542718004
 30
0.0
 10
71.02701685507311
 20
-134.9984781563546
 30
0.0
 10
70.94226750613596
 20
-135.025694410688
 30
0.0
 10
70.94226750613596
 20
-135.025694410688
 30
0.0
 10
70.74761961121935
 20
-134.8586072796534
 30
0.0
 10
70.74761961121935
 20
-134.8586072796534
 30
0.0
 10
70.84511581345191
 20
-134.845860426358
 30
0.0
 10
71.02047117365113
 20
-134.8227782866068
 30
0.0
 10
71.2089178966943
 20
-134.6343315635636
 30
0.0
 10
71.28298744962717
 20
-134.5626735774705
 30
0.0
 10
71.38668482373319
 20
-134.4228027007693
 30
0.0
 10
71.38668482373319
 20
-134.0631347321092
 30
0.0
 10
71.38668482373319
 20
-134.0631347321092
 30
0.0
 10
71.15586342622146
 20
-134.0631347321092
 30
0.0
 10
71.15586342622146
 20
-134.0631347321092
 30
0.0
 10
70.96982827001796
 20
-134.0631347321092
 30
0.0
 10
70.78344860426594
 20
-134.0676133562401
 30
0.0
 10
70.59741344806245
 20
-134.0824272668266
 30
0.0
 10
70.59741344806245
 20
-134.0824272668266
 30
0.0
 10
70.59741344806245
 20
-133.8622856653191
 30
0.0
 10
70.59741344806245
 20
-133.8622856653191
 30
0.0
 10
70.78586017110563
 20
-133.8770995759057
 30
0.0
 10
71.07145858683283
 20
-133.881233690488
 30
0.0
 10
71.15586342622146
 20
-133.881233690488
 30
0.0
 10
71.15586342622146
 20
-133.881233690488
 30
0.0
 10
71.70604517521585
 20
-133.881233690488
 30
0.0
 10
71.70604517521585
 20
-133.881233690488
 30
0.0
 10
71.72499320038473
 20
-133.881233690488
 30
0.0
 10
72.04228649457623
 20
-133.881233690488
 30
0.0
 10
72.2706963252483
 20
-133.8622856653191
 30
0.0
 10
72.2706963252483
 20
-133.8622856653191
 30
0.0
 10
72.2706963252483
 20
-134.0824272668266
 30
0.0
 10
72.2706963252483
 20
-134.0824272668266
 30
0.0
 10
72.08259411175366
 20
-134.0676133562401
 30
0.0
 10
71.8941473887105
 20
-134.0631347321092
 30
0.0
 10
71.70604517521585
 20
-134.0631347321092
 30
0.0
  0
SPLINE
  5
72
330
52
100
AcDbEntity
  8
_U+30EC_U+30A4_U+30E4_U+30FC 1
370
     0
100
AcDbSpline
210
0.0
220
0.0
230
1.0
 70
    11
 71
     3
 72
    29
 73
    25
 74
     0
 42
0.0000000001
 43
0.0000000001
 12
1.0
 22
0.0
 32
0.0
 13
1.0
 23
0.0
 33
0.0
 40
0.0
 40
0.0
 40
0.0
 40
0.0
 40
1.0
 40
1.0
 40
1.0
 40
2.0
 40
2.0
 40
2.0
 40
3.0
 40
3.0
 40
3.0
 40
4.0
 40
4.0
 40
4.0
 40
5.0
 40
5.0
 40
5.0
 40
6.0
 40
6.0
 40
6.0
 40
7.0
 40
7.0
 40
7.0
 40
8.0
 40
8.0
 40
8.0
 40
8.0
 10
71.60441485840099
 20
-133.5343125751234
 30
0.0
 10
71.60441485840099
 20
-133.5343125751234
 30
0.0
 10
71.25094806161435
 20
-133.5343125751234
 30
0.0
 10
71.25094806161435
 20
-133.5343125751234
 30
0.0
 10
71.13898245834373
 20
-133.5343125751234
 30
0.0
 10
70.9994560911911
 20
-133.5408582565453
 30
0.0
 10
70.89162460250279
 20
-133.5536051098408
 30
0.0
 10
70.89162460250279
 20
-133.5536051098408
 30
0.0
 10
70.89162460250279
 20
-133.3186495977467
 30
0.0
 10
70.89162460250279
 20
-133.3186495977467
 30
0.0
 10
71.00979137764686
 20
-133.3334635083333
 30
0.0
 10
71.19410398610773
 20
-133.3375976229156
 30
0.0
 10
71.25094806161435
 20
-133.3375976229156
 30
0.0
 10
71.25094806161435
 20
-133.3375976229156
 30
0.0
 10
71.60441485840099
 20
-133.3375976229156
 30
0.0
 10
71.60441485840099
 20
-133.3375976229156
 30
0.0
 10
71.62336288356985
 20
-133.3375976229156
 30
0.0
 10
71.8266235171996
 20
-133.3375976229156
 30
0.0
 10
71.96821694164336
 20
-133.3186495977467
 30
0.0
 10
71.96821694164336
 20
-133.3186495977467
 30
0.0
 10
71.96821694164336
 20
-133.5536051098408
 30
0.0
 10
71.96821694164336
 20
-133.5536051098408
 30
0.0
 10
71.81180960661302
 20
-133.5343125751234
 30
0.0
 10
71.62129582627871
 20
-133.5343125751234
 30
0.0
 10
71.60441485840099
 20
-133.5343125751234
 30
0.0
  0
HATCH
  5
73
330
52
100
AcDbEntity
  8
_U+30EC_U+30A4_U+30E4_U+30FC 1
 62
   179
420
  2234388
100
AcDbHatch
 10
0.0
 20
0.0
 30
0.0
210
0.0
220
0.0
230
1.0
  2
SOLID
 70
     1
 71
     0
 91
        2
 92
        1
 93
        1
 72
     4
 94
        3
 73
     0
 74
     1
 95
       47
 96
       43
 40
0.0
 40
0.0
 40
0.0
 40
0.0
 40
1.0
 40
1.0
 40
1.0
 40
2.0
 40
2.0
 40
2.0
 40
3.0
 40
3.0
 40
3.0
 40
4.0
 40
4.0
 40
4.0
 40
5.0
 40
5.0
 40
5.0
 40
6.0
 40
6.0
 40
6.0
 40
7.0
 40
7.0
 40
7.0
 40
8.0
 40
8.0
 40
8.0
 40
9.0
 40
9.0
 40
9.0
 40
10.0
 40
10.0
 40
10.0
 40
11.0
 40
11.0
 40
11.0
 40
12.0
 40
12.0
 40
12.0
 40
13.0
 40
13.0
 40
13.0
 40
14.0
 40
14.0
 40
14.0
 40
14.0
 10
71.70604517521585
 20
-134.0631347321092
 10
71.70604517521585
 20
-134.0631347321092
 10
71.60441485840099
 20
-134.0631347321092
 10
71.60441485840099
 20
-134.0631347321092
 10
71.60441485840099
 20
-134.1499511383375
 10
71.58339977594096
 20
-134.5392469281707
 10
71.38668482373319
 20
-134.7593885296782
 10
71.23406709373663
 20
-134.928542718004
 10
71.02701685507311
 20
-134.9984781563546
 10
70.94226750613596
 20
-135.025694410688
 10
70.94226750613596
 20
-135.025694410688
 10
70.74761961121935
 20
-134.8586072796534
 10
70.74761961121935
 20
-134.8586072796534
 10
70.84511581345191
 20
-134.845860426358
 10
71.02047117365113
 20
-134.8227782866068
 10
71.2089178966943
 20
-134.6343315635636
 10
71.28298744962717
 20
-134.5626735774705
 10
71.38668482373319
 20
-134.4228027007693
 10
71.38668482373319
 20
-134.0631347321092
 10
71.38668482373319
 20
-134.0631347321092
 10
71.15586342622146
 20
-134.0631347321092
 10
71.15586342622146
 20
-134.0631347321092
 10
70.96982827001796
 20
-134.0631347321092
 10
70.78344860426594
 20
-134.0676133562401
 10
70.59741344806245
 20
-134.0824272668266
 10
70.59741344806245
 20
-134.0824272668266
 10
70.59741344806245
 20
-133.8622856653191
 10
70.59741344806245
 20
-133.8622856653191
 10
70.78586017110563
 20
-133.8770995759057
 10
71.07145858683283
 20
-133.881233690488
 10
71.15586342622146
 20
-133.881233690488
 10
71.15586342622146
 20
-133.881233690488
 10
71.70604517521585
 20
-133.881233690488
 10
71.70604517521585
 20
-133.881233690488
 10
71.72499320038473
 20
-133.881233690488
 10
72.04228649457623
 20
-133.881233690488
 10
72.2706963252483
 20
-133.8622856653191
 10
72.2706963252483
 20
-133.8622856653191
 10
72.2706963252483
 20
-134.0824272668266
 10
72.2706963252483
 20
-134.0824272668266
 10
72.08259411175366
 20
-134.0676133562401
 10
71.8941473887105
 20
-134.0631347321092
 10
71.70604517521585
 20
-134.0631347321092
 97
        0
 97
        0
 92
        1
 93
        1
 72
     4
 94
        3
 73
     0
 74
     1
 95
       29
 96
       25
 40
0.0
 40
0.0
 40
0.0
 40
0.0
 40
1.0
 40
1.0
 40
1.0
 40
2.0
 40
2.0
 40
2.0
 40
3.0
 40
3.0
 40
3.0
 40
4.0
 40
4.0
 40
4.0
 40
5.0
 40
5.0
 40
5.0
 40
6.0
 40
6.0
 40
6.0
 40
7.0
 40
7.0
 40
7.0
 40
8.0
 40
8.0
 40
8.0
 40
8.0
 10
71.60441485840099
 20
-133.5343125751234
 10
71.60441485840099
 20
-133.5343125751234
 10
71.25094806161435
 20
-133.5343125751234
 10
71.25094806161435
 20
-133.5343125751234
 10
71.13898245834373
 20
-133.5343125751234
 10
70.9994560911911
 20
-133.5408582565453
 10
70.89162460250279
 20
-133.5536051098408
 10
70.89162460250279
 20
-133.5536051098408
 10
70.89162460250279
 20
-133.3186495977467
 10
70.89162460250279
 20
-133.3186495977467
 10
71.00979137764686
 20
-133.3334635083333
 10
71.19410398610773
 20
-133.3375976229156
 10
71.25094806161435
 20
-133.3375976229156
 10
71.25094806161435
 20
-133.3375976229156
 10
71.60441485840099
 20
-133.3375976229156
 10
71.60441485840099
 20
-133.3375976229156
 10
71.62336288356985
 20
-133.3375976229156
 10
71.8266235171996
 20
-133.3375976229156
 10
71.96821694164336
 20
-133.3186495977467
 10
71.96821694164336
 20
-133.3186495977467
 10
71.96821694164336
 20
-133.5536051098408
 10
71.96821694164336
 20
-133.5536051098408
 10
71.81180960661302
 20
-133.5343125751234
 10
71.62129582627871
 20
-133.5343125751234
 10
71.60441485840099
 20
-133.5343125751234
 97
        0
 97
        0
 75
     2
 76
     1
 98
        0
  0
SPLINE
  5
74
330
52
100
AcDbEntity
  8
_U+30EC_U+30A4_U+30E4_U+30FC 1
370
     0
100
AcDbSpline
210
0.0
220
0.0
230
1.0
 70
    11
 71
     3
 72
    29
 73
    25
 74
     0
 42
0.0000000001
 43
0.0000000001
 12
1.0
 22
0.0
 32
0.0
 13
1.0
 23
0.0
 33
0.0
 40
0.0
 40
0.0
 40
0.0
 40
0.0
 40
1.0
 40
1.0
 40
1.0
 40
2.0
 40
2.0
 40
2.0
 40
3.0
 40
3.0
 40
3.0
 40
4.0
 40
4.0
 40
4.0
 40
5.0
 40
5.0
 40
5.0
 40
6.0
 40
6.0
 40
6.0
 40
7.0
 40
7.0
 40
7.0
 40
8.0
 40
8.0
 40
8.0
 40
8.0
 10
73.55192733621271
 20
-134.2260877485616
 30
0.0
 10
73.55192733621271
 20
-134.2260877485616
 30
0.0
 10
73.0675469109866
 20
-134.2260877485616
 30
0.0
 10
73.0675469109866
 20
-134.2260877485616
 30
0.0
 10
73.03998614710459
 20
-134.2260877485616
 30
0.0
 10
72.72269285291308
 20
-134.2260877485616
 30
0.0
 10
72.51116399011875
 20
-134.2515814551524
 30
0.0
 10
72.51116399011875
 20
-134.2515814551524
 30
0.0
 10
72.51116399011875
 20
-134.0211045671892
 30
0.0
 10
72.51116399011875
 20
-134.0211045671892
 30
0.0
 10
72.66963838244023
 20
-134.0441867069403
 30
0.0
 10
72.86015216277455
 20
-134.0462537642315
 30
0.0
 10
73.0675469109866
 20
-134.0462537642315
 30
0.0
 10
73.0675469109866
 20
-134.0462537642315
 30
0.0
 10
73.55192733621271
 20
-134.0462537642315
 30
0.0
 10
73.55192733621271
 20
-134.0462537642315
 30
0.0
 10
73.7379624924162
 20
-134.0462537642315
 30
0.0
 10
73.92434215816823
 20
-134.0441867069403
 30
0.0
 10
74.10831025708056
 20
-134.0211045671892
 30
0.0
 10
74.10831025708056
 20
-134.0211045671892
 30
0.0
 10
74.10831025708056
 20
-134.2515814551524
 30
0.0
 10
74.10831025708056
 20
-134.2515814551524
 30
0.0
 10
73.92434215816823
 20
-134.2281548058527
 30
0.0
 10
73.67663979277876
 20
-134.2260877485616
 30
0.0
 10
73.55192733621271
 20
-134.2260877485616
 30
0.0
  0
HATCH
  5
75
330
52
100
AcDbEntity
  8
_U+30EC_U+30A4_U+30E4_U+30FC 1
 62
   179
420
  2234388
100
AcDbHatch
 10
0.0
 20
0.0
 30
0.0
210
0.0
220
0.0
230
1.0
  2
SOLID
 70
     1
 71
     0
 91
        1
 92
        1
 93
        1
 72
     4
 94
        3
 73
     0
 74
     1
 95
       29
 96
       25
 40
0.0
 40
0.0
 40
0.0
 40
0.0
 40
1.0
 40
1.0
 40
1.0
 40
2.0
 40
2.0
 40
2.0
 40
3.0
 40
3.0
 40
3.0
 40
4.0
 40
4.0
 40
4.0
 40
5.0
 40
5.0
 40
5.0
 40
6.0
 40
6.0
 40
6.0
 40
7.0
 40
7.0
 40
7.0
 40
8.0
 40
8.0
 40
8.0
 40
8.0
 10
73.55192733621271
 20
-134.2260877485616
 10
73.55192733621271
 20
-134.2260877485616
 10
73.0675469109866
 20
-134.2260877485616
 10
73.0675469109866
 20
-134.2260877485616
 10
73.03998614710459
 20
-134.2260877485616
 10
72.72269285291308
 20
-134.2260877485616
 10
72.51116399011875
 20
-134.2515814551524
 10
72.51116399011875
 20
-134.2515814551524
 10
72.51116399011875
 20
-134.0211045671892
 10
72.51116399011875
 20
-134.0211045671892
 10
72.66963838244023
 20
-134.0441867069403
 10
72.86015216277455
 20
-134.0462537642315
 10
73.0675469109866
 20
-134.0462537642315
 10
73.0675469109866
 20
-134.0462537642315
 10
73.55192733621271
 20
-134.0462537642315
 10
73.55192733621271
 20
-134.0462537642315
 10
73.7379624924162
 20
-134.0462537642315
 10
73.92434215816823
 20
-134.0441867069403
 10
74.10831025708056
 20
-134.0211045671892
 10
74.10831025708056
 20
-134.0211045671892
 10
74.10831025708056
 20
-134.2515814551524
 10
74.10831025708056
 20
-134.2515814551524
 10
73.92434215816823
 20
-134.2281548058527
 10
73.67663979277876
 20
-134.2260877485616
 10
73.55192733621271
 20
-134.2260877485616
 97
        0
 97
        0
 75
     2
 76
     1
 98
        0
  0
SPLINE
  5
76
330
52
100
AcDbEntity
  8
_U+30EC_U+30A4_U+30E4_U+30FC 1
370
     0
100
AcDbSpline
210
0.0
220
0.0
230
1.0
 70
    11
 71
     3
 72
    44
 73
    40
 74
     0
 42
0.0000000001
 43
0.0000000001
 12
1.0
 22
0.0
 32
0.0
 13
1.0
 23
0.0
 33
0.0
 40
0.0
 40
0.0
 40
0.0
 40
0.0
 40
1.0
 40
1.0
 40
1.0
 40
2.0
 40
2.0
 40
2.0
 40
3.0
 40
3.0
 40
3.0
 40
4.0
 40
4.0
 40
4.0
 40
5.0
 40
5.0
 40
5.0
 40
6.0
 40
6.0
 40
6.0
 40
7.0
 40
7.0
 40
7.0
 40
8.0
 40
8.0
 40
8.0
 40
9.0
 40
9.0
 40
9.0
 40
10.0
 40
10.0
 40
10.0
 40
11.0
 40
11.0
 40
11.0
 40
12.0
 40
12.0
 40
12.0
 40
13.0
 40
13.0
 40
13.0
 40
13.0
 10
75.76333412819459
 20
-133.7882161123863
 30
0.0
 10
75.65136852492397
 20
-134.1564968197595
 30
0.0
 10
75.60072562129079
 20
-134.314971212081
 30
0.0
 10
75.40401066908304
 20
-134.5647406347616
 30
0.0
 10
75.21969806062216
 20
-134.7952175227248
 30
0.0
 10
74.9830200007855
 20
-134.9812526789283
 30
0.0
 10
74.70362275693174
 20
-135.0746147665786
 30
0.0
 10
74.70362275693174
 20
-135.0746147665786
 30
0.0
 10
74.51104191930627
 20
-134.8947807822485
 30
0.0
 10
74.51104191930627
 20
-134.8947807822485
 30
0.0
 10
75.15217418911126
 20
-134.7425075618005
 30
0.0
 10
75.4822143365982
 20
-134.1861246409326
 30
0.0
 10
75.54560409352679
 20
-133.7458414379177
 30
0.0
 10
75.54560409352679
 20
-133.7458414379177
 30
0.0
 10
74.77975936715576
 20
-133.7458414379177
 30
0.0
 10
74.77975936715576
 20
-133.7458414379177
 30
0.0
 10
74.68674178905401
 20
-133.7458414379177
 30
0.0
 10
74.50277369014167
 20
-133.7503200620485
 30
0.0
 10
74.3460218455628
 20
-133.7692680872174
 30
0.0
 10
74.3460218455628
 20
-133.7692680872174
 30
0.0
 10
74.3460218455628
 20
-133.5491264857099
 30
0.0
 10
74.3460218455628
 20
-133.5491264857099
 30
0.0
 10
74.4328382517911
 20
-133.5704860777185
 30
0.0
 10
74.68467473176287
 20
-133.5704860777185
 30
0.0
 10
74.78389348173806
 20
-133.5704860777185
 30
0.0
 10
74.78389348173806
 20
-133.5704860777185
 30
0.0
 10
75.21556394603986
 20
-133.5704860777185
 30
0.0
 10
75.21556394603986
 20
-133.5704860777185
 30
0.0
 10
75.25793862050844
 20
-133.5704860777185
 30
0.0
 10
75.49254962305395
 20
-133.5680745108788
 30
0.0
 10
75.53079018294022
 20
-133.5618733390054
 30
0.0
 10
75.5731648574088
 20
-133.5556721671319
 30
0.0
 10
75.57523191469994
 20
-133.5536051098408
 30
0.0
 10
75.6365546143374
 20
-133.5132974926634
 30
0.0
 10
75.6365546143374
 20
-133.5132974926634
 30
0.0
 10
75.82465682783203
 20
-133.6676377704025
 30
0.0
 10
75.82465682783203
 20
-133.6676377704025
 30
0.0
 10
75.7953735162074
 20
-133.6972655915757
 30
0.0
 10
75.78055960562084
 20
-133.72896047004
 30
0.0
 10
75.76333412819459
 20
-133.7882161123863
 30
0.0
  0
SPLINE
  5
77
330
52
100
AcDbEntity
  8
_U+30EC_U+30A4_U+30E4_U+30FC 1
370
     0
100
AcDbSpline
210
0.0
220
0.0
230
1.0
 70
    11
 71
     3
 72
    17
 73
    13
 74
     0
 42
0.0000000001
 43
0.0000000001
 12
1.0
 22
0.0
 32
0.0
 13
1.0
 23
0.0
 33
0.0
 40
0.0
 40
0.0
 40
0.0
 40
0.0
 40
1.0
 40
1.0
 40
1.0
 40
2.0
 40
2.0
 40
2.0
 40
3.0
 40
3.0
 40
3.0
 40
4.0
 40
4.0
 40
4.0
 40
4.0
 10
75.97279593369778
 20
-133.5894341028874
 30
0.0
 10
75.84601641984058
 20
-133.5894341028874
 30
0.0
 10
75.74438610302572
 20
-133.4878037860725
 30
0.0
 10
75.74438610302572
 20
-133.3610242722153
 30
0.0
 10
75.74438610302572
 20
-133.2339002488096
 30
0.0
 10
75.84601641984058
 20
-133.1302028747036
 30
0.0
 10
75.97279593369778
 20
-133.1302028747036
 30
0.0
 10
76.0999199571035
 20
-133.1302028747036
 30
0.0
 10
76.20361733120951
 20
-133.2339002488096
 30
0.0
 10
76.20361733120951
 20
-133.3610242722153
 30
0.0
 10
76.20361733120951
 20
-133.4878037860725
 30
0.0
 10
76.0999199571035
 20
-133.5894341028874
 30
0.0
 10
75.97279593369778
 20
-133.5894341028874
 30
0.0
  0
SPLINE
  5
78
330
52
100
AcDbEntity
  8
_U+30EC_U+30A4_U+30E4_U+30FC 1
370
     0
100
AcDbSpline
210
0.0
220
0.0
230
1.0
 70
    11
 71
     3
 72
    17
 73
    13
 74
     0
 42
0.0000000001
 43
0.0000000001
 12
1.0
 22
0.0
 32
0.0
 13
1.0
 23
0.0
 33
0.0
 40
0.0
 40
0.0
 40
0.0
 40
0.0
 40
1.0
 40
1.0
 40
1.0
 40
2.0
 40
2.0
 40
2.0
 40
3.0
 40
3.0
 40
3.0
 40
4.0
 40
4.0
 40
4.0
 40
4.0
 10
75.97072887640662
 20
-133.2593939554004
 30
0.0
 10
75.91595185819115
 20
-133.2593939554004
 30
0.0
 10
75.87151012643143
 20
-133.3038356871602
 30
0.0
 10
75.87151012643143
 20
-133.3589572149241
 30
0.0
 10
75.87151012643143
 20
-133.4158012904308
 30
0.0
 10
75.91595185819115
 20
-133.4647216463213
 30
0.0
 10
75.97486299098892
 20
-133.4647216463213
 30
0.0
 10
76.03411863333523
 20
-133.4647216463213
 30
0.0
 10
76.07442625051264
 20
-133.4137342331396
 30
0.0
 10
76.07442625051264
 20
-133.3610242722153
 30
0.0
 10
76.07442625051264
 20
-133.3038356871602
 30
0.0
 10
76.02791746146177
 20
-133.2593939554004
 30
0.0
 10
75.97072887640662
 20
-133.2593939554004
 30
0.0
  0
HATCH
  5
79
330
52
100
AcDbEntity
  8
_U+30EC_U+30A4_U+30E4_U+30FC 1
 62
   179
420
  2234388
100
AcDbHatch
 10
0.0
 20
0.0
 30
0.0
210
0.0
220
0.0
230
1.0
  2
SOLID
 70
     1
 71
     0
 91
        3
 92
        1
 93
        1
 72
     4
 94
        3
 73
     0
 74
     1
 95
       44
 96
       40
 40
0.0
 40
0.0
 40
0.0
 40
0.0
 40
1.0
 40
1.0
 40
1.0
 40
2.0
 40
2.0
 40
2.0
 40
3.0
 40
3.0
 40
3.0
 40
4.0
 40
4.0
 40
4.0
 40
5.0
 40
5.0
 40
5.0
 40
6.0
 40
6.0
 40
6.0
 40
7.0
 40
7.0
 40
7.0
 40
8.0
 40
8.0
 40
8.0
 40
9.0
 40
9.0
 40
9.0
 40
10.0
 40
10.0
 40
10.0
 40
11.0
 40
11.0
 40
11.0
 40
12.0
 40
12.0
 40
12.0
 40
13.0
 40
13.0
 40
13.0
 40
13.0
 10
75.76333412819459
 20
-133.7882161123863
 10
75.65136852492397
 20
-134.1564968197595
 10
75.60072562129079
 20
-134.314971212081
 10
75.40401066908304
 20
-134.5647406347616
 10
75.21969806062216
 20
-134.7952175227248
 10
74.9830200007855
 20
-134.9812526789283
 10
74.70362275693174
 20
-135.0746147665786
 10
74.70362275693174
 20
-135.0746147665786
 10
74.51104191930627
 20
-134.8947807822485
 10
74.51104191930627
 20
-134.8947807822485
 10
75.15217418911126
 20
-134.7425075618005
 10
75.4822143365982
 20
-134.1861246409326
 10
75.54560409352679
 20
-133.7458414379177
 10
75.54560409352679
 20
-133.7458414379177
 10
74.77975936715576
 20
-133.7458414379177
 10
74.77975936715576
 20
-133.7458414379177
 10
74.68674178905401
 20
-133.7458414379177
 10
74.50277369014167
 20
-133.7503200620485
 10
74.3460218455628
 20
-133.7692680872174
 10
74.3460218455628
 20
-133.7692680872174
 10
74.3460218455628
 20
-133.5491264857099
 10
74.3460218455628
 20
-133.5491264857099
 10
74.4328382517911
 20
-133.5704860777185
 10
74.68467473176287
 20
-133.5704860777185
 10
74.78389348173806
 20
-133.5704860777185
 10
74.78389348173806
 20
-133.5704860777185
 10
75.21556394603986
 20
-133.5704860777185
 10
75.21556394603986
 20
-133.5704860777185
 10
75.25793862050844
 20
-133.5704860777185
 10
75.49254962305395
 20
-133.5680745108788
 10
75.53079018294022
 20
-133.5618733390054
 10
75.5731648574088
 20
-133.5556721671319
 10
75.57523191469994
 20
-133.5536051098408
 10
75.6365546143374
 20
-133.5132974926634
 10
75.6365546143374
 20
-133.5132974926634
 10
75.82465682783203
 20
-133.6676377704025
 10
75.82465682783203
 20
-133.6676377704025
 10
75.7953735162074
 20
-133.6972655915757
 10
75.78055960562084
 20
-133.72896047004
 10
75.76333412819459
 20
-133.7882161123863
 97
        0
 97
        0
 92
        1
 93
        1
 72
     4
 94
        3
 73
     0
 74
     1
 95
       17
 96
       13
 40
0.0
 40
0.0
 40
0.0
 40
0.0
 40
1.0
 40
1.0
 40
1.0
 40
2.0
 40
2.0
 40
2.0
 40
3.0
 40
3.0
 40
3.0
 40
4.0
 40
4.0
 40
4.0
 40
4.0
 10
75.97279593369778
 20
-133.5894341028874
 10
75.84601641984058
 20
-133.5894341028874
 10
75.74438610302572
 20
-133.4878037860725
 10
75.74438610302572
 20
-133.3610242722153
 10
75.74438610302572
 20
-133.2339002488096
 10
75.84601641984058
 20
-133.1302028747036
 10
75.97279593369778
 20
-133.1302028747036
 10
76.0999199571035
 20
-133.1302028747036
 10
76.20361733120951
 20
-133.2339002488096
 10
76.20361733120951
 20
-133.3610242722153
 10
76.20361733120951
 20
-133.4878037860725
 10
76.0999199571035
 20
-133.5894341028874
 10
75.97279593369778
 20
-133.5894341028874
 97
        0
 97
        0
 92
        1
 93
        1
 72
     4
 94
        3
 73
     0
 74
     1
 95
       17
 96
       13
 40
0.0
 40
0.0
 40
0.0
 40
0.0
 40
1.0
 40
1.0
 40
1.0
 40
2.0
 40
2.0
 40
2.0
 40
3.0
 40
3.0
 40
3.0
 40
4.0
 40
4.0
 40
4.0
 40
4.0
 10
75.97072887640662
 20
-133.2593939554004
 10
75.91595185819115
 20
-133.2593939554004
 10
75.87151012643143
 20
-133.3038356871602
 10
75.87151012643143
 20
-133.3589572149241
 10
75.87151012643143
 20
-133.4158012904308
 10
75.91595185819115
 20
-133.4647216463213
 10
75.97486299098892
 20
-133.4647216463213
 10
76.03411863333523
 20
-133.4647216463213
 10
76.07442625051264
 20
-133.4137342331396
 10
76.07442625051264
 20
-133.3610242722153
 10
76.07442625051264
 20
-133.3038356871602
 10
76.02791746146177
 20
-133.2593939554004
 10
75.97072887640662
 20
-133.2593939554004
 97
        0
 97
        0
 75
     2
 76
     1
 98
        0
  0
ENDBLK
  5
55
330
52
100
AcDbEntity
  8
0
100
AcDbBlockEnd
  0
BLOCK
  5
7C
330
7A
100
AcDbEntity
  8
0
100
AcDbBlockBegin
  2
block 3
 70
     0
 10
0.0
 20
0.0
 30
0.0
  3
block 3
  1

  0
SPLINE
  5
7E
330
7A
100
AcDbEntity
  8
_U+30EC_U+30A4_U+30E4_U+30FC 1
370
     0
100
AcDbSpline
210
0.0
220
0.0
230
1.0
 70
    11
 71
     3
 72
    29
 73
    25
 74
     0
 42
0.0000000001
 43
0.0000000001
 12
1.0
 22
0.0
 32
0.0
 13
1.0
 23
0.0
 33
0.0
 40
0.0
 40
0.0
 40
0.0
 40
0.0
 40
1.0
 40
1.0
 40
1.0
 40
2.0
 40
2.0
 40
2.0
 40
3.0
 40
3.0
 40
3.0
 40
4.0
 40
4.0
 40
4.0
 40
5.0
 40
5.0
 40
5.0
 40
6.0
 40
6.0
 40
6.0
 40
7.0
 40
7.0
 40
7.0
 40
8.0
 40
8.0
 40
8.0
 40
8.0
 10
113.4866129273575
 20
-121.3738145312885
 30
0.0
 10
113.6960747328607
 20
-121.4892252300444
 30
0.0
 10
113.7150227580296
 20
-121.6745713671508
 30
0.0
 10
113.7150227580296
 20
-121.7989393141683
 30
0.0
 10
113.7150227580296
 20
-121.9705050693338
 30
0.0
 10
113.6685139689787
 20
-122.1220892706848
 30
0.0
 10
113.4866129273575
 20
-122.2237195874996
 30
0.0
 10
113.2919650324409
 20
-122.3346516621247
 30
0.0
 10
113.0552869726042
 20
-122.3549777254876
 30
0.0
 10
112.8923339561519
 20
-122.3549777254876
 30
0.0
 10
112.7483289648685
 20
-122.3549777254876
 30
0.0
 10
112.4964924848967
 20
-122.3367187194158
 30
0.0
 10
112.2977104753978
 20
-122.2237195874996
 30
0.0
 10
112.0947943513166
 20
-122.1086533982923
 30
0.0
 10
112.0713677020169
 20
-121.9367431335783
 30
0.0
 10
112.0713677020169
 20
-121.7989393141683
 30
0.0
 10
112.0713677020169
 20
-121.6290961067455
 30
0.0
 10
112.1158094337766
 20
-121.4754448481034
 30
0.0
 10
112.2977104753978
 20
-121.3738145312885
 30
0.0
 10
112.4902913130233
 20
-121.2673610807943
 30
0.0
 10
112.7187011436953
 20
-121.2425563933005
 30
0.0
 10
112.8923339561519
 20
-121.2425563933005
 30
0.0
 10
113.0635552017688
 20
-121.2425563933005
 30
0.0
 10
113.2940320897321
 20
-121.2652940235031
 30
0.0
 10
113.4866129273575
 20
-121.3738145312885
 30
0.0
  0
SPLINE
  5
7F
330
7A
100
AcDbEntity
  8
_U+30EC_U+30A4_U+30E4_U+30FC 1
370
     0
100
AcDbSpline
210
0.0
220
0.0
230
1.0
 70
    11
 71
     3
 72
    17
 73
    13
 74
     0
 42
0.0000000001
 43
0.0000000001
 12
1.0
 22
0.0
 32
0.0
 13
1.0
 23
0.0
 33
0.0
 40
0.0
 40
0.0
 40
0.0
 40
0.0
 40
1.0
 40
1.0
 40
1.0
 40
2.0
 40
2.0
 40
2.0
 40
3.0
 40
3.0
 40
3.0
 40
4.0
 40
4.0
 40
4.0
 40
4.0
 10
112.2639485396424
 20
-121.7989393141683
 30
0.0
 10
112.2639485396424
 20
-122.0655897047267
 30
0.0
 10
112.5474798980784
 20
-122.1151990797143
 30
0.0
 10
112.8923339561519
 20
-122.1151990797143
 30
0.0
 10
113.2116943076346
 20
-122.1151990797143
 30
0.0
 10
113.520374863113
 20
-122.076958519828
 30
0.0
 10
113.520374863113
 20
-121.7989393141683
 30
0.0
 10
113.520374863113
 20
-121.5343559809011
 30
0.0
 10
113.2392550715166
 20
-121.4823350390739
 30
0.0
 10
112.8923339561519
 20
-121.4823350390739
 30
0.0
 10
112.5726290951207
 20
-121.4823350390739
 30
0.0
 10
112.2639485396424
 20
-121.5229871657998
 30
0.0
 10
112.2639485396424
 20
-121.7989393141683
 30
0.0
  0
HATCH
  5
80
330
7A
100
AcDbEntity
  8
_U+30EC_U+30A4_U+30E4_U+30FC 1
 62
   179
420
  2234388
100
AcDbHatch
 10
0.0
 20
0.0
 30
0.0
210
0.0
220
0.0
230
1.0
  2
SOLID
 70
     1
 71
     0
 91
        2
 92
        1
 93
        1
 72
     4
 94
        3
 73
     0
 74
     1
 95
       29
 96
       25
 40
0.0
 40
0.0
 40
0.0
 40
0.0
 40
1.0
 40
1.0
 40
1.0
 40
2.0
 40
2.0
 40
2.0
 40
3.0
 40
3.0
 40
3.0
 40
4.0
 40
4.0
 40
4.0
 40
5.0
 40
5.0
 40
5.0
 40
6.0
 40
6.0
 40
6.0
 40
7.0
 40
7.0
 40
7.0
 40
8.0
 40
8.0
 40
8.0
 40
8.0
 10
113.4866129273575
 20
-121.3738145312885
 10
113.6960747328607
 20
-121.4892252300444
 10
113.7150227580296
 20
-121.6745713671508
 10
113.7150227580296
 20
-121.7989393141683
 10
113.7150227580296
 20
-121.9705050693338
 10
113.6685139689787
 20
-122.1220892706848
 10
113.4866129273575
 20
-122.2237195874996
 10
113.2919650324409
 20
-122.3346516621247
 10
113.0552869726042
 20
-122.3549777254876
 10
112.8923339561519
 20
-122.3549777254876
 10
112.7483289648685
 20
-122.3549777254876
 10
112.4964924848967
 20
-122.3367187194158
 10
112.2977104753978
 20
-122.2237195874996
 10
112.0947943513166
 20
-122.1086533982923
 10
112.0713677020169
 20
-121.9367431335783
 10
112.0713677020169
 20
-121.7989393141683
 10
112.0713677020169
 20
-121.6290961067455
 10
112.1158094337766
 20
-121.4754448481034
 10
112.2977104753978
 20
-121.3738145312885
 10
112.4902913130233
 20
-121.2673610807943
 10
112.7187011436953
 20
-121.2425563933005
 10
112.8923339561519
 20
-121.2425563933005
 10
113.0635552017688
 20
-121.2425563933005
 10
113.2940320897321
 20
-121.2652940235031
 10
113.4866129273575
 20
-121.3738145312885
 97
        0
 97
        0
 92
        1
 93
        1
 72
     4
 94
        3
 73
     0
 74
     1
 95
       17
 96
       13
 40
0.0
 40
0.0
 40
0.0
 40
0.0
 40
1.0
 40
1.0
 40
1.0
 40
2.0
 40
2.0
 40
2.0
 40
3.0
 40
3.0
 40
3.0
 40
4.0
 40
4.0
 40
4.0
 40
4.0
 10
112.2639485396424
 20
-121.7989393141683
 10
112.2639485396424
 20
-122.0655897047267
 10
112.5474798980784
 20
-122.1151990797143
 10
112.8923339561519
 20
-122.1151990797143
 10
113.2116943076346
 20
-122.1151990797143
 10
113.520374863113
 20
-122.076958519828
 10
113.520374863113
 20
-121.7989393141683
 10
113.520374863113
 20
-121.5343559809011
 10
113.2392550715166
 20
-121.4823350390739
 10
112.8923339561519
 20
-121.4823350390739
 10
112.5726290951207
 20
-121.4823350390739
 10
112.2639485396424
 20
-121.5229871657998
 10
112.2639485396424
 20
-121.7989393141683
 97
        0
 97
        0
 75
     2
 76
     1
 98
        0
  0
POLYLINE
  5
81
330
7A
100
AcDbEntity
  8
_U+30EC_U+30A4_U+30E4_U+30FC 1
370
     0
100
AcDb2dPolyline
 66
     1
 10
0.0
 20
0.0
 30
0.0
  0
VERTEX
  5
82
330
81
100
AcDbEntity
  8
_U+30EC_U+30A4_U+30E4_U+30FC 1
370
     0
100
AcDbVertex
100
AcDb2dVertex
 10
113.6643798543964
 20
-121.0113904862402
 30
0.0
  0
VERTEX
  5
83
330
81
100
AcDbEntity
  8
_U+30EC_U+30A4_U+30E4_U+30FC 1
370
     0
100
AcDbVertex
100
AcDb2dVertex
 10
113.4125433744246
 20
-121.0113904862402
 30
0.0
  0
VERTEX
  5
84
330
81
100
AcDbEntity
  8
_U+30EC_U+30A4_U+30E4_U+30FC 1
370
     0
100
AcDbVertex
100
AcDb2dVertex
 10
113.4125433744246
 20
-120.7423285288422
 30
0.0
  0
VERTEX
  5
85
330
81
100
AcDbEntity
  8
_U+30EC_U+30A4_U+30E4_U+30FC 1
370
     0
100
AcDbVertex
100
AcDb2dVertex
 10
113.6643798543964
 20
-120.7423285288422
 30
0.0
  0
VERTEX
  5
86
330
81
100
AcDbEntity
  8
_U+30EC_U+30A4_U+30E4_U+30FC 1
370
     0
100
AcDbVertex
100
AcDb2dVertex
 10
113.6643798543964
 20
-121.0113904862402
 30
0.0
  0
SEQEND
  5
87
330
81
100
AcDbEntity
  8
_U+30EC_U+30A4_U+30E4_U+30FC 1
370
     0
  0
HATCH
  5
88
330
7A
100
AcDbEntity
  8
_U+30EC_U+30A4_U+30E4_U+30FC 1
 62
   179
420
  2234388
100
AcDbHatch
 10
0.0
 20
0.0
 30
0.0
210
0.0
220
0.0
230
1.0
  2
SOLID
 70
     1
 71
     0
 91
        1
 92
        1
 93
        4
 72
     1
 10
113.6643798543964
 20
-121.0113904862402
 11
113.4125433744246
 21
-121.0113904862402
 72
     1
 10
113.4125433744246
 20
-121.0113904862402
 11
113.4125433744246
 21
-120.7423285288422
 72
     1
 10
113.4125433744246
 20
-120.7423285288422
 11
113.6643798543964
 21
-120.7423285288422
 72
     1
 10
113.6643798543964
 20
-120.7423285288422
 11
113.6643798543964
 21
-121.0113904862402
 97
        0
 75
     2
 76
     1
 98
        0
  0
SPLINE
  5
89
330
7A
100
AcDbEntity
  8
_U+30EC_U+30A4_U+30E4_U+30FC 1
370
     0
100
AcDbSpline
210
0.0
220
0.0
230
1.0
 70
    11
 71
     3
 72
    29
 73
    25
 74
     0
 42
0.0000000001
 43
0.0000000001
 12
1.0
 22
0.0
 32
0.0
 13
1.0
 23
0.0
 33
0.0
 40
0.0
 40
0.0
 40
0.0
 40
0.0
 40
1.0
 40
1.0
 40
1.0
 40
2.0
 40
2.0
 40
2.0
 40
3.0
 40
3.0
 40
3.0
 40
4.0
 40
4.0
 40
4.0
 40
5.0
 40
5.0
 40
5.0
 40
6.0
 40
6.0
 40
6.0
 40
7.0
 40
7.0
 40
7.0
 40
8.0
 40
8.0
 40
8.0
 40
8.0
 10
113.7150227580296
 20
-119.9551242104626
 30
0.0
 10
113.7150227580296
 20
-120.2400336070928
 30
0.0
 10
113.5775634481681
 20
-120.5111626217819
 30
0.0
 10
113.2285752755123
 20
-120.5111626217819
 30
0.0
 10
112.9726046809582
 20
-120.5111626217819
 30
0.0
 10
112.8775200455653
 20
-120.3595784204309
 30
0.0
 10
112.8161973459279
 20
-120.2465792885148
 30
0.0
 10
112.7569417035816
 20
-120.3799044837939
 30
0.0
 10
112.6425645334713
 20
-120.4615532467943
 30
0.0
 10
112.4816785743101
 20
-120.4615532467943
 30
0.0
 10
112.2067599545872
 20
-120.4615532467943
 30
0.0
 10
112.0713677020169
 20
-120.2489908553544
 30
0.0
 10
112.0713677020169
 20
-119.9551242104626
 30
0.0
 10
112.0713677020169
 20
-119.6519558077606
 30
0.0
 10
112.2153726933003
 20
-119.4486951741309
 30
0.0
 10
112.4816785743101
 20
-119.4486951741309
 30
0.0
 10
112.6425645334713
 20
-119.4486951741309
 30
0.0
 10
112.7569417035816
 20
-119.5320664848739
 30
0.0
 10
112.8161973459279
 20
-119.6657361897016
 30
0.0
 10
112.8668402495611
 20
-119.5706515543087
 30
0.0
 10
112.961924884954
 20
-119.4011528564344
 30
0.0
 10
113.22444116093
 20
-119.4011528564344
 30
0.0
 10
113.5989230401767
 20
-119.4011528564344
 30
0.0
 10
113.7150227580296
 20
-119.6994981254571
 30
0.0
 10
113.7150227580296
 20
-119.9551242104626
 30
0.0
  0
SPLINE
  5
8A
330
7A
100
AcDbEntity
  8
_U+30EC_U+30A4_U+30E4_U+30FC 1
370
     0
100
AcDbSpline
210
0.0
220
0.0
230
1.0
 70
    11
 71
     3
 72
    17
 73
    13
 74
     0
 42
0.0000000001
 43
0.0000000001
 12
1.0
 22
0.0
 32
0.0
 13
1.0
 23
0.0
 33
0.0
 40
0.0
 40
0.0
 40
0.0
 40
0.0
 40
1.0
 40
1.0
 40
1.0
 40
2.0
 40
2.0
 40
2.0
 40
3.0
 40
3.0
 40
3.0
 40
4.0
 40
4.0
 40
4.0
 40
4.0
 10
112.2639485396424
 20
-119.9551242104626
 30
0.0
 10
112.2639485396424
 20
-120.1311685897589
 30
0.0
 10
112.3590331750353
 20
-120.221774601021
 30
0.0
 10
112.4944254276056
 20
-120.221774601021
 30
0.0
 10
112.6170708268805
 20
-120.221774601021
 30
0.0
 10
112.7355821115731
 20
-120.1449489716999
 30
0.0
 10
112.7355821115731
 20
-119.9551242104626
 30
0.0
 10
112.7355821115731
 20
-119.7649549396768
 30
0.0
 10
112.6170708268805
 20
-119.6881293103557
 30
0.0
 10
112.4944254276056
 20
-119.6881293103557
 30
0.0
 10
112.3590331750353
 20
-119.6881293103557
 30
0.0
 10
112.2639485396424
 20
-119.780802378909
 30
0.0
 10
112.2639485396424
 20
-119.9551242104626
 30
0.0
  0
SPLINE
  5
8B
330
7A
100
AcDbEntity
  8
_U+30EC_U+30A4_U+30E4_U+30FC 1
370
     0
100
AcDbSpline
210
0.0
220
0.0
230
1.0
 70
    11
 71
     3
 72
    17
 73
    13
 74
     0
 42
0.0000000001
 43
0.0000000001
 12
1.0
 22
0.0
 32
0.0
 13
1.0
 23
0.0
 33
0.0
 40
0.0
 40
0.0
 40
0.0
 40
0.0
 40
1.0
 40
1.0
 40
1.0
 40
2.0
 40
2.0
 40
2.0
 40
3.0
 40
3.0
 40
3.0
 40
4.0
 40
4.0
 40
4.0
 40
4.0
 10
112.9240288346162
 20
-119.9551242104626
 30
0.0
 10
112.9240288346162
 20
-120.1087754691048
 30
0.0
 10
113.0108452408445
 20
-120.2713839760086
 30
0.0
 10
113.2137613649257
 20
-120.2713839760086
 30
0.0
 10
113.4190890558466
 20
-120.2713839760086
 30
0.0
 10
113.520374863113
 20
-120.1359917234382
 30
0.0
 10
113.520374863113
 20
-119.9551242104626
 30
0.0
 10
113.520374863113
 20
-119.7559976914152
 30
0.0
 10
113.3977294638381
 20
-119.6385199353682
 30
0.0
 10
113.2199625367992
 20
-119.6385199353682
 30
0.0
 10
112.9980983875491
 20
-119.6385199353682
 30
0.0
 10
112.9240288346162
 20
-119.8124972573733
 30
0.0
 10
112.9240288346162
 20
-119.9551242104626
 30
0.0
  0
HATCH
  5
8C
330
7A
100
AcDbEntity
  8
_U+30EC_U+30A4_U+30E4_U+30FC 1
 62
   179
420
  2234388
100
AcDbHatch
 10
0.0
 20
0.0
 30
0.0
210
0.0
220
0.0
230
1.0
  2
SOLID
 70
     1
 71
     0
 91
        3
 92
        1
 93
        1
 72
     4
 94
        3
 73
     0
 74
     1
 95
       29
 96
       25
 40
0.0
 40
0.0
 40
0.0
 40
0.0
 40
1.0
 40
1.0
 40
1.0
 40
2.0
 40
2.0
 40
2.0
 40
3.0
 40
3.0
 40
3.0
 40
4.0
 40
4.0
 40
4.0
 40
5.0
 40
5.0
 40
5.0
 40
6.0
 40
6.0
 40
6.0
 40
7.0
 40
7.0
 40
7.0
 40
8.0
 40
8.0
 40
8.0
 40
8.0
 10
113.7150227580296
 20
-119.9551242104626
 10
113.7150227580296
 20
-120.2400336070928
 10
113.5775634481681
 20
-120.5111626217819
 10
113.2285752755123
 20
-120.5111626217819
 10
112.9726046809582
 20
-120.5111626217819
 10
112.8775200455653
 20
-120.3595784204309
 10
112.8161973459279
 20
-120.2465792885148
 10
112.7569417035816
 20
-120.3799044837939
 10
112.6425645334713
 20
-120.4615532467943
 10
112.4816785743101
 20
-120.4615532467943
 10
112.2067599545872
 20
-120.4615532467943
 10
112.0713677020169
 20
-120.2489908553544
 10
112.0713677020169
 20
-119.9551242104626
 10
112.0713677020169
 20
-119.6519558077606
 10
112.2153726933003
 20
-119.4486951741309
 10
112.4816785743101
 20
-119.4486951741309
 10
112.6425645334713
 20
-119.4486951741309
 10
112.7569417035816
 20
-119.5320664848739
 10
112.8161973459279
 20
-119.6657361897016
 10
112.8668402495611
 20
-119.5706515543087
 10
112.961924884954
 20
-119.4011528564344
 10
113.22444116093
 20
-119.4011528564344
 10
113.5989230401767
 20
-119.4011528564344
 10
113.7150227580296
 20
-119.6994981254571
 10
113.7150227580296
 20
-119.9551242104626
 97
        0
 97
        0
 92
        1
 93
        1
 72
     4
 94
        3
 73
     0
 74
     1
 95
       17
 96
       13
 40
0.0
 40
0.0
 40
0.0
 40
0.0
 40
1.0
 40
1.0
 40
1.0
 40
2.0
 40
2.0
 40
2.0
 40
3.0
 40
3.0
 40
3.0
 40
4.0
 40
4.0
 40
4.0
 40
4.0
 10
112.2639485396424
 20
-119.9551242104626
 10
112.2639485396424
 20
-120.1311685897589
 10
112.3590331750353
 20
-120.221774601021
 10
112.4944254276056
 20
-120.221774601021
 10
112.6170708268805
 20
-120.221774601021
 10
112.7355821115731
 20
-120.1449489716999
 10
112.7355821115731
 20
-119.9551242104626
 10
112.7355821115731
 20
-119.7649549396768
 10
112.6170708268805
 20
-119.6881293103557
 10
112.4944254276056
 20
-119.6881293103557
 10
112.3590331750353
 20
-119.6881293103557
 10
112.2639485396424
 20
-119.780802378909
 10
112.2639485396424
 20
-119.9551242104626
 97
        0
 97
        0
 92
        1
 93
        1
 72
     4
 94
        3
 73
     0
 74
     1
 95
       17
 96
       13
 40
0.0
 40
0.0
 40
0.0
 40
0.0
 40
1.0
 40
1.0
 40
1.0
 40
2.0
 40
2.0
 40
2.0
 40
3.0
 40
3.0
 40
3.0
 40
4.0
 40
4.0
 40
4.0
 40
4.0
 10
112.9240288346162
 20
-119.9551242104626
 10
112.9240288346162
 20
-120.1087754691048
 10
113.0108452408445
 20
-120.2713839760086
 10
113.2137613649257
 20
-120.2713839760086
 10
113.4190890558466
 20
-120.2713839760086
 10
113.520374863113
 20
-120.1359917234382
 10
113.520374863113
 20
-119.9551242104626
 10
113.520374863113
 20
-119.7559976914152
 10
113.3977294638381
 20
-119.6385199353682
 10
113.2199625367992
 20
-119.6385199353682
 10
112.9980983875491
 20
-119.6385199353682
 10
112.9240288346162
 20
-119.8124972573733
 10
112.9240288346162
 20
-119.9551242104626
 97
        0
 97
        0
 75
     2
 76
     1
 98
        0
  0
ENDBLK
  5
7D
330
7A
100
AcDbEntity
  8
0
100
AcDbBlockEnd
  0
BLOCK
  5
B3
330
B1
100
AcDbEntity
  8
0
100
AcDbBlockBegin
  2
block 4
 70
     0
 10
0.0
 20
0.0
 30
0.0
  3
block 4
  1

  0
SPLINE
  5
B5
330
B1
100
AcDbEntity
  8
_U+30EC_U+30A4_U+30E4_U+30FC 1
370
     0
100
AcDbSpline
210
0.0
220
0.0
230
1.0
 70
    11
 71
     3
 72
    26
 73
    22
 74
     0
 42
0.0000000001
 43
0.0000000001
 12
1.0
 22
0.0
 32
0.0
 13
1.0
 23
0.0
 33
0.0
 40
0.0
 40
0.0
 40
0.0
 40
0.0
 40
1.0
 40
1.0
 40
1.0
 40
2.0
 40
2.0
 40
2.0
 40
3.0
 40
3.0
 40
3.0
 40
4.0
 40
4.0
 40
4.0
 40
5.0
 40
5.0
 40
5.0
 40
6.0
 40
6.0
 40
6.0
 40
7.0
 40
7.0
 40
7.0
 40
7.0
 10
91.8465901463092
 20
-138.521432799571
 30
0.0
 10
91.8465901463092
 20
-138.521432799571
 30
0.0
 10
91.8465901463092
 20
-137.4172796965485
 30
0.0
 10
91.8465901463092
 20
-137.4172796965485
 30
0.0
 10
91.8465901463092
 20
-137.4172796965485
 30
0.0
 10
91.51654999882226
 20
-137.4172796965485
 30
0.0
 10
91.51654999882226
 20
-137.4172796965485
 30
0.0
 10
91.51654999882226
 20
-137.4172796965485
 30
0.0
 10
91.51654999882226
 20
-137.2691405906827
 30
0.0
 10
91.51654999882226
 20
-137.2691405906827
 30
0.0
 10
91.84865720360034
 20
-137.2543266800961
 30
0.0
 10
91.89516599265121
 20
-137.0913736636438
 30
0.0
 10
91.92479381382437
 20
-136.9769964935335
 30
0.0
 10
91.92479381382437
 20
-136.9769964935335
 30
0.0
 10
92.07086586239896
 20
-136.9769964935335
 30
0.0
 10
92.07086586239896
 20
-136.9769964935335
 30
0.0
 10
92.07086586239896
 20
-136.9769964935335
 30
0.0
 10
92.07086586239896
 20
-138.521432799571
 30
0.0
 10
92.07086586239896
 20
-138.521432799571
 30
0.0
 10
92.07086586239896
 20
-138.521432799571
 30
0.0
 10
91.8465901463092
 20
-138.521432799571
 30
0.0
 10
91.8465901463092
 20
-138.521432799571
 30
0.0
  0
HATCH
  5
B6
330
B1
100
AcDbEntity
  8
_U+30EC_U+30A4_U+30E4_U+30FC 1
 62
   179
420
  2234388
100
AcDbHatch
 10
0.0
 20
0.0
 30
0.0
210
0.0
220
0.0
230
1.0
  2
SOLID
 70
     1
 71
     0
 91
        1
 92
        1
 93
        1
 72
     4
 94
        3
 73
     0
 74
     1
 95
       26
 96
       22
 40
0.0
 40
0.0
 40
0.0
 40
0.0
 40
1.0
 40
1.0
 40
1.0
 40
2.0
 40
2.0
 40
2.0
 40
3.0
 40
3.0
 40
3.0
 40
4.0
 40
4.0
 40
4.0
 40
5.0
 40
5.0
 40
5.0
 40
6.0
 40
6.0
 40
6.0
 40
7.0
 40
7.0
 40
7.0
 40
7.0
 10
91.8465901463092
 20
-138.521432799571
 10
91.8465901463092
 20
-138.521432799571
 10
91.8465901463092
 20
-137.4172796965485
 10
91.8465901463092
 20
-137.4172796965485
 10
91.8465901463092
 20
-137.4172796965485
 10
91.51654999882226
 20
-137.4172796965485
 10
91.51654999882226
 20
-137.4172796965485
 10
91.51654999882226
 20
-137.4172796965485
 10
91.51654999882226
 20
-137.2691405906827
 10
91.51654999882226
 20
-137.2691405906827
 10
91.84865720360034
 20
-137.2543266800961
 10
91.89516599265121
 20
-137.0913736636438
 10
91.92479381382437
 20
-136.9769964935335
 10
91.92479381382437
 20
-136.9769964935335
 10
92.07086586239896
 20
-136.9769964935335
 10
92.07086586239896
 20
-136.9769964935335
 10
92.07086586239896
 20
-136.9769964935335
 10
92.07086586239896
 20
-138.521432799571
 10
92.07086586239896
 20
-138.521432799571
 10
92.07086586239896
 20
-138.521432799571
 10
91.8465901463092
 20
-138.521432799571
 10
91.8465901463092
 20
-138.521432799571
 97
        0
 97
        0
 75
     2
 76
     1
 98
        0
  0
SPLINE
  5
B7
330
B1
100
AcDbEntity
  8
_U+30EC_U+30A4_U+30E4_U+30FC 1
370
     0
100
AcDbSpline
210
0.0
220
0.0
230
1.0
 70
    11
 71
     3
 72
    29
 73
    25
 74
     0
 42
0.0000000001
 43
0.0000000001
 12
1.0
 22
0.0
 32
0.0
 13
1.0
 23
0.0
 33
0.0
 40
0.0
 40
0.0
 40
0.0
 40
0.0
 40
1.0
 40
1.0
 40
1.0
 40
2.0
 40
2.0
 40
2.0
 40
3.0
 40
3.0
 40
3.0
 40
4.0
 40
4.0
 40
4.0
 40
5.0
 40
5.0
 40
5.0
 40
6.0
 40
6.0
 40
6.0
 40
7.0
 40
7.0
 40
7.0
 40
8.0
 40
8.0
 40
8.0
 40
8.0
 10
93.46991913895891
 20
-138.3436658725321
 30
0.0
 10
93.36174314072207
 20
-138.5531276780353
 30
0.0
 10
93.188454837814
 20
-138.5720757032042
 30
0.0
 10
93.07201061041256
 20
-138.5720757032042
 30
0.0
 10
92.91112465125138
 20
-138.5720757032042
 30
0.0
 10
92.76953122680762
 20
-138.5255669141533
 30
0.0
 10
92.67444659141472
 20
-138.3436658725321
 30
0.0
 10
92.5707492173087
 20
-138.1490179776155
 30
0.0
 10
92.55180119213983
 20
-137.9123399177789
 30
0.0
 10
92.55180119213983
 20
-137.7493869013265
 30
0.0
 10
92.55180119213983
 20
-137.6053819100431
 30
0.0
 10
92.56868216001756
 20
-137.3535454300713
 30
0.0
 10
92.67444659141472
 20
-137.1547634205724
 30
0.0
 10
92.78227808010304
 20
-136.9518472964912
 30
0.0
 10
92.94316403926422
 20
-136.9284206471915
 30
0.0
 10
93.07201061041256
 20
-136.9284206471915
 30
0.0
 10
93.23082951228257
 20
-136.9284206471915
 30
0.0
 10
93.3744899940175
 20
-136.9728623789512
 30
0.0
 10
93.46991913895891
 20
-137.1547634205724
 30
0.0
 10
93.56913788893411
 20
-137.3473442581979
 30
0.0
 10
93.5925645382338
 20
-137.57575408887
 30
0.0
 10
93.5925645382338
 20
-137.7493869013265
 30
0.0
 10
93.5925645382338
 20
-137.9206081469435
 30
0.0
 10
93.57120494622527
 20
-138.1510850349067
 30
0.0
 10
93.46991913895891
 20
-138.3436658725321
 30
0.0
  0
SPLINE
  5
B8
330
B1
100
AcDbEntity
  8
_U+30EC_U+30A4_U+30E4_U+30FC 1
370
     0
100
AcDbSpline
210
0.0
220
0.0
230
1.0
 70
    11
 71
     3
 72
    17
 73
    13
 74
     0
 42
0.0000000001
 43
0.0000000001
 12
1.0
 22
0.0
 32
0.0
 13
1.0
 23
0.0
 33
0.0
 40
0.0
 40
0.0
 40
0.0
 40
0.0
 40
1.0
 40
1.0
 40
1.0
 40
2.0
 40
2.0
 40
2.0
 40
3.0
 40
3.0
 40
3.0
 40
4.0
 40
4.0
 40
4.0
 40
4.0
 10
93.07201061041256
 20
-137.121001484817
 30
0.0
 10
92.82258569728047
 20
-137.121001484817
 30
0.0
 10
92.77573239868107
 20
-137.404532843253
 30
0.0
 10
92.77573239868107
 20
-137.7493869013265
 30
0.0
 10
92.77573239868107
 20
-138.0687472528092
 30
0.0
 10
92.81190590127619
 20
-138.3774278082876
 30
0.0
 10
93.07201061041256
 20
-138.3774278082876
 30
0.0
 10
93.31971297580202
 20
-138.3774278082876
 30
0.0
 10
93.36828882214404
 20
-138.0963080166912
 30
0.0
 10
93.36828882214404
 20
-137.7493869013265
 30
0.0
 10
93.36828882214404
 20
-137.4296820402954
 30
0.0
 10
93.33004826225778
 20
-137.121001484817
 30
0.0
 10
93.07201061041256
 20
-137.121001484817
 30
0.0
  0
HATCH
  5
B9
330
B1
100
AcDbEntity
  8
_U+30EC_U+30A4_U+30E4_U+30FC 1
 62
   179
420
  2234388
100
AcDbHatch
 10
0.0
 20
0.0
 30
0.0
210
0.0
220
0.0
230
1.0
  2
SOLID
 70
     1
 71
     0
 91
        2
 92
        1
 93
        1
 72
     4
 94
        3
 73
     0
 74
     1
 95
       29
 96
       25
 40
0.0
 40
0.0
 40
0.0
 40
0.0
 40
1.0
 40
1.0
 40
1.0
 40
2.0
 40
2.0
 40
2.0
 40
3.0
 40
3.0
 40
3.0
 40
4.0
 40
4.0
 40
4.0
 40
5.0
 40
5.0
 40
5.0
 40
6.0
 40
6.0
 40
6.0
 40
7.0
 40
7.0
 40
7.0
 40
8.0
 40
8.0
 40
8.0
 40
8.0
 10
93.46991913895891
 20
-138.3436658725321
 10
93.36174314072207
 20
-138.5531276780353
 10
93.188454837814
 20
-138.5720757032042
 10
93.07201061041256
 20
-138.5720757032042
 10
92.91112465125138
 20
-138.5720757032042
 10
92.76953122680762
 20
-138.5255669141533
 10
92.67444659141472
 20
-138.3436658725321
 10
92.5707492173087
 20
-138.1490179776155
 10
92.55180119213983
 20
-137.9123399177789
 10
92.55180119213983
 20
-137.7493869013265
 10
92.55180119213983
 20
-137.6053819100431
 10
92.56868216001756
 20
-137.3535454300713
 10
92.67444659141472
 20
-137.1547634205724
 10
92.78227808010304
 20
-136.9518472964912
 10
92.94316403926422
 20
-136.9284206471915
 10
93.07201061041256
 20
-136.9284206471915
 10
93.23082951228257
 20
-136.9284206471915
 10
93.3744899940175
 20
-136.9728623789512
 10
93.46991913895891
 20
-137.1547634205724
 10
93.56913788893411
 20
-137.3473442581979
 10
93.5925645382338
 20
-137.57575408887
 10
93.5925645382338
 20
-137.7493869013265
 10
93.5925645382338
 20
-137.9206081469435
 10
93.57120494622527
 20
-138.1510850349067
 10
93.46991913895891
 20
-138.3436658725321
 97
        0
 97
        0
 92
        1
 93
        1
 72
     4
 94
        3
 73
     0
 74
     1
 95
       17
 96
       13
 40
0.0
 40
0.0
 40
0.0
 40
0.0
 40
1.0
 40
1.0
 40
1.0
 40
2.0
 40
2.0
 40
2.0
 40
3.0
 40
3.0
 40
3.0
 40
4.0
 40
4.0
 40
4.0
 40
4.0
 10
93.07201061041256
 20
-137.121001484817
 10
92.82258569728047
 20
-137.121001484817
 10
92.77573239868107
 20
-137.404532843253
 10
92.77573239868107
 20
-137.7493869013265
 10
92.77573239868107
 20
-138.0687472528092
 10
92.81190590127619
 20
-138.3774278082876
 10
93.07201061041256
 20
-138.3774278082876
 10
93.31971297580202
 20
-138.3774278082876
 10
93.36828882214404
 20
-138.0963080166912
 10
93.36828882214404
 20
-137.7493869013265
 10
93.36828882214404
 20
-137.4296820402954
 10
93.33004826225778
 20
-137.121001484817
 10
93.07201061041256
 20
-137.121001484817
 97
        0
 97
        0
 75
     2
 76
     1
 98
        0
  0
ENDBLK
  5
B4
330
B1
100
AcDbEntity
  8
0
100
AcDbBlockEnd
  0
BLOCK
  5
D0
330
CE
100
AcDbEntity
  8
0
100
AcDbBlockBegin
  2
block 5
 70
     0
 10
0.0
 20
0.0
 30
0.0
  3
block 5
  1

  0
SPLINE
  5
D2
330
CE
100
AcDbEntity
  8
_U+30EC_U+30A4_U+30E4_U+30FC 1
370
     0
100
AcDbSpline
210
0.0
220
0.0
230
1.0
 70
    11
 71
     3
 72
    29
 73
    25
 74
     0
 42
0.0000000001
 43
0.0000000001
 12
1.0
 22
0.0
 32
0.0
 13
1.0
 23
0.0
 33
0.0
 40
0.0
 40
0.0
 40
0.0
 40
0.0
 40
1.0
 40
1.0
 40
1.0
 40
2.0
 40
2.0
 40
2.0
 40
3.0
 40
3.0
 40
3.0
 40
4.0
 40
4.0
 40
4.0
 40
5.0
 40
5.0
 40
5.0
 40
6.0
 40
6.0
 40
6.0
 40
7.0
 40
7.0
 40
7.0
 40
8.0
 40
8.0
 40
8.0
 40
8.0
 10
113.7622205661775
 20
-129.7956949545303
 30
0.0
 10
113.7622205661775
 20
-130.0623453450886
 30
0.0
 10
113.624761256316
 20
-130.3162488823515
 30
0.0
 10
113.2757730836602
 20
-130.3162488823515
 30
0.0
 10
113.0198024891062
 20
-130.3162488823515
 30
0.0
 10
112.9247178537133
 20
-130.1743109483592
 30
0.0
 10
112.8633951540758
 20
-130.068546516962
 30
0.0
 10
112.8041395117295
 20
-130.1932589735281
 30
0.0
 10
112.6897623416192
 20
-130.2693955837521
 30
0.0
 10
112.5288763824581
 20
-130.2693955837521
 30
0.0
 10
112.2539577627351
 20
-130.2693955837521
 30
0.0
 10
112.1185655101648
 20
-130.0706135742532
 30
0.0
 10
112.1185655101648
 20
-129.7956949545303
 30
0.0
 10
112.1185655101648
 20
-129.5121635960942
 30
0.0
 10
112.2625705014483
 20
-129.3216498157599
 30
0.0
 10
112.5288763824581
 20
-129.3216498157599
 30
0.0
 10
112.6897623416192
 20
-129.3216498157599
 30
0.0
 10
112.8041395117295
 20
-129.4001979928236
 30
0.0
 10
112.8633951540758
 20
-129.5249104493896
 30
0.0
 10
112.914038057709
 20
-129.4360269858702
 30
0.0
 10
113.0091226931019
 20
-129.2772080840001
 30
0.0
 10
113.2716389690779
 20
-129.2772080840001
 30
0.0
 10
113.6461208483246
 20
-129.2772080840001
 30
0.0
 10
113.7622205661775
 20
-129.5566053278539
 30
0.0
 10
113.7622205661775
 20
-129.7956949545303
 30
0.0
  0
SPLINE
  5
D3
330
CE
100
AcDbEntity
  8
_U+30EC_U+30A4_U+30E4_U+30FC 1
370
     0
100
AcDbSpline
210
0.0
220
0.0
230
1.0
 70
    11
 71
     3
 72
    17
 73
    13
 74
     0
 42
0.0000000001
 43
0.0000000001
 12
1.0
 22
0.0
 32
0.0
 13
1.0
 23
0.0
 33
0.0
 40
0.0
 40
0.0
 40
0.0
 40
0.0
 40
1.0
 40
1.0
 40
1.0
 40
2.0
 40
2.0
 40
2.0
 40
3.0
 40
3.0
 40
3.0
 40
4.0
 40
4.0
 40
4.0
 40
4.0
 10
112.3111463477903
 20
-129.7956949545303
 30
0.0
 10
112.3111463477903
 20
-129.9607150282737
 30
0.0
 10
112.4062309831832
 20
-130.0454643772109
 30
0.0
 10
112.5416232357535
 20
-130.0454643772109
 30
0.0
 10
112.6642686350284
 20
-130.0454643772109
 30
0.0
 10
112.782779919721
 20
-129.9734618815691
 30
0.0
 10
112.782779919721
 20
-129.7956949545303
 30
0.0
 10
112.782779919721
 20
-129.6179280274914
 30
0.0
 10
112.6642686350284
 20
-129.5459255318496
 30
0.0
 10
112.5416232357535
 20
-129.5459255318496
 30
0.0
 10
112.4062309831832
 20
-129.5459255318496
 30
0.0
 10
112.3111463477903
 20
-129.6327419380779
 30
0.0
 10
112.3111463477903
 20
-129.7956949545303
 30
0.0
  0
SPLINE
  5
D4
330
CE
100
AcDbEntity
  8
_U+30EC_U+30A4_U+30E4_U+30FC 1
370
     0
100
AcDbSpline
210
0.0
220
0.0
230
1.0
 70
    11
 71
     3
 72
    17
 73
    13
 74
     0
 42
0.0000000001
 43
0.0000000001
 12
1.0
 22
0.0
 32
0.0
 13
1.0
 23
0.0
 33
0.0
 40
0.0
 40
0.0
 40
0.0
 40
0.0
 40
1.0
 40
1.0
 40
1.0
 40
2.0
 40
2.0
 40
2.0
 40
3.0
 40
3.0
 40
3.0
 40
4.0
 40
4.0
 40
4.0
 40
4.0
 10
112.9712266427641
 20
-129.7956949545303
 30
0.0
 10
112.9712266427641
 20
-129.9393554362652
 30
0.0
 10
113.0580430489924
 20
-130.0919731662617
 30
0.0
 10
113.2609591730737
 20
-130.0919731662617
 30
0.0
 10
113.4662868639945
 20
-130.0919731662617
 30
0.0
 10
113.5675726712609
 20
-129.964849142856
 30
0.0
 10
113.5675726712609
 20
-129.7956949545303
 30
0.0
 10
113.5675726712609
 20
-129.6096597983268
 30
0.0
 10
113.444927271986
 20
-129.4994167427988
 30
0.0
 10
113.2671603449471
 20
-129.4994167427988
 30
0.0
 10
113.045296195697
 20
-129.4994167427988
 30
0.0
 10
112.9712266427641
 20
-129.6623697592511
 30
0.0
 10
112.9712266427641
 20
-129.7956949545303
 30
0.0
  0
HATCH
  5
D5
330
CE
100
AcDbEntity
  8
_U+30EC_U+30A4_U+30E4_U+30FC 1
 62
   179
420
  2234388
100
AcDbHatch
 10
0.0
 20
0.0
 30
0.0
210
0.0
220
0.0
230
1.0
  2
SOLID
 70
     1
 71
     0
 91
        3
 92
        1
 93
        1
 72
     4
 94
        3
 73
     0
 74
     1
 95
       29
 96
       25
 40
0.0
 40
0.0
 40
0.0
 40
0.0
 40
1.0
 40
1.0
 40
1.0
 40
2.0
 40
2.0
 40
2.0
 40
3.0
 40
3.0
 40
3.0
 40
4.0
 40
4.0
 40
4.0
 40
5.0
 40
5.0
 40
5.0
 40
6.0
 40
6.0
 40
6.0
 40
7.0
 40
7.0
 40
7.0
 40
8.0
 40
8.0
 40
8.0
 40
8.0
 10
113.7622205661775
 20
-129.7956949545303
 10
113.7622205661775
 20
-130.0623453450886
 10
113.624761256316
 20
-130.3162488823515
 10
113.2757730836602
 20
-130.3162488823515
 10
113.0198024891062
 20
-130.3162488823515
 10
112.9247178537133
 20
-130.1743109483592
 10
112.8633951540758
 20
-130.068546516962
 10
112.8041395117295
 20
-130.1932589735281
 10
112.6897623416192
 20
-130.2693955837521
 10
112.5288763824581
 20
-130.2693955837521
 10
112.2539577627351
 20
-130.2693955837521
 10
112.1185655101648
 20
-130.0706135742532
 10
112.1185655101648
 20
-129.7956949545303
 10
112.1185655101648
 20
-129.5121635960942
 10
112.2625705014483
 20
-129.3216498157599
 10
112.5288763824581
 20
-129.3216498157599
 10
112.6897623416192
 20
-129.3216498157599
 10
112.8041395117295
 20
-129.4001979928236
 10
112.8633951540758
 20
-129.5249104493896
 10
112.914038057709
 20
-129.4360269858702
 10
113.0091226931019
 20
-129.2772080840001
 10
113.2716389690779
 20
-129.2772080840001
 10
113.6461208483246
 20
-129.2772080840001
 10
113.7622205661775
 20
-129.5566053278539
 10
113.7622205661775
 20
-129.7956949545303
 97
        0
 97
        0
 92
        1
 93
        1
 72
     4
 94
        3
 73
     0
 74
     1
 95
       17
 96
       13
 40
0.0
 40
0.0
 40
0.0
 40
0.0
 40
1.0
 40
1.0
 40
1.0
 40
2.0
 40
2.0
 40
2.0
 40
3.0
 40
3.0
 40
3.0
 40
4.0
 40
4.0
 40
4.0
 40
4.0
 10
112.3111463477903
 20
-129.7956949545303
 10
112.3111463477903
 20
-129.9607150282737
 10
112.4062309831832
 20
-130.0454643772109
 10
112.5416232357535
 20
-130.0454643772109
 10
112.6642686350284
 20
-130.0454643772109
 10
112.782779919721
 20
-129.9734618815691
 10
112.782779919721
 20
-129.7956949545303
 10
112.782779919721
 20
-129.6179280274914
 10
112.6642686350284
 20
-129.5459255318496
 10
112.5416232357535
 20
-129.5459255318496
 10
112.4062309831832
 20
-129.5459255318496
 10
112.3111463477903
 20
-129.6327419380779
 10
112.3111463477903
 20
-129.7956949545303
 97
        0
 97
        0
 92
        1
 93
        1
 72
     4
 94
        3
 73
     0
 74
     1
 95
       17
 96
       13
 40
0.0
 40
0.0
 40
0.0
 40
0.0
 40
1.0
 40
1.0
 40
1.0
 40
2.0
 40
2.0
 40
2.0
 40
3.0
 40
3.0
 40
3.0
 40
4.0
 40
4.0
 40
4.0
 40
4.0
 10
112.9712266427641
 20
-129.7956949545303
 10
112.9712266427641
 20
-129.9393554362652
 10
113.0580430489924
 20
-130.0919731662617
 10
113.2609591730737
 20
-130.0919731662617
 10
113.4662868639945
 20
-130.0919731662617
 10
113.5675726712609
 20
-129.964849142856
 10
113.5675726712609
 20
-129.7956949545303
 10
113.5675726712609
 20
-129.6096597983268
 10
113.444927271986
 20
-129.4994167427988
 10
113.2671603449471
 20
-129.4994167427988
 10
113.045296195697
 20
-129.4994167427988
 10
112.9712266427641
 20
-129.6623697592511
 10
112.9712266427641
 20
-129.7956949545303
 97
        0
 97
        0
 75
     2
 76
     1
 98
        0
  0
POLYLINE
  5
D6
330
CE
100
AcDbEntity
  8
_U+30EC_U+30A4_U+30E4_U+30FC 1
370
     0
100
AcDb2dPolyline
 66
     1
 10
0.0
 20
0.0
 30
0.0
  0
VERTEX
  5
D7
330
D6
100
AcDbEntity
  8
_U+30EC_U+30A4_U+30E4_U+30FC 1
370
     0
100
AcDbVertex
100
AcDb2dVertex
 10
113.7115776625443
 20
-129.0587890302353
 30
0.0
  0
VERTEX
  5
D8
330
D6
100
AcDbEntity
  8
_U+30EC_U+30A4_U+30E4_U+30FC 1
370
     0
100
AcDbVertex
100
AcDb2dVertex
 10
113.4597411825726
 20
-129.0587890302353
 30
0.0
  0
VERTEX
  5
D9
330
D6
100
AcDbEntity
  8
_U+30EC_U+30A4_U+30E4_U+30FC 1
370
     0
100
AcDbVertex
100
AcDb2dVertex
 10
113.4597411825726
 20
-128.8069525502635
 30
0.0
  0
VERTEX
  5
DA
330
D6
100
AcDbEntity
  8
_U+30EC_U+30A4_U+30E4_U+30FC 1
370
     0
100
AcDbVertex
100
AcDb2dVertex
 10
113.7115776625443
 20
-128.8069525502635
 30
0.0
  0
VERTEX
  5
DB
330
D6
100
AcDbEntity
  8
_U+30EC_U+30A4_U+30E4_U+30FC 1
370
     0
100
AcDbVertex
100
AcDb2dVertex
 10
113.7115776625443
 20
-129.0587890302353
 30
0.0
  0
SEQEND
  5
DC
330
D6
100
AcDbEntity
  8
_U+30EC_U+30A4_U+30E4_U+30FC 1
370
     0
  0
HATCH
  5
DD
330
CE
100
AcDbEntity
  8
_U+30EC_U+30A4_U+30E4_U+30FC 1
 62
   179
420
  2234388
100
AcDbHatch
 10
0.0
 20
0.0
 30
0.0
210
0.0
220
0.0
230
1.0
  2
SOLID
 70
     1
 71
     0
 91
        1
 92
        1
 93
        4
 72
     1
 10
113.7115776625443
 20
-129.0587890302353
 11
113.4597411825726
 21
-129.0587890302353
 72
     1
 10
113.4597411825726
 20
-129.0587890302353
 11
113.4597411825726
 21
-128.8069525502635
 72
     1
 10
113.4597411825726
 20
-128.8069525502635
 11
113.7115776625443
 21
-128.8069525502635
 72
     1
 10
113.7115776625443
 20
-128.8069525502635
 11
113.7115776625443
 21
-129.0587890302353
 97
        0
 75
     2
 76
     1
 98
        0
  0
SPLINE
  5
DE
330
CE
100
AcDbEntity
  8
_U+30EC_U+30A4_U+30E4_U+30FC 1
370
     0
100
AcDbSpline
210
0.0
220
0.0
230
1.0
 70
    11
 71
     3
 72
    53
 73
    49
 74
     0
 42
0.0000000001
 43
0.0000000001
 12
1.0
 22
0.0
 32
0.0
 13
1.0
 23
0.0
 33
0.0
 40
0.0
 40
0.0
 40
0.0
 40
0.0
 40
1.0
 40
1.0
 40
1.0
 40
2.0
 40
2.0
 40
2.0
 40
3.0
 40
3.0
 40
3.0
 40
4.0
 40
4.0
 40
4.0
 40
5.0
 40
5.0
 40
5.0
 40
6.0
 40
6.0
 40
6.0
 40
7.0
 40
7.0
 40
7.0
 40
8.0
 40
8.0
 40
8.0
 40
9.0
 40
9.0
 40
9.0
 40
10.0
 40
10.0
 40
10.0
 40
11.0
 40
11.0
 40
11.0
 40
12.0
 40
12.0
 40
12.0
 40
13.0
 40
13.0
 40
13.0
 40
14.0
 40
14.0
 40
14.0
 40
15.0
 40
15.0
 40
15.0
 40
16.0
 40
16.0
 40
16.0
 40
16.0
 10
113.7622205661775
 20
-128.0896836702345
 30
0.0
 10
113.7622205661775
 20
-128.1678873377497
 30
0.0
 10
113.7453395982998
 20
-128.2695176545646
 30
0.0
 10
113.6819498413712
 20
-128.3711479713794
 30
0.0
 10
113.5720512953917
 20
-128.5444362742875
 30
0.0
 10
113.4407931574037
 20
-128.5657958662961
 30
0.0
 10
113.3329616687154
 20
-128.5847438914649
 30
0.0
 10
113.3329616687154
 20
-128.5847438914649
 30
0.0
 10
113.3329616687154
 20
-128.3625352326663
 30
0.0
 10
113.3329616687154
 20
-128.3625352326663
 30
0.0
 10
113.5317436782143
 20
-128.3077582144508
 30
0.0
 10
113.5613714993874
 20
-128.1806341910451
 30
0.0
 10
113.5613714993874
 20
-128.0876166129434
 30
0.0
 10
113.5613714993874
 20
-127.9480902457908
 30
0.0
 10
113.4618082398637
 20
-127.7958170253427
 30
0.0
 10
113.2292642946094
 20
-127.7958170253427
 30
0.0
 10
112.9732937000553
 20
-127.7958170253427
 30
0.0
 10
112.9033582617047
 20
-127.9756510096728
 30
0.0
 10
112.9033582617047
 20
-128.0962293516565
 30
0.0
 10
112.9033582617047
 20
-128.1279242301208
 30
0.0
 10
112.9033582617047
 20
-128.2695176545646
 30
0.0
 10
113.0325493424016
 20
-128.358401118084
 30
0.0
 10
113.0325493424016
 20
-128.358401118084
 30
0.0
 10
113.0136013172327
 20
-128.5341009878317
 30
0.0
 10
113.0136013172327
 20
-128.5341009878317
 30
0.0
 10
113.0136013172327
 20
-128.5341009878317
 30
0.0
 10
112.1671413565068
 20
-128.413522645848
 30
0.0
 10
112.1671413565068
 20
-128.413522645848
 30
0.0
 10
112.1671413565068
 20
-128.413522645848
 30
0.0
 10
112.1671413565068
 20
-127.6349310661816
 30
0.0
 10
112.1671413565068
 20
-127.6349310661816
 30
0.0
 10
112.1671413565068
 20
-127.6349310661816
 30
0.0
 10
112.3617892514234
 20
-127.6349310661816
 30
0.0
 10
112.3617892514234
 20
-127.6349310661816
 30
0.0
 10
112.3617892514234
 20
-127.6349310661816
 30
0.0
 10
112.3617892514234
 20
-128.2505696293957
 30
0.0
 10
112.3617892514234
 20
-128.2505696293957
 30
0.0
 10
112.3617892514234
 20
-128.2505696293957
 30
0.0
 10
112.7848469770121
 20
-128.3160264436154
 30
0.0
 10
112.7848469770121
 20
-128.3160264436154
 30
0.0
 10
112.7510850412567
 20
-128.254703743978
 30
0.0
 10
112.7107774240793
 20
-128.1723659618805
 30
0.0
 10
112.7107774240793
 20
-128.0538546771879
 30
0.0
 10
112.7107774240793
 20
-127.799951139925
 30
0.0
 10
112.8971570898313
 20
-127.5629285705398
 30
0.0
 10
113.2103162694405
 20
-127.5629285705398
 30
0.0
 10
113.527609563632
 20
-127.5629285705398
 30
0.0
 10
113.7622205661775
 20
-127.7872042866296
 30
0.0
 10
113.7622205661775
 20
-128.0896836702345
 30
0.0
  0
HATCH
  5
DF
330
CE
100
AcDbEntity
  8
_U+30EC_U+30A4_U+30E4_U+30FC 1
 62
   179
420
  2234388
100
AcDbHatch
 10
0.0
 20
0.0
 30
0.0
210
0.0
220
0.0
230
1.0
  2
SOLID
 70
     1
 71
     0
 91
        1
 92
        1
 93
        1
 72
     4
 94
        3
 73
     0
 74
     1
 95
       53
 96
       49
 40
0.0
 40
0.0
 40
0.0
 40
0.0
 40
1.0
 40
1.0
 40
1.0
 40
2.0
 40
2.0
 40
2.0
 40
3.0
 40
3.0
 40
3.0
 40
4.0
 40
4.0
 40
4.0
 40
5.0
 40
5.0
 40
5.0
 40
6.0
 40
6.0
 40
6.0
 40
7.0
 40
7.0
 40
7.0
 40
8.0
 40
8.0
 40
8.0
 40
9.0
 40
9.0
 40
9.0
 40
10.0
 40
10.0
 40
10.0
 40
11.0
 40
11.0
 40
11.0
 40
12.0
 40
12.0
 40
12.0
 40
13.0
 40
13.0
 40
13.0
 40
14.0
 40
14.0
 40
14.0
 40
15.0
 40
15.0
 40
15.0
 40
16.0
 40
16.0
 40
16.0
 40
16.0
 10
113.7622205661775
 20
-128.0896836702345
 10
113.7622205661775
 20
-128.1678873377497
 10
113.7453395982998
 20
-128.2695176545646
 10
113.6819498413712
 20
-128.3711479713794
 10
113.5720512953917
 20
-128.5444362742875
 10
113.4407931574037
 20
-128.5657958662961
 10
113.3329616687154
 20
-128.5847438914649
 10
113.3329616687154
 20
-128.5847438914649
 10
113.3329616687154
 20
-128.3625352326663
 10
113.3329616687154
 20
-128.3625352326663
 10
113.5317436782143
 20
-128.3077582144508
 10
113.5613714993874
 20
-128.1806341910451
 10
113.5613714993874
 20
-128.0876166129434
 10
113.5613714993874
 20
-127.9480902457908
 10
113.4618082398637
 20
-127.7958170253427
 10
113.2292642946094
 20
-127.7958170253427
 10
112.9732937000553
 20
-127.7958170253427
 10
112.9033582617047
 20
-127.9756510096728
 10
112.9033582617047
 20
-128.0962293516565
 10
112.9033582617047
 20
-128.1279242301208
 10
112.9033582617047
 20
-128.2695176545646
 10
113.0325493424016
 20
-128.358401118084
 10
113.0325493424016
 20
-128.358401118084
 10
113.0136013172327
 20
-128.5341009878317
 10
113.0136013172327
 20
-128.5341009878317
 10
113.0136013172327
 20
-128.5341009878317
 10
112.1671413565068
 20
-128.413522645848
 10
112.1671413565068
 20
-128.413522645848
 10
112.1671413565068
 20
-128.413522645848
 10
112.1671413565068
 20
-127.6349310661816
 10
112.1671413565068
 20
-127.6349310661816
 10
112.1671413565068
 20
-127.6349310661816
 10
112.3617892514234
 20
-127.6349310661816
 10
112.3617892514234
 20
-127.6349310661816
 10
112.3617892514234
 20
-127.6349310661816
 10
112.3617892514234
 20
-128.2505696293957
 10
112.3617892514234
 20
-128.2505696293957
 10
112.3617892514234
 20
-128.2505696293957
 10
112.7848469770121
 20
-128.3160264436154
 10
112.7848469770121
 20
-128.3160264436154
 10
112.7510850412567
 20
-128.254703743978
 10
112.7107774240793
 20
-128.1723659618805
 10
112.7107774240793
 20
-128.0538546771879
 10
112.7107774240793
 20
-127.799951139925
 10
112.8971570898313
 20
-127.5629285705398
 10
113.2103162694405
 20
-127.5629285705398
 10
113.527609563632
 20
-127.5629285705398
 10
113.7622205661775
 20
-127.7872042866296
 10
113.7622205661775
 20
-128.0896836702345
 97
        0
 97
        0
 75
     2
 76
     1
 98
        0
  0
ENDBLK
  5
D1
330
CE
100
AcDbEntity
  8
0
100
AcDbBlockEnd
  0
BLOCK
  5
E2
330
E0
100
AcDbEntity
  8
0
100
AcDbBlockBegin
  2
block 6
 70
     0
 10
0.0
 20
0.0
 30
0.0
  3
block 6
  1

  0
SPLINE
  5
E4
330
E0
100
AcDbEntity
  8
_U+30EC_U+30A4_U+30E4_U+30FC 1
370
     0
100
AcDbSpline
210
0.0
220
0.0
230
1.0
 70
    11
 71
     3
 72
    62
 73
    58
 74
     0
 42
0.0000000001
 43
0.0000000001
 12
1.0
 22
0.0
 32
0.0
 13
1.0
 23
0.0
 33
0.0
 40
0.0
 40
0.0
 40
0.0
 40
0.0
 40
1.0
 40
1.0
 40
1.0
 40
2.0
 40
2.0
 40
2.0
 40
3.0
 40
3.0
 40
3.0
 40
4.0
 40
4.0
 40
4.0
 40
5.0
 40
5.0
 40
5.0
 40
6.0
 40
6.0
 40
6.0
 40
7.0
 40
7.0
 40
7.0
 40
8.0
 40
8.0
 40
8.0
 40
9.0
 40
9.0
 40
9.0
 40
10.0
 40
10.0
 40
10.0
 40
11.0
 40
11.0
 40
11.0
 40
12.0
 40
12.0
 40
12.0
 40
13.0
 40
13.0
 40
13.0
 40
14.0
 40
14.0
 40
14.0
 40
15.0
 40
15.0
 40
15.0
 40
16.0
 40
16.0
 40
16.0
 40
17.0
 40
17.0
 40
17.0
 40
18.0
 40
18.0
 40
18.0
 40
19.0
 40
19.0
 40
19.0
 40
19.0
 10
113.7622205661775
 20
-134.673950161644
 30
0.0
 10
113.7622205661775
 20
-134.7693793065854
 30
0.0
 10
113.7412054837175
 20
-134.9871093412532
 30
0.0
 10
113.555170327514
 20
-135.1121663073678
 30
0.0
 10
113.4428602146948
 20
-135.1862358603007
 30
0.0
 10
113.3436414647197
 20
-135.190369974883
 30
0.0
 10
113.2588921157825
 20
-135.1945040894653
 30
0.0
 10
113.2588921157825
 20
-135.1945040894653
 30
0.0
 10
113.2588921157825
 20
-134.9743624879578
 30
0.0
 10
113.2588921157825
 20
-134.9743624879578
 30
0.0
 10
113.3329616687154
 20
-134.9722954306667
 30
0.0
 10
113.5675726712609
 20
-134.9619601442109
 30
0.0
 10
113.5675726712609
 20
-134.6784287857749
 30
0.0
 10
113.5675726712609
 20
-134.5409694759134
 30
0.0
 10
113.4979817424588
 20
-134.3883517459168
 30
0.0
 10
113.2695719117868
 20
-134.3883517459168
 30
0.0
 10
113.1531276843853
 20
-134.3883517459168
 30
0.0
 10
113.1045518380433
 20
-134.4265923058031
 30
0.0
 10
113.072856959579
 20
-134.4582871842674
 30
0.0
 10
112.9987874066461
 20
-134.5323567372002
 30
0.0
 10
112.9860405533507
 20
-134.6488009646017
 30
0.0
 10
112.9860405533507
 20
-134.7035779828172
 30
0.0
 10
112.9860405533507
 20
-134.7228705175346
 30
0.0
 10
112.9881076106419
 20
-134.7586995105812
 30
0.0
 10
112.9922417252242
 20
-134.7862602744632
 30
0.0
 10
112.9922417252242
 20
-134.7862602744632
 30
0.0
 10
112.7975938303075
 20
-134.7862602744632
 30
0.0
 10
112.7975938303075
 20
-134.7862602744632
 30
0.0
 10
112.8041395117295
 20
-134.7480197145769
 30
0.0
 10
112.8062065690207
 20
-134.7059895496568
 30
0.0
 10
112.8062065690207
 20
-134.6994438682349
 30
0.0
 10
112.8062065690207
 20
-134.6339870540151
 30
0.0
 10
112.7848469770121
 20
-134.4352050445162
 30
0.0
 10
112.5481689171755
 20
-134.4352050445162
 30
0.0
 10
112.3704019901366
 20
-134.4352050445162
 30
0.0
 10
112.3152804623726
 20
-134.5661186729557
 30
0.0
 10
112.3152804623726
 20
-134.6763617284837
 30
0.0
 10
112.3152804623726
 20
-134.9406005522024
 30
0.0
 10
112.5481689171755
 20
-134.9492132909155
 30
0.0
 10
112.6198269032687
 20
-134.9533474054978
 30
0.0
 10
112.6198269032687
 20
-134.9533474054978
 30
0.0
 10
112.6198269032687
 20
-135.1566080391275
 30
0.0
 10
112.6198269032687
 20
-135.1566080391275
 30
0.0
 10
112.4951144467026
 20
-135.1479953004144
 30
0.0
 10
112.1185655101648
 20
-135.1204345365324
 30
0.0
 10
112.1185655101648
 20
-134.6636148751883
 30
0.0
 10
112.1185655101648
 20
-134.4393391590985
 30
0.0
 10
112.2456895335705
 20
-134.198182475131
 30
0.0
 10
112.5416232357535
 20
-134.198182475131
 30
0.0
 10
112.7280029015055
 20
-134.198182475131
 30
0.0
 10
112.810340683603
 20
-134.2932671105239
 30
0.0
 10
112.8716633832404
 20
-134.3928303700476
 30
0.0
 10
112.8992241471224
 20
-134.3315076704102
 30
0.0
 10
112.9794948719287
 20
-134.149606628789
 30
0.0
 10
113.2568250584914
 20
-134.149606628789
 30
0.0
 10
113.5951334351429
 20
-134.149606628789
 30
0.0
 10
113.7622205661775
 20
-134.3969644846299
 30
0.0
 10
113.7622205661775
 20
-134.673950161644
 30
0.0
  0
HATCH
  5
E5
330
E0
100
AcDbEntity
  8
_U+30EC_U+30A4_U+30E4_U+30FC 1
 62
   179
420
  2234388
100
AcDbHatch
 10
0.0
 20
0.0
 30
0.0
210
0.0
220
0.0
230
1.0
  2
SOLID
 70
     1
 71
     0
 91
        1
 92
        1
 93
        1
 72
     4
 94
        3
 73
     0
 74
     1
 95
       62
 96
       58
 40
0.0
 40
0.0
 40
0.0
 40
0.0
 40
1.0
 40
1.0
 40
1.0
 40
2.0
 40
2.0
 40
2.0
 40
3.0
 40
3.0
 40
3.0
 40
4.0
 40
4.0
 40
4.0
 40
5.0
 40
5.0
 40
5.0
 40
6.0
 40
6.0
 40
6.0
 40
7.0
 40
7.0
 40
7.0
 40
8.0
 40
8.0
 40
8.0
 40
9.0
 40
9.0
 40
9.0
 40
10.0
 40
10.0
 40
10.0
 40
11.0
 40
11.0
 40
11.0
 40
12.0
 40
12.0
 40
12.0
 40
13.0
 40
13.0
 40
13.0
 40
14.0
 40
14.0
 40
14.0
 40
15.0
 40
15.0
 40
15.0
 40
16.0
 40
16.0
 40
16.0
 40
17.0
 40
17.0
 40
17.0
 40
18.0
 40
18.0
 40
18.0
 40
19.0
 40
19.0
 40
19.0
 40
19.0
 10
113.7622205661775
 20
-134.673950161644
 10
113.7622205661775
 20
-134.7693793065854
 10
113.7412054837175
 20
-134.9871093412532
 10
113.555170327514
 20
-135.1121663073678
 10
113.4428602146948
 20
-135.1862358603007
 10
113.3436414647197
 20
-135.190369974883
 10
113.2588921157825
 20
-135.1945040894653
 10
113.2588921157825
 20
-135.1945040894653
 10
113.2588921157825
 20
-134.9743624879578
 10
113.2588921157825
 20
-134.9743624879578
 10
113.3329616687154
 20
-134.9722954306667
 10
113.5675726712609
 20
-134.9619601442109
 10
113.5675726712609
 20
-134.6784287857749
 10
113.5675726712609
 20
-134.5409694759134
 10
113.4979817424588
 20
-134.3883517459168
 10
113.2695719117868
 20
-134.3883517459168
 10
113.1531276843853
 20
-134.3883517459168
 10
113.1045518380433
 20
-134.4265923058031
 10
113.072856959579
 20
-134.4582871842674
 10
112.9987874066461
 20
-134.5323567372002
 10
112.9860405533507
 20
-134.6488009646017
 10
112.9860405533507
 20
-134.7035779828172
 10
112.9860405533507
 20
-134.7228705175346
 10
112.9881076106419
 20
-134.7586995105812
 10
112.9922417252242
 20
-134.7862602744632
 10
112.9922417252242
 20
-134.7862602744632
 10
112.7975938303075
 20
-134.7862602744632
 10
112.7975938303075
 20
-134.7862602744632
 10
112.8041395117295
 20
-134.7480197145769
 10
112.8062065690207
 20
-134.7059895496568
 10
112.8062065690207
 20
-134.6994438682349
 10
112.8062065690207
 20
-134.6339870540151
 10
112.7848469770121
 20
-134.4352050445162
 10
112.5481689171755
 20
-134.4352050445162
 10
112.3704019901366
 20
-134.4352050445162
 10
112.3152804623726
 20
-134.5661186729557
 10
112.3152804623726
 20
-134.6763617284837
 10
112.3152804623726
 20
-134.9406005522024
 10
112.5481689171755
 20
-134.9492132909155
 10
112.6198269032687
 20
-134.9533474054978
 10
112.6198269032687
 20
-134.9533474054978
 10
112.6198269032687
 20
-135.1566080391275
 10
112.6198269032687
 20
-135.1566080391275
 10
112.4951144467026
 20
-135.1479953004144
 10
112.1185655101648
 20
-135.1204345365324
 10
112.1185655101648
 20
-134.6636148751883
 10
112.1185655101648
 20
-134.4393391590985
 10
112.2456895335705
 20
-134.198182475131
 10
112.5416232357535
 20
-134.198182475131
 10
112.7280029015055
 20
-134.198182475131
 10
112.810340683603
 20
-134.2932671105239
 10
112.8716633832404
 20
-134.3928303700476
 10
112.8992241471224
 20
-134.3315076704102
 10
112.9794948719287
 20
-134.149606628789
 10
113.2568250584914
 20
-134.149606628789
 10
113.5951334351429
 20
-134.149606628789
 10
113.7622205661775
 20
-134.3969644846299
 10
113.7622205661775
 20
-134.673950161644
 97
        0
 97
        0
 75
     2
 76
     1
 98
        0
  0
ENDBLK
  5
E3
330
E0
100
AcDbEntity
  8
0
100
AcDbBlockEnd
  0
BLOCK
  5
E8
330
E6
100
AcDbEntity
  8
0
100
AcDbBlockBegin
  2
block 7
 70
     0
 10
0.0
 20
0.0
 30
0.0
  3
block 7
  1

  0
SPLINE
  5
EA
330
E6
100
AcDbEntity
  8
_U+30EC_U+30A4_U+30E4_U+30FC 1
370
     0
100
AcDbSpline
210
0.0
220
0.0
230
1.0
 70
    11
 71
     3
 72
    44
 73
    40
 74
     0
 42
0.0000000001
 43
0.0000000001
 12
1.0
 22
0.0
 32
0.0
 13
1.0
 23
0.0
 33
0.0
 40
0.0
 40
0.0
 40
0.0
 40
0.0
 40
1.0
 40
1.0
 40
1.0
 40
2.0
 40
2.0
 40
2.0
 40
3.0
 40
3.0
 40
3.0
 40
4.0
 40
4.0
 40
4.0
 40
5.0
 40
5.0
 40
5.0
 40
6.0
 40
6.0
 40
6.0
 40
7.0
 40
7.0
 40
7.0
 40
8.0
 40
8.0
 40
8.0
 40
9.0
 40
9.0
 40
9.0
 40
10.0
 40
10.0
 40
10.0
 40
11.0
 40
11.0
 40
11.0
 40
12.0
 40
12.0
 40
12.0
 40
13.0
 40
13.0
 40
13.0
 40
13.0
 10
99.08439125127057
 20
-117.9456000139164
 30
0.0
 10
98.86666121660278
 20
-118.1044189157864
 30
0.0
 10
98.77364363850104
 20
-118.1784884687193
 30
0.0
 10
98.72472328261048
 20
-118.3221489504542
 30
0.0
 10
98.72472328261048
 20
-118.3221489504542
 30
0.0
 10
99.50331486227695
 20
-118.3221489504542
 30
0.0
 10
99.50331486227695
 20
-118.3221489504542
 30
0.0
 10
99.50331486227695
 20
-118.3221489504542
 30
0.0
 10
99.50331486227695
 20
-118.5274766413751
 30
0.0
 10
99.50331486227695
 20
-118.5274766413751
 30
0.0
 10
99.50331486227695
 20
-118.5274766413751
 30
0.0
 10
98.47529836947841
 20
-118.5274766413751
 30
0.0
 10
98.47529836947841
 20
-118.5274766413751
 30
0.0
 10
98.5069932479427
 20
-118.1698757300062
 30
0.0
 10
98.57245006216245
 20
-118.091672062491
 30
0.0
 10
98.95761173741337
 20
-117.7933267934683
 30
0.0
 10
99.21358233196744
 20
-117.5945447839694
 30
0.0
 10
99.27903914618719
 20
-117.52667640291
 30
0.0
 10
99.27903914618719
 20
-117.3892170930485
 30
0.0
 10
99.27903914618719
 20
-117.2707058083559
 30
0.0
 10
99.20703665054546
 20
-117.1397921799164
 30
0.0
 10
99.0103216983377
 20
-117.1397921799164
 30
0.0
 10
98.75021698920133
 20
-117.1397921799164
 30
0.0
 10
98.74160425048821
 20
-117.3702690678797
 30
0.0
 10
98.73747013590591
 20
-117.4867132952811
 30
0.0
 10
98.73747013590591
 20
-117.4867132952811
 30
0.0
 10
98.51319441981614
 20
-117.4867132952811
 30
0.0
 10
98.51319441981614
 20
-117.4867132952811
 30
0.0
 10
98.52180715852927
 20
-117.3595892718754
 30
0.0
 10
98.53248695453355
 20
-117.2476236686048
 30
0.0
 10
98.61275767933986
 20
-117.1291123839122
 30
0.0
 10
98.72265622531934
 20
-116.968226424751
 30
0.0
 10
98.90903589107135
 20
-116.9344644889956
 30
0.0
 10
99.02513560892427
 20
-116.9344644889956
 30
0.0
 10
99.30246579548688
 20
-116.9344644889956
 30
0.0
 10
99.50986054369893
 20
-117.1184325879079
 30
0.0
 10
99.50986054369893
 20
-117.3912841503397
 30
0.0
 10
99.50986054369893
 20
-117.6200384905603
 30
0.0
 10
99.39341631629749
 20
-117.7192572405355
 30
0.0
 10
99.08439125127057
 20
-117.9456000139164
 30
0.0
  0
HATCH
  5
EB
330
E6
100
AcDbEntity
  8
_U+30EC_U+30A4_U+30E4_U+30FC 1
 62
   179
420
  2234388
100
AcDbHatch
 10
0.0
 20
0.0
 30
0.0
210
0.0
220
0.0
230
1.0
  2
SOLID
 70
     1
 71
     0
 91
        1
 92
        1
 93
        1
 72
     4
 94
        3
 73
     0
 74
     1
 95
       44
 96
       40
 40
0.0
 40
0.0
 40
0.0
 40
0.0
 40
1.0
 40
1.0
 40
1.0
 40
2.0
 40
2.0
 40
2.0
 40
3.0
 40
3.0
 40
3.0
 40
4.0
 40
4.0
 40
4.0
 40
5.0
 40
5.0
 40
5.0
 40
6.0
 40
6.0
 40
6.0
 40
7.0
 40
7.0
 40
7.0
 40
8.0
 40
8.0
 40
8.0
 40
9.0
 40
9.0
 40
9.0
 40
10.0
 40
10.0
 40
10.0
 40
11.0
 40
11.0
 40
11.0
 40
12.0
 40
12.0
 40
12.0
 40
13.0
 40
13.0
 40
13.0
 40
13.0
 10
99.08439125127057
 20
-117.9456000139164
 10
98.86666121660278
 20
-118.1044189157864
 10
98.77364363850104
 20
-118.1784884687193
 10
98.72472328261048
 20
-118.3221489504542
 10
98.72472328261048
 20
-118.3221489504542
 10
99.50331486227695
 20
-118.3221489504542
 10
99.50331486227695
 20
-118.3221489504542
 10
99.50331486227695
 20
-118.3221489504542
 10
99.50331486227695
 20
-118.5274766413751
 10
99.50331486227695
 20
-118.5274766413751
 10
99.50331486227695
 20
-118.5274766413751
 10
98.47529836947841
 20
-118.5274766413751
 10
98.47529836947841
 20
-118.5274766413751
 10
98.5069932479427
 20
-118.1698757300062
 10
98.57245006216245
 20
-118.091672062491
 10
98.95761173741337
 20
-117.7933267934683
 10
99.21358233196744
 20
-117.5945447839694
 10
99.27903914618719
 20
-117.52667640291
 10
99.27903914618719
 20
-117.3892170930485
 10
99.27903914618719
 20
-117.2707058083559
 10
99.20703665054546
 20
-117.1397921799164
 10
99.0103216983377
 20
-117.1397921799164
 10
98.75021698920133
 20
-117.1397921799164
 10
98.74160425048821
 20
-117.3702690678797
 10
98.73747013590591
 20
-117.4867132952811
 10
98.73747013590591
 20
-117.4867132952811
 10
98.51319441981614
 20
-117.4867132952811
 10
98.51319441981614
 20
-117.4867132952811
 10
98.52180715852927
 20
-117.3595892718754
 10
98.53248695453355
 20
-117.2476236686048
 10
98.61275767933986
 20
-117.1291123839122
 10
98.72265622531934
 20
-116.968226424751
 10
98.90903589107135
 20
-116.9344644889956
 10
99.02513560892427
 20
-116.9344644889956
 10
99.30246579548688
 20
-116.9344644889956
 10
99.50986054369893
 20
-117.1184325879079
 10
99.50986054369893
 20
-117.3912841503397
 10
99.50986054369893
 20
-117.6200384905603
 10
99.39341631629749
 20
-117.7192572405355
 10
99.08439125127057
 20
-117.9456000139164
 97
        0
 97
        0
 75
     2
 76
     1
 98
        0
  0
SPLINE
  5
EC
330
E6
100
AcDbEntity
  8
_U+30EC_U+30A4_U+30E4_U+30FC 1
370
     0
100
AcDbSpline
210
0.0
220
0.0
230
1.0
 70
    11
 71
     3
 72
    62
 73
    58
 74
     0
 42
0.0000000001
 43
0.0000000001
 12
1.0
 22
0.0
 32
0.0
 13
1.0
 23
0.0
 33
0.0
 40
0.0
 40
0.0
 40
0.0
 40
0.0
 40
1.0
 40
1.0
 40
1.0
 40
2.0
 40
2.0
 40
2.0
 40
3.0
 40
3.0
 40
3.0
 40
4.0
 40
4.0
 40
4.0
 40
5.0
 40
5.0
 40
5.0
 40
6.0
 40
6.0
 40
6.0
 40
7.0
 40
7.0
 40
7.0
 40
8.0
 40
8.0
 40
8.0
 40
9.0
 40
9.0
 40
9.0
 40
10.0
 40
10.0
 40
10.0
 40
11.0
 40
11.0
 40
11.0
 40
12.0
 40
12.0
 40
12.0
 40
13.0
 40
13.0
 40
13.0
 40
14.0
 40
14.0
 40
14.0
 40
15.0
 40
15.0
 40
15.0
 40
16.0
 40
16.0
 40
16.0
 40
17.0
 40
17.0
 40
17.0
 40
18.0
 40
18.0
 40
18.0
 40
19.0
 40
19.0
 40
19.0
 40
19.0
 10
100.1599500617656
 20
-118.5781195450082
 30
0.0
 10
100.0645209168242
 20
-118.5781195450082
 30
0.0
 10
99.84679088215636
 20
-118.5571044625482
 30
0.0
 10
99.7217339160418
 20
-118.3710693063447
 30
0.0
 10
99.64766436310892
 20
-118.2587591935256
 30
0.0
 10
99.64353024852662
 20
-118.1595404435504
 30
0.0
 10
99.63939613394432
 20
-118.0747910946132
 30
0.0
 10
99.63939613394432
 20
-118.0747910946132
 30
0.0
 10
99.85953773545178
 20
-118.0747910946132
 30
0.0
 10
99.85953773545178
 20
-118.0747910946132
 30
0.0
 10
99.86160479274294
 20
-118.1488606475461
 30
0.0
 10
99.87194007919868
 20
-118.3834716500916
 30
0.0
 10
100.1554714376347
 20
-118.3834716500916
 30
0.0
 10
100.2929307474962
 20
-118.3834716500916
 30
0.0
 10
100.4455484774928
 20
-118.3138807212896
 30
0.0
 10
100.4455484774928
 20
-118.0854708906175
 30
0.0
 10
100.4455484774928
 20
-117.9690266632161
 30
0.0
 10
100.4073079176065
 20
-117.9204508168741
 30
0.0
 10
100.3756130391422
 20
-117.8887559384098
 30
0.0
 10
100.3015434862093
 20
-117.8146863854769
 30
0.0
 10
100.1850992588079
 20
-117.8019395321815
 30
0.0
 10
100.1303222405924
 20
-117.8019395321815
 30
0.0
 10
100.111029705875
 20
-117.8019395321815
 30
0.0
 10
100.0752007128284
 20
-117.8040065894726
 30
0.0
 10
100.0476399489464
 20
-117.8081407040549
 30
0.0
 10
100.0476399489464
 20
-117.8081407040549
 30
0.0
 10
100.0476399489464
 20
-117.6134928091383
 30
0.0
 10
100.0476399489464
 20
-117.6134928091383
 30
0.0
 10
100.0858805088327
 20
-117.6200384905603
 30
0.0
 10
100.1279106737528
 20
-117.6221055478514
 30
0.0
 10
100.1344563551747
 20
-117.6221055478514
 30
0.0
 10
100.1999131693945
 20
-117.6221055478514
 30
0.0
 10
100.3986951788934
 20
-117.6007459558429
 30
0.0
 10
100.3986951788934
 20
-117.3640678960062
 30
0.0
 10
100.3986951788934
 20
-117.1863009689673
 30
0.0
 10
100.2677815504539
 20
-117.1311794412033
 30
0.0
 10
100.1575384949259
 20
-117.1311794412033
 30
0.0
 10
99.89329967120723
 20
-117.1311794412033
 30
0.0
 10
99.8846869324941
 20
-117.3640678960062
 30
0.0
 10
99.8805528179118
 20
-117.4357258820994
 30
0.0
 10
99.8805528179118
 20
-117.4357258820994
 30
0.0
 10
99.67729218428207
 20
-117.4357258820994
 30
0.0
 10
99.67729218428207
 20
-117.4357258820994
 30
0.0
 10
99.68590492299519
 20
-117.3110134255334
 30
0.0
 10
99.7134656868772
 20
-116.9344644889956
 30
0.0
 10
100.1702853482213
 20
-116.9344644889956
 30
0.0
 10
100.3945610643111
 20
-116.9344644889956
 30
0.0
 10
100.6357177482786
 20
-117.0615885124013
 30
0.0
 10
100.6357177482786
 20
-117.3575222145842
 30
0.0
 10
100.6357177482786
 20
-117.5439018803363
 30
0.0
 10
100.5406331128857
 20
-117.6262396624337
 30
0.0
 10
100.441069853362
 20
-117.6875623620712
 30
0.0
 10
100.5023925529994
 20
-117.7151231259532
 30
0.0
 10
100.6842935946206
 20
-117.7953938507595
 30
0.0
 10
100.6842935946206
 20
-118.0727240373221
 30
0.0
 10
100.6842935946206
 20
-118.4110324139736
 30
0.0
 10
100.4369357387797
 20
-118.5781195450082
 30
0.0
 10
100.1599500617656
 20
-118.5781195450082
 30
0.0
  0
HATCH
  5
ED
330
E6
100
AcDbEntity
  8
_U+30EC_U+30A4_U+30E4_U+30FC 1
 62
   179
420
  2234388
100
AcDbHatch
 10
0.0
 20
0.0
 30
0.0
210
0.0
220
0.0
230
1.0
  2
SOLID
 70
     1
 71
     0
 91
        1
 92
        1
 93
        1
 72
     4
 94
        3
 73
     0
 74
     1
 95
       62
 96
       58
 40
0.0
 40
0.0
 40
0.0
 40
0.0
 40
1.0
 40
1.0
 40
1.0
 40
2.0
 40
2.0
 40
2.0
 40
3.0
 40
3.0
 40
3.0
 40
4.0
 40
4.0
 40
4.0
 40
5.0
 40
5.0
 40
5.0
 40
6.0
 40
6.0
 40
6.0
 40
7.0
 40
7.0
 40
7.0
 40
8.0
 40
8.0
 40
8.0
 40
9.0
 40
9.0
 40
9.0
 40
10.0
 40
10.0
 40
10.0
 40
11.0
 40
11.0
 40
11.0
 40
12.0
 40
12.0
 40
12.0
 40
13.0
 40
13.0
 40
13.0
 40
14.0
 40
14.0
 40
14.0
 40
15.0
 40
15.0
 40
15.0
 40
16.0
 40
16.0
 40
16.0
 40
17.0
 40
17.0
 40
17.0
 40
18.0
 40
18.0
 40
18.0
 40
19.0
 40
19.0
 40
19.0
 40
19.0
 10
100.1599500617656
 20
-118.5781195450082
 10
100.0645209168242
 20
-118.5781195450082
 10
99.84679088215636
 20
-118.5571044625482
 10
99.7217339160418
 20
-118.3710693063447
 10
99.64766436310892
 20
-118.2587591935256
 10
99.64353024852662
 20
-118.1595404435504
 10
99.63939613394432
 20
-118.0747910946132
 10
99.63939613394432
 20
-118.0747910946132
 10
99.85953773545178
 20
-118.0747910946132
 10
99.85953773545178
 20
-118.0747910946132
 10
99.86160479274294
 20
-118.1488606475461
 10
99.87194007919868
 20
-118.3834716500916
 10
100.1554714376347
 20
-118.3834716500916
 10
100.2929307474962
 20
-118.3834716500916
 10
100.4455484774928
 20
-118.3138807212896
 10
100.4455484774928
 20
-118.0854708906175
 10
100.4455484774928
 20
-117.9690266632161
 10
100.4073079176065
 20
-117.9204508168741
 10
100.3756130391422
 20
-117.8887559384098
 10
100.3015434862093
 20
-117.8146863854769
 10
100.1850992588079
 20
-117.8019395321815
 10
100.1303222405924
 20
-117.8019395321815
 10
100.111029705875
 20
-117.8019395321815
 10
100.0752007128284
 20
-117.8040065894726
 10
100.0476399489464
 20
-117.8081407040549
 10
100.0476399489464
 20
-117.8081407040549
 10
100.0476399489464
 20
-117.6134928091383
 10
100.0476399489464
 20
-117.6134928091383
 10
100.0858805088327
 20
-117.6200384905603
 10
100.1279106737528
 20
-117.6221055478514
 10
100.1344563551747
 20
-117.6221055478514
 10
100.1999131693945
 20
-117.6221055478514
 10
100.3986951788934
 20
-117.6007459558429
 10
100.3986951788934
 20
-117.3640678960062
 10
100.3986951788934
 20
-117.1863009689673
 10
100.2677815504539
 20
-117.1311794412033
 10
100.1575384949259
 20
-117.1311794412033
 10
99.89329967120723
 20
-117.1311794412033
 10
99.8846869324941
 20
-117.3640678960062
 10
99.8805528179118
 20
-117.4357258820994
 10
99.8805528179118
 20
-117.4357258820994
 10
99.67729218428207
 20
-117.4357258820994
 10
99.67729218428207
 20
-117.4357258820994
 10
99.68590492299519
 20
-117.3110134255334
 10
99.7134656868772
 20
-116.9344644889956
 10
100.1702853482213
 20
-116.9344644889956
 10
100.3945610643111
 20
-116.9344644889956
 10
100.6357177482786
 20
-117.0615885124013
 10
100.6357177482786
 20
-117.3575222145842
 10
100.6357177482786
 20
-117.5439018803363
 10
100.5406331128857
 20
-117.6262396624337
 10
100.441069853362
 20
-117.6875623620712
 10
100.5023925529994
 20
-117.7151231259532
 10
100.6842935946206
 20
-117.7953938507595
 10
100.6842935946206
 20
-118.0727240373221
 10
100.6842935946206
 20
-118.4110324139736
 10
100.4369357387797
 20
-118.5781195450082
 10
100.1599500617656
 20
-118.5781195450082
 97
        0
 97
        0
 75
     2
 76
     1
 98
        0
  0
ENDBLK
  5
E9
330
E6
100
AcDbEntity
  8
0
100
AcDbBlockEnd
  0
ENDSEC
  0
SECTION
  2
ENTITIES
  0
POLYLINE
  5
41
330
1F
100
AcDbEntity
  8
_U+30EC_U+30A4_U+30E4_U+30FC 1
  6
AI-Linetype-1
 62
   154
420
    23468
370
    25
100
AcDb2dPolyline
 66
     1
 10
0.0
 20
0.0
 30
0.0
  0
VERTEX
  5
42
330
41
100
AcDbEntity
  8
_U+30EC_U+30A4_U+30E4_U+30FC 1
  6
AI-Linetype-1
 62
   154
420
    23468
370
    25
100
AcDbVertex
100
AcDb2dVertex
 10
86.41040973993123
 20
-123.9707324690072
 30
0.0
  0
VERTEX
  5
43
330
41
100
AcDbEntity
  8
_U+30EC_U+30A4_U+30E4_U+30FC 1
  6
AI-Linetype-1
 62
   154
420
    23468
370
    25
100
AcDbVertex
100
AcDb2dVertex
 10
86.41040973993123
 20
-131.9709210781184
 30
0.0
  0
SEQEND
  5
45
330
41
100
AcDbEntity
  8
_U+30EC_U+30A4_U+30E4_U+30FC 1
  6
AI-Linetype-1
 62
   154
420
    23468
370
    25
  0
POLYLINE
  5
46
330
1F
100
AcDbEntity
  8
_U+30EC_U+30A4_U+30E4_U+30FC 1
 62
   179
420
  2234388
370
     9
100
AcDb2dPolyline
 66
     1
 10
0.0
 20
0.0
 30
0.0
  0
VERTEX
  5
47
330
46
100
AcDbEntity
  8
_U+30EC_U+30A4_U+30E4_U+30FC 1
 62
   179
420
  2234388
370
     9
100
AcDbVertex
100
AcDb2dVertex
 10
86.3006605760645
 20
-131.9709210781184
 30
0.0
  0
VERTEX
  5
48
330
46
100
AcDbEntity
  8
_U+30EC_U+30A4_U+30E4_U+30FC 1
 62
   179
420
  2234388
370
     9
100
AcDbVertex
100
AcDb2dVertex
 10
85.30092365712547
 20
-131.9709210781184
 30
0.0
  0
SEQEND
  5
49
330
46
100
AcDbEntity
  8
_U+30EC_U+30A4_U+30E4_U+30FC 1
 62
   179
420
  2234388
370
     9
  0
POLYLINE
  5
4A
330
1F
100
AcDbEntity
  8
_U+30EC_U+30A4_U+30E4_U+30FC 1
 62
   179
420
  2234388
370
     9
100
AcDb2dPolyline
 66
     1
 10
0.0
 20
0.0
 30
0.0
  0
VERTEX
  5
4B
330
4A
100
AcDbEntity
  8
_U+30EC_U+30A4_U+30E4_U+30FC 1
 62
   179
420
  2234388
370
     9
100
AcDbVertex
100
AcDb2dVertex
 10
86.3006605760645
 20
-131.9709210781184
 30
0.0
  0
VERTEX
  5
4C
330
4A
100
AcDbEntity
  8
_U+30EC_U+30A4_U+30E4_U+30FC 1
 62
   179
420
  2234388
370
     9
100
AcDbVertex
100
AcDb2dVertex
 10
76.6416777586175
 20
-134.5595691330269
 30
0.0
  0
SEQEND
  5
4D
330
4A
100
AcDbEntity
  8
_U+30EC_U+30A4_U+30E4_U+30FC 1
 62
   179
420
  2234388
370
     9
  0
POLYLINE
  5
4E
330
1F
100
AcDbEntity
  8
_U+30EC_U+30A4_U+30E4_U+30FC 1
 62
   179
420
  2234388
370
     9
100
AcDb2dPolyline
 66
     1
 10
0.0
 20
0.0
 30
0.0
  0
VERTEX
  5
4F
330
4E
100
AcDbEntity
  8
_U+30EC_U+30A4_U+30E4_U+30FC 1
 62
   179
420
  2234388
370
     9
100
AcDbVertex
100
AcDb2dVertex
 10
86.3006605760645
 20
-131.9709210781184
 30
0.0
  0
VERTEX
  5
50
330
4E
100
AcDbEntity
  8
_U+30EC_U+30A4_U+30E4_U+30FC 1
 62
   179
420
  2234388
370
     9
100
AcDbVertex
100
AcDb2dVertex
 10
85.43473226482284
 20
-132.4704544113266
 30
0.0
  0
SEQEND
  5
51
330
4E
100
AcDbEntity
  8
_U+30EC_U+30A4_U+30E4_U+30FC 1
 62
   179
420
  2234388
370
     9
  0
INSERT
  5
53
330
1F
100
AcDbEntity
  8
_U+30EC_U+30A4_U+30E4_U+30FC 1
100
AcDbBlockReference
  2
block 2
 10
0.0
 20
0.0
 30
0.0
  0
INSERT
  5
7B
330
1F
100
AcDbEntity
  8
_U+30EC_U+30A4_U+30E4_U+30FC 1
100
AcDbBlockReference
  2
block 3
 10
0.0
 20
0.0
 30
0.0
  0
POLYLINE
  5
8D
330
1F
100
AcDbEntity
  8
_U+30EC_U+30A4_U+30E4_U+30FC 1
 62
   179
420
  2234388
370
     9
100
AcDb2dPolyline
 66
     1
 10
0.0
 20
0.0
 30
0.0
  0
VERTEX
  5
8E
330
8D
100
AcDbEntity
  8
_U+30EC_U+30A4_U+30E4_U+30FC 1
 62
   179
420
  2234388
370
     9
100
AcDbVertex
100
AcDb2dVertex
 10
114.3967993037167
 20
-123.8801391356965
 30
0.0
  0
VERTEX
  5
8F
330
8D
100
AcDbEntity
  8
_U+30EC_U+30A4_U+30E4_U+30FC 1
 62
   179
420
  2234388
370
     9
100
AcDbVertex
100
AcDb2dVertex
 10
114.3967993037167
 20
-118.6222333036779
 30
0.0
  0
SEQEND
  5
90
330
8D
100
AcDbEntity
  8
_U+30EC_U+30A4_U+30E4_U+30FC 1
 62
   179
420
  2234388
370
     9
  0
POLYLINE
  5
91
330
1F
100
AcDbEntity
  8
_U+30EC_U+30A4_U+30E4_U+30FC 1
 62
   179
420
  2234388
370
     9
100
AcDb2dPolyline
 66
     1
 10
0.0
 20
0.0
 30
0.0
  0
VERTEX
  5
92
330
91
100
AcDbEntity
  8
_U+30EC_U+30A4_U+30E4_U+30FC 1
 62
   179
420
  2234388
370
     9
100
AcDbVertex
100
AcDb2dVertex
 10
112.994648783933
 20
-123.8801391356965
 30
0.0
  0
VERTEX
  5
93
330
91
100
AcDbEntity
  8
_U+30EC_U+30A4_U+30E4_U+30FC 1
 62
   179
420
  2234388
370
     9
100
AcDbVertex
100
AcDb2dVertex
 10
115.1137142854267
 20
-123.8801391356965
 30
0.0
  0
SEQEND
  5
94
330
91
100
AcDbEntity
  8
_U+30EC_U+30A4_U+30E4_U+30FC 1
 62
   179
420
  2234388
370
     9
  0
SPLINE
  5
95
330
1F
100
AcDbEntity
  8
_U+30EC_U+30A4_U+30E4_U+30FC 1
 62
   179
420
  2234388
370
     9
100
AcDbSpline
210
0.0
220
0.0
230
1.0
 70
    11
 71
     3
 72
    17
 73
    13
 74
     0
 42
0.0000000001
 43
0.0000000001
 12
1.0
 22
0.0
 32
0.0
 13
1.0
 23
0.0
 33
0.0
 40
0.0
 40
0.0
 40
0.0
 40
0.0
 40
1.0
 40
1.0
 40
1.0
 40
2.0
 40
2.0
 40
2.0
 40
3.0
 40
3.0
 40
3.0
 40
4.0
 40
4.0
 40
4.0
 40
4.0
 10
97.3125833506825
 20
-139.9384071872379
 30
0.0
 10
97.3125833506825
 20
-139.8832680205849
 30
0.0
 10
97.26778057404773
 20
-139.8385005205957
 30
0.0
 10
97.21232390879588
 20
-139.8385005205957
 30
0.0
 10
97.15722002131281
 20
-139.8385005205957
 30
0.0
 10
97.11241724467806
 20
-139.8832680205849
 30
0.0
 10
97.11241724467806
 20
-139.9384071872379
 30
0.0
 10
97.11241724467806
 20
-139.9935110761129
 30
0.0
 10
97.15722002131281
 20
-140.0383138538796
 30
0.0
 10
97.21232390879588
 20
-140.0383138538796
 30
0.0
 10
97.26778057404773
 20
-140.0383138538796
 30
0.0
 10
97.3125833506825
 20
-139.9935110761129
 30
0.0
 10
97.3125833506825
 20
-139.9384071872379
 30
0.0
  0
SPLINE
  5
96
330
1F
100
AcDbEntity
  8
_U+30EC_U+30A4_U+30E4_U+30FC 1
 62
   179
420
  2234388
370
     9
100
AcDbSpline
210
0.0
220
0.0
230
1.0
 70
    11
 71
     3
 72
    17
 73
    13
 74
     0
 42
0.0000000001
 43
0.0000000001
 12
1.0
 22
0.0
 32
0.0
 13
1.0
 23
0.0
 33
0.0
 40
0.0
 40
0.0
 40
0.0
 40
0.0
 40
1.0
 40
1.0
 40
1.0
 40
2.0
 40
2.0
 40
2.0
 40
3.0
 40
3.0
 40
3.0
 40
4.0
 40
4.0
 40
4.0
 40
4.0
 10
87.31249997817189
 20
-139.9384071872379
 30
0.0
 10
87.31249997817189
 20
-139.8832680205849
 30
0.0
 10
87.26769720040515
 20
-139.8385005205957
 30
0.0
 10
87.21223833058599
 20
-139.8385005205957
 30
0.0
 10
87.15713444310292
 20
-139.8385005205957
 30
0.0
 10
87.11233166646815
 20
-139.8832680205849
 30
0.0
 10
87.11233166646815
 20
-139.9384071872379
 30
0.0
 10
87.11233166646815
 20
-139.9935110761129
 30
0.0
 10
87.15713444310292
 20
-140.0383138538796
 30
0.0
 10
87.21223833058599
 20
-140.0383138538796
 30
0.0
 10
87.26769720040515
 20
-140.0383138538796
 30
0.0
 10
87.31249997817189
 20
-139.9935110761129
 30
0.0
 10
87.31249997817189
 20
-139.9384071872379
 30
0.0
  0
POLYLINE
  5
97
330
1F
100
AcDbEntity
  8
_U+30EC_U+30A4_U+30E4_U+30FC 1
 62
   179
420
  2234388
370
     9
100
AcDb2dPolyline
 66
     1
 10
0.0
 20
0.0
 30
0.0
  0
VERTEX
  5
98
330
97
100
AcDbEntity
  8
_U+30EC_U+30A4_U+30E4_U+30FC 1
 62
   179
420
  2234388
370
     9
100
AcDbVertex
100
AcDb2dVertex
 10
87.21223833058599
 20
-139.9384071872379
 30
0.0
  0
VERTEX
  5
99
330
97
100
AcDbEntity
  8
_U+30EC_U+30A4_U+30E4_U+30FC 1
 62
   179
420
  2234388
370
     9
100
AcDbVertex
100
AcDb2dVertex
 10
97.21232390879588
 20
-139.9384071872379
 30
0.0
  0
SEQEND
  5
9A
330
97
100
AcDbEntity
  8
_U+30EC_U+30A4_U+30E4_U+30FC 1
 62
   179
420
  2234388
370
     9
  0
POLYLINE
  5
9B
330
1F
100
AcDbEntity
  8
_U+30EC_U+30A4_U+30E4_U+30FC 1
 62
   179
420
  2234388
370
     9
100
AcDb2dPolyline
 66
     1
 10
0.0
 20
0.0
 30
0.0
  0
VERTEX
  5
9C
330
9B
100
AcDbEntity
  8
_U+30EC_U+30A4_U+30E4_U+30FC 1
 62
   179
420
  2234388
370
     9
100
AcDbVertex
100
AcDb2dVertex
 10
87.21223833058599
 20
-138.4783657987136
 30
0.0
  0
VERTEX
  5
9D
330
9B
100
AcDbEntity
  8
_U+30EC_U+30A4_U+30E4_U+30FC 1
 62
   179
420
  2234388
370
     9
100
AcDbVertex
100
AcDb2dVertex
 10
87.21223833058599
 20
-140.9381794092099
 30
0.0
  0
SEQEND
  5
9E
330
9B
100
AcDbEntity
  8
_U+30EC_U+30A4_U+30E4_U+30FC 1
 62
   179
420
  2234388
370
     9
  0
POLYLINE
  5
9F
330
1F
100
AcDbEntity
  8
_U+30EC_U+30A4_U+30E4_U+30FC 1
 62
   179
420
  2234388
370
     9
100
AcDb2dPolyline
 66
     1
 10
0.0
 20
0.0
 30
0.0
  0
VERTEX
  5
A0
330
9F
100
AcDbEntity
  8
_U+30EC_U+30A4_U+30E4_U+30FC 1
 62
   179
420
  2234388
370
     9
100
AcDbVertex
100
AcDb2dVertex
 10
97.21232390879588
 20
-138.4783657987136
 30
0.0
  0
VERTEX
  5
A1
330
9F
100
AcDbEntity
  8
_U+30EC_U+30A4_U+30E4_U+30FC 1
 62
   179
420
  2234388
370
     9
100
AcDbVertex
100
AcDb2dVertex
 10
97.21232390879588
 20
-140.9381794092099
 30
0.0
  0
SEQEND
  5
A2
330
9F
100
AcDbEntity
  8
_U+30EC_U+30A4_U+30E4_U+30FC 1
 62
   179
420
  2234388
370
     9
  0
SPLINE
  5
A3
330
1F
100
AcDbEntity
  8
_U+30EC_U+30A4_U+30E4_U+30FC 1
 62
   179
420
  2234388
370
     9
100
AcDbSpline
210
0.0
220
0.0
230
1.0
 70
    11
 71
     3
 72
    17
 73
    13
 74
     0
 42
0.0000000001
 43
0.0000000001
 12
1.0
 22
0.0
 32
0.0
 13
1.0
 23
0.0
 33
0.0
 40
0.0
 40
0.0
 40
0.0
 40
0.0
 40
1.0
 40
1.0
 40
1.0
 40
2.0
 40
2.0
 40
2.0
 40
3.0
 40
3.0
 40
3.0
 40
4.0
 40
4.0
 40
4.0
 40
4.0
 10
110.5948074562692
 20
-119.8796744144744
 30
0.0
 10
110.5948074562692
 20
-119.8245705255995
 30
0.0
 10
110.5500046796344
 20
-119.7797677478328
 30
0.0
 10
110.4945480143826
 20
-119.7797677478328
 30
0.0
 10
110.4394088491226
 20
-119.7797677478328
 30
0.0
 10
110.3946413502647
 20
-119.8245705255995
 30
0.0
 10
110.3946413502647
 20
-119.8796744144744
 30
0.0
 10
110.3946413502647
 20
-119.9348135811275
 30
0.0
 10
110.4394088491226
 20
-119.9795810811161
 30
0.0
 10
110.4945480143826
 20
-119.9795810811161
 30
0.0
 10
110.5500046796344
 20
-119.9795810811161
 30
0.0
 10
110.5948074562692
 20
-119.9348135811275
 30
0.0
 10
110.5948074562692
 20
-119.8796744144744
 30
0.0
  0
SPLINE
  5
A4
330
1F
100
AcDbEntity
  8
_U+30EC_U+30A4_U+30E4_U+30FC 1
 62
   179
420
  2234388
370
     9
100
AcDbSpline
210
0.0
220
0.0
230
1.0
 70
    11
 71
     3
 72
    17
 73
    13
 74
     0
 42
0.0000000001
 43
0.0000000001
 12
1.0
 22
0.0
 32
0.0
 13
1.0
 23
0.0
 33
0.0
 40
0.0
 40
0.0
 40
0.0
 40
0.0
 40
1.0
 40
1.0
 40
1.0
 40
2.0
 40
2.0
 40
2.0
 40
3.0
 40
3.0
 40
3.0
 40
4.0
 40
4.0
 40
4.0
 40
4.0
 10
87.59464943194098
 20
-119.8796744144744
 30
0.0
 10
87.59464943194098
 20
-119.8245705255995
 30
0.0
 10
87.5498819330831
 20
-119.7797677478328
 30
0.0
 10
87.49438999005437
 20
-119.7797677478328
 30
0.0
 10
87.4392861025713
 20
-119.7797677478328
 30
0.0
 10
87.39448332593653
 20
-119.8245705255995
 30
0.0
 10
87.39448332593653
 20
-119.8796744144744
 30
0.0
 10
87.39448332593653
 20
-119.9348135811275
 30
0.0
 10
87.4392861025713
 20
-119.9795810811161
 30
0.0
 10
87.49438999005437
 20
-119.9795810811161
 30
0.0
 10
87.5498819330831
 20
-119.9795810811161
 30
0.0
 10
87.59464943194098
 20
-119.9348135811275
 30
0.0
 10
87.59464943194098
 20
-119.8796744144744
 30
0.0
  0
POLYLINE
  5
A5
330
1F
100
AcDbEntity
  8
_U+30EC_U+30A4_U+30E4_U+30FC 1
 62
   179
420
  2234388
370
     9
100
AcDb2dPolyline
 66
     1
 10
0.0
 20
0.0
 30
0.0
  0
VERTEX
  5
A6
330
A5
100
AcDbEntity
  8
_U+30EC_U+30A4_U+30E4_U+30FC 1
 62
   179
420
  2234388
370
     9
100
AcDbVertex
100
AcDb2dVertex
 10
87.49438999005437
 20
-119.8796744144744
 30
0.0
  0
VERTEX
  5
A7
330
A5
100
AcDbEntity
  8
_U+30EC_U+30A4_U+30E4_U+30FC 1
 62
   179
420
  2234388
370
     9
100
AcDbVertex
100
AcDb2dVertex
 10
110.4945480143826
 20
-119.8796744144744
 30
0.0
  0
SEQEND
  5
A8
330
A5
100
AcDbEntity
  8
_U+30EC_U+30A4_U+30E4_U+30FC 1
 62
   179
420
  2234388
370
     9
  0
POLYLINE
  5
A9
330
1F
100
AcDbEntity
  8
_U+30EC_U+30A4_U+30E4_U+30FC 1
 62
   179
420
  2234388
370
     9
100
AcDb2dPolyline
 66
     1
 10
0.0
 20
0.0
 30
0.0
  0
VERTEX
  5
AA
330
A9
100
AcDbEntity
  8
_U+30EC_U+30A4_U+30E4_U+30FC 1
 62
   179
420
  2234388
370
     9
100
AcDbVertex
100
AcDb2dVertex
 10
87.49438999005437
 20
-121.3397158029985
 30
0.0
  0
VERTEX
  5
AB
330
A9
100
AcDbEntity
  8
_U+30EC_U+30A4_U+30E4_U+30FC 1
 62
   179
420
  2234388
370
     9
100
AcDbVertex
100
AcDb2dVertex
 10
87.49438999005437
 20
-118.8799021925022
 30
0.0
  0
SEQEND
  5
AC
330
A9
100
AcDbEntity
  8
_U+30EC_U+30A4_U+30E4_U+30FC 1
 62
   179
420
  2234388
370
     9
  0
POLYLINE
  5
AD
330
1F
100
AcDbEntity
  8
_U+30EC_U+30A4_U+30E4_U+30FC 1
 62
   179
420
  2234388
370
     9
100
AcDb2dPolyline
 66
     1
 10
0.0
 20
0.0
 30
0.0
  0
VERTEX
  5
AE
330
AD
100
AcDbEntity
  8
_U+30EC_U+30A4_U+30E4_U+30FC 1
 62
   179
420
  2234388
370
     9
100
AcDbVertex
100
AcDb2dVertex
 10
110.4945480143826
 20
-121.3397158029985
 30
0.0
  0
VERTEX
  5
AF
330
AD
100
AcDbEntity
  8
_U+30EC_U+30A4_U+30E4_U+30FC 1
 62
   179
420
  2234388
370
     9
100
AcDbVertex
100
AcDb2dVertex
 10
110.4945480143826
 20
-118.8799021925022
 30
0.0
  0
SEQEND
  5
B0
330
AD
100
AcDbEntity
  8
_U+30EC_U+30A4_U+30E4_U+30FC 1
 62
   179
420
  2234388
370
     9
  0
INSERT
  5
B2
330
1F
100
AcDbEntity
  8
_U+30EC_U+30A4_U+30E4_U+30FC 1
100
AcDbBlockReference
  2
block 4
 10
0.0
 20
0.0
 30
0.0
  0
SPLINE
  5
BA
330
1F
100
AcDbEntity
  8
_U+30EC_U+30A4_U+30E4_U+30FC 1
 62
   179
420
  2234388
370
     9
100
AcDbSpline
210
0.0
220
0.0
230
1.0
 70
    11
 71
     3
 72
    17
 73
    13
 74
     0
 42
0.0000000001
 43
0.0000000001
 12
1.0
 22
0.0
 32
0.0
 13
1.0
 23
0.0
 33
0.0
 40
0.0
 40
0.0
 40
0.0
 40
0.0
 40
1.0
 40
1.0
 40
1.0
 40
2.0
 40
2.0
 40
2.0
 40
3.0
 40
3.0
 40
3.0
 40
4.0
 40
4.0
 40
4.0
 40
4.0
 10
114.2968926395989
 20
-136.1983982992834
 30
0.0
 10
114.2968926395989
 20
-136.2535374659365
 30
0.0
 10
114.3416954162337
 20
-136.2983049659257
 30
0.0
 10
114.3967993037167
 20
-136.2983049659257
 30
0.0
 10
114.4519384689767
 20
-136.2983049659257
 30
0.0
 10
114.4967059678346
 20
-136.2535374659365
 30
0.0
 10
114.4967059678346
 20
-136.1983982992834
 30
0.0
 10
114.4967059678346
 20
-136.1432944104085
 30
0.0
 10
114.4519384689767
 20
-136.0984916326418
 30
0.0
 10
114.3967993037167
 20
-136.0984916326418
 30
0.0
 10
114.3416954162337
 20
-136.0984916326418
 30
0.0
 10
114.2968926395989
 20
-136.1432944104085
 30
0.0
 10
114.2968926395989
 20
-136.1983982992834
 30
0.0
  0
SPLINE
  5
BB
330
1F
100
AcDbEntity
  8
_U+30EC_U+30A4_U+30E4_U+30FC 1
 62
   179
420
  2234388
370
     9
100
AcDbSpline
210
0.0
220
0.0
230
1.0
 70
    11
 71
     3
 72
    17
 73
    13
 74
     0
 42
0.0000000001
 43
0.0000000001
 12
1.0
 22
0.0
 32
0.0
 13
1.0
 23
0.0
 33
0.0
 40
0.0
 40
0.0
 40
0.0
 40
0.0
 40
1.0
 40
1.0
 40
1.0
 40
2.0
 40
2.0
 40
2.0
 40
3.0
 40
3.0
 40
3.0
 40
4.0
 40
4.0
 40
4.0
 40
4.0
 10
114.2968926395989
 20
-124.6800627466079
 30
0.0
 10
114.2968926395989
 20
-124.7352019132607
 30
0.0
 10
114.3416954162337
 20
-124.7799694132496
 30
0.0
 10
114.3967993037167
 20
-124.7799694132496
 30
0.0
 10
114.4519384689767
 20
-124.7799694132496
 30
0.0
 10
114.4967059678346
 20
-124.7352019132607
 30
0.0
 10
114.4967059678346
 20
-124.6800627466079
 30
0.0
 10
114.4967059678346
 20
-124.6242533021772
 30
0.0
 10
114.4519384689767
 20
-124.5794858021886
 30
0.0
 10
114.3967993037167
 20
-124.5794858021886
 30
0.0
 10
114.3416954162337
 20
-124.5794858021886
 30
0.0
 10
114.2968926395989
 20
-124.6242533021772
 30
0.0
 10
114.2968926395989
 20
-124.6800627466079
 30
0.0
  0
POLYLINE
  5
BC
330
1F
100
AcDbEntity
  8
_U+30EC_U+30A4_U+30E4_U+30FC 1
 62
   179
420
  2234388
370
     9
100
AcDb2dPolyline
 66
     1
 10
0.0
 20
0.0
 30
0.0
  0
VERTEX
  5
BD
330
BC
100
AcDbEntity
  8
_U+30EC_U+30A4_U+30E4_U+30FC 1
 62
   179
420
  2234388
370
     9
100
AcDbVertex
100
AcDb2dVertex
 10
114.3967993037167
 20
-123.7795269134997
 30
0.0
  0
VERTEX
  5
BE
330
BC
100
AcDbEntity
  8
_U+30EC_U+30A4_U+30E4_U+30FC 1
 62
   179
420
  2234388
370
     9
100
AcDbVertex
100
AcDb2dVertex
 10
114.3967993037167
 20
-136.1983982992834
 30
0.0
  0
SEQEND
  5
BF
330
BC
100
AcDbEntity
  8
_U+30EC_U+30A4_U+30E4_U+30FC 1
 62
   179
420
  2234388
370
     9
  0
POLYLINE
  5
C0
330
1F
100
AcDbEntity
  8
_U+30EC_U+30A4_U+30E4_U+30FC 1
 62
   179
420
  2234388
370
     9
100
AcDb2dPolyline
 66
     1
 10
0.0
 20
0.0
 30
0.0
  0
VERTEX
  5
C1
330
C0
100
AcDbEntity
  8
_U+30EC_U+30A4_U+30E4_U+30FC 1
 62
   179
420
  2234388
370
     9
100
AcDbVertex
100
AcDb2dVertex
 10
112.994648783933
 20
-124.6800627466079
 30
0.0
  0
VERTEX
  5
C2
330
C0
100
AcDbEntity
  8
_U+30EC_U+30A4_U+30E4_U+30FC 1
 62
   179
420
  2234388
370
     9
100
AcDbVertex
100
AcDb2dVertex
 10
115.1137142854267
 20
-124.6800627466079
 30
0.0
  0
SEQEND
  5
C3
330
C0
100
AcDbEntity
  8
_U+30EC_U+30A4_U+30E4_U+30FC 1
 62
   179
420
  2234388
370
     9
  0
SPLINE
  5
C4
330
1F
100
AcDbEntity
  8
_U+30EC_U+30A4_U+30E4_U+30FC 1
 62
   179
420
  2234388
370
     9
100
AcDbSpline
210
0.0
220
0.0
230
1.0
 70
    11
 71
     3
 72
    17
 73
    13
 74
     0
 42
0.0000000001
 43
0.0000000001
 12
1.0
 22
0.0
 32
0.0
 13
1.0
 23
0.0
 33
0.0
 40
0.0
 40
0.0
 40
0.0
 40
0.0
 40
1.0
 40
1.0
 40
1.0
 40
2.0
 40
2.0
 40
2.0
 40
3.0
 40
3.0
 40
3.0
 40
4.0
 40
4.0
 40
4.0
 40
4.0
 10
114.2968926395989
 20
-123.8801391356965
 30
0.0
 10
114.2968926395989
 20
-123.9352430245717
 30
0.0
 10
114.3416954162337
 20
-123.9800458023385
 30
0.0
 10
114.3967993037167
 20
-123.9800458023385
 30
0.0
 10
114.4519384689767
 20
-123.9800458023385
 30
0.0
 10
114.4967059678346
 20
-123.9352430245717
 30
0.0
 10
114.4967059678346
 20
-123.8801391356965
 30
0.0
 10
114.4967059678346
 20
-123.8242944134882
 30
0.0
 10
114.4519384689767
 20
-123.7795269134997
 30
0.0
 10
114.3967993037167
 20
-123.7795269134997
 30
0.0
 10
114.3416954162337
 20
-123.7795269134997
 30
0.0
 10
114.2968926395989
 20
-123.8242944134882
 30
0.0
 10
114.2968926395989
 20
-123.8801391356965
 30
0.0
  0
POLYLINE
  5
C5
330
1F
100
AcDbEntity
  8
_U+30EC_U+30A4_U+30E4_U+30FC 1
 62
   179
420
  2234388
370
     9
100
AcDb2dPolyline
 66
     1
 10
0.0
 20
0.0
 30
0.0
  0
VERTEX
  5
C6
330
C5
100
AcDbEntity
  8
_U+30EC_U+30A4_U+30E4_U+30FC 1
 62
   179
420
  2234388
370
     9
100
AcDbVertex
100
AcDb2dVertex
 10
99.47091301784114
 20
-136.1983982992834
 30
0.0
  0
VERTEX
  5
C7
330
C5
100
AcDbEntity
  8
_U+30EC_U+30A4_U+30E4_U+30FC 1
 62
   179
420
  2234388
370
     9
100
AcDbVertex
100
AcDb2dVertex
 10
115.1137142854267
 20
-136.1983982992834
 30
0.0
  0
SEQEND
  5
C8
330
C5
100
AcDbEntity
  8
_U+30EC_U+30A4_U+30E4_U+30FC 1
 62
   179
420
  2234388
370
     9
  0
SPLINE
  5
C9
330
1F
100
AcDbEntity
  8
_U+30EC_U+30A4_U+30E4_U+30FC 1
 62
   179
420
  2234388
370
     9
100
AcDbSpline
210
0.0
220
0.0
230
1.0
 70
    11
 71
     3
 72
    17
 73
    13
 74
     0
 42
0.0000000001
 43
0.0000000001
 12
1.0
 22
0.0
 32
0.0
 13
1.0
 23
0.0
 33
0.0
 40
0.0
 40
0.0
 40
0.0
 40
0.0
 40
1.0
 40
1.0
 40
1.0
 40
2.0
 40
2.0
 40
2.0
 40
3.0
 40
3.0
 40
3.0
 40
4.0
 40
4.0
 40
4.0
 40
4.0
 10
114.2968926395989
 20
-133.1984113555891
 30
0.0
 10
114.2968926395989
 20
-133.2535505222422
 30
0.0
 10
114.3416954162337
 20
-133.2983180222307
 30
0.0
 10
114.3967993037167
 20
-133.2983180222307
 30
0.0
 10
114.4519384689767
 20
-133.2983180222307
 30
0.0
 10
114.4967059678346
 20
-133.2535505222422
 30
0.0
 10
114.4967059678346
 20
-133.1984113555891
 30
0.0
 10
114.4967059678346
 20
-133.1433074667142
 30
0.0
 10
114.4519384689767
 20
-133.0985046889475
 30
0.0
 10
114.3967993037167
 20
-133.0985046889475
 30
0.0
 10
114.3416954162337
 20
-133.0985046889475
 30
0.0
 10
114.2968926395989
 20
-133.1433074667142
 30
0.0
 10
114.2968926395989
 20
-133.1984113555891
 30
0.0
  0
POLYLINE
  5
CA
330
1F
100
AcDbEntity
  8
_U+30EC_U+30A4_U+30E4_U+30FC 1
 62
   179
420
  2234388
370
     9
100
AcDb2dPolyline
 66
     1
 10
0.0
 20
0.0
 30
0.0
  0
VERTEX
  5
CB
330
CA
100
AcDbEntity
  8
_U+30EC_U+30A4_U+30E4_U+30FC 1
 62
   179
420
  2234388
370
     9
100
AcDbVertex
100
AcDb2dVertex
 10
99.47091301784114
 20
-133.1984113555891
 30
0.0
  0
VERTEX
  5
CC
330
CA
100
AcDbEntity
  8
_U+30EC_U+30A4_U+30E4_U+30FC 1
 62
   179
420
  2234388
370
     9
100
AcDbVertex
100
AcDb2dVertex
 10
115.1137142854267
 20
-133.1984113555891
 30
0.0
  0
SEQEND
  5
CD
330
CA
100
AcDbEntity
  8
_U+30EC_U+30A4_U+30E4_U+30FC 1
 62
   179
420
  2234388
370
     9
  0
INSERT
  5
CF
330
1F
100
AcDbEntity
  8
_U+30EC_U+30A4_U+30E4_U+30FC 1
100
AcDbBlockReference
  2
block 5
 10
0.0
 20
0.0
 30
0.0
  0
INSERT
  5
E1
330
1F
100
AcDbEntity
  8
_U+30EC_U+30A4_U+30E4_U+30FC 1
100
AcDbBlockReference
  2
block 6
 10
0.0
 20
0.0
 30
0.0
  0
INSERT
  5
E7
330
1F
100
AcDbEntity
  8
_U+30EC_U+30A4_U+30E4_U+30FC 1
100
AcDbBlockReference
  2
block 7
 10
0.0
 20
0.0
 30
0.0
  0
POLYLINE
  5
EE
330
1F
100
AcDbEntity
  8
_U+30EC_U+30A4_U+30E4_U+30FC 1
 62
   179
420
  2234388
370
    25
100
AcDb2dPolyline
 66
     1
 10
0.0
 20
0.0
 30
0.0
  0
VERTEX
  5
EF
330
EE
100
AcDbEntity
  8
_U+30EC_U+30A4_U+30E4_U+30FC 1
 62
   179
420
  2234388
370
    25
100
AcDbVertex
100
AcDb2dVertex
 10
88.2943488585346
 20
-135.380553577266
 30
0.0
  0
VERTEX
  5
F0
330
EE
100
AcDbEntity
  8
_U+30EC_U+30A4_U+30E4_U+30FC 1
 62
   179
420
  2234388
370
    25
100
AcDbVertex
100
AcDb2dVertex
 10
88.2943488585346
 20
-124.6800627466079
 30
0.0
  0
VERTEX
  5
F1
330
EE
100
AcDbEntity
  8
_U+30EC_U+30A4_U+30E4_U+30FC 1
 62
   179
420
  2234388
370
    25
100
AcDbVertex
100
AcDb2dVertex
 10
110.4945480143826
 20
-124.6800627466079
 30
0.0
  0
VERTEX
  5
F2
330
EE
100
AcDbEntity
  8
_U+30EC_U+30A4_U+30E4_U+30FC 1
 62
   179
420
  2234388
370
    25
100
AcDbVertex
100
AcDb2dVertex
 10
110.4945480143826
 20
-123.8801391356965
 30
0.0
  0
VERTEX
  5
F3
330
EE
100
AcDbEntity
  8
_U+30EC_U+30A4_U+30E4_U+30FC 1
 62
   179
420
  2234388
370
    25
100
AcDbVertex
100
AcDb2dVertex
 10
87.49438999005437
 20
-123.8801391356965
 30
0.0
  0
VERTEX
  5
F4
330
EE
100
AcDbEntity
  8
_U+30EC_U+30A4_U+30E4_U+30FC 1
 62
   179
420
  2234388
370
    25
100
AcDbVertex
100
AcDb2dVertex
 10
87.49438999005437
 20
-136.1983982992834
 30
0.0
  0
VERTEX
  5
F5
330
EE
100
AcDbEntity
  8
_U+30EC_U+30A4_U+30E4_U+30FC 1
 62
   179
420
  2234388
370
    25
100
AcDbVertex
100
AcDb2dVertex
 10
97.49447556826426
 20
-136.1804771881771
 30
0.0
  0
VERTEX
  5
F6
330
EE
100
AcDbEntity
  8
_U+30EC_U+30A4_U+30E4_U+30FC 1
 62
   179
420
  2234388
370
    25
100
AcDbVertex
100
AcDb2dVertex
 10
97.49447556826426
 20
-133.1804902444828
 30
0.0
  0
VERTEX
  5
F7
330
EE
100
AcDbEntity
  8
_U+30EC_U+30A4_U+30E4_U+30FC 1
 62
   179
420
  2234388
370
    25
100
AcDbVertex
100
AcDb2dVertex
 10
93.49436372587118
 20
-133.1804902444828
 30
0.0
  0
VERTEX
  5
F8
330
EE
100
AcDbEntity
  8
_U+30EC_U+30A4_U+30E4_U+30FC 1
 62
   179
420
  2234388
370
    25
100
AcDbVertex
100
AcDb2dVertex
 10
93.49436372587118
 20
-133.9804491331714
 30
0.0
  0
VERTEX
  5
F9
330
EE
100
AcDbEntity
  8
_U+30EC_U+30A4_U+30E4_U+30FC 1
 62
   179
420
  2234388
370
    25
100
AcDbVertex
100
AcDb2dVertex
 10
96.69451669978403
 20
-133.9804491331714
 30
0.0
  0
VERTEX
  5
FA
330
EE
100
AcDbEntity
  8
_U+30EC_U+30A4_U+30E4_U+30FC 1
 62
   179
420
  2234388
370
    25
100
AcDbVertex
100
AcDb2dVertex
 10
96.69451669978403
 20
-135.380553577266
 30
0.0
  0
VERTEX
  5
FB
330
EE
100
AcDbEntity
  8
_U+30EC_U+30A4_U+30E4_U+30FC 1
 62
   179
420
  2234388
370
    25
100
AcDbVertex
100
AcDb2dVertex
 10
88.2943488585346
 20
-135.380553577266
 30
0.0
  0
SEQEND
  5
FC
330
EE
100
AcDbEntity
  8
_U+30EC_U+30A4_U+30E4_U+30FC 1
 62
   179
420
  2234388
370
    25
  0
ENDSEC
  0
SECTION
  2
OBJECTS
  0
DICTIONARY
  5
C
330
0
100
AcDbDictionary
281
     1
  3
ACAD_GROUP
350
D
  3
ACAD_LAYOUT
350
1A
  3
ACAD_MATERIAL
350
3B
  3
ACAD_MLEADERSTYLE
350
FE
  3
ACAD_MLINESTYLE
350
17
  3
ACAD_PLOTSETTINGS
350
19
  3
ACAD_PLOTSTYLENAME
350
E
  3
ACAD_TABLESTYLE
350
FD
  3
ACAD_VISUALSTYLE
350
2A
  0
SUN
  5
3F
330
29
100
AcDbSun
 90
        1
290
     0
 63
     7
421
 16777215
 40
1.0
291
     1
 91
  2455826
 92
 54000000
292
     0
 70
     2
 71
   256
280
     1
  0
DICTIONARY
  5
D
102
{ACAD_REACTORS
330
C
102
}
330
C
100
AcDbDictionary
281
     1
  0
DICTIONARY
  5
1A
102
{ACAD_REACTORS
330
C
102
}
330
C
100
AcDbDictionary
281
     1
  3
Layout1
350
1E
  3
Layout2
350
26
  3
Model
350
22
  0
DICTIONARY
  5
3B
102
{ACAD_REACTORS
330
C
102
}
330
C
100
AcDbDictionary
281
     1
  3
ByBlock
350
3D
  3
ByLayer
350
3C
  3
Global
350
3E
  0
DICTIONARY
  5
FE
102
{ACAD_REACTORS
330
C
102
}
330
C
100
AcDbDictionary
281
     1
  0
DICTIONARY
  5
17
102
{ACAD_REACTORS
330
C
102
}
330
C
100
AcDbDictionary
281
     1
  3
Standard
350
18
  0
DICTIONARY
  5
19
102
{ACAD_REACTORS
330
C
102
}
330
C
100
AcDbDictionary
281
     1
  0
ACDBDICTIONARYWDFLT
  5
E
102
{ACAD_REACTORS
330
C
102
}
330
C
100
AcDbDictionary
281
     1
  3
Normal
350
F
100
AcDbDictionaryWithDefault
340
F
  0
DICTIONARY
  5
FD
102
{ACAD_REACTORS
330
C
102
}
330
C
100
AcDbDictionary
281
     1
  0
DICTIONARY
  5
2A
102
{ACAD_REACTORS
330
C
102
}
330
C
100
AcDbDictionary
281
     1
  3
2dWireframe
350
2F
  3
3D Hidden
350
31
  3
3dWireframe
350
30
  3
Basic
350
32
  3
Brighten
350
36
  3
ColorChange
350
3A
  3
Conceptual
350
34
  3
Dim
350
35
  3
Facepattern
350
39
  3
Flat
350
2B
  3
FlatWithEdges
350
2C
  3
Gouraud
350
2D
  3
GouraudWithEdges
350
2E
  3
Linepattern
350
38
  3
Realistic
350
33
  3
Thicken
350
37
  0
LAYOUT
  5
1E
102
{ACAD_REACTORS
330
1A
102
}
330
1A
100
AcDbPlotSettings
  1

  2
none_device
  4

  6

 40
0.0
 41
0.0
 42
0.0
 43
0.0
 44
0.0
 45
0.0
 46
0.0
 47
0.0
 48
0.0
 49
0.0
140
0.0
141
0.0
142
1.0
143
1.0
 70
   688
 72
     0
 73
     0
 74
     5
  7

 75
    16
 76
     0
 77
     2
 78
   300
147
1.0
148
0.0
149
0.0
100
AcDbLayout
  1
Layout1
 70
     1
 71
     1
 10
0.0
 20
0.0
 11
12.0
 21
9.0
 12
0.0
 22
0.0
 32
0.0
 14
1.000000000000000E+20
 24
1.000000000000000E+20
 34
1.000000000000000E+20
 15
-1.000000000000000E+20
 25
-1.000000000000000E+20
 35
-1.000000000000000E+20
146
0.0
 13
0.0
 23
0.0
 33
0.0
 16
1.0
 26
0.0
 36
0.0
 17
0.0
 27
1.0
 37
0.0
 76
     0
330
1B
  0
LAYOUT
  5
26
102
{ACAD_REACTORS
330
1A
102
}
330
1A
100
AcDbPlotSettings
  1

  2
none_device
  4

  6

 40
0.0
 41
0.0
 42
0.0
 43
0.0
 44
0.0
 45
0.0
 46
0.0
 47
0.0
 48
0.0
 49
0.0
140
0.0
141
0.0
142
1.0
143
1.0
 70
   688
 72
     0
 73
     0
 74
     5
  7

 75
    16
 76
     0
 77
     2
 78
   300
147
1.0
148
0.0
149
0.0
100
AcDbLayout
  1
Layout2
 70
     1
 71
     2
 10
0.0
 20
0.0
 11
0.0
 21
0.0
 12
0.0
 22
0.0
 32
0.0
 14
0.0
 24
0.0
 34
0.0
 15
0.0
 25
0.0
 35
0.0
146
0.0
 13
0.0
 23
0.0
 33
0.0
 16
1.0
 26
0.0
 36
0.0
 17
0.0
 27
1.0
 37
0.0
 76
     0
330
23
  0
LAYOUT
  5
22
102
{ACAD_REACTORS
330
1A
102
}
330
1A
100
AcDbPlotSettings
  1

  2
none_device
  4

  6

 40
0.0
 41
0.0
 42
0.0
 43
0.0
 44
0.0
 45
0.0
 46
0.0
 47
0.0
 48
0.0
 49
0.0
140
0.0
141
0.0
142
1.0
143
1.0
 70
  1712
 72
     0
 73
     0
 74
     0
  7

 75
     0
 76
     0
 77
     2
 78
   300
147
1.0
148
0.0
149
0.0
100
AcDbLayout
  1
Model
 70
     1
 71
     0
 10
0.0
 20
0.0
 11
12.0
 21
9.0
 12
0.0
 22
0.0
 32
0.0
 14
1.000000000000000E+20
 24
1.000000000000000E+20
 34
1.000000000000000E+20
 15
-1.000000000000000E+20
 25
-1.000000000000000E+20
 35
-1.000000000000000E+20
146
0.0
 13
0.0
 23
0.0
 33
0.0
 16
1.0
 26
0.0
 36
0.0
 17
0.0
 27
1.0
 37
0.0
 76
     0
330
1F
331
29
  0
MATERIAL
  5
3D
102
{ACAD_REACTORS
330
3B
102
}
330
3B
100
AcDbMaterial
  1
ByBlock
 72
     1
 94
      127
  0
MATERIAL
  5
3C
102
{ACAD_REACTORS
330
3B
102
}
330
3B
100
AcDbMaterial
  1
ByLayer
 72
     1
 94
      127
  0
MATERIAL
  5
3E
102
{ACAD_REACTORS
330
3B
102
}
330
3B
100
AcDbMaterial
  1
Global
 72
     1
 94
      127
  0
MLINESTYLE
  5
18
102
{ACAD_REACTORS
330
17
102
}
330
17
100
AcDbMlineStyle
  2
Standard
 70
     0
  3

 62
   256
 51
90.0
 52
90.0
 71
     2
 49
0.5
 62
   256
  6
BYLAYER
 49
-0.5
 62
   256
  6
BYLAYER
  0
ACDBPLACEHOLDER
  5
F
102
{ACAD_REACTORS
330
E
102
}
330
E
  0
VISUALSTYLE
  5
2F
102
{ACAD_REACTORS
330
2A
102
}
330
2A
100
AcDbVisualStyle
  2
2dWireframe
 70
     4
177
     2
291
     0
 71
     0
176
     1
 72
     2
176
     1
 73
     0
176
     1
 90
        0
176
     1
 40
-0.6
176
     1
 41
-30.0
176
     1
 62
     5
 63
     7
421
 16777215
176
     1
 74
     1
176
     1
 91
        4
176
     1
 64
     7
176
     1
 65
   257
176
     1
 75
     1
176
     1
175
     1
176
     1
 42
1.0
176
     1
 92
        0
176
     1
 66
   257
176
     1
 43
1.0
176
     1
 76
     1
176
     1
 77
     6
176
     1
 78
     2
176
     1
 67
     7
176
     1
 79
     5
176
     1
170
     0
176
     1
171
     0
176
     1
290
     0
176
     1
 93
        1
176
     1
 44
0.0
176
     1
173
     0
176
     1
  0
VISUALSTYLE
  5
31
102
{ACAD_REACTORS
330
2A
102
}
330
2A
100
AcDbVisualStyle
  2
3D Hidden
 70
     6
177
     2
291
     0
 71
     1
176
     1
 72
     2
176
     1
 73
     2
176
     1
 90
        0
176
     1
 40
-0.6
176
     1
 41
-30.0
176
     1
 62
     5
 63
     7
421
 16777215
176
     1
 74
     2
176
     1
 91
        2
176
     1
 64
     7
176
     1
 65
   257
176
     1
 75
     2
176
     1
175
     1
176
     1
 42
40.0
176
     1
 92
        0
176
     1
 66
   257
176
     1
 43
1.0
176
     1
 76
     1
176
     1
 77
     6
176
     1
 78
     2
176
     1
 67
     7
176
     1
 79
     3
176
     1
170
     0
176
     1
171
     0
176
     1
290
     0
176
     1
 93
        1
176
     1
 44
0.0
176
     1
173
     0
176
     1
  0
VISUALSTYLE
  5
30
102
{ACAD_REACTORS
330
2A
102
}
330
2A
100
AcDbVisualStyle
  2
3dWireframe
 70
     5
177
     2
291
     0
 71
     0
176
     1
 72
     2
176
     1
 73
     0
176
     1
 90
        0
176
     1
 40
-0.6
176
     1
 41
-30.0
176
     1
 62
     5
 63
     7
421
 16777215
176
     1
 74
     1
176
     1
 91
        4
176
     1
 64
     7
176
     1
 65
   257
176
     1
 75
     1
176
     1
175
     1
176
     1
 42
1.0
176
     1
 92
        0
176
     1
 66
   257
176
     1
 43
1.0
176
     1
 76
     1
176
     1
 77
     6
176
     1
 78
     2
176
     1
 67
     7
176
     1
 79
     5
176
     1
170
     0
176
     1
171
     0
176
     1
290
     0
176
     1
 93
        1
176
     1
 44
0.0
176
     1
173
     0
176
     1
  0
VISUALSTYLE
  5
32
102
{ACAD_REACTORS
330
2A
102
}
330
2A
100
AcDbVisualStyle
  2
Basic
 70
     7
177
     2
291
     1
 71
     1
176
     1
 72
     0
176
     1
 73
     1
176
     1
 90
        0
176
     1
 40
-0.6
176
     1
 41
-30.0
176
     1
 62
     5
 63
     7
421
 16777215
176
     1
 74
     0
176
     1
 91
        4
176
     1
 64
     7
176
     1
 65
   257
176
     1
 75
     1
176
     1
175
     1
176
     1
 42
1.0
176
     1
 92
        8
176
     1
 66
     7
176
     1
 43
1.0
176
     1
 76
     1
176
     1
 77
     6
176
     1
 78
     2
176
     1
 67
     7
176
     1
 79
     5
176
     1
170
     0
176
     1
171
     0
176
     1
290
     0
176
     1
 93
        1
176
     1
 44
0.0
176
     1
173
     0
176
     1
  0
VISUALSTYLE
  5
36
102
{ACAD_REACTORS
330
2A
102
}
330
2A
100
AcDbVisualStyle
  2
Brighten
 70
    12
177
     2
291
     1
 71
     2
176
     1
 72
     2
176
     1
 73
     0
176
     1
 90
        0
176
     1
 40
-0.6
176
     1
 41
-30.0
176
     1
 62
     5
 63
     7
421
 16777215
176
     1
 74
     1
176
     1
 91
        4
176
     1
 64
     7
176
     1
 65
   257
176
     1
 75
     1
176
     1
175
     1
176
     1
 42
1.0
176
     1
 92
        8
176
     1
 66
     7
176
     1
 43
1.0
176
     1
 76
     1
176
     1
 77
     6
176
     1
 78
     2
176
     1
 67
     7
176
     1
 79
     5
176
     1
170
     0
176
     1
171
     0
176
     1
290
     0
176
     1
 93
        1
176
     1
 44
50.0
176
     1
173
     0
176
     1
  0
VISUALSTYLE
  5
3A
102
{ACAD_REACTORS
330
2A
102
}
330
2A
100
AcDbVisualStyle
  2
ColorChange
 70
    16
177
     2
291
     1
 71
     2
176
     1
 72
     2
176
     1
 73
     3
176
     1
 90
        0
176
     1
 40
-0.6
176
     1
 41
-30.0
176
     1
 62
     5
 63
     8
421
  8421504
176
     1
 74
     1
176
     1
 91
        4
176
     1
 64
     7
176
     1
 65
   257
176
     1
 75
     1
176
     1
175
     1
176
     1
 42
1.0
176
     1
 92
        8
176
     1
 66
     8
424
  8421504
176
     1
 43
1.0
176
     1
 76
     1
176
     1
 77
     6
176
     1
 78
     2
176
     1
 67
     7
176
     1
 79
     5
176
     1
170
     0
176
     1
171
     0
176
     1
290
     0
176
     1
 93
        1
176
     1
 44
0.0
176
     1
173
     0
176
     1
  0
VISUALSTYLE
  5
34
102
{ACAD_REACTORS
330
2A
102
}
330
2A
100
AcDbVisualStyle
  2
Conceptual
 70
     9
177
     2
291
     0
 71
     3
176
     1
 72
     2
176
     1
 73
     0
176
     1
 90
        0
176
     1
 40
-0.6
176
     1
 41
-30.0
176
     1
 62
     5
 63
     7
421
 16777215
176
     1
 74
     2
176
     1
 91
        2
176
     1
 64
     7
176
     1
 65
   257
176
     1
 75
     1
176
     1
175
     1
176
     1
 42
40.0
176
     1
 92
        8
176
     1
 66
     7
176
     1
 43
1.0
176
     1
 76
     1
176
     1
 77
     6
176
     1
 78
     2
176
     1
 67
     7
176
     1
 79
     3
176
     1
170
     0
176
     1
171
     0
176
     1
290
     0
176
     1
 93
        1
176
     1
 44
0.0
176
     1
173
     0
176
     1
  0
VISUALSTYLE
  5
35
102
{ACAD_REACTORS
330
2A
102
}
330
2A
100
AcDbVisualStyle
  2
Dim
 70
    11
177
     2
291
     1
 71
     2
176
     1
 72
     2
176
     1
 73
     0
176
     1
 90
        0
176
     1
 40
-0.6
176
     1
 41
-30.0
176
     1
 62
     5
 63
     7
421
 16777215
176
     1
 74
     1
176
     1
 91
        4
176
     1
 64
     7
176
     1
 65
   257
176
     1
 75
     1
176
     1
175
     1
176
     1
 42
1.0
176
     1
 92
        8
176
     1
 66
     7
176
     1
 43
1.0
176
     1
 76
     1
176
     1
 77
     6
176
     1
 78
     2
176
     1
 67
     7
176
     1
 79
     5
176
     1
170
     0
176
     1
171
     0
176
     1
290
     0
176
     1
 93
        1
176
     1
 44
-50.0
176
     1
173
     0
176
     1
  0
VISUALSTYLE
  5
39
102
{ACAD_REACTORS
330
2A
102
}
330
2A
100
AcDbVisualStyle
  2
Facepattern
 70
    15
177
     2
291
     1
 71
     2
176
     1
 72
     2
176
     1
 73
     0
176
     1
 90
        0
176
     1
 40
-0.6
176
     1
 41
-30.0
176
     1
 62
     5
 63
     7
421
 16777215
176
     1
 74
     1
176
     1
 91
        4
176
     1
 64
     7
176
     1
 65
   257
176
     1
 75
     1
176
     1
175
     1
176
     1
 42
1.0
176
     1
 92
        8
176
     1
 66
     7
176
     1
 43
1.0
176
     1
 76
     1
176
     1
 77
     6
176
     1
 78
     2
176
     1
 67
     7
176
     1
 79
     5
176
     1
170
     0
176
     1
171
     0
176
     1
290
     0
176
     1
 93
        1
176
     1
 44
0.0
176
     1
173
     0
176
     1
  0
VISUALSTYLE
  5
2B
102
{ACAD_REACTORS
330
2A
102
}
330
2A
100
AcDbVisualStyle
  2
Flat
 70
     0
177
     2
291
     1
 71
     2
176
     1
 72
     1
176
     1
 73
     1
176
     1
 90
        2
176
     1
 40
-0.6
176
     1
 41
30.0
176
     1
 62
     5
 63
     7
421
 16777215
176
     1
 74
     0
176
     1
 91
        4
176
     1
 64
     7
176
     1
 65
   257
176
     1
 75
     1
176
     1
175
     1
176
     1
 42
1.0
176
     1
 92
        8
176
     1
 66
     7
176
     1
 43
1.0
176
     1
 76
     1
176
     1
 77
     6
176
     1
 78
     2
176
     1
 67
     7
176
     1
 79
     5
176
     1
170
     0
176
     1
171
     0
176
     1
290
     0
176
     1
 93
       13
176
     1
 44
0.0
176
     1
173
     0
176
     1
  0
VISUALSTYLE
  5
2C
102
{ACAD_REACTORS
330
2A
102
}
330
2A
100
AcDbVisualStyle
  2
FlatWithEdges
 70
     1
177
     2
291
     1
 71
     2
176
     1
 72
     1
176
     1
 73
     1
176
     1
 90
        2
176
     1
 40
-0.6
176
     1
 41
30.0
176
     1
 62
     5
 63
     7
421
 16777215
176
     1
 74
     1
176
     1
 91
        4
176
     1
 64
     7
176
     1
 65
   257
176
     1
 75
     1
176
     1
175
     1
176
     1
 42
1.0
176
     1
 92
        0
176
     1
 66
   257
176
     1
 43
1.0
176
     1
 76
     1
176
     1
 77
     6
176
     1
 78
     2
176
     1
 67
     7
176
     1
 79
     5
176
     1
170
     0
176
     1
171
     0
176
     1
290
     0
176
     1
 93
       13
176
     1
 44
0.0
176
     1
173
     0
176
     1
  0
VISUALSTYLE
  5
2D
102
{ACAD_REACTORS
330
2A
102
}
330
2A
100
AcDbVisualStyle
  2
Gouraud
 70
     2
177
     2
291
     1
 71
     2
176
     1
 72
     2
176
     1
 73
     1
176
     1
 90
        2
176
     1
 40
-0.6
176
     1
 41
30.0
176
     1
 62
     5
 63
     7
421
 16777215
176
     1
 74
     0
176
     1
 91
        4
176
     1
 64
     7
176
     1
 65
   257
176
     1
 75
     1
176
     1
175
     1
176
     1
 42
1.0
176
     1
 92
        0
176
     1
 66
     7
176
     1
 43
1.0
176
     1
 76
     1
176
     1
 77
     6
176
     1
 78
     2
176
     1
 67
     7
176
     1
 79
     5
176
     1
170
     0
176
     1
171
     0
176
     1
290
     0
176
     1
 93
       13
176
     1
 44
0.0
176
     1
173
     0
176
     1
  0
VISUALSTYLE
  5
2E
102
{ACAD_REACTORS
330
2A
102
}
330
2A
100
AcDbVisualStyle
  2
GouraudWithEdges
 70
     3
177
     2
291
     1
 71
     2
176
     1
 72
     2
176
     1
 73
     1
176
     1
 90
        2
176
     1
 40
-0.6
176
     1
 41
30.0
176
     1
 62
     5
 63
     7
421
 16777215
176
     1
 74
     1
176
     1
 91
        4
176
     1
 64
     7
176
     1
 65
   257
176
     1
 75
     1
176
     1
175
     1
176
     1
 42
1.0
176
     1
 92
        0
176
     1
 66
   257
176
     1
 43
1.0
176
     1
 76
     1
176
     1
 77
     6
176
     1
 78
     2
176
     1
 67
     7
176
     1
 79
     5
176
     1
170
     0
176
     1
171
     0
176
     1
290
     0
176
     1
 93
       13
176
     1
 44
0.0
176
     1
173
     0
176
     1
  0
VISUALSTYLE
  5
38
102
{ACAD_REACTORS
330
2A
102
}
330
2A
100
AcDbVisualStyle
  2
Linepattern
 70
    14
177
     2
291
     1
 71
     2
176
     1
 72
     2
176
     1
 73
     0
176
     1
 90
        0
176
     1
 40
-0.6
176
     1
 41
-30.0
176
     1
 62
     5
 63
     7
421
 16777215
176
     1
 74
     1
176
     1
 91
        4
176
     1
 64
     7
176
     1
 65
   257
176
     1
 75
     7
176
     1
175
     7
176
     1
 42
1.0
176
     1
 92
        8
176
     1
 66
     7
176
     1
 43
1.0
176
     1
 76
     1
176
     1
 77
     6
176
     1
 78
     2
176
     1
 67
     7
176
     1
 79
     5
176
     1
170
     0
176
     1
171
     0
176
     1
290
     0
176
     1
 93
        1
176
     1
 44
0.0
176
     1
173
     0
176
     1
  0
VISUALSTYLE
  5
33
102
{ACAD_REACTORS
330
2A
102
}
330
2A
100
AcDbVisualStyle
  2
Realistic
 70
     8
177
     2
291
     0
 71
     2
176
     1
 72
     2
176
     1
 73
     0
176
     1
 90
        0
176
     1
 40
-0.6
176
     1
 41
-30.0
176
     1
 62
     5
 63
     7
421
 16777215
176
     1
 74
     1
176
     1
 91
        0
176
     1
 64
     7
176
     1
 65
   257
176
     1
 75
     1
176
     1
175
     1
176
     1
 42
1.0
176
     1
 92
        8
176
     1
 66
     8
424
  7895160
176
     1
 43
1.0
176
     1
 76
     1
176
     1
 77
     6
176
     1
 78
     2
176
     1
 67
     7
176
     1
 79
     5
176
     1
170
     0
176
     1
171
     0
176
     1
290
     0
176
     1
 93
       13
176
     1
 44
0.0
176
     1
173
     0
176
     1
  0
VISUALSTYLE
  5
37
102
{ACAD_REACTORS
330
2A
102
}
330
2A
100
AcDbVisualStyle
  2
Thicken
 70
    13
177
     2
291
     1
 71
     2
176
     1
 72
     2
176
     1
 73
     0
176
     1
 90
        0
176
     1
 40
-0.6
176
     1
 41
-30.0
176
     1
 62
     5
 63
     7
421
 16777215
176
     1
 74
     1
176
     1
 91
        4
176
     1
 64
     7
176
     1
 65
   257
176
     1
 75
     1
176
     1
175
     1
176
     1
 42
1.0
176
     1
 92
       12
176
     1
 66
     7
176
     1
 43
1.0
176
     1
 76
     1
176
     1
 77
     6
176
     1
 78
     2
176
     1
 67
     7
176
     1
 79
     5
176
     1
170
     0
176
     1
171
     0
176
     1
290
     0
176
     1
 93
        1
176
     1
 44
0.0
176
     1
173
     0
176
     1
  0
ENDSEC
  0
EOF
