  0
SECTION
  2
HEADER
  9
$ACADVER
  1
AC1024
  9
$ACADMAINTVER
 70
     6
  9
$DWGCODEPAGE
  3
UNDEFINED
  9
$INSBASE
 10
0.0
 20
0.0
 30
0.0
  9
$EXTMIN
 10
1.000000000000000E+20
 20
1.000000000000000E+20
 30
1.000000000000000E+20
  9
$EXTMAX
 10
-1.000000000000000E+20
 20
-1.000000000000000E+20
 30
-1.000000000000000E+20
  9
$LIMMIN
 10
0.0
 20
0.0
  9
$LIMMAX
 10
12.0
 20
9.0
  9
$ORTHOMODE
 70
     0
  9
$REGENMODE
 70
     1
  9
$FILLMODE
 70
     1
  9
$QTEXTMODE
 70
     0
  9
$MIRRTEXT
 70
     1
  9
$LTSCALE
 40
1.0
  9
$ATTMODE
 70
     1
  9
$TEXTSIZE
 40
0.2
  9
$TRACEWID
 40
0.05
  9
$TEXTSTYLE
  7
Standard
  9
$CLAYER
  8
0
  9
$CELTYPE
  6
ByLayer
  9
$CECOLOR
 62
   256
  9
$CELTSCALE
 40
1.0
  9
$DISPSILH
 70
     0
  9
$DIMSCALE
 40
1.0
  9
$DIMASZ
 40
0.18
  9
$DIMEXO
 40
0.0625
  9
$DIMDLI
 40
0.38
  9
$DIMRND
 40
0.0
  9
$DIMDLE
 40
0.0
  9
$DIMEXE
 40
0.18
  9
$DIMTP
 40
0.0
  9
$DIMTM
 40
0.0
  9
$DIMTXT
 40
0.18
  9
$DIMCEN
 40
0.09
  9
$DIMTSZ
 40
0.0
  9
$DIMTOL
 70
     0
  9
$DIMLIM
 70
     0
  9
$DIMTIH
 70
     1
  9
$DIMTOH
 70
     1
  9
$DIMSE1
 70
     0
  9
$DIMSE2
 70
     0
  9
$DIMTAD
 70
     0
  9
$DIMZIN
 70
     0
  9
$DIMBLK
  1

  9
$DIMASO
 70
     1
  9
$DIMSHO
 70
     1
  9
$DIMPOST
  1

  9
$DIMAPOST
  1

  9
$DIMALT
 70
     0
  9
$DIMALTD
 70
     2
  9
$DIMALTF
 40
25.4
  9
$DIMLFAC
 40
1.0
  9
$DIMTOFL
 70
     0
  9
$DIMTVP
 40
0.0
  9
$DIMTIX
 70
     0
  9
$DIMSOXD
 70
     0
  9
$DIMSAH
 70
     0
  9
$DIMBLK1
  1

  9
$DIMBLK2
  1

  9
$DIMSTYLE
  2
Standard
  9
$DIMCLRD
 70
     0
  9
$DIMCLRE
 70
     0
  9
$DIMCLRT
 70
     0
  9
$DIMTFAC
 40
1.0
  9
$DIMGAP
 40
0.09
  9
$DIMJUST
 70
     0
  9
$DIMSD1
 70
     0
  9
$DIMSD2
 70
     0
  9
$DIMTOLJ
 70
     1
  9
$DIMTZIN
 70
     0
  9
$DIMALTZ
 70
     0
  9
$DIMALTTZ
 70
     0
  9
$DIMUPT
 70
     0
  9
$DIMDEC
 70
     4
  9
$DIMTDEC
 70
     4
  9
$DIMALTU
 70
     2
  9
$DIMALTTD
 70
     2
  9
$DIMTXSTY
  7
Standard
  9
$DIMAUNIT
 70
     0
  9
$DIMADEC
 70
     0
  9
$DIMALTRND
 40
0.0
  9
$DIMAZIN
 70
     0
  9
$DIMDSEP
 70
    46
  9
$DIMATFIT
 70
     3
  9
$DIMFRAC
 70
     0
  9
$DIMLDRBLK
  1

  9
$DIMLUNIT
 70
     2
  9
$DIMLWD
 70
    -2
  9
$DIMLWE
 70
    -2
  9
$DIMTMOVE
 70
     0
  9
$DIMFXL
 40
1.0
  9
$DIMFXLON
 70
     0
  9
$DIMJOGANG
 40
0.7853981633974483
  9
$DIMTFILL
 70
     0
  9
$DIMTFILLCLR
 70
     0
  9
$DIMARCSYM
 70
     0
  9
$DIMLTYPE
  6

  9
$DIMLTEX1
  6

  9
$DIMLTEX2
  6

  9
$DIMTXTDIRECTION
 70
     0
  9
$LUNITS
 70
     2
  9
$LUPREC
 70
     4
  9
$SKETCHINC
 40
0.1
  9
$FILLETRAD
 40
0.5
  9
$AUNITS
 70
     0
  9
$AUPREC
 70
     0
  9
$MENU
  1
.
  9
$ELEVATION
 40
0.0
  9
$PELEVATION
 40
0.0
  9
$THICKNESS
 40
0.0
  9
$LIMCHECK
 70
     0
  9
$CHAMFERA
 40
0.5
  9
$CHAMFERB
 40
0.5
  9
$CHAMFERC
 40
1.0
  9
$CHAMFERD
 40
0.0
  9
$SKPOLY
 70
     0
  9
$TDCREATE
 40
2457917.589189815
  9
$TDUCREATE
 40
2457917.214189815
  9
$TDUPDATE
 40
2457917.589189815
  9
$TDUUPDATE
 40
2457917.214189815
  9
$TDINDWG
 40
0.0000000116
  9
$TDUSRTIMER
 40
0.0000000116
  9
$USRTIMER
 70
     1
  9
$ANGBASE
 50
0.0
  9
$ANGDIR
 70
     0
  9
$PDMODE
 70
     0
  9
$PDSIZE
 40
0.0
  9
$PLINEWID
 40
0.0
  9
$SPLFRAME
 70
     0
  9
$SPLINETYPE
 70
     6
  9
$SPLINESEGS
 70
     8
  9
$HANDSEED
  5
C2
  9
$SURFTAB1
 70
     6
  9
$SURFTAB2
 70
     6
  9
$SURFTYPE
 70
     6
  9
$SURFU
 70
     6
  9
$SURFV
 70
     6
  9
$UCSBASE
  2

  9
$UCSNAME
  2

  9
$UCSORG
 10
0.0
 20
0.0
 30
0.0
  9
$UCSXDIR
 10
1.0
 20
0.0
 30
0.0
  9
$UCSYDIR
 10
0.0
 20
1.0
 30
0.0
  9
$UCSORTHOREF
  2

  9
$UCSORTHOVIEW
 70
     0
  9
$UCSORGTOP
 10
0.0
 20
0.0
 30
0.0
  9
$UCSORGBOTTOM
 10
0.0
 20
0.0
 30
0.0
  9
$UCSORGLEFT
 10
0.0
 20
0.0
 30
0.0
  9
$UCSORGRIGHT
 10
0.0
 20
0.0
 30
0.0
  9
$UCSORGFRONT
 10
0.0
 20
0.0
 30
0.0
  9
$UCSORGBACK
 10
0.0
 20
0.0
 30
0.0
  9
$PUCSBASE
  2

  9
$PUCSNAME
  2

  9
$PUCSORG
 10
0.0
 20
0.0
 30
0.0
  9
$PUCSXDIR
 10
1.0
 20
0.0
 30
0.0
  9
$PUCSYDIR
 10
0.0
 20
1.0
 30
0.0
  9
$PUCSORTHOREF
  2

  9
$PUCSORTHOVIEW
 70
     0
  9
$PUCSORGTOP
 10
0.0
 20
0.0
 30
0.0
  9
$PUCSORGBOTTOM
 10
0.0
 20
0.0
 30
0.0
  9
$PUCSORGLEFT
 10
0.0
 20
0.0
 30
0.0
  9
$PUCSORGRIGHT
 10
0.0
 20
0.0
 30
0.0
  9
$PUCSORGFRONT
 10
0.0
 20
0.0
 30
0.0
  9
$PUCSORGBACK
 10
0.0
 20
0.0
 30
0.0
  9
$USERI1
 70
     0
  9
$USERI2
 70
     0
  9
$USERI3
 70
     0
  9
$USERI4
 70
     0
  9
$USERI5
 70
     0
  9
$USERR1
 40
0.0
  9
$USERR2
 40
0.0
  9
$USERR3
 40
0.0
  9
$USERR4
 40
0.0
  9
$USERR5
 40
0.0
  9
$WORLDVIEW
 70
     1
  9
$SHADEDGE
 70
     3
  9
$SHADEDIF
 70
    70
  9
$TILEMODE
 70
     1
  9
$MAXACTVP
 70
    64
  9
$PINSBASE
 10
0.0
 20
0.0
 30
0.0
  9
$PLIMCHECK
 70
     0
  9
$PEXTMIN
 10
1.000000000000000E+20
 20
1.000000000000000E+20
 30
1.000000000000000E+20
  9
$PEXTMAX
 10
-1.000000000000000E+20
 20
-1.000000000000000E+20
 30
-1.000000000000000E+20
  9
$PLIMMIN
 10
0.0
 20
0.0
  9
$PLIMMAX
 10
12.0
 20
9.0
  9
$UNITMODE
 70
     0
  9
$VISRETAIN
 70
     1
  9
$PLINEGEN
 70
     0
  9
$PSLTSCALE
 70
     1
  9
$TREEDEPTH
 70
  3020
  9
$CMLSTYLE
  2
Standard
  9
$CMLJUST
 70
     0
  9
$CMLSCALE
 40
1.0
  9
$PROXYGRAPHICS
 70
     1
  9
$MEASUREMENT
 70
     0
  9
$CELWEIGHT
370
    -1
  9
$ENDCAPS
280
     0
  9
$JOINSTYLE
280
     0
  9
$LWDISPLAY
290
     1
  9
$INSUNITS
 70
     1
  9
$HYPERLINKBASE
  1

  9
$STYLESHEET
  1

  9
$XEDIT
290
     1
  9
$CEPSNTYPE
380
     0
  9
$PSTYLEMODE
290
     1
  9
$FINGERPRINTGUID
  2
{3156655E-A472-A346-FF36-1AC30730561A}
  9
$VERSIONGUID
  2
{FAEB1C32-E019-11D5-929B-00C0DF256EC4}
  9
$EXTNAMES
290
     1
  9
$PSVPSCALE
 40
0.0
  9
$OLESTARTUP
290
     0
  9
$SORTENTS
280
   127
  9
$INDEXCTL
280
     0
  9
$HIDETEXT
280
     1
  9
$XCLIPFRAME
280
     2
  9
$HALOGAP
280
     0
  9
$OBSCOLOR
 70
   257
  9
$OBSLTYPE
280
     0
  9
$INTERSECTIONDISPLAY
280
     0
  9
$INTERSECTIONCOLOR
 70
   257
  9
$DIMASSOC
280
     2
  9
$PROJECTNAME
  1

  9
$CAMERADISPLAY
290
     0
  9
$LENSLENGTH
 40
50.0
  9
$CAMERAHEIGHT
 40
0.0
  9
$STEPSPERSEC
 40
2.0
  9
$STEPSIZE
 40
6.0
  9
$3DDWFPREC
 40
2.0
  9
$PSOLWIDTH
 40
0.25
  9
$PSOLHEIGHT
 40
4.0
  9
$LOFTANG1
 40
1.570796326794897
  9
$LOFTANG2
 40
1.570796326794897
  9
$LOFTMAG1
 40
0.0
  9
$LOFTMAG2
 40
0.0
  9
$LOFTPARAM
 70
     7
  9
$LOFTNORMALS
280
     1
  9
$LATITUDE
 40
37.795
  9
$LONGITUDE
 40
-122.394
  9
$NORTHDIRECTION
 40
0.0
  9
$TIMEZONE
 70
 -8000
  9
$LIGHTGLYPHDISPLAY
280
     1
  9
$TILEMODELIGHTSYNCH
280
     1
  9
$CMATERIAL
347
3C
  9
$SOLIDHIST
280
     1
  9
$SHOWHIST
280
     1
  9
$DWFFRAME
280
     2
  9
$DGNFRAME
280
     2
  9
$REALWORLDSCALE
290
     1
  9
$INTERFERECOLOR
 62
   256
  9
$CSHADOW
280
     0
  9
$SHADOWPLANELOCATION
 40
0.0
  0
ENDSEC
  0
SECTION
  2
CLASSES
  0
CLASS
  1
ACDBDICTIONARYWDFLT
  2
AcDbDictionaryWithDefault
  3
ObjectDBX Classes
 90
        0
 91
        4
280
     0
281
     0
  0
CLASS
  1
VISUALSTYLE
  2
AcDbVisualStyle
  3
ObjectDBX Classes
 90
     4095
 91
        4
280
     0
281
     0
  0
CLASS
  1
MATERIAL
  2
AcDbMaterial
  3
ObjectDBX Classes
 90
     1153
 91
        4
280
     0
281
     0
  0
CLASS
  1
SUN
  2
AcDbSun
  3
SCENEOE
 90
     1024
 91
        4
280
     0
281
     0
  0
ENDSEC
  0
SECTION
  2
TABLES
  0
TABLE
  2
VPORT
  5
8
330
0
100
AcDbSymbolTable
 70
     1
  0
VPORT
  5
29
330
8
100
AcDbSymbolTableRecord
100
AcDbViewportTableRecord
  2
*Active
 70
     0
 10
0.0
 20
0.0
 11
1.0
 21
1.0
 12
0.0
 22
0.0
 13
0.0
 23
0.0
 14
0.5
 24
0.5
 15
0.5
 25
0.5
 16
0.0
 26
0.0
 36
1.0
 17
63.499999984125
 27
-89.00059456108309
 37
0.0
 40
178.0011891221662
 41
0.7134783795241226
 42
50.0
 43
0.0
 44
0.0
 50
0.0
 51
0.0
 71
     0
 72
   100
 73
     1
 74
     3
 75
     0
 76
     0
 77
     0
 78
     0
281
     0
 65
     1
110
0.0
120
0.0
130
0.0
111
1.0
121
0.0
131
0.0
112
0.0
122
1.0
132
0.0
 79
     0
146
0.0
 60
     3
 61
     5
292
     1
282
     1
141
0.0
142
0.0
 63
   250
361
3F
  0
ENDTAB
  0
TABLE
  2
LTYPE
  5
5
330
0
100
AcDbSymbolTable
 70
     1
  0
LTYPE
  5
14
330
5
100
AcDbSymbolTableRecord
100
AcDbLinetypeTableRecord
  2
ByBlock
 70
     0
  3

 72
    65
 73
     0
 40
0.0
  0
LTYPE
  5
15
330
5
100
AcDbSymbolTableRecord
100
AcDbLinetypeTableRecord
  2
ByLayer
 70
     0
  3

 72
    65
 73
     0
 40
0.0
  0
LTYPE
  5
16
330
5
100
AcDbSymbolTableRecord
100
AcDbLinetypeTableRecord
  2
Continuous
 70
     0
  3
Solid line
 72
    65
 73
     0
 40
0.0
  0
ENDTAB
  0
TABLE
  2
LAYER
  5
2
330
0
100
AcDbSymbolTable
 70
     2
  0
LAYER
  5
10
330
2
100
AcDbSymbolTableRecord
100
AcDbLayerTableRecord
  2
0
 70
     0
 62
     7
  6
Continuous
370
    -3
390
F
347
3E
  0
LAYER
  5
40
330
2
100
AcDbSymbolTableRecord
100
AcDbLayerTableRecord
  2
_U+30EC_U+30A4_U+30E4_U+30FC 1
 70
     0
 62
     7
  6
Continuous
370
    -3
390
F
347
3E
  0
ENDTAB
  0
TABLE
  2
STYLE
  5
3
330
0
100
AcDbSymbolTable
 70
     1
  0
STYLE
  5
11
330
3
100
AcDbSymbolTableRecord
100
AcDbTextStyleTableRecord
  2
Standard
 70
     0
 40
0.0
 41
1.0
 50
0.0
 71
     0
 42
0.2
  3
txt
  4

  0
ENDTAB
  0
TABLE
  2
VIEW
  5
6
330
0
100
AcDbSymbolTable
 70
     0
  0
ENDTAB
  0
TABLE
  2
UCS
  5
7
330
0
100
AcDbSymbolTable
 70
     0
  0
ENDTAB
  0
TABLE
  2
APPID
  5
9
330
0
100
AcDbSymbolTable
 70
     1
  0
APPID
  5
12
330
9
100
AcDbSymbolTableRecord
100
AcDbRegAppTableRecord
  2
ACAD
 70
     0
  0
ENDTAB
  0
TABLE
  2
DIMSTYLE
  5
A
330
0
100
AcDbSymbolTable
 70
     1
100
AcDbDimStyleTable
  0
DIMSTYLE
105
27
330
A
100
AcDbSymbolTableRecord
100
AcDbDimStyleTableRecord
  2
Standard
 70
     0
178
     0
340
11
  0
ENDTAB
  0
TABLE
  2
BLOCK_RECORD
  5
1
330
0
100
AcDbSymbolTable
 70
     6
  0
BLOCK_RECORD
  5
1F
330
1
100
AcDbSymbolTableRecord
100
AcDbBlockTableRecord
  2
*Model_Space
340
22
 70
     0
280
     1
281
     0
  0
BLOCK_RECORD
  5
1B
330
1
100
AcDbSymbolTableRecord
100
AcDbBlockTableRecord
  2
*Paper_Space
340
1E
 70
     0
280
     1
281
     0
  0
BLOCK_RECORD
  5
23
330
1
100
AcDbSymbolTableRecord
100
AcDbBlockTableRecord
  2
*Paper_Space0
340
26
 70
     0
280
     1
281
     0
  0
BLOCK_RECORD
  5
4F
330
1
100
AcDbSymbolTableRecord
100
AcDbBlockTableRecord
  2
block 2
340
0
102
{BLKREFS
331
50
102
}
 70
     0
280
     1
281
     0
  0
BLOCK_RECORD
  5
57
330
1
100
AcDbSymbolTableRecord
100
AcDbBlockTableRecord
  2
block 3
340
0
102
{BLKREFS
331
58
102
}
 70
     0
280
     1
281
     0
  0
BLOCK_RECORD
  5
86
330
1
100
AcDbSymbolTableRecord
100
AcDbBlockTableRecord
  2
block 4
340
0
102
{BLKREFS
331
87
102
}
 70
     0
280
     1
281
     0
  0
BLOCK_RECORD
  5
98
330
1
100
AcDbSymbolTableRecord
100
AcDbBlockTableRecord
  2
block 5
340
0
102
{BLKREFS
331
99
102
}
 70
     0
280
     1
281
     0
  0
BLOCK_RECORD
  5
AB
330
1
100
AcDbSymbolTableRecord
100
AcDbBlockTableRecord
  2
block 6
340
0
102
{BLKREFS
331
AC
102
}
 70
     0
280
     1
281
     0
  0
ENDTAB
  0
ENDSEC
  0
SECTION
  2
BLOCKS
  0
BLOCK
  5
20
330
1F
100
AcDbEntity
  8
0
100
AcDbBlockBegin
  2
*Model_Space
 70
     0
 10
0.0
 20
0.0
 30
0.0
  3
*Model_Space
  1

  0
ENDBLK
  5
21
330
1F
100
AcDbEntity
  8
0
100
AcDbBlockEnd
  0
BLOCK
  5
1C
330
1B
100
AcDbEntity
 67
     1
  8
0
100
AcDbBlockBegin
  2
*Paper_Space
 70
     0
 10
0.0
 20
0.0
 30
0.0
  3
*Paper_Space
  1

  0
ENDBLK
  5
1D
330
1B
100
AcDbEntity
 67
     1
  8
0
100
AcDbBlockEnd
  0
BLOCK
  5
24
330
23
100
AcDbEntity
  8
0
100
AcDbBlockBegin
  2
*Paper_Space0
 70
     0
 10
0.0
 20
0.0
 30
0.0
  3
*Paper_Space0
  1

  0
ENDBLK
  5
25
330
23
100
AcDbEntity
  8
0
100
AcDbBlockEnd
  0
BLOCK
  5
51
330
4F
100
AcDbEntity
  8
0
100
AcDbBlockBegin
  2
block 2
 70
     0
 10
0.0
 20
0.0
 30
0.0
  3
block 2
  1

  0
SPLINE
  5
53
330
4F
100
AcDbEntity
  8
_U+30EC_U+30A4_U+30E4_U+30FC 1
370
     0
100
AcDbSpline
210
0.0
220
0.0
230
1.0
 70
    11
 71
     3
 72
    44
 73
    40
 74
     0
 42
0.0000000001
 43
0.0000000001
 12
1.0
 22
0.0
 32
0.0
 13
1.0
 23
0.0
 33
0.0
 40
0.0
 40
0.0
 40
0.0
 40
0.0
 40
1.0
 40
1.0
 40
1.0
 40
2.0
 40
2.0
 40
2.0
 40
3.0
 40
3.0
 40
3.0
 40
4.0
 40
4.0
 40
4.0
 40
5.0
 40
5.0
 40
5.0
 40
6.0
 40
6.0
 40
6.0
 40
7.0
 40
7.0
 40
7.0
 40
8.0
 40
8.0
 40
8.0
 40
9.0
 40
9.0
 40
9.0
 40
10.0
 40
10.0
 40
10.0
 40
11.0
 40
11.0
 40
11.0
 40
12.0
 40
12.0
 40
12.0
 40
13.0
 40
13.0
 40
13.0
 40
13.0
 10
60.4083712956618
 20
-78.74161917519307
 30
0.0
 10
60.19064126099401
 20
-78.90026582228883
 30
0.0
 10
60.09762368289226
 20
-78.9743353752217
 30
0.0
 10
60.04870332700172
 20
-79.11816811173088
 30
0.0
 10
60.04870332700172
 20
-79.11816811173088
 30
0.0
 10
60.82729490666818
 20
-79.11816811173088
 30
0.0
 10
60.82729490666818
 20
-79.11816811173088
 30
0.0
 10
60.82729490666818
 20
-79.11816811173088
 30
0.0
 10
60.82729490666818
 20
-79.32332354787751
 30
0.0
 10
60.82729490666818
 20
-79.32332354787751
 30
0.0
 10
60.82729490666818
 20
-79.32332354787751
 30
0.0
 10
59.79927841386963
 20
-79.32332354787751
 30
0.0
 10
59.79927841386963
 20
-79.32332354787751
 30
0.0
 10
59.83097329233392
 20
-78.96572263650857
 30
0.0
 10
59.89643010655367
 20
-78.8875189689934
 30
0.0
 10
60.28159178180461
 20
-78.58917369997077
 30
0.0
 10
60.53756237635866
 20
-78.39039169047184
 30
0.0
 10
60.60301919057842
 20
-78.32269556418669
 30
0.0
 10
60.60301919057842
 20
-78.18523625432522
 30
0.0
 10
60.60301919057842
 20
-78.06672496963263
 30
0.0
 10
60.5310166949367
 20
-77.93563908641887
 30
0.0
 10
60.33430174272893
 20
-77.93563908641887
 30
0.0
 10
60.07419703359256
 20
-77.93563908641887
 30
0.0
 10
60.06558429487944
 20
-78.16611597438208
 30
0.0
 10
60.06145018029714
 20
-78.28256020178353
 30
0.0
 10
60.06145018029714
 20
-78.28256020178353
 30
0.0
 10
59.83717446420738
 20
-78.28256020178353
 30
0.0
 10
59.83717446420738
 20
-78.28256020178353
 30
0.0
 10
59.8457872029205
 20
-78.15560843315207
 30
0.0
 10
59.85646699892477
 20
-78.0434705751072
 30
0.0
 10
59.9367377237311
 20
-77.92495929041459
 30
0.0
 10
60.04663626971057
 20
-77.7642455860277
 30
0.0
 10
60.23301593546258
 20
-77.73031139549798
 30
0.0
 10
60.3491156533155
 20
-77.73031139549798
 30
0.0
 10
60.62644583987812
 20
-77.73031139549798
 30
0.0
 10
60.83384058809015
 20
-77.91445174918458
 30
0.0
 10
60.83384058809015
 20
-78.18730331161638
 30
0.0
 10
60.83384058809015
 20
-78.41571314228844
 30
0.0
 10
60.71739636068871
 20
-78.51527640181216
 30
0.0
 10
60.4083712956618
 20
-78.74161917519307
 30
0.0
  0
HATCH
  5
54
330
4F
100
AcDbEntity
  8
_U+30EC_U+30A4_U+30E4_U+30FC 1
 62
   179
420
  2234388
100
AcDbHatch
 10
0.0
 20
0.0
 30
0.0
210
0.0
220
0.0
230
1.0
  2
SOLID
 70
     1
 71
     0
 91
        1
 92
        1
 93
        1
 72
     4
 94
        3
 73
     0
 74
     1
 95
       44
 96
       40
 40
0.0
 40
0.0
 40
0.0
 40
0.0
 40
1.0
 40
1.0
 40
1.0
 40
2.0
 40
2.0
 40
2.0
 40
3.0
 40
3.0
 40
3.0
 40
4.0
 40
4.0
 40
4.0
 40
5.0
 40
5.0
 40
5.0
 40
6.0
 40
6.0
 40
6.0
 40
7.0
 40
7.0
 40
7.0
 40
8.0
 40
8.0
 40
8.0
 40
9.0
 40
9.0
 40
9.0
 40
10.0
 40
10.0
 40
10.0
 40
11.0
 40
11.0
 40
11.0
 40
12.0
 40
12.0
 40
12.0
 40
13.0
 40
13.0
 40
13.0
 40
13.0
 10
60.4083712956618
 20
-78.74161917519307
 10
60.19064126099401
 20
-78.90026582228883
 10
60.09762368289226
 20
-78.9743353752217
 10
60.04870332700172
 20
-79.11816811173088
 10
60.04870332700172
 20
-79.11816811173088
 10
60.82729490666818
 20
-79.11816811173088
 10
60.82729490666818
 20
-79.11816811173088
 10
60.82729490666818
 20
-79.11816811173088
 10
60.82729490666818
 20
-79.32332354787751
 10
60.82729490666818
 20
-79.32332354787751
 10
60.82729490666818
 20
-79.32332354787751
 10
59.79927841386963
 20
-79.32332354787751
 10
59.79927841386963
 20
-79.32332354787751
 10
59.83097329233392
 20
-78.96572263650857
 10
59.89643010655367
 20
-78.8875189689934
 10
60.28159178180461
 20
-78.58917369997077
 10
60.53756237635866
 20
-78.39039169047184
 10
60.60301919057842
 20
-78.32269556418669
 10
60.60301919057842
 20
-78.18523625432522
 10
60.60301919057842
 20
-78.06672496963263
 10
60.5310166949367
 20
-77.93563908641887
 10
60.33430174272893
 20
-77.93563908641887
 10
60.07419703359256
 20
-77.93563908641887
 10
60.06558429487944
 20
-78.16611597438208
 10
60.06145018029714
 20
-78.28256020178353
 10
60.06145018029714
 20
-78.28256020178353
 10
59.83717446420738
 20
-78.28256020178353
 10
59.83717446420738
 20
-78.28256020178353
 10
59.8457872029205
 20
-78.15560843315207
 10
59.85646699892477
 20
-78.0434705751072
 10
59.9367377237311
 20
-77.92495929041459
 10
60.04663626971057
 20
-77.7642455860277
 10
60.23301593546258
 20
-77.73031139549798
 10
60.3491156533155
 20
-77.73031139549798
 10
60.62644583987812
 20
-77.73031139549798
 10
60.83384058809015
 20
-77.91445174918458
 10
60.83384058809015
 20
-78.18730331161638
 10
60.83384058809015
 20
-78.41571314228844
 10
60.71739636068871
 20
-78.51527640181216
 10
60.4083712956618
 20
-78.74161917519307
 97
        0
 97
        0
 75
     2
 76
     1
 98
        0
  0
SPLINE
  5
55
330
4F
100
AcDbEntity
  8
_U+30EC_U+30A4_U+30E4_U+30FC 1
370
     0
100
AcDbSpline
210
0.0
220
0.0
230
1.0
 70
    11
 71
     3
 72
    62
 73
    58
 74
     0
 42
0.0000000001
 43
0.0000000001
 12
1.0
 22
0.0
 32
0.0
 13
1.0
 23
0.0
 33
0.0
 40
0.0
 40
0.0
 40
0.0
 40
0.0
 40
1.0
 40
1.0
 40
1.0
 40
2.0
 40
2.0
 40
2.0
 40
3.0
 40
3.0
 40
3.0
 40
4.0
 40
4.0
 40
4.0
 40
5.0
 40
5.0
 40
5.0
 40
6.0
 40
6.0
 40
6.0
 40
7.0
 40
7.0
 40
7.0
 40
8.0
 40
8.0
 40
8.0
 40
9.0
 40
9.0
 40
9.0
 40
10.0
 40
10.0
 40
10.0
 40
11.0
 40
11.0
 40
11.0
 40
12.0
 40
12.0
 40
12.0
 40
13.0
 40
13.0
 40
13.0
 40
14.0
 40
14.0
 40
14.0
 40
15.0
 40
15.0
 40
15.0
 40
16.0
 40
16.0
 40
16.0
 40
17.0
 40
17.0
 40
17.0
 40
18.0
 40
18.0
 40
18.0
 40
19.0
 40
19.0
 40
19.0
 40
19.0
 10
61.4839301061568
 20
-79.37413870628494
 30
0.0
 10
61.38850096121538
 20
-79.37413870628494
 30
0.0
 10
61.17077092654759
 20
-79.35295136905066
 30
0.0
 10
61.04571396043302
 20
-79.1667439580729
 30
0.0
 10
60.97164440750015
 20
-79.05460610002802
 30
0.0
 10
60.96751029291785
 20
-78.95521509527856
 30
0.0
 10
60.96337617833555
 20
-78.87063800111568
 30
0.0
 10
60.96337617833555
 20
-78.87063800111568
 30
0.0
 10
61.18351777984302
 20
-78.87063800111568
 30
0.0
 10
61.18351777984302
 20
-78.87063800111568
 30
0.0
 10
61.18558483713417
 20
-78.94470755404855
 30
0.0
 10
61.19592012358991
 20
-79.17949081136832
 30
0.0
 10
61.47945148202597
 20
-79.17949081136832
 30
0.0
 10
61.61691079188744
 20
-79.17949081136832
 30
0.0
 10
61.76952852188401
 20
-79.10972762779201
 30
0.0
 10
61.76952852188401
 20
-78.88114554234569
 30
0.0
 10
61.76952852188401
 20
-78.7648735697185
 30
0.0
 10
61.73128796199774
 20
-78.71612546860223
 30
0.0
 10
61.69959308353344
 20
-78.68443059013792
 30
0.0
 10
61.62552353060057
 20
-78.61036103720505
 30
0.0
 10
61.50907930319912
 20
-78.5977864386839
 30
0.0
 10
61.45430228498365
 20
-78.5977864386839
 30
0.0
 10
61.43500975026625
 20
-78.5977864386839
 30
0.0
 10
61.39918075721965
 20
-78.59985349597504
 30
0.0
 10
61.37161999333765
 20
-78.60398761055734
 30
0.0
 10
61.37161999333765
 20
-78.60398761055734
 30
0.0
 10
61.37161999333765
 20
-78.40933971564073
 30
0.0
 10
61.37161999333765
 20
-78.40933971564073
 30
0.0
 10
61.40986055322393
 20
-78.41571314228844
 30
0.0
 10
61.45189071814397
 20
-78.41795245435385
 30
0.0
 10
61.45843639956595
 20
-78.41795245435385
 30
0.0
 10
61.5238932137857
 20
-78.41795245435385
 30
0.0
 10
61.72267522328461
 20
-78.39676511711956
 30
0.0
 10
61.72267522328461
 20
-78.15974254773437
 30
0.0
 10
61.72267522328461
 20
-77.98214787546975
 30
0.0
 10
61.59176159484512
 20
-77.92702634770575
 30
0.0
 10
61.48151853931712
 20
-77.92702634770575
 30
0.0
 10
61.21727971559846
 20
-77.92702634770575
 30
0.0
 10
61.20866697688533
 20
-78.15974254773437
 30
0.0
 10
61.20453286230303
 20
-78.2317450433761
 30
0.0
 10
61.20453286230303
 20
-78.2317450433761
 30
0.0
 10
61.00127222867329
 20
-78.2317450433761
 30
0.0
 10
61.00127222867329
 20
-78.2317450433761
 30
0.0
 10
61.00988496738642
 20
-78.1068603320358
 30
0.0
 10
61.03744573126842
 20
-77.73031139549798
 30
0.0
 10
61.49426539261255
 20
-77.73031139549798
 30
0.0
 10
61.71854110870231
 20
-77.73031139549798
 30
0.0
 10
61.9596977926698
 20
-77.85726316412944
 30
0.0
 10
61.9596977926698
 20
-78.15336912108666
 30
0.0
 10
61.9596977926698
 20
-78.33957653206441
 30
0.0
 10
61.86461315727691
 20
-78.42208656893615
 30
0.0
 10
61.76504989775319
 20
-78.4834092685736
 30
0.0
 10
61.82637259739063
 20
-78.51097003245559
 30
0.0
 10
62.00827363901183
 20
-78.59141301203618
 30
0.0
 10
62.00827363901183
 20
-78.86857094382452
 30
0.0
 10
62.00827363901183
 20
-79.20705157525032
 30
0.0
 10
61.76091578317089
 20
-79.37413870628494
 30
0.0
 10
61.4839301061568
 20
-79.37413870628494
 30
0.0
  0
HATCH
  5
56
330
4F
100
AcDbEntity
  8
_U+30EC_U+30A4_U+30E4_U+30FC 1
 62
   179
420
  2234388
100
AcDbHatch
 10
0.0
 20
0.0
 30
0.0
210
0.0
220
0.0
230
1.0
  2
SOLID
 70
     1
 71
     0
 91
        1
 92
        1
 93
        1
 72
     4
 94
        3
 73
     0
 74
     1
 95
       62
 96
       58
 40
0.0
 40
0.0
 40
0.0
 40
0.0
 40
1.0
 40
1.0
 40
1.0
 40
2.0
 40
2.0
 40
2.0
 40
3.0
 40
3.0
 40
3.0
 40
4.0
 40
4.0
 40
4.0
 40
5.0
 40
5.0
 40
5.0
 40
6.0
 40
6.0
 40
6.0
 40
7.0
 40
7.0
 40
7.0
 40
8.0
 40
8.0
 40
8.0
 40
9.0
 40
9.0
 40
9.0
 40
10.0
 40
10.0
 40
10.0
 40
11.0
 40
11.0
 40
11.0
 40
12.0
 40
12.0
 40
12.0
 40
13.0
 40
13.0
 40
13.0
 40
14.0
 40
14.0
 40
14.0
 40
15.0
 40
15.0
 40
15.0
 40
16.0
 40
16.0
 40
16.0
 40
17.0
 40
17.0
 40
17.0
 40
18.0
 40
18.0
 40
18.0
 40
19.0
 40
19.0
 40
19.0
 40
19.0
 10
61.4839301061568
 20
-79.37413870628494
 10
61.38850096121538
 20
-79.37413870628494
 10
61.17077092654759
 20
-79.35295136905066
 10
61.04571396043302
 20
-79.1667439580729
 10
60.97164440750015
 20
-79.05460610002802
 10
60.96751029291785
 20
-78.95521509527856
 10
60.96337617833555
 20
-78.87063800111568
 10
60.96337617833555
 20
-78.87063800111568
 10
61.18351777984302
 20
-78.87063800111568
 10
61.18351777984302
 20
-78.87063800111568
 10
61.18558483713417
 20
-78.94470755404855
 10
61.19592012358991
 20
-79.17949081136832
 10
61.47945148202597
 20
-79.17949081136832
 10
61.61691079188744
 20
-79.17949081136832
 10
61.76952852188401
 20
-79.10972762779201
 10
61.76952852188401
 20
-78.88114554234569
 10
61.76952852188401
 20
-78.7648735697185
 10
61.73128796199774
 20
-78.71612546860223
 10
61.69959308353344
 20
-78.68443059013792
 10
61.62552353060057
 20
-78.61036103720505
 10
61.50907930319912
 20
-78.5977864386839
 10
61.45430228498365
 20
-78.5977864386839
 10
61.43500975026625
 20
-78.5977864386839
 10
61.39918075721965
 20
-78.59985349597504
 10
61.37161999333765
 20
-78.60398761055734
 10
61.37161999333765
 20
-78.60398761055734
 10
61.37161999333765
 20
-78.40933971564073
 10
61.37161999333765
 20
-78.40933971564073
 10
61.40986055322393
 20
-78.41571314228844
 10
61.45189071814397
 20
-78.41795245435385
 10
61.45843639956595
 20
-78.41795245435385
 10
61.5238932137857
 20
-78.41795245435385
 10
61.72267522328461
 20
-78.39676511711956
 10
61.72267522328461
 20
-78.15974254773437
 10
61.72267522328461
 20
-77.98214787546975
 10
61.59176159484512
 20
-77.92702634770575
 10
61.48151853931712
 20
-77.92702634770575
 10
61.21727971559846
 20
-77.92702634770575
 10
61.20866697688533
 20
-78.15974254773437
 10
61.20453286230303
 20
-78.2317450433761
 10
61.20453286230303
 20
-78.2317450433761
 10
61.00127222867329
 20
-78.2317450433761
 10
61.00127222867329
 20
-78.2317450433761
 10
61.00988496738642
 20
-78.1068603320358
 10
61.03744573126842
 20
-77.73031139549798
 10
61.49426539261255
 20
-77.73031139549798
 10
61.71854110870231
 20
-77.73031139549798
 10
61.9596977926698
 20
-77.85726316412944
 10
61.9596977926698
 20
-78.15336912108666
 10
61.9596977926698
 20
-78.33957653206441
 10
61.86461315727691
 20
-78.42208656893615
 10
61.76504989775319
 20
-78.4834092685736
 10
61.82637259739063
 20
-78.51097003245559
 10
62.00827363901183
 20
-78.59141301203618
 10
62.00827363901183
 20
-78.86857094382452
 10
62.00827363901183
 20
-79.20705157525032
 10
61.76091578317089
 20
-79.37413870628494
 10
61.4839301061568
 20
-79.37413870628494
 97
        0
 97
        0
 75
     2
 76
     1
 98
        0
  0
ENDBLK
  5
52
330
4F
100
AcDbEntity
  8
0
100
AcDbBlockEnd
  0
BLOCK
  5
59
330
57
100
AcDbEntity
  8
0
100
AcDbBlockBegin
  2
block 3
 70
     0
 10
0.0
 20
0.0
 30
0.0
  3
block 3
  1

  0
SPLINE
  5
5B
330
57
100
AcDbEntity
  8
_U+30EC_U+30A4_U+30E4_U+30FC 1
370
     0
100
AcDbSpline
210
0.0
220
0.0
230
1.0
 70
    11
 71
     3
 72
    26
 73
    22
 74
     0
 42
0.0000000001
 43
0.0000000001
 12
1.0
 22
0.0
 32
0.0
 13
1.0
 23
0.0
 33
0.0
 40
0.0
 40
0.0
 40
0.0
 40
0.0
 40
1.0
 40
1.0
 40
1.0
 40
2.0
 40
2.0
 40
2.0
 40
3.0
 40
3.0
 40
3.0
 40
4.0
 40
4.0
 40
4.0
 40
5.0
 40
5.0
 40
5.0
 40
6.0
 40
6.0
 40
6.0
 40
7.0
 40
7.0
 40
7.0
 40
7.0
 10
53.84598116058365
 20
-99.6238932042607
 30
0.0
 10
53.84598116058365
 20
-99.6238932042607
 30
0.0
 10
53.84598116058365
 20
-98.51974010123813
 30
0.0
 10
53.84598116058365
 20
-98.51974010123813
 30
0.0
 10
53.84598116058365
 20
-98.51974010123813
 30
0.0
 10
53.51594101309671
 20
-98.51974010123813
 30
0.0
 10
53.51594101309671
 20
-98.51974010123813
 30
0.0
 10
53.51594101309671
 20
-98.51974010123813
 30
0.0
 10
53.51594101309671
 20
-98.37160099537238
 30
0.0
 10
53.51594101309671
 20
-98.37160099537238
 30
0.0
 10
53.8480482178748
 20
-98.35678708478581
 30
0.0
 10
53.89455700692567
 20
-98.19383406833349
 30
0.0
 10
53.92418482809882
 20
-98.0794568982232
 30
0.0
 10
53.92418482809882
 20
-98.0794568982232
 30
0.0
 10
54.07025687667341
 20
-98.0794568982232
 30
0.0
 10
54.07025687667341
 20
-98.0794568982232
 30
0.0
 10
54.07025687667341
 20
-98.0794568982232
 30
0.0
 10
54.07025687667341
 20
-99.6238932042607
 30
0.0
 10
54.07025687667341
 20
-99.6238932042607
 30
0.0
 10
54.07025687667341
 20
-99.6238932042607
 30
0.0
 10
53.84598116058365
 20
-99.6238932042607
 30
0.0
 10
53.84598116058365
 20
-99.6238932042607
 30
0.0
  0
HATCH
  5
5C
330
57
100
AcDbEntity
  8
_U+30EC_U+30A4_U+30E4_U+30FC 1
 62
   179
420
  2234388
100
AcDbHatch
 10
0.0
 20
0.0
 30
0.0
210
0.0
220
0.0
230
1.0
  2
SOLID
 70
     1
 71
     0
 91
        1
 92
        1
 93
        1
 72
     4
 94
        3
 73
     0
 74
     1
 95
       26
 96
       22
 40
0.0
 40
0.0
 40
0.0
 40
0.0
 40
1.0
 40
1.0
 40
1.0
 40
2.0
 40
2.0
 40
2.0
 40
3.0
 40
3.0
 40
3.0
 40
4.0
 40
4.0
 40
4.0
 40
5.0
 40
5.0
 40
5.0
 40
6.0
 40
6.0
 40
6.0
 40
7.0
 40
7.0
 40
7.0
 40
7.0
 10
53.84598116058365
 20
-99.6238932042607
 10
53.84598116058365
 20
-99.6238932042607
 10
53.84598116058365
 20
-98.51974010123813
 10
53.84598116058365
 20
-98.51974010123813
 10
53.84598116058365
 20
-98.51974010123813
 10
53.51594101309671
 20
-98.51974010123813
 10
53.51594101309671
 20
-98.51974010123813
 10
53.51594101309671
 20
-98.51974010123813
 10
53.51594101309671
 20
-98.37160099537238
 10
53.51594101309671
 20
-98.37160099537238
 10
53.8480482178748
 20
-98.35678708478581
 10
53.89455700692567
 20
-98.19383406833349
 10
53.92418482809882
 20
-98.0794568982232
 10
53.92418482809882
 20
-98.0794568982232
 10
54.07025687667341
 20
-98.0794568982232
 10
54.07025687667341
 20
-98.0794568982232
 10
54.07025687667341
 20
-98.0794568982232
 10
54.07025687667341
 20
-99.6238932042607
 10
54.07025687667341
 20
-99.6238932042607
 10
54.07025687667341
 20
-99.6238932042607
 10
53.84598116058365
 20
-99.6238932042607
 10
53.84598116058365
 20
-99.6238932042607
 97
        0
 97
        0
 75
     2
 76
     1
 98
        0
  0
SPLINE
  5
5D
330
57
100
AcDbEntity
  8
_U+30EC_U+30A4_U+30E4_U+30FC 1
370
     0
100
AcDbSpline
210
0.0
220
0.0
230
1.0
 70
    11
 71
     3
 72
    29
 73
    25
 74
     0
 42
0.0000000001
 43
0.0000000001
 12
1.0
 22
0.0
 32
0.0
 13
1.0
 23
0.0
 33
0.0
 40
0.0
 40
0.0
 40
0.0
 40
0.0
 40
1.0
 40
1.0
 40
1.0
 40
2.0
 40
2.0
 40
2.0
 40
3.0
 40
3.0
 40
3.0
 40
4.0
 40
4.0
 40
4.0
 40
5.0
 40
5.0
 40
5.0
 40
6.0
 40
6.0
 40
6.0
 40
7.0
 40
7.0
 40
7.0
 40
8.0
 40
8.0
 40
8.0
 40
8.0
 10
55.46913789845911
 20
-99.44612627722181
 30
0.0
 10
55.36130640977079
 20
-99.65558808272499
 30
0.0
 10
55.18784585208846
 20
-99.67453610789387
 30
0.0
 10
55.07140162468701
 20
-99.67453610789387
 30
0.0
 10
54.91068792030011
 20
-99.67453610789387
 30
0.0
 10
54.76892224108208
 20
-99.628027318843
 30
0.0
 10
54.67366535091492
 20
-99.44612627722181
 30
0.0
 10
54.57014023158316
 20
-99.2514783823052
 30
0.0
 10
54.55101995164002
 20
-99.01480032246853
 30
0.0
 10
54.55101995164002
 20
-98.85184730601621
 30
0.0
 10
54.55101995164002
 20
-98.70784231473277
 30
0.0
 10
54.56790091951775
 20
-98.456005834761
 30
0.0
 10
54.67366535091492
 20
-98.25722382526209
 30
0.0
 10
54.7816690943775
 20
-98.05430770118087
 30
0.0
 10
54.94238279876441
 20
-98.03088105188117
 30
0.0
 10
55.07140162468701
 20
-98.03088105188117
 30
0.0
 10
55.23004827178277
 20
-98.03088105188117
 30
0.0
 10
55.37388100829195
 20
-98.0753227836409
 30
0.0
 10
55.46913789845911
 20
-98.25722382526209
 30
0.0
 10
55.56852890320857
 20
-98.44980466288756
 30
0.0
 10
55.591783297734
 20
-98.67821449355962
 30
0.0
 10
55.591783297734
 20
-98.85184730601621
 30
0.0
 10
55.591783297734
 20
-99.02306855163313
 30
0.0
 10
55.57076821527398
 20
-99.25354543959634
 30
0.0
 10
55.46913789845911
 20
-99.44612627722181
 30
0.0
  0
SPLINE
  5
5E
330
57
100
AcDbEntity
  8
_U+30EC_U+30A4_U+30E4_U+30FC 1
370
     0
100
AcDbSpline
210
0.0
220
0.0
230
1.0
 70
    11
 71
     3
 72
    17
 73
    13
 74
     0
 42
0.0000000001
 43
0.0000000001
 12
1.0
 22
0.0
 32
0.0
 13
1.0
 23
0.0
 33
0.0
 40
0.0
 40
0.0
 40
0.0
 40
0.0
 40
1.0
 40
1.0
 40
1.0
 40
2.0
 40
2.0
 40
2.0
 40
3.0
 40
3.0
 40
3.0
 40
4.0
 40
4.0
 40
4.0
 40
4.0
 10
55.07140162468701
 20
-98.22346188950664
 30
0.0
 10
54.82180445678066
 20
-98.22346188950664
 30
0.0
 10
54.77529566772979
 20
-98.5069932479427
 30
0.0
 10
54.77529566772979
 20
-98.85184730601621
 30
0.0
 10
54.77529566772979
 20
-99.17120765749887
 30
0.0
 10
54.81129691555065
 20
-99.47988821297726
 30
0.0
 10
55.07140162468701
 20
-99.47988821297726
 30
0.0
 10
55.31893173530221
 20
-99.47988821297726
 30
0.0
 10
55.3676798364185
 20
-99.19876842138086
 30
0.0
 10
55.3676798364185
 20
-98.85184730601621
 30
0.0
 10
55.3676798364185
 20
-98.53214244498503
 30
0.0
 10
55.32943927653223
 20
-98.22346188950664
 30
0.0
 10
55.07140162468701
 20
-98.22346188950664
 30
0.0
  0
HATCH
  5
5F
330
57
100
AcDbEntity
  8
_U+30EC_U+30A4_U+30E4_U+30FC 1
 62
   179
420
  2234388
100
AcDbHatch
 10
0.0
 20
0.0
 30
0.0
210
0.0
220
0.0
230
1.0
  2
SOLID
 70
     1
 71
     0
 91
        2
 92
        1
 93
        1
 72
     4
 94
        3
 73
     0
 74
     1
 95
       29
 96
       25
 40
0.0
 40
0.0
 40
0.0
 40
0.0
 40
1.0
 40
1.0
 40
1.0
 40
2.0
 40
2.0
 40
2.0
 40
3.0
 40
3.0
 40
3.0
 40
4.0
 40
4.0
 40
4.0
 40
5.0
 40
5.0
 40
5.0
 40
6.0
 40
6.0
 40
6.0
 40
7.0
 40
7.0
 40
7.0
 40
8.0
 40
8.0
 40
8.0
 40
8.0
 10
55.46913789845911
 20
-99.44612627722181
 10
55.36130640977079
 20
-99.65558808272499
 10
55.18784585208846
 20
-99.67453610789387
 10
55.07140162468701
 20
-99.67453610789387
 10
54.91068792030011
 20
-99.67453610789387
 10
54.76892224108208
 20
-99.628027318843
 10
54.67366535091492
 20
-99.44612627722181
 10
54.57014023158316
 20
-99.2514783823052
 10
54.55101995164002
 20
-99.01480032246853
 10
54.55101995164002
 20
-98.85184730601621
 10
54.55101995164002
 20
-98.70784231473277
 10
54.56790091951775
 20
-98.456005834761
 10
54.67366535091492
 20
-98.25722382526209
 10
54.7816690943775
 20
-98.05430770118087
 10
54.94238279876441
 20
-98.03088105188117
 10
55.07140162468701
 20
-98.03088105188117
 10
55.23004827178277
 20
-98.03088105188117
 10
55.37388100829195
 20
-98.0753227836409
 10
55.46913789845911
 20
-98.25722382526209
 10
55.56852890320857
 20
-98.44980466288756
 10
55.591783297734
 20
-98.67821449355962
 10
55.591783297734
 20
-98.85184730601621
 10
55.591783297734
 20
-99.02306855163313
 10
55.57076821527398
 20
-99.25354543959634
 10
55.46913789845911
 20
-99.44612627722181
 97
        0
 97
        0
 92
        1
 93
        1
 72
     4
 94
        3
 73
     0
 74
     1
 95
       17
 96
       13
 40
0.0
 40
0.0
 40
0.0
 40
0.0
 40
1.0
 40
1.0
 40
1.0
 40
2.0
 40
2.0
 40
2.0
 40
3.0
 40
3.0
 40
3.0
 40
4.0
 40
4.0
 40
4.0
 40
4.0
 10
55.07140162468701
 20
-98.22346188950664
 10
54.82180445678066
 20
-98.22346188950664
 10
54.77529566772979
 20
-98.5069932479427
 10
54.77529566772979
 20
-98.85184730601621
 10
54.77529566772979
 20
-99.17120765749887
 10
54.81129691555065
 20
-99.47988821297726
 10
55.07140162468701
 20
-99.47988821297726
 10
55.31893173530221
 20
-99.47988821297726
 10
55.3676798364185
 20
-99.19876842138086
 10
55.3676798364185
 20
-98.85184730601621
 10
55.3676798364185
 20
-98.53214244498503
 10
55.32943927653223
 20
-98.22346188950664
 10
55.07140162468701
 20
-98.22346188950664
 97
        0
 97
        0
 75
     2
 76
     1
 98
        0
  0
ENDBLK
  5
5A
330
57
100
AcDbEntity
  8
0
100
AcDbBlockEnd
  0
BLOCK
  5
88
330
86
100
AcDbEntity
  8
0
100
AcDbBlockBegin
  2
block 4
 70
     0
 10
0.0
 20
0.0
 30
0.0
  3
block 4
  1

  0
SPLINE
  5
8A
330
86
100
AcDbEntity
  8
_U+30EC_U+30A4_U+30E4_U+30FC 1
370
     0
100
AcDbSpline
210
0.0
220
0.0
230
1.0
 70
    11
 71
     3
 72
    29
 73
    25
 74
     0
 42
0.0000000001
 43
0.0000000001
 12
1.0
 22
0.0
 32
0.0
 13
1.0
 23
0.0
 33
0.0
 40
0.0
 40
0.0
 40
0.0
 40
0.0
 40
1.0
 40
1.0
 40
1.0
 40
2.0
 40
2.0
 40
2.0
 40
3.0
 40
3.0
 40
3.0
 40
4.0
 40
4.0
 40
4.0
 40
5.0
 40
5.0
 40
5.0
 40
6.0
 40
6.0
 40
6.0
 40
7.0
 40
7.0
 40
7.0
 40
8.0
 40
8.0
 40
8.0
 40
8.0
 10
75.01385360537849
 20
-90.5932644087753
 30
0.0
 10
75.01385360537849
 20
-90.85991479933364
 30
0.0
 10
74.87639429551702
 20
-91.11381833659655
 30
0.0
 10
74.52740612286121
 20
-91.11381833659655
 30
0.0
 10
74.27143552830715
 20
-91.11381833659655
 30
0.0
 10
74.17635089291424
 20
-90.97188040260426
 30
0.0
 10
74.1150281932768
 20
-90.86611597120708
 30
0.0
 10
74.0557725509305
 20
-90.99082842777312
 30
0.0
 10
73.94139538082021
 20
-91.06696503799715
 30
0.0
 10
73.78050942165905
 20
-91.06696503799715
 30
0.0
 10
73.50559080193611
 20
-91.06696503799715
 30
0.0
 10
73.37019854936578
 20
-90.86818302849824
 30
0.0
 10
73.37019854936578
 20
-90.5932644087753
 30
0.0
 10
73.37019854936578
 20
-90.30973305033923
 30
0.0
 10
73.51420354064923
 20
-90.11921927000492
 30
0.0
 10
73.78050942165905
 20
-90.11921927000492
 30
0.0
 10
73.94139538082021
 20
-90.11921927000492
 30
0.0
 10
74.0557725509305
 20
-90.19776744706861
 30
0.0
 10
74.1150281932768
 20
-90.32247990363466
 30
0.0
 10
74.16567109690997
 20
-90.23359644011522
 30
0.0
 10
74.26075573230287
 20
-90.0747775382452
 30
0.0
 10
74.52327200827891
 20
-90.0747775382452
 30
0.0
 10
74.89775388752557
 20
-90.0747775382452
 30
0.0
 10
75.01385360537849
 20
-90.35417478209897
 30
0.0
 10
75.01385360537849
 20
-90.5932644087753
 30
0.0
  0
SPLINE
  5
8B
330
86
100
AcDbEntity
  8
_U+30EC_U+30A4_U+30E4_U+30FC 1
370
     0
100
AcDbSpline
210
0.0
220
0.0
230
1.0
 70
    11
 71
     3
 72
    17
 73
    13
 74
     0
 42
0.0000000001
 43
0.0000000001
 12
1.0
 22
0.0
 32
0.0
 13
1.0
 23
0.0
 33
0.0
 40
0.0
 40
0.0
 40
0.0
 40
0.0
 40
1.0
 40
1.0
 40
1.0
 40
2.0
 40
2.0
 40
2.0
 40
3.0
 40
3.0
 40
3.0
 40
4.0
 40
4.0
 40
4.0
 40
4.0
 10
73.56277938699125
 20
-90.5932644087753
 30
0.0
 10
73.56277938699125
 20
-90.75828448251876
 30
0.0
 10
73.65786402238415
 20
-90.84303383145591
 30
0.0
 10
73.79325627495447
 20
-90.84303383145591
 30
0.0
 10
73.91590167422936
 20
-90.84303383145591
 30
0.0
 10
74.03441295892196
 20
-90.77103133581419
 30
0.0
 10
74.03441295892196
 20
-90.5932644087753
 30
0.0
 10
74.03441295892196
 20
-90.41549748173641
 30
0.0
 10
73.91590167422936
 20
-90.34349498609468
 30
0.0
 10
73.79325627495447
 20
-90.34349498609468
 30
0.0
 10
73.65786402238415
 20
-90.34349498609468
 30
0.0
 10
73.56277938699125
 20
-90.43031139232298
 30
0.0
 10
73.56277938699125
 20
-90.5932644087753
 30
0.0
  0
SPLINE
  5
8C
330
86
100
AcDbEntity
  8
_U+30EC_U+30A4_U+30E4_U+30FC 1
370
     0
100
AcDbSpline
210
0.0
220
0.0
230
1.0
 70
    11
 71
     3
 72
    17
 73
    13
 74
     0
 42
0.0000000001
 43
0.0000000001
 12
1.0
 22
0.0
 32
0.0
 13
1.0
 23
0.0
 33
0.0
 40
0.0
 40
0.0
 40
0.0
 40
0.0
 40
1.0
 40
1.0
 40
1.0
 40
2.0
 40
2.0
 40
2.0
 40
3.0
 40
3.0
 40
3.0
 40
4.0
 40
4.0
 40
4.0
 40
4.0
 10
74.22285968196512
 20
-90.5932644087753
 30
0.0
 10
74.22285968196512
 20
-90.73692489051022
 30
0.0
 10
74.30967608819341
 20
-90.88954262050679
 30
0.0
 10
74.51259221227463
 20
-90.88954262050679
 30
0.0
 10
74.71791990319552
 20
-90.88954262050679
 30
0.0
 10
74.81920571046187
 20
-90.76241859710106
 30
0.0
 10
74.81920571046187
 20
-90.5932644087753
 30
0.0
 10
74.81920571046187
 20
-90.40722925257181
 30
0.0
 10
74.69656031118697
 20
-90.29698619704381
 30
0.0
 10
74.51879338414808
 20
-90.29698619704381
 30
0.0
 10
74.29692923489799
 20
-90.29698619704381
 30
0.0
 10
74.22285968196512
 20
-90.45993921349613
 30
0.0
 10
74.22285968196512
 20
-90.5932644087753
 30
0.0
  0
HATCH
  5
8D
330
86
100
AcDbEntity
  8
_U+30EC_U+30A4_U+30E4_U+30FC 1
 62
   179
420
  2234388
100
AcDbHatch
 10
0.0
 20
0.0
 30
0.0
210
0.0
220
0.0
230
1.0
  2
SOLID
 70
     1
 71
     0
 91
        3
 92
        1
 93
        1
 72
     4
 94
        3
 73
     0
 74
     1
 95
       29
 96
       25
 40
0.0
 40
0.0
 40
0.0
 40
0.0
 40
1.0
 40
1.0
 40
1.0
 40
2.0
 40
2.0
 40
2.0
 40
3.0
 40
3.0
 40
3.0
 40
4.0
 40
4.0
 40
4.0
 40
5.0
 40
5.0
 40
5.0
 40
6.0
 40
6.0
 40
6.0
 40
7.0
 40
7.0
 40
7.0
 40
8.0
 40
8.0
 40
8.0
 40
8.0
 10
75.01385360537849
 20
-90.5932644087753
 10
75.01385360537849
 20
-90.85991479933364
 10
74.87639429551702
 20
-91.11381833659655
 10
74.52740612286121
 20
-91.11381833659655
 10
74.27143552830715
 20
-91.11381833659655
 10
74.17635089291424
 20
-90.97188040260426
 10
74.1150281932768
 20
-90.86611597120708
 10
74.0557725509305
 20
-90.99082842777312
 10
73.94139538082021
 20
-91.06696503799715
 10
73.78050942165905
 20
-91.06696503799715
 10
73.50559080193611
 20
-91.06696503799715
 10
73.37019854936578
 20
-90.86818302849824
 10
73.37019854936578
 20
-90.5932644087753
 10
73.37019854936578
 20
-90.30973305033923
 10
73.51420354064923
 20
-90.11921927000492
 10
73.78050942165905
 20
-90.11921927000492
 10
73.94139538082021
 20
-90.11921927000492
 10
74.0557725509305
 20
-90.19776744706861
 10
74.1150281932768
 20
-90.32247990363466
 10
74.16567109690997
 20
-90.23359644011522
 10
74.26075573230287
 20
-90.0747775382452
 10
74.52327200827891
 20
-90.0747775382452
 10
74.89775388752557
 20
-90.0747775382452
 10
75.01385360537849
 20
-90.35417478209897
 10
75.01385360537849
 20
-90.5932644087753
 97
        0
 97
        0
 92
        1
 93
        1
 72
     4
 94
        3
 73
     0
 74
     1
 95
       17
 96
       13
 40
0.0
 40
0.0
 40
0.0
 40
0.0
 40
1.0
 40
1.0
 40
1.0
 40
2.0
 40
2.0
 40
2.0
 40
3.0
 40
3.0
 40
3.0
 40
4.0
 40
4.0
 40
4.0
 40
4.0
 10
73.56277938699125
 20
-90.5932644087753
 10
73.56277938699125
 20
-90.75828448251876
 10
73.65786402238415
 20
-90.84303383145591
 10
73.79325627495447
 20
-90.84303383145591
 10
73.91590167422936
 20
-90.84303383145591
 10
74.03441295892196
 20
-90.77103133581419
 10
74.03441295892196
 20
-90.5932644087753
 10
74.03441295892196
 20
-90.41549748173641
 10
73.91590167422936
 20
-90.34349498609468
 10
73.79325627495447
 20
-90.34349498609468
 10
73.65786402238415
 20
-90.34349498609468
 10
73.56277938699125
 20
-90.43031139232298
 10
73.56277938699125
 20
-90.5932644087753
 97
        0
 97
        0
 92
        1
 93
        1
 72
     4
 94
        3
 73
     0
 74
     1
 95
       17
 96
       13
 40
0.0
 40
0.0
 40
0.0
 40
0.0
 40
1.0
 40
1.0
 40
1.0
 40
2.0
 40
2.0
 40
2.0
 40
3.0
 40
3.0
 40
3.0
 40
4.0
 40
4.0
 40
4.0
 40
4.0
 10
74.22285968196512
 20
-90.5932644087753
 10
74.22285968196512
 20
-90.73692489051022
 10
74.30967608819341
 20
-90.88954262050679
 10
74.51259221227463
 20
-90.88954262050679
 10
74.71791990319552
 20
-90.88954262050679
 10
74.81920571046187
 20
-90.76241859710106
 10
74.81920571046187
 20
-90.5932644087753
 10
74.81920571046187
 20
-90.40722925257181
 10
74.69656031118697
 20
-90.29698619704381
 10
74.51879338414808
 20
-90.29698619704381
 10
74.29692923489799
 20
-90.29698619704381
 10
74.22285968196512
 20
-90.45993921349613
 10
74.22285968196512
 20
-90.5932644087753
 97
        0
 97
        0
 75
     2
 76
     1
 98
        0
  0
POLYLINE
  5
8E
330
86
100
AcDbEntity
  8
_U+30EC_U+30A4_U+30E4_U+30FC 1
370
     0
100
AcDb2dPolyline
 66
     1
 10
0.0
 20
0.0
 30
0.0
  0
VERTEX
  5
8F
330
8E
100
AcDbEntity
  8
_U+30EC_U+30A4_U+30E4_U+30FC 1
370
     0
100
AcDbVertex
100
AcDb2dVertex
 10
74.96321070174531
 20
-89.85635848448035
 30
0.0
  0
VERTEX
  5
90
330
8E
100
AcDbEntity
  8
_U+30EC_U+30A4_U+30E4_U+30FC 1
370
     0
100
AcDbVertex
100
AcDb2dVertex
 10
74.71137422177355
 20
-89.85635848448035
 30
0.0
  0
VERTEX
  5
91
330
8E
100
AcDbEntity
  8
_U+30EC_U+30A4_U+30E4_U+30FC 1
370
     0
100
AcDbVertex
100
AcDb2dVertex
 10
74.71137422177355
 20
-89.6045220045086
 30
0.0
  0
VERTEX
  5
92
330
8E
100
AcDbEntity
  8
_U+30EC_U+30A4_U+30E4_U+30FC 1
370
     0
100
AcDbVertex
100
AcDb2dVertex
 10
74.96321070174531
 20
-89.6045220045086
 30
0.0
  0
VERTEX
  5
93
330
8E
100
AcDbEntity
  8
_U+30EC_U+30A4_U+30E4_U+30FC 1
370
     0
100
AcDbVertex
100
AcDb2dVertex
 10
74.96321070174531
 20
-89.85635848448035
 30
0.0
  0
SEQEND
  5
94
330
8E
100
AcDbEntity
  8
_U+30EC_U+30A4_U+30E4_U+30FC 1
370
     0
  0
HATCH
  5
95
330
86
100
AcDbEntity
  8
_U+30EC_U+30A4_U+30E4_U+30FC 1
 62
   179
420
  2234388
100
AcDbHatch
 10
0.0
 20
0.0
 30
0.0
210
0.0
220
0.0
230
1.0
  2
SOLID
 70
     1
 71
     0
 91
        1
 92
        1
 93
        4
 72
     1
 10
74.96321070174531
 20
-89.85635848448035
 11
74.71137422177355
 21
-89.85635848448035
 72
     1
 10
74.71137422177355
 20
-89.85635848448035
 11
74.71137422177355
 21
-89.6045220045086
 72
     1
 10
74.71137422177355
 20
-89.6045220045086
 11
74.96321070174531
 21
-89.6045220045086
 72
     1
 10
74.96321070174531
 20
-89.6045220045086
 11
74.96321070174531
 21
-89.85635848448035
 97
        0
 75
     2
 76
     1
 98
        0
  0
SPLINE
  5
96
330
86
100
AcDbEntity
  8
_U+30EC_U+30A4_U+30E4_U+30FC 1
370
     0
100
AcDbSpline
210
0.0
220
0.0
230
1.0
 70
    11
 71
     3
 72
    53
 73
    49
 74
     0
 42
0.0000000001
 43
0.0000000001
 12
1.0
 22
0.0
 32
0.0
 13
1.0
 23
0.0
 33
0.0
 40
0.0
 40
0.0
 40
0.0
 40
0.0
 40
1.0
 40
1.0
 40
1.0
 40
2.0
 40
2.0
 40
2.0
 40
3.0
 40
3.0
 40
3.0
 40
4.0
 40
4.0
 40
4.0
 40
5.0
 40
5.0
 40
5.0
 40
6.0
 40
6.0
 40
6.0
 40
7.0
 40
7.0
 40
7.0
 40
8.0
 40
8.0
 40
8.0
 40
9.0
 40
9.0
 40
9.0
 40
10.0
 40
10.0
 40
10.0
 40
11.0
 40
11.0
 40
11.0
 40
12.0
 40
12.0
 40
12.0
 40
13.0
 40
13.0
 40
13.0
 40
14.0
 40
14.0
 40
14.0
 40
15.0
 40
15.0
 40
15.0
 40
16.0
 40
16.0
 40
16.0
 40
16.0
 10
75.01385360537849
 20
-88.88725312447959
 30
0.0
 10
75.01385360537849
 20
-88.96545679199475
 30
0.0
 10
74.99697263750076
 20
-89.06708710880962
 30
0.0
 10
74.93358288057216
 20
-89.1687174256245
 30
0.0
 10
74.8236843345927
 20
-89.34200572853256
 30
0.0
 10
74.69242619660467
 20
-89.3633653205411
 30
0.0
 10
74.58459470791635
 20
-89.38231334570997
 30
0.0
 10
74.58459470791635
 20
-89.38231334570997
 30
0.0
 10
74.58459470791635
 20
-89.16010468691137
 30
0.0
 10
74.58459470791635
 20
-89.16010468691137
 30
0.0
 10
74.78337671741527
 20
-89.10532766869589
 30
0.0
 10
74.81300453858842
 20
-88.97820364529018
 30
0.0
 10
74.81300453858842
 20
-88.88518606718843
 30
0.0
 10
74.81300453858842
 20
-88.74565970003582
 30
0.0
 10
74.7134412790647
 20
-88.59338647958776
 30
0.0
 10
74.48089733381033
 20
-88.59338647958776
 30
0.0
 10
74.22492673925628
 20
-88.59338647958776
 30
0.0
 10
74.1549913009057
 20
-88.77322046391781
 30
0.0
 10
74.1549913009057
 20
-88.89379880590155
 30
0.0
 10
74.1549913009057
 20
-88.92549368436585
 30
0.0
 10
74.1549913009057
 20
-89.06708710880962
 30
0.0
 10
74.28418238160256
 20
-89.15597057232907
 30
0.0
 10
74.28418238160256
 20
-89.15597057232907
 30
0.0
 10
74.2652343564337
 20
-89.33167044207681
 30
0.0
 10
74.2652343564337
 20
-89.33167044207681
 30
0.0
 10
74.2652343564337
 20
-89.33167044207681
 30
0.0
 10
73.41877439570781
 20
-89.21109210009307
 30
0.0
 10
73.41877439570781
 20
-89.21109210009307
 30
0.0
 10
73.41877439570781
 20
-89.21109210009307
 30
0.0
 10
73.41877439570781
 20
-88.4325005204266
 30
0.0
 10
73.41877439570781
 20
-88.4325005204266
 30
0.0
 10
73.41877439570781
 20
-88.4325005204266
 30
0.0
 10
73.61342229062443
 20
-88.4325005204266
 30
0.0
 10
73.61342229062443
 20
-88.4325005204266
 30
0.0
 10
73.61342229062443
 20
-88.4325005204266
 30
0.0
 10
73.61342229062443
 20
-89.04813908364075
 30
0.0
 10
73.61342229062443
 20
-89.04813908364075
 30
0.0
 10
73.61342229062443
 20
-89.04813908364075
 30
0.0
 10
74.0364800162131
 20
-89.11359589786049
 30
0.0
 10
74.0364800162131
 20
-89.11359589786049
 30
0.0
 10
74.00271808045765
 20
-89.05227319822305
 30
0.0
 10
73.96241046328024
 20
-88.96993541612558
 30
0.0
 10
73.96241046328024
 20
-88.85142413143298
 30
0.0
 10
73.96241046328024
 20
-88.59752059417006
 30
0.0
 10
74.14879012903225
 20
-88.36049802478487
 30
0.0
 10
74.46194930864146
 20
-88.36049802478487
 30
0.0
 10
74.77924260283297
 20
-88.36049802478487
 30
0.0
 10
75.01385360537849
 20
-88.58477374087464
 30
0.0
 10
75.01385360537849
 20
-88.88725312447959
 30
0.0
  0
HATCH
  5
97
330
86
100
AcDbEntity
  8
_U+30EC_U+30A4_U+30E4_U+30FC 1
 62
   179
420
  2234388
100
AcDbHatch
 10
0.0
 20
0.0
 30
0.0
210
0.0
220
0.0
230
1.0
  2
SOLID
 70
     1
 71
     0
 91
        1
 92
        1
 93
        1
 72
     4
 94
        3
 73
     0
 74
     1
 95
       53
 96
       49
 40
0.0
 40
0.0
 40
0.0
 40
0.0
 40
1.0
 40
1.0
 40
1.0
 40
2.0
 40
2.0
 40
2.0
 40
3.0
 40
3.0
 40
3.0
 40
4.0
 40
4.0
 40
4.0
 40
5.0
 40
5.0
 40
5.0
 40
6.0
 40
6.0
 40
6.0
 40
7.0
 40
7.0
 40
7.0
 40
8.0
 40
8.0
 40
8.0
 40
9.0
 40
9.0
 40
9.0
 40
10.0
 40
10.0
 40
10.0
 40
11.0
 40
11.0
 40
11.0
 40
12.0
 40
12.0
 40
12.0
 40
13.0
 40
13.0
 40
13.0
 40
14.0
 40
14.0
 40
14.0
 40
15.0
 40
15.0
 40
15.0
 40
16.0
 40
16.0
 40
16.0
 40
16.0
 10
75.01385360537849
 20
-88.88725312447959
 10
75.01385360537849
 20
-88.96545679199475
 10
74.99697263750076
 20
-89.06708710880962
 10
74.93358288057216
 20
-89.1687174256245
 10
74.8236843345927
 20
-89.34200572853256
 10
74.69242619660467
 20
-89.3633653205411
 10
74.58459470791635
 20
-89.38231334570997
 10
74.58459470791635
 20
-89.38231334570997
 10
74.58459470791635
 20
-89.16010468691137
 10
74.58459470791635
 20
-89.16010468691137
 10
74.78337671741527
 20
-89.10532766869589
 10
74.81300453858842
 20
-88.97820364529018
 10
74.81300453858842
 20
-88.88518606718843
 10
74.81300453858842
 20
-88.74565970003582
 10
74.7134412790647
 20
-88.59338647958776
 10
74.48089733381033
 20
-88.59338647958776
 10
74.22492673925628
 20
-88.59338647958776
 10
74.1549913009057
 20
-88.77322046391781
 10
74.1549913009057
 20
-88.89379880590155
 10
74.1549913009057
 20
-88.92549368436585
 10
74.1549913009057
 20
-89.06708710880962
 10
74.28418238160256
 20
-89.15597057232907
 10
74.28418238160256
 20
-89.15597057232907
 10
74.2652343564337
 20
-89.33167044207681
 10
74.2652343564337
 20
-89.33167044207681
 10
74.2652343564337
 20
-89.33167044207681
 10
73.41877439570781
 20
-89.21109210009307
 10
73.41877439570781
 20
-89.21109210009307
 10
73.41877439570781
 20
-89.21109210009307
 10
73.41877439570781
 20
-88.4325005204266
 10
73.41877439570781
 20
-88.4325005204266
 10
73.41877439570781
 20
-88.4325005204266
 10
73.61342229062443
 20
-88.4325005204266
 10
73.61342229062443
 20
-88.4325005204266
 10
73.61342229062443
 20
-88.4325005204266
 10
73.61342229062443
 20
-89.04813908364075
 10
73.61342229062443
 20
-89.04813908364075
 10
73.61342229062443
 20
-89.04813908364075
 10
74.0364800162131
 20
-89.11359589786049
 10
74.0364800162131
 20
-89.11359589786049
 10
74.00271808045765
 20
-89.05227319822305
 10
73.96241046328024
 20
-88.96993541612558
 10
73.96241046328024
 20
-88.85142413143298
 10
73.96241046328024
 20
-88.59752059417006
 10
74.14879012903225
 20
-88.36049802478487
 10
74.46194930864146
 20
-88.36049802478487
 10
74.77924260283297
 20
-88.36049802478487
 10
75.01385360537849
 20
-88.58477374087464
 10
75.01385360537849
 20
-88.88725312447959
 97
        0
 97
        0
 75
     2
 76
     1
 98
        0
  0
ENDBLK
  5
89
330
86
100
AcDbEntity
  8
0
100
AcDbBlockEnd
  0
BLOCK
  5
9A
330
98
100
AcDbEntity
  8
0
100
AcDbBlockBegin
  2
block 5
 70
     0
 10
0.0
 20
0.0
 30
0.0
  3
block 5
  1

  0
SPLINE
  5
9C
330
98
100
AcDbEntity
  8
_U+30EC_U+30A4_U+30E4_U+30FC 1
370
     0
100
AcDbSpline
210
0.0
220
0.0
230
1.0
 70
    11
 71
     3
 72
    29
 73
    25
 74
     0
 42
0.0000000001
 43
0.0000000001
 12
1.0
 22
0.0
 32
0.0
 13
1.0
 23
0.0
 33
0.0
 40
0.0
 40
0.0
 40
0.0
 40
0.0
 40
1.0
 40
1.0
 40
1.0
 40
2.0
 40
2.0
 40
2.0
 40
3.0
 40
3.0
 40
3.0
 40
4.0
 40
4.0
 40
4.0
 40
5.0
 40
5.0
 40
5.0
 40
6.0
 40
6.0
 40
6.0
 40
7.0
 40
7.0
 40
7.0
 40
8.0
 40
8.0
 40
8.0
 40
8.0
 10
74.78544377470642
 20
-81.98638235797563
 30
0.0
 10
74.9949055802096
 20
-82.09455835621247
 30
0.0
 10
75.01385360537849
 20
-82.26784665912054
 30
0.0
 10
75.01385360537849
 20
-82.38429088652198
 30
0.0
 10
75.01385360537849
 20
-82.54517684568316
 30
0.0
 10
74.96734481632761
 20
-82.68677027012693
 30
0.0
 10
74.78544377470642
 20
-82.78185490551982
 30
0.0
 10
74.59079587978981
 20
-82.88555227962584
 30
0.0
 10
74.35411781995315
 20
-82.90484481434324
 30
0.0
 10
74.19116480350083
 20
-82.90484481434324
 30
0.0
 10
74.04715981221737
 20
-82.90484481434324
 30
0.0
 10
73.79532333224562
 20
-82.88761933691698
 30
0.0
 10
73.5965413227467
 20
-82.78185490551982
 30
0.0
 10
73.39362519866549
 20
-82.6740234168315
 30
0.0
 10
73.37019854936578
 20
-82.51313745767033
 30
0.0
 10
73.37019854936578
 20
-82.38429088652198
 30
0.0
 10
73.37019854936578
 20
-82.22547198465197
 30
0.0
 10
73.41464028112551
 20
-82.08181150291705
 30
0.0
 10
73.5965413227467
 20
-81.98638235797563
 30
0.0
 10
73.78912216037217
 20
-81.88716360800044
 30
0.0
 10
74.01753199104424
 20
-81.86373695870074
 30
0.0
 10
74.19116480350083
 20
-81.86373695870074
 30
0.0
 10
74.36238604911775
 20
-81.86373695870074
 30
0.0
 10
74.59286293708095
 20
-81.88509655070928
 30
0.0
 10
74.78544377470642
 20
-81.98638235797563
 30
0.0
  0
SPLINE
  5
9D
330
98
100
AcDbEntity
  8
_U+30EC_U+30A4_U+30E4_U+30FC 1
370
     0
100
AcDbSpline
210
0.0
220
0.0
230
1.0
 70
    11
 71
     3
 72
    17
 73
    13
 74
     0
 42
0.0000000001
 43
0.0000000001
 12
1.0
 22
0.0
 32
0.0
 13
1.0
 23
0.0
 33
0.0
 40
0.0
 40
0.0
 40
0.0
 40
0.0
 40
1.0
 40
1.0
 40
1.0
 40
2.0
 40
2.0
 40
2.0
 40
3.0
 40
3.0
 40
3.0
 40
4.0
 40
4.0
 40
4.0
 40
4.0
 10
73.56277938699125
 20
-82.38429088652198
 30
0.0
 10
73.56277938699125
 20
-82.6340603092026
 30
0.0
 10
73.84631074542732
 20
-82.68056909825347
 30
0.0
 10
74.19116480350083
 20
-82.68056909825347
 30
0.0
 10
74.51052515498348
 20
-82.68056909825347
 30
0.0
 10
74.81920571046187
 20
-82.64439559565835
 30
0.0
 10
74.81920571046187
 20
-82.38429088652198
 30
0.0
 10
74.81920571046187
 20
-82.13658852113252
 30
0.0
 10
74.53808591886548
 20
-82.0880126747905
 30
0.0
 10
74.19116480350083
 20
-82.0880126747905
 30
0.0
 10
73.87145994246964
 20
-82.0880126747905
 30
0.0
 10
73.56277938699125
 20
-82.12625323467677
 30
0.0
 10
73.56277938699125
 20
-82.38429088652198
 30
0.0
  0
HATCH
  5
9E
330
98
100
AcDbEntity
  8
_U+30EC_U+30A4_U+30E4_U+30FC 1
 62
   179
420
  2234388
100
AcDbHatch
 10
0.0
 20
0.0
 30
0.0
210
0.0
220
0.0
230
1.0
  2
SOLID
 70
     1
 71
     0
 91
        2
 92
        1
 93
        1
 72
     4
 94
        3
 73
     0
 74
     1
 95
       29
 96
       25
 40
0.0
 40
0.0
 40
0.0
 40
0.0
 40
1.0
 40
1.0
 40
1.0
 40
2.0
 40
2.0
 40
2.0
 40
3.0
 40
3.0
 40
3.0
 40
4.0
 40
4.0
 40
4.0
 40
5.0
 40
5.0
 40
5.0
 40
6.0
 40
6.0
 40
6.0
 40
7.0
 40
7.0
 40
7.0
 40
8.0
 40
8.0
 40
8.0
 40
8.0
 10
74.78544377470642
 20
-81.98638235797563
 10
74.9949055802096
 20
-82.09455835621247
 10
75.01385360537849
 20
-82.26784665912054
 10
75.01385360537849
 20
-82.38429088652198
 10
75.01385360537849
 20
-82.54517684568316
 10
74.96734481632761
 20
-82.68677027012693
 10
74.78544377470642
 20
-82.78185490551982
 10
74.59079587978981
 20
-82.88555227962584
 10
74.35411781995315
 20
-82.90484481434324
 10
74.19116480350083
 20
-82.90484481434324
 10
74.04715981221737
 20
-82.90484481434324
 10
73.79532333224562
 20
-82.88761933691698
 10
73.5965413227467
 20
-82.78185490551982
 10
73.39362519866549
 20
-82.6740234168315
 10
73.37019854936578
 20
-82.51313745767033
 10
73.37019854936578
 20
-82.38429088652198
 10
73.37019854936578
 20
-82.22547198465197
 10
73.41464028112551
 20
-82.08181150291705
 10
73.5965413227467
 20
-81.98638235797563
 10
73.78912216037217
 20
-81.88716360800044
 10
74.01753199104424
 20
-81.86373695870074
 10
74.19116480350083
 20
-81.86373695870074
 10
74.36238604911775
 20
-81.86373695870074
 10
74.59286293708095
 20
-81.88509655070928
 10
74.78544377470642
 20
-81.98638235797563
 97
        0
 97
        0
 92
        1
 93
        1
 72
     4
 94
        3
 73
     0
 74
     1
 95
       17
 96
       13
 40
0.0
 40
0.0
 40
0.0
 40
0.0
 40
1.0
 40
1.0
 40
1.0
 40
2.0
 40
2.0
 40
2.0
 40
3.0
 40
3.0
 40
3.0
 40
4.0
 40
4.0
 40
4.0
 40
4.0
 10
73.56277938699125
 20
-82.38429088652198
 10
73.56277938699125
 20
-82.6340603092026
 10
73.84631074542732
 20
-82.68056909825347
 10
74.19116480350083
 20
-82.68056909825347
 10
74.51052515498348
 20
-82.68056909825347
 10
74.81920571046187
 20
-82.64439559565835
 10
74.81920571046187
 20
-82.38429088652198
 10
74.81920571046187
 20
-82.13658852113252
 10
74.53808591886548
 20
-82.0880126747905
 10
74.19116480350083
 20
-82.0880126747905
 10
73.87145994246964
 20
-82.0880126747905
 10
73.56277938699125
 20
-82.12625323467677
 10
73.56277938699125
 20
-82.38429088652198
 97
        0
 97
        0
 75
     2
 76
     1
 98
        0
  0
POLYLINE
  5
9F
330
98
100
AcDbEntity
  8
_U+30EC_U+30A4_U+30E4_U+30FC 1
370
     0
100
AcDb2dPolyline
 66
     1
 10
0.0
 20
0.0
 30
0.0
  0
VERTEX
  5
A0
330
9F
100
AcDbEntity
  8
_U+30EC_U+30A4_U+30E4_U+30FC 1
370
     0
100
AcDbVertex
100
AcDb2dVertex
 10
74.96321070174531
 20
-81.64738496222705
 30
0.0
  0
VERTEX
  5
A1
330
9F
100
AcDbEntity
  8
_U+30EC_U+30A4_U+30E4_U+30FC 1
370
     0
100
AcDbVertex
100
AcDb2dVertex
 10
74.71137422177355
 20
-81.64738496222705
 30
0.0
  0
VERTEX
  5
A2
330
9F
100
AcDbEntity
  8
_U+30EC_U+30A4_U+30E4_U+30FC 1
370
     0
100
AcDbVertex
100
AcDb2dVertex
 10
74.71137422177355
 20
-81.39554848225528
 30
0.0
  0
VERTEX
  5
A3
330
9F
100
AcDbEntity
  8
_U+30EC_U+30A4_U+30E4_U+30FC 1
370
     0
100
AcDbVertex
100
AcDb2dVertex
 10
74.96321070174531
 20
-81.39554848225528
 30
0.0
  0
VERTEX
  5
A4
330
9F
100
AcDbEntity
  8
_U+30EC_U+30A4_U+30E4_U+30FC 1
370
     0
100
AcDbVertex
100
AcDb2dVertex
 10
74.96321070174531
 20
-81.64738496222705
 30
0.0
  0
SEQEND
  5
A5
330
9F
100
AcDbEntity
  8
_U+30EC_U+30A4_U+30E4_U+30FC 1
370
     0
  0
HATCH
  5
A6
330
98
100
AcDbEntity
  8
_U+30EC_U+30A4_U+30E4_U+30FC 1
 62
   179
420
  2234388
100
AcDbHatch
 10
0.0
 20
0.0
 30
0.0
210
0.0
220
0.0
230
1.0
  2
SOLID
 70
     1
 71
     0
 91
        1
 92
        1
 93
        4
 72
     1
 10
74.96321070174531
 20
-81.64738496222705
 11
74.71137422177355
 21
-81.64738496222705
 72
     1
 10
74.71137422177355
 20
-81.64738496222705
 11
74.71137422177355
 21
-81.39554848225528
 72
     1
 10
74.71137422177355
 20
-81.39554848225528
 11
74.96321070174531
 21
-81.39554848225528
 72
     1
 10
74.96321070174531
 20
-81.39554848225528
 11
74.96321070174531
 21
-81.64738496222705
 97
        0
 75
     2
 76
     1
 98
        0
  0
SPLINE
  5
A7
330
98
100
AcDbEntity
  8
_U+30EC_U+30A4_U+30E4_U+30FC 1
370
     0
100
AcDbSpline
210
0.0
220
0.0
230
1.0
 70
    11
 71
     3
 72
    29
 73
    25
 74
     0
 42
0.0000000001
 43
0.0000000001
 12
1.0
 22
0.0
 32
0.0
 13
1.0
 23
0.0
 33
0.0
 40
0.0
 40
0.0
 40
0.0
 40
0.0
 40
1.0
 40
1.0
 40
1.0
 40
2.0
 40
2.0
 40
2.0
 40
3.0
 40
3.0
 40
3.0
 40
4.0
 40
4.0
 40
4.0
 40
5.0
 40
5.0
 40
5.0
 40
6.0
 40
6.0
 40
6.0
 40
7.0
 40
7.0
 40
7.0
 40
8.0
 40
8.0
 40
8.0
 40
8.0
 10
75.01385360537849
 20
-80.65933157705739
 30
0.0
 10
75.01385360537849
 20
-80.92598196761573
 30
0.0
 10
74.87639429551702
 20
-81.17954099533011
 30
0.0
 10
74.52740612286121
 20
-81.17954099533011
 30
0.0
 10
74.27143552830715
 20
-81.17954099533011
 30
0.0
 10
74.17635089291424
 20
-81.03794757088635
 30
0.0
 10
74.1150281932768
 20
-80.93218313948918
 30
0.0
 10
74.0557725509305
 20
-81.05689559605523
 30
0.0
 10
73.94139538082021
 20
-81.13303220627924
 30
0.0
 10
73.78050942165905
 20
-81.13303220627924
 30
0.0
 10
73.50559080193611
 20
-81.13303220627924
 30
0.0
 10
73.37019854936578
 20
-80.93425019678033
 30
0.0
 10
73.37019854936578
 20
-80.65933157705739
 30
0.0
 10
73.37019854936578
 20
-80.37580021862134
 30
0.0
 10
73.51420354064923
 20
-80.18528643828702
 30
0.0
 10
73.78050942165905
 20
-80.18528643828702
 30
0.0
 10
73.94139538082021
 20
-80.18528643828702
 30
0.0
 10
74.0557725509305
 20
-80.26383461535072
 30
0.0
 10
74.1150281932768
 20
-80.38854707191676
 30
0.0
 10
74.16567109690997
 20
-80.29966360839731
 30
0.0
 10
74.26075573230287
 20
-80.14084470652729
 30
0.0
 10
74.52327200827891
 20
-80.14084470652729
 30
0.0
 10
74.89775388752557
 20
-80.14084470652729
 30
0.0
 10
75.01385360537849
 20
-80.42024195038105
 30
0.0
 10
75.01385360537849
 20
-80.65933157705739
 30
0.0
  0
SPLINE
  5
A8
330
98
100
AcDbEntity
  8
_U+30EC_U+30A4_U+30E4_U+30FC 1
370
     0
100
AcDbSpline
210
0.0
220
0.0
230
1.0
 70
    11
 71
     3
 72
    17
 73
    13
 74
     0
 42
0.0000000001
 43
0.0000000001
 12
1.0
 22
0.0
 32
0.0
 13
1.0
 23
0.0
 33
0.0
 40
0.0
 40
0.0
 40
0.0
 40
0.0
 40
1.0
 40
1.0
 40
1.0
 40
2.0
 40
2.0
 40
2.0
 40
3.0
 40
3.0
 40
3.0
 40
4.0
 40
4.0
 40
4.0
 40
4.0
 10
73.56277938699125
 20
-80.65933157705739
 30
0.0
 10
73.56277938699125
 20
-80.82435165080086
 30
0.0
 10
73.65786402238415
 20
-80.90875649018948
 30
0.0
 10
73.79325627495447
 20
-80.90875649018948
 30
0.0
 10
73.91590167422936
 20
-80.90875649018948
 30
0.0
 10
74.03441295892196
 20
-80.83709850409629
 30
0.0
 10
74.03441295892196
 20
-80.65933157705739
 30
0.0
 10
74.03441295892196
 20
-80.4815646500185
 30
0.0
 10
73.91590167422936
 20
-80.40956215437679
 30
0.0
 10
73.79325627495447
 20
-80.40956215437679
 30
0.0
 10
73.65786402238415
 20
-80.40956215437679
 30
0.0
 10
73.56277938699125
 20
-80.49637856060508
 30
0.0
 10
73.56277938699125
 20
-80.65933157705739
 30
0.0
  0
SPLINE
  5
A9
330
98
100
AcDbEntity
  8
_U+30EC_U+30A4_U+30E4_U+30FC 1
370
     0
100
AcDbSpline
210
0.0
220
0.0
230
1.0
 70
    11
 71
     3
 72
    17
 73
    13
 74
     0
 42
0.0000000001
 43
0.0000000001
 12
1.0
 22
0.0
 32
0.0
 13
1.0
 23
0.0
 33
0.0
 40
0.0
 40
0.0
 40
0.0
 40
0.0
 40
1.0
 40
1.0
 40
1.0
 40
2.0
 40
2.0
 40
2.0
 40
3.0
 40
3.0
 40
3.0
 40
4.0
 40
4.0
 40
4.0
 40
4.0
 10
74.22285968196512
 20
-80.65933157705739
 30
0.0
 10
74.22285968196512
 20
-80.80299205879231
 30
0.0
 10
74.30967608819341
 20
-80.95560978878888
 30
0.0
 10
74.51259221227463
 20
-80.95560978878888
 30
0.0
 10
74.71791990319552
 20
-80.95560978878888
 30
0.0
 10
74.81920571046187
 20
-80.82848576538316
 30
0.0
 10
74.81920571046187
 20
-80.65933157705739
 30
0.0
 10
74.81920571046187
 20
-80.4732964208539
 30
0.0
 10
74.69656031118697
 20
-80.36305336532591
 30
0.0
 10
74.51879338414808
 20
-80.36305336532591
 30
0.0
 10
74.29692923489799
 20
-80.36305336532591
 30
0.0
 10
74.22285968196512
 20
-80.52600638177823
 30
0.0
 10
74.22285968196512
 20
-80.65933157705739
 30
0.0
  0
HATCH
  5
AA
330
98
100
AcDbEntity
  8
_U+30EC_U+30A4_U+30E4_U+30FC 1
 62
   179
420
  2234388
100
AcDbHatch
 10
0.0
 20
0.0
 30
0.0
210
0.0
220
0.0
230
1.0
  2
SOLID
 70
     1
 71
     0
 91
        3
 92
        1
 93
        1
 72
     4
 94
        3
 73
     0
 74
     1
 95
       29
 96
       25
 40
0.0
 40
0.0
 40
0.0
 40
0.0
 40
1.0
 40
1.0
 40
1.0
 40
2.0
 40
2.0
 40
2.0
 40
3.0
 40
3.0
 40
3.0
 40
4.0
 40
4.0
 40
4.0
 40
5.0
 40
5.0
 40
5.0
 40
6.0
 40
6.0
 40
6.0
 40
7.0
 40
7.0
 40
7.0
 40
8.0
 40
8.0
 40
8.0
 40
8.0
 10
75.01385360537849
 20
-80.65933157705739
 10
75.01385360537849
 20
-80.92598196761573
 10
74.87639429551702
 20
-81.17954099533011
 10
74.52740612286121
 20
-81.17954099533011
 10
74.27143552830715
 20
-81.17954099533011
 10
74.17635089291424
 20
-81.03794757088635
 10
74.1150281932768
 20
-80.93218313948918
 10
74.0557725509305
 20
-81.05689559605523
 10
73.94139538082021
 20
-81.13303220627924
 10
73.78050942165905
 20
-81.13303220627924
 10
73.50559080193611
 20
-81.13303220627924
 10
73.37019854936578
 20
-80.93425019678033
 10
73.37019854936578
 20
-80.65933157705739
 10
73.37019854936578
 20
-80.37580021862134
 10
73.51420354064923
 20
-80.18528643828702
 10
73.78050942165905
 20
-80.18528643828702
 10
73.94139538082021
 20
-80.18528643828702
 10
74.0557725509305
 20
-80.26383461535072
 10
74.1150281932768
 20
-80.38854707191676
 10
74.16567109690997
 20
-80.29966360839731
 10
74.26075573230287
 20
-80.14084470652729
 10
74.52327200827891
 20
-80.14084470652729
 10
74.89775388752557
 20
-80.14084470652729
 10
75.01385360537849
 20
-80.42024195038105
 10
75.01385360537849
 20
-80.65933157705739
 97
        0
 97
        0
 92
        1
 93
        1
 72
     4
 94
        3
 73
     0
 74
     1
 95
       17
 96
       13
 40
0.0
 40
0.0
 40
0.0
 40
0.0
 40
1.0
 40
1.0
 40
1.0
 40
2.0
 40
2.0
 40
2.0
 40
3.0
 40
3.0
 40
3.0
 40
4.0
 40
4.0
 40
4.0
 40
4.0
 10
73.56277938699125
 20
-80.65933157705739
 10
73.56277938699125
 20
-80.82435165080086
 10
73.65786402238415
 20
-80.90875649018948
 10
73.79325627495447
 20
-80.90875649018948
 10
73.91590167422936
 20
-80.90875649018948
 10
74.03441295892196
 20
-80.83709850409629
 10
74.03441295892196
 20
-80.65933157705739
 10
74.03441295892196
 20
-80.4815646500185
 10
73.91590167422936
 20
-80.40956215437679
 10
73.79325627495447
 20
-80.40956215437679
 10
73.65786402238415
 20
-80.40956215437679
 10
73.56277938699125
 20
-80.49637856060508
 10
73.56277938699125
 20
-80.65933157705739
 97
        0
 97
        0
 92
        1
 93
        1
 72
     4
 94
        3
 73
     0
 74
     1
 95
       17
 96
       13
 40
0.0
 40
0.0
 40
0.0
 40
0.0
 40
1.0
 40
1.0
 40
1.0
 40
2.0
 40
2.0
 40
2.0
 40
3.0
 40
3.0
 40
3.0
 40
4.0
 40
4.0
 40
4.0
 40
4.0
 10
74.22285968196512
 20
-80.65933157705739
 10
74.22285968196512
 20
-80.80299205879231
 10
74.30967608819341
 20
-80.95560978878888
 10
74.51259221227463
 20
-80.95560978878888
 10
74.71791990319552
 20
-80.95560978878888
 10
74.81920571046187
 20
-80.82848576538316
 10
74.81920571046187
 20
-80.65933157705739
 10
74.81920571046187
 20
-80.4732964208539
 10
74.69656031118697
 20
-80.36305336532591
 10
74.51879338414808
 20
-80.36305336532591
 10
74.29692923489799
 20
-80.36305336532591
 10
74.22285968196512
 20
-80.52600638177823
 10
74.22285968196512
 20
-80.65933157705739
 97
        0
 97
        0
 75
     2
 76
     1
 98
        0
  0
ENDBLK
  5
9B
330
98
100
AcDbEntity
  8
0
100
AcDbBlockEnd
  0
BLOCK
  5
AD
330
AB
100
AcDbEntity
  8
0
100
AcDbBlockBegin
  2
block 6
 70
     0
 10
0.0
 20
0.0
 30
0.0
  3
block 6
  1

  0
SPLINE
  5
AF
330
AB
100
AcDbEntity
  8
_U+30EC_U+30A4_U+30E4_U+30FC 1
370
     0
100
AcDbSpline
210
0.0
220
0.0
230
1.0
 70
    11
 71
     3
 72
    62
 73
    58
 74
     0
 42
0.0000000001
 43
0.0000000001
 12
1.0
 22
0.0
 32
0.0
 13
1.0
 23
0.0
 33
0.0
 40
0.0
 40
0.0
 40
0.0
 40
0.0
 40
1.0
 40
1.0
 40
1.0
 40
2.0
 40
2.0
 40
2.0
 40
3.0
 40
3.0
 40
3.0
 40
4.0
 40
4.0
 40
4.0
 40
5.0
 40
5.0
 40
5.0
 40
6.0
 40
6.0
 40
6.0
 40
7.0
 40
7.0
 40
7.0
 40
8.0
 40
8.0
 40
8.0
 40
9.0
 40
9.0
 40
9.0
 40
10.0
 40
10.0
 40
10.0
 40
11.0
 40
11.0
 40
11.0
 40
12.0
 40
12.0
 40
12.0
 40
13.0
 40
13.0
 40
13.0
 40
14.0
 40
14.0
 40
14.0
 40
15.0
 40
15.0
 40
15.0
 40
16.0
 40
16.0
 40
16.0
 40
17.0
 40
17.0
 40
17.0
 40
18.0
 40
18.0
 40
18.0
 40
19.0
 40
19.0
 40
19.0
 40
19.0
 10
75.01385360537849
 20
-95.47151961588906
 30
0.0
 10
75.01385360537849
 20
-95.56694876083048
 30
0.0
 10
74.99283852291846
 20
-95.78467879549828
 30
0.0
 10
74.80680336671497
 20
-95.90973576161285
 30
0.0
 10
74.69449325389583
 20
-95.98380531454572
 30
0.0
 10
74.59527450392063
 20
-95.98793942912802
 30
0.0
 10
74.51052515498348
 20
-95.99207354371032
 30
0.0
 10
74.51052515498348
 20
-95.99207354371032
 30
0.0
 10
74.51052515498348
 20
-95.77193194220285
 30
0.0
 10
74.51052515498348
 20
-95.77193194220285
 30
0.0
 10
74.58459470791635
 20
-95.7698648849117
 30
0.0
 10
74.81920571046187
 20
-95.75952959845596
 30
0.0
 10
74.81920571046187
 20
-95.47599824001989
 30
0.0
 10
74.81920571046187
 20
-95.33853893015842
 30
0.0
 10
74.74961478165982
 20
-95.18592120016186
 30
0.0
 10
74.52120495098775
 20
-95.18592120016186
 30
0.0
 10
74.4047607235863
 20
-95.18592120016186
 30
0.0
 10
74.35618487724429
 20
-95.22416176004813
 30
0.0
 10
74.32448999878
 20
-95.25585663851243
 30
0.0
 10
74.25042044584713
 20
-95.3299261914453
 30
0.0
 10
74.2376735925517
 20
-95.44637041884674
 30
0.0
 10
74.2376735925517
 20
-95.50114743706222
 30
0.0
 10
74.2376735925517
 20
-95.52043997177962
 30
0.0
 10
74.23974064984284
 20
-95.55626896482622
 30
0.0
 10
74.24387476442514
 20
-95.58382972870821
 30
0.0
 10
74.24387476442514
 20
-95.58382972870821
 30
0.0
 10
74.04922686950853
 20
-95.58382972870821
 30
0.0
 10
74.04922686950853
 20
-95.58382972870821
 30
0.0
 10
74.0557725509305
 20
-95.54558916882193
 30
0.0
 10
74.05783960822166
 20
-95.5035590039019
 30
0.0
 10
74.05783960822166
 20
-95.49701332247992
 30
0.0
 10
74.05783960822166
 20
-95.43155650826017
 30
0.0
 10
74.0364800162131
 20
-95.23277449876126
 30
0.0
 10
73.79980195637644
 20
-95.23277449876126
 30
0.0
 10
73.62203502933755
 20
-95.23277449876126
 30
0.0
 10
73.56691350157355
 20
-95.36368812720075
 30
0.0
 10
73.56691350157355
 20
-95.47393118272875
 30
0.0
 10
73.56691350157355
 20
-95.7381700064474
 30
0.0
 10
73.79980195637644
 20
-95.74678274516053
 30
0.0
 10
73.87145994246964
 20
-95.75091685974283
 30
0.0
 10
73.87145994246964
 20
-95.75091685974283
 30
0.0
 10
73.87145994246964
 20
-95.95417749337257
 30
0.0
 10
73.87145994246964
 20
-95.95417749337257
 30
0.0
 10
73.7467474859036
 20
-95.94556475465944
 30
0.0
 10
73.37019854936578
 20
-95.91800399077745
 30
0.0
 10
73.37019854936578
 20
-95.46118432943332
 30
0.0
 10
73.37019854936578
 20
-95.23690861334356
 30
0.0
 10
73.49732257277151
 20
-94.99575192937607
 30
0.0
 10
73.79325627495447
 20
-94.99575192937607
 30
0.0
 10
73.97963594070649
 20
-94.99575192937607
 30
0.0
 10
74.06197372280396
 20
-95.09083656476896
 30
0.0
 10
74.1232964224414
 20
-95.19039982429268
 30
0.0
 10
74.1508571863234
 20
-95.12907712465524
 30
0.0
 10
74.23112791112972
 20
-94.94717608303404
 30
0.0
 10
74.50845809769233
 20
-94.94717608303404
 30
0.0
 10
74.84676647434387
 20
-94.94717608303404
 30
0.0
 10
75.01385360537849
 20
-95.19453393887498
 30
0.0
 10
75.01385360537849
 20
-95.47151961588906
 30
0.0
  0
HATCH
  5
B0
330
AB
100
AcDbEntity
  8
_U+30EC_U+30A4_U+30E4_U+30FC 1
 62
   179
420
  2234388
100
AcDbHatch
 10
0.0
 20
0.0
 30
0.0
210
0.0
220
0.0
230
1.0
  2
SOLID
 70
     1
 71
     0
 91
        1
 92
        1
 93
        1
 72
     4
 94
        3
 73
     0
 74
     1
 95
       62
 96
       58
 40
0.0
 40
0.0
 40
0.0
 40
0.0
 40
1.0
 40
1.0
 40
1.0
 40
2.0
 40
2.0
 40
2.0
 40
3.0
 40
3.0
 40
3.0
 40
4.0
 40
4.0
 40
4.0
 40
5.0
 40
5.0
 40
5.0
 40
6.0
 40
6.0
 40
6.0
 40
7.0
 40
7.0
 40
7.0
 40
8.0
 40
8.0
 40
8.0
 40
9.0
 40
9.0
 40
9.0
 40
10.0
 40
10.0
 40
10.0
 40
11.0
 40
11.0
 40
11.0
 40
12.0
 40
12.0
 40
12.0
 40
13.0
 40
13.0
 40
13.0
 40
14.0
 40
14.0
 40
14.0
 40
15.0
 40
15.0
 40
15.0
 40
16.0
 40
16.0
 40
16.0
 40
17.0
 40
17.0
 40
17.0
 40
18.0
 40
18.0
 40
18.0
 40
19.0
 40
19.0
 40
19.0
 40
19.0
 10
75.01385360537849
 20
-95.47151961588906
 10
75.01385360537849
 20
-95.56694876083048
 10
74.99283852291846
 20
-95.78467879549828
 10
74.80680336671497
 20
-95.90973576161285
 10
74.69449325389583
 20
-95.98380531454572
 10
74.59527450392063
 20
-95.98793942912802
 10
74.51052515498348
 20
-95.99207354371032
 10
74.51052515498348
 20
-95.99207354371032
 10
74.51052515498348
 20
-95.77193194220285
 10
74.51052515498348
 20
-95.77193194220285
 10
74.58459470791635
 20
-95.7698648849117
 10
74.81920571046187
 20
-95.75952959845596
 10
74.81920571046187
 20
-95.47599824001989
 10
74.81920571046187
 20
-95.33853893015842
 10
74.74961478165982
 20
-95.18592120016186
 10
74.52120495098775
 20
-95.18592120016186
 10
74.4047607235863
 20
-95.18592120016186
 10
74.35618487724429
 20
-95.22416176004813
 10
74.32448999878
 20
-95.25585663851243
 10
74.25042044584713
 20
-95.3299261914453
 10
74.2376735925517
 20
-95.44637041884674
 10
74.2376735925517
 20
-95.50114743706222
 10
74.2376735925517
 20
-95.52043997177962
 10
74.23974064984284
 20
-95.55626896482622
 10
74.24387476442514
 20
-95.58382972870821
 10
74.24387476442514
 20
-95.58382972870821
 10
74.04922686950853
 20
-95.58382972870821
 10
74.04922686950853
 20
-95.58382972870821
 10
74.0557725509305
 20
-95.54558916882193
 10
74.05783960822166
 20
-95.5035590039019
 10
74.05783960822166
 20
-95.49701332247992
 10
74.05783960822166
 20
-95.43155650826017
 10
74.0364800162131
 20
-95.23277449876126
 10
73.79980195637644
 20
-95.23277449876126
 10
73.62203502933755
 20
-95.23277449876126
 10
73.56691350157355
 20
-95.36368812720075
 10
73.56691350157355
 20
-95.47393118272875
 10
73.56691350157355
 20
-95.7381700064474
 10
73.79980195637644
 20
-95.74678274516053
 10
73.87145994246964
 20
-95.75091685974283
 10
73.87145994246964
 20
-95.75091685974283
 10
73.87145994246964
 20
-95.95417749337257
 10
73.87145994246964
 20
-95.95417749337257
 10
73.7467474859036
 20
-95.94556475465944
 10
73.37019854936578
 20
-95.91800399077745
 10
73.37019854936578
 20
-95.46118432943332
 10
73.37019854936578
 20
-95.23690861334356
 10
73.49732257277151
 20
-94.99575192937607
 10
73.79325627495447
 20
-94.99575192937607
 10
73.97963594070649
 20
-94.99575192937607
 10
74.06197372280396
 20
-95.09083656476896
 10
74.1232964224414
 20
-95.19039982429268
 10
74.1508571863234
 20
-95.12907712465524
 10
74.23112791112972
 20
-94.94717608303404
 10
74.50845809769233
 20
-94.94717608303404
 10
74.84676647434387
 20
-94.94717608303404
 10
75.01385360537849
 20
-95.19453393887498
 10
75.01385360537849
 20
-95.47151961588906
 97
        0
 97
        0
 75
     2
 76
     1
 98
        0
  0
ENDBLK
  5
AE
330
AB
100
AcDbEntity
  8
0
100
AcDbBlockEnd
  0
ENDSEC
  0
SECTION
  2
ENTITIES
  0
SPLINE
  5
41
330
1F
100
AcDbEntity
  8
_U+30EC_U+30A4_U+30E4_U+30FC 1
 62
   179
420
  2234388
370
     9
100
AcDbSpline
210
0.0
220
0.0
230
1.0
 70
    11
 71
     3
 72
    17
 73
    13
 74
     0
 42
0.0000000001
 43
0.0000000001
 12
1.0
 22
0.0
 32
0.0
 13
1.0
 23
0.0
 33
0.0
 40
0.0
 40
0.0
 40
0.0
 40
0.0
 40
1.0
 40
1.0
 40
1.0
 40
2.0
 40
2.0
 40
2.0
 40
3.0
 40
3.0
 40
3.0
 40
4.0
 40
4.0
 40
4.0
 40
4.0
 10
72.50443926136876
 20
-80.67484497983115
 30
0.0
 10
72.50443926136876
 20
-80.61970581317838
 30
0.0
 10
72.45967176251088
 20
-80.5749383131895
 30
0.0
 10
72.40417981948215
 20
-80.5749383131895
 30
0.0
 10
72.34907775969077
 20
-80.5749383131895
 30
0.0
 10
72.30427498192405
 20
-80.61970581317838
 30
0.0
 10
72.30427498192405
 20
-80.67484497983115
 30
0.0
 10
72.30427498192405
 20
-80.72994886870639
 30
0.0
 10
72.34907775969077
 20
-80.7747516464731
 30
0.0
 10
72.40417981948215
 20
-80.7747516464731
 30
0.0
 10
72.45967176251088
 20
-80.7747516464731
 30
0.0
 10
72.50443926136876
 20
-80.72994886870639
 30
0.0
 10
72.50443926136876
 20
-80.67484497983115
 30
0.0
  0
SPLINE
  5
42
330
1F
100
AcDbEntity
  8
_U+30EC_U+30A4_U+30E4_U+30FC 1
 62
   179
420
  2234388
370
     9
100
AcDbSpline
210
0.0
220
0.0
230
1.0
 70
    11
 71
     3
 72
    17
 73
    13
 74
     0
 42
0.0000000001
 43
0.0000000001
 12
1.0
 22
0.0
 32
0.0
 13
1.0
 23
0.0
 33
0.0
 40
0.0
 40
0.0
 40
0.0
 40
0.0
 40
1.0
 40
1.0
 40
1.0
 40
2.0
 40
2.0
 40
2.0
 40
3.0
 40
3.0
 40
3.0
 40
4.0
 40
4.0
 40
4.0
 40
4.0
 10
49.50428123704057
 20
-80.67484497983115
 30
0.0
 10
49.50428123704057
 20
-80.61970581317838
 30
0.0
 10
49.45951373818268
 20
-80.5749383131895
 30
0.0
 10
49.40437457292273
 20
-80.5749383131895
 30
0.0
 10
49.34927068543966
 20
-80.5749383131895
 30
0.0
 10
49.3044679088049
 20
-80.61970581317838
 30
0.0
 10
49.3044679088049
 20
-80.67484497983115
 30
0.0
 10
49.3044679088049
 20
-80.72994886870639
 30
0.0
 10
49.34927068543966
 20
-80.7747516464731
 30
0.0
 10
49.40437457292273
 20
-80.7747516464731
 30
0.0
 10
49.45951373818268
 20
-80.7747516464731
 30
0.0
 10
49.50428123704057
 20
-80.72994886870639
 30
0.0
 10
49.50428123704057
 20
-80.67484497983115
 30
0.0
  0
POLYLINE
  5
43
330
1F
100
AcDbEntity
  8
_U+30EC_U+30A4_U+30E4_U+30FC 1
 62
   179
420
  2234388
370
     9
100
AcDb2dPolyline
 66
     1
 10
0.0
 20
0.0
 30
0.0
  0
VERTEX
  5
44
330
43
100
AcDbEntity
  8
_U+30EC_U+30A4_U+30E4_U+30FC 1
 62
   179
420
  2234388
370
     9
100
AcDbVertex
100
AcDb2dVertex
 10
49.40437457292273
 20
-80.67484497983115
 30
0.0
  0
VERTEX
  5
45
330
43
100
AcDbEntity
  8
_U+30EC_U+30A4_U+30E4_U+30FC 1
 62
   179
420
  2234388
370
     9
100
AcDbVertex
100
AcDb2dVertex
 10
72.40417981948215
 20
-80.67484497983115
 30
0.0
  0
SEQEND
  5
46
330
43
100
AcDbEntity
  8
_U+30EC_U+30A4_U+30E4_U+30FC 1
 62
   179
420
  2234388
370
     9
  0
POLYLINE
  5
47
330
1F
100
AcDbEntity
  8
_U+30EC_U+30A4_U+30E4_U+30FC 1
 62
   179
420
  2234388
370
     9
100
AcDb2dPolyline
 66
     1
 10
0.0
 20
0.0
 30
0.0
  0
VERTEX
  5
48
330
47
100
AcDbEntity
  8
_U+30EC_U+30A4_U+30E4_U+30FC 1
 62
   179
420
  2234388
370
     9
100
AcDbVertex
100
AcDb2dVertex
 10
49.40437457292273
 20
-82.13485109057734
 30
0.0
  0
VERTEX
  5
49
330
47
100
AcDbEntity
  8
_U+30EC_U+30A4_U+30E4_U+30FC 1
 62
   179
420
  2234388
370
     9
100
AcDbVertex
100
AcDb2dVertex
 10
49.40437457292273
 20
-79.67507275785893
 30
0.0
  0
SEQEND
  5
4A
330
47
100
AcDbEntity
  8
_U+30EC_U+30A4_U+30E4_U+30FC 1
 62
   179
420
  2234388
370
     9
  0
POLYLINE
  5
4B
330
1F
100
AcDbEntity
  8
_U+30EC_U+30A4_U+30E4_U+30FC 1
 62
   179
420
  2234388
370
     9
100
AcDb2dPolyline
 66
     1
 10
0.0
 20
0.0
 30
0.0
  0
VERTEX
  5
4C
330
4B
100
AcDbEntity
  8
_U+30EC_U+30A4_U+30E4_U+30FC 1
 62
   179
420
  2234388
370
     9
100
AcDbVertex
100
AcDb2dVertex
 10
72.40417981948215
 20
-82.13485109057734
 30
0.0
  0
VERTEX
  5
4D
330
4B
100
AcDbEntity
  8
_U+30EC_U+30A4_U+30E4_U+30FC 1
 62
   179
420
  2234388
370
     9
100
AcDbVertex
100
AcDb2dVertex
 10
72.40417981948215
 20
-79.67507275785893
 30
0.0
  0
SEQEND
  5
4E
330
4B
100
AcDbEntity
  8
_U+30EC_U+30A4_U+30E4_U+30FC 1
 62
   179
420
  2234388
370
     9
  0
INSERT
  5
50
330
1F
100
AcDbEntity
  8
_U+30EC_U+30A4_U+30E4_U+30FC 1
100
AcDbBlockReference
  2
block 2
 10
0.0
 20
0.0
 30
0.0
  0
INSERT
  5
58
330
1F
100
AcDbEntity
  8
_U+30EC_U+30A4_U+30E4_U+30FC 1
100
AcDbBlockReference
  2
block 3
 10
0.0
 20
0.0
 30
0.0
  0
SPLINE
  5
60
330
1F
100
AcDbEntity
  8
_U+30EC_U+30A4_U+30E4_U+30FC 1
 62
   179
420
  2234388
370
     9
100
AcDbSpline
210
0.0
220
0.0
230
1.0
 70
    11
 71
     3
 72
    17
 73
    13
 74
     0
 42
0.0000000001
 43
0.0000000001
 12
1.0
 22
0.0
 32
0.0
 13
1.0
 23
0.0
 33
0.0
 40
0.0
 40
0.0
 40
0.0
 40
0.0
 40
1.0
 40
1.0
 40
1.0
 40
2.0
 40
2.0
 40
2.0
 40
3.0
 40
3.0
 40
3.0
 40
4.0
 40
4.0
 40
4.0
 40
4.0
 10
59.50471959301924
 20
-100.9757596969782
 30
0.0
 10
59.50471959301924
 20
-100.9199502525477
 30
0.0
 10
59.45995209416135
 20
-100.875147474781
 30
0.0
 10
59.40446015113262
 20
-100.875147474781
 30
0.0
 10
59.34935626364955
 20
-100.875147474781
 30
0.0
 10
59.30455348701479
 20
-100.9199502525477
 30
0.0
 10
59.30455348701479
 20
-100.9757596969782
 30
0.0
 10
59.30455348701479
 20
-101.0308635858531
 30
0.0
 10
59.34935626364955
 20
-101.0756663636198
 30
0.0
 10
59.40446015113262
 20
-101.0756663636198
 30
0.0
 10
59.45995209416135
 20
-101.0756663636198
 30
0.0
 10
59.50471959301924
 20
-101.0308635858531
 30
0.0
 10
59.50471959301924
 20
-100.9757596969782
 30
0.0
  0
SPLINE
  5
61
330
1F
100
AcDbEntity
  8
_U+30EC_U+30A4_U+30E4_U+30FC 1
 62
   179
420
  2234388
370
     9
100
AcDbSpline
210
0.0
220
0.0
230
1.0
 70
    11
 71
     3
 72
    17
 73
    13
 74
     0
 42
0.0000000001
 43
0.0000000001
 12
1.0
 22
0.0
 32
0.0
 13
1.0
 23
0.0
 33
0.0
 40
0.0
 40
0.0
 40
0.0
 40
0.0
 40
1.0
 40
1.0
 40
1.0
 40
2.0
 40
2.0
 40
2.0
 40
3.0
 40
3.0
 40
3.0
 40
4.0
 40
4.0
 40
4.0
 40
4.0
 10
49.50463401480935
 20
-100.9757596969782
 30
0.0
 10
49.50463401480935
 20
-100.9199502525477
 30
0.0
 10
49.45986651595146
 20
-100.875147474781
 30
0.0
 10
49.40437457292273
 20
-100.875147474781
 30
0.0
 10
49.34927068543966
 20
-100.875147474781
 30
0.0
 10
49.3044679088049
 20
-100.9199502525477
 30
0.0
 10
49.3044679088049
 20
-100.9757596969782
 30
0.0
 10
49.3044679088049
 20
-101.0308635858531
 30
0.0
 10
49.34927068543966
 20
-101.0756663636198
 30
0.0
 10
49.40437457292273
 20
-101.0756663636198
 30
0.0
 10
49.45986651595146
 20
-101.0756663636198
 30
0.0
 10
49.50463401480935
 20
-101.0308635858531
 30
0.0
 10
49.50463401480935
 20
-100.9757596969782
 30
0.0
  0
POLYLINE
  5
62
330
1F
100
AcDbEntity
  8
_U+30EC_U+30A4_U+30E4_U+30FC 1
 62
   179
420
  2234388
370
     9
100
AcDb2dPolyline
 66
     1
 10
0.0
 20
0.0
 30
0.0
  0
VERTEX
  5
63
330
62
100
AcDbEntity
  8
_U+30EC_U+30A4_U+30E4_U+30FC 1
 62
   179
420
  2234388
370
     9
100
AcDbVertex
100
AcDb2dVertex
 10
49.40437457292273
 20
-100.9757596969782
 30
0.0
  0
VERTEX
  5
64
330
62
100
AcDbEntity
  8
_U+30EC_U+30A4_U+30E4_U+30FC 1
 62
   179
420
  2234388
370
     9
100
AcDbVertex
100
AcDb2dVertex
 10
59.40446015113262
 20
-100.9757596969782
 30
0.0
  0
SEQEND
  5
65
330
62
100
AcDbEntity
  8
_U+30EC_U+30A4_U+30E4_U+30FC 1
 62
   179
420
  2234388
370
     9
  0
POLYLINE
  5
66
330
1F
100
AcDbEntity
  8
_U+30EC_U+30A4_U+30E4_U+30FC 1
 62
   179
420
  2234388
370
     9
100
AcDb2dPolyline
 66
     1
 10
0.0
 20
0.0
 30
0.0
  0
VERTEX
  5
67
330
66
100
AcDbEntity
  8
_U+30EC_U+30A4_U+30E4_U+30FC 1
 62
   179
420
  2234388
370
     9
100
AcDbVertex
100
AcDb2dVertex
 10
49.40437457292273
 20
-99.51571830845447
 30
0.0
  0
VERTEX
  5
68
330
66
100
AcDbEntity
  8
_U+30EC_U+30A4_U+30E4_U+30FC 1
 62
   179
420
  2234388
370
     9
100
AcDbVertex
100
AcDb2dVertex
 10
49.40437457292273
 20
-101.9755319189507
 30
0.0
  0
SEQEND
  5
69
330
66
100
AcDbEntity
  8
_U+30EC_U+30A4_U+30E4_U+30FC 1
 62
   179
420
  2234388
370
     9
  0
POLYLINE
  5
6A
330
1F
100
AcDbEntity
  8
_U+30EC_U+30A4_U+30E4_U+30FC 1
 62
   179
420
  2234388
370
     9
100
AcDb2dPolyline
 66
     1
 10
0.0
 20
0.0
 30
0.0
  0
VERTEX
  5
6B
330
6A
100
AcDbEntity
  8
_U+30EC_U+30A4_U+30E4_U+30FC 1
 62
   179
420
  2234388
370
     9
100
AcDbVertex
100
AcDb2dVertex
 10
59.40446015113262
 20
-99.51571830845447
 30
0.0
  0
VERTEX
  5
6C
330
6A
100
AcDbEntity
  8
_U+30EC_U+30A4_U+30E4_U+30FC 1
 62
   179
420
  2234388
370
     9
100
AcDbVertex
100
AcDb2dVertex
 10
59.40446015113262
 20
-101.9755319189507
 30
0.0
  0
SEQEND
  5
6D
330
6A
100
AcDbEntity
  8
_U+30EC_U+30A4_U+30E4_U+30FC 1
 62
   179
420
  2234388
370
     9
  0
SPLINE
  5
6E
330
1F
100
AcDbEntity
  8
_U+30EC_U+30A4_U+30E4_U+30FC 1
 62
   179
420
  2234388
370
     9
100
AcDbSpline
210
0.0
220
0.0
230
1.0
 70
    11
 71
     3
 72
    17
 73
    13
 74
     0
 42
0.0000000001
 43
0.0000000001
 12
1.0
 22
0.0
 32
0.0
 13
1.0
 23
0.0
 33
0.0
 40
0.0
 40
0.0
 40
0.0
 40
0.0
 40
1.0
 40
1.0
 40
1.0
 40
2.0
 40
2.0
 40
2.0
 40
3.0
 40
3.0
 40
3.0
 40
4.0
 40
4.0
 40
4.0
 40
4.0
 10
76.07839555907843
 20
-96.99356886464047
 30
0.0
 10
76.07839555907843
 20
-97.04867275351539
 30
0.0
 10
76.12316305793631
 20
-97.09347553128211
 30
0.0
 10
76.17830222319627
 20
-97.09347553128211
 30
0.0
 10
76.23340611067934
 20
-97.09347553128211
 30
0.0
 10
76.2782088873141
 20
-97.04867275351539
 30
0.0
 10
76.2782088873141
 20
-96.99356886464047
 30
0.0
 10
76.2782088873141
 20
-96.93842969798739
 30
0.0
 10
76.23340611067934
 20
-96.89366219799884
 30
0.0
 10
76.17830222319627
 20
-96.89366219799884
 30
0.0
 10
76.12316305793631
 20
-96.89366219799884
 30
0.0
 10
76.07839555907843
 20
-96.93842969798739
 30
0.0
 10
76.07839555907843
 20
-96.99356886464047
 30
0.0
  0
SPLINE
  5
6F
330
1F
100
AcDbEntity
  8
_U+30EC_U+30A4_U+30E4_U+30FC 1
 62
   179
420
  2234388
370
     9
100
AcDbSpline
210
0.0
220
0.0
230
1.0
 70
    11
 71
     3
 72
    17
 73
    13
 74
     0
 42
0.0000000001
 43
0.0000000001
 12
1.0
 22
0.0
 32
0.0
 13
1.0
 23
0.0
 33
0.0
 40
0.0
 40
0.0
 40
0.0
 40
0.0
 40
1.0
 40
1.0
 40
1.0
 40
2.0
 40
2.0
 40
2.0
 40
3.0
 40
3.0
 40
3.0
 40
4.0
 40
4.0
 40
4.0
 40
4.0
 10
76.07839555907843
 20
-85.47523331196466
 30
0.0
 10
76.07839555907843
 20
-85.53033720083958
 30
0.0
 10
76.12316305793631
 20
-85.5751399786063
 30
0.0
 10
76.17830222319627
 20
-85.5751399786063
 30
0.0
 10
76.23340611067934
 20
-85.5751399786063
 30
0.0
 10
76.2782088873141
 20
-85.53033720083958
 30
0.0
 10
76.2782088873141
 20
-85.47523331196466
 30
0.0
 10
76.2782088873141
 20
-85.4194238675339
 30
0.0
 10
76.23340611067934
 20
-85.3746210897675
 30
0.0
 10
76.17830222319627
 20
-85.3746210897675
 30
0.0
 10
76.12316305793631
 20
-85.3746210897675
 30
0.0
 10
76.07839555907843
 20
-85.4194238675339
 30
0.0
 10
76.07839555907843
 20
-85.47523331196466
 30
0.0
  0
POLYLINE
  5
70
330
1F
100
AcDbEntity
  8
_U+30EC_U+30A4_U+30E4_U+30FC 1
 62
   179
420
  2234388
370
     9
100
AcDb2dPolyline
 66
     1
 10
0.0
 20
0.0
 30
0.0
  0
VERTEX
  5
71
330
70
100
AcDbEntity
  8
_U+30EC_U+30A4_U+30E4_U+30FC 1
 62
   179
420
  2234388
370
     9
100
AcDbVertex
100
AcDb2dVertex
 10
76.17830222319627
 20
-79.41772136903457
 30
0.0
  0
VERTEX
  5
72
330
70
100
AcDbEntity
  8
_U+30EC_U+30A4_U+30E4_U+30FC 1
 62
   179
420
  2234388
370
     9
100
AcDbVertex
100
AcDb2dVertex
 10
76.17830222319627
 20
-96.99356886464047
 30
0.0
  0
SEQEND
  5
73
330
70
100
AcDbEntity
  8
_U+30EC_U+30A4_U+30E4_U+30FC 1
 62
   179
420
  2234388
370
     9
  0
POLYLINE
  5
74
330
1F
100
AcDbEntity
  8
_U+30EC_U+30A4_U+30E4_U+30FC 1
 62
   179
420
  2234388
370
     9
100
AcDb2dPolyline
 66
     1
 10
0.0
 20
0.0
 30
0.0
  0
VERTEX
  5
75
330
74
100
AcDbEntity
  8
_U+30EC_U+30A4_U+30E4_U+30FC 1
 62
   179
420
  2234388
370
     9
100
AcDbVertex
100
AcDb2dVertex
 10
73.71813589707145
 20
-85.47523331196466
 30
0.0
  0
VERTEX
  5
76
330
74
100
AcDbEntity
  8
_U+30EC_U+30A4_U+30E4_U+30FC 1
 62
   179
420
  2234388
370
     9
100
AcDbVertex
100
AcDb2dVertex
 10
77.17807441991218
 20
-85.47523331196466
 30
0.0
  0
SEQEND
  5
77
330
74
100
AcDbEntity
  8
_U+30EC_U+30A4_U+30E4_U+30FC 1
 62
   179
420
  2234388
370
     9
  0
SPLINE
  5
78
330
1F
100
AcDbEntity
  8
_U+30EC_U+30A4_U+30E4_U+30FC 1
 62
   179
420
  2234388
370
     9
100
AcDbSpline
210
0.0
220
0.0
230
1.0
 70
    11
 71
     3
 72
    17
 73
    13
 74
     0
 42
0.0000000001
 43
0.0000000001
 12
1.0
 22
0.0
 32
0.0
 13
1.0
 23
0.0
 33
0.0
 40
0.0
 40
0.0
 40
0.0
 40
0.0
 40
1.0
 40
1.0
 40
1.0
 40
2.0
 40
2.0
 40
2.0
 40
3.0
 40
3.0
 40
3.0
 40
4.0
 40
4.0
 40
4.0
 40
4.0
 10
76.07839555907843
 20
-84.67527442327571
 30
0.0
 10
76.07839555907843
 20
-84.73041358992847
 30
0.0
 10
76.12316305793631
 20
-84.77518108991735
 30
0.0
 10
76.17830222319627
 20
-84.77518108991735
 30
0.0
 10
76.23340611067934
 20
-84.77518108991735
 30
0.0
 10
76.2782088873141
 20
-84.73041358992847
 30
0.0
 10
76.2782088873141
 20
-84.67527442327571
 30
0.0
 10
76.2782088873141
 20
-84.61946497884527
 30
0.0
 10
76.23340611067934
 20
-84.5746974788564
 30
0.0
 10
76.17830222319627
 20
-84.5746974788564
 30
0.0
 10
76.12316305793631
 20
-84.5746974788564
 30
0.0
 10
76.07839555907843
 20
-84.61946497884527
 30
0.0
 10
76.07839555907843
 20
-84.67527442327571
 30
0.0
  0
POLYLINE
  5
79
330
1F
100
AcDbEntity
  8
_U+30EC_U+30A4_U+30E4_U+30FC 1
 62
   179
420
  2234388
370
     9
100
AcDb2dPolyline
 66
     1
 10
0.0
 20
0.0
 30
0.0
  0
VERTEX
  5
7A
330
79
100
AcDbEntity
  8
_U+30EC_U+30A4_U+30E4_U+30FC 1
 62
   179
420
  2234388
370
     9
100
AcDbVertex
100
AcDb2dVertex
 10
73.71813589707145
 20
-84.67527442327571
 30
0.0
  0
VERTEX
  5
7B
330
79
100
AcDbEntity
  8
_U+30EC_U+30A4_U+30E4_U+30FC 1
 62
   179
420
  2234388
370
     9
100
AcDbVertex
100
AcDb2dVertex
 10
77.17807441991218
 20
-84.67527442327571
 30
0.0
  0
SEQEND
  5
7C
330
79
100
AcDbEntity
  8
_U+30EC_U+30A4_U+30E4_U+30FC 1
 62
   179
420
  2234388
370
     9
  0
POLYLINE
  5
7D
330
1F
100
AcDbEntity
  8
_U+30EC_U+30A4_U+30E4_U+30FC 1
 62
   179
420
  2234388
370
     9
100
AcDb2dPolyline
 66
     1
 10
0.0
 20
0.0
 30
0.0
  0
VERTEX
  5
7E
330
7D
100
AcDbEntity
  8
_U+30EC_U+30A4_U+30E4_U+30FC 1
 62
   179
420
  2234388
370
     9
100
AcDbVertex
100
AcDb2dVertex
 10
61.94453064188558
 20
-96.99356886464047
 30
0.0
  0
VERTEX
  5
7F
330
7D
100
AcDbEntity
  8
_U+30EC_U+30A4_U+30E4_U+30FC 1
 62
   179
420
  2234388
370
     9
100
AcDbVertex
100
AcDb2dVertex
 10
77.17807441991218
 20
-96.99356886464047
 30
0.0
  0
SEQEND
  5
80
330
7D
100
AcDbEntity
  8
_U+30EC_U+30A4_U+30E4_U+30FC 1
 62
   179
420
  2234388
370
     9
  0
SPLINE
  5
81
330
1F
100
AcDbEntity
  8
_U+30EC_U+30A4_U+30E4_U+30FC 1
 62
   179
420
  2234388
370
     9
100
AcDbSpline
210
0.0
220
0.0
230
1.0
 70
    11
 71
     3
 72
    17
 73
    13
 74
     0
 42
0.0000000001
 43
0.0000000001
 12
1.0
 22
0.0
 32
0.0
 13
1.0
 23
0.0
 33
0.0
 40
0.0
 40
0.0
 40
0.0
 40
0.0
 40
1.0
 40
1.0
 40
1.0
 40
2.0
 40
2.0
 40
2.0
 40
3.0
 40
3.0
 40
3.0
 40
4.0
 40
4.0
 40
4.0
 40
4.0
 10
76.07839555907843
 20
-93.99358192094613
 30
0.0
 10
76.07839555907843
 20
-94.04868580982104
 30
0.0
 10
76.12316305793631
 20
-94.09348858758776
 30
0.0
 10
76.17830222319627
 20
-94.09348858758776
 30
0.0
 10
76.23340611067934
 20
-94.09348858758776
 30
0.0
 10
76.2782088873141
 20
-94.04868580982104
 30
0.0
 10
76.2782088873141
 20
-93.99358192094613
 30
0.0
 10
76.2782088873141
 20
-93.93844275429305
 30
0.0
 10
76.23340611067934
 20
-93.89367525430448
 30
0.0
 10
76.17830222319627
 20
-93.89367525430448
 30
0.0
 10
76.12316305793631
 20
-93.89367525430448
 30
0.0
 10
76.07839555907843
 20
-93.93844275429305
 30
0.0
 10
76.07839555907843
 20
-93.99358192094613
 30
0.0
  0
POLYLINE
  5
82
330
1F
100
AcDbEntity
  8
_U+30EC_U+30A4_U+30E4_U+30FC 1
 62
   179
420
  2234388
370
     9
100
AcDb2dPolyline
 66
     1
 10
0.0
 20
0.0
 30
0.0
  0
VERTEX
  5
83
330
82
100
AcDbEntity
  8
_U+30EC_U+30A4_U+30E4_U+30FC 1
 62
   179
420
  2234388
370
     9
100
AcDbVertex
100
AcDb2dVertex
 10
61.94453064188558
 20
-93.99358192094613
 30
0.0
  0
VERTEX
  5
84
330
82
100
AcDbEntity
  8
_U+30EC_U+30A4_U+30E4_U+30FC 1
 62
   179
420
  2234388
370
     9
100
AcDbVertex
100
AcDb2dVertex
 10
77.17807441991218
 20
-93.99358192094613
 30
0.0
  0
SEQEND
  5
85
330
82
100
AcDbEntity
  8
_U+30EC_U+30A4_U+30E4_U+30FC 1
 62
   179
420
  2234388
370
     9
  0
INSERT
  5
87
330
1F
100
AcDbEntity
  8
_U+30EC_U+30A4_U+30E4_U+30FC 1
100
AcDbBlockReference
  2
block 4
 10
0.0
 20
0.0
 30
0.0
  0
INSERT
  5
99
330
1F
100
AcDbEntity
  8
_U+30EC_U+30A4_U+30E4_U+30FC 1
100
AcDbBlockReference
  2
block 5
 10
0.0
 20
0.0
 30
0.0
  0
INSERT
  5
AC
330
1F
100
AcDbEntity
  8
_U+30EC_U+30A4_U+30E4_U+30FC 1
100
AcDbBlockReference
  2
block 6
 10
0.0
 20
0.0
 30
0.0
  0
POLYLINE
  5
B1
330
1F
100
AcDbEntity
  8
_U+30EC_U+30A4_U+30E4_U+30FC 1
 62
   179
420
  2234388
370
    25
100
AcDb2dPolyline
 66
     1
 10
0.0
 20
0.0
 30
0.0
  0
VERTEX
  5
B2
330
B1
100
AcDbEntity
  8
_U+30EC_U+30A4_U+30E4_U+30FC 1
 62
   179
420
  2234388
370
    25
100
AcDbVertex
100
AcDb2dVertex
 10
50.20433344140297
 20
-96.17533608706714
 30
0.0
  0
VERTEX
  5
B3
330
B1
100
AcDbEntity
  8
_U+30EC_U+30A4_U+30E4_U+30FC 1
 62
   179
420
  2234388
370
    25
100
AcDbVertex
100
AcDb2dVertex
 10
50.20433344140297
 20
-85.47523331196466
 30
0.0
  0
VERTEX
  5
B4
330
B1
100
AcDbEntity
  8
_U+30EC_U+30A4_U+30E4_U+30FC 1
 62
   179
420
  2234388
370
    25
100
AcDbVertex
100
AcDb2dVertex
 10
72.40453259725092
 20
-85.47523331196466
 30
0.0
  0
VERTEX
  5
B5
330
B1
100
AcDbEntity
  8
_U+30EC_U+30A4_U+30E4_U+30FC 1
 62
   179
420
  2234388
370
    25
100
AcDbVertex
100
AcDb2dVertex
 10
72.40453259725092
 20
-84.67527442327571
 30
0.0
  0
VERTEX
  5
B6
330
B1
100
AcDbEntity
  8
_U+30EC_U+30A4_U+30E4_U+30FC 1
 62
   179
420
  2234388
370
    25
100
AcDbVertex
100
AcDb2dVertex
 10
49.40437457292273
 20
-84.67527442327571
 30
0.0
  0
VERTEX
  5
B7
330
B1
100
AcDbEntity
  8
_U+30EC_U+30A4_U+30E4_U+30FC 1
 62
   179
420
  2234388
370
    25
100
AcDbVertex
100
AcDb2dVertex
 10
49.40437457292273
 20
-96.99356886464047
 30
0.0
  0
VERTEX
  5
B8
330
B1
100
AcDbEntity
  8
_U+30EC_U+30A4_U+30E4_U+30FC 1
 62
   179
420
  2234388
370
    25
100
AcDbVertex
100
AcDb2dVertex
 10
59.40446015113262
 20
-96.9752949757564
 30
0.0
  0
VERTEX
  5
B9
330
B1
100
AcDbEntity
  8
_U+30EC_U+30A4_U+30E4_U+30FC 1
 62
   179
420
  2234388
370
    25
100
AcDbVertex
100
AcDb2dVertex
 10
59.40446015113262
 20
-93.97530803206142
 30
0.0
  0
VERTEX
  5
BA
330
B1
100
AcDbEntity
  8
_U+30EC_U+30A4_U+30E4_U+30FC 1
 62
   179
420
  2234388
370
    25
100
AcDbVertex
100
AcDb2dVertex
 10
55.40438358651642
 20
-93.97530803206142
 30
0.0
  0
VERTEX
  5
BB
330
B1
100
AcDbEntity
  8
_U+30EC_U+30A4_U+30E4_U+30FC 1
 62
   179
420
  2234388
370
    25
100
AcDbVertex
100
AcDb2dVertex
 10
55.40438358651642
 20
-94.77526692075068
 30
0.0
  0
VERTEX
  5
BC
330
B1
100
AcDbEntity
  8
_U+30EC_U+30A4_U+30E4_U+30FC 1
 62
   179
420
  2234388
370
    25
100
AcDbVertex
100
AcDb2dVertex
 10
58.60450276312651
 20
-94.77526692075068
 30
0.0
  0
VERTEX
  5
BD
330
B1
100
AcDbEntity
  8
_U+30EC_U+30A4_U+30E4_U+30FC 1
 62
   179
420
  2234388
370
    25
100
AcDbVertex
100
AcDb2dVertex
 10
58.60450276312651
 20
-96.17533608706714
 30
0.0
  0
VERTEX
  5
BE
330
B1
100
AcDbEntity
  8
_U+30EC_U+30A4_U+30E4_U+30FC 1
 62
   179
420
  2234388
370
    25
100
AcDbVertex
100
AcDb2dVertex
 10
50.20433344140297
 20
-96.17533608706714
 30
0.0
  0
SEQEND
  5
BF
330
B1
100
AcDbEntity
  8
_U+30EC_U+30A4_U+30E4_U+30FC 1
 62
   179
420
  2234388
370
    25
  0
ENDSEC
  0
SECTION
  2
OBJECTS
  0
DICTIONARY
  5
C
330
0
100
AcDbDictionary
281
     1
  3
ACAD_GROUP
350
D
  3
ACAD_LAYOUT
350
1A
  3
ACAD_MATERIAL
350
3B
  3
ACAD_MLEADERSTYLE
350
C1
  3
ACAD_MLINESTYLE
350
17
  3
ACAD_PLOTSETTINGS
350
19
  3
ACAD_PLOTSTYLENAME
350
E
  3
ACAD_TABLESTYLE
350
C0
  3
ACAD_VISUALSTYLE
350
2A
  0
SUN
  5
3F
330
29
100
AcDbSun
 90
        1
290
     0
 63
     7
421
 16777215
 40
1.0
291
     1
 91
  2455826
 92
 54000000
292
     0
 70
     2
 71
   256
280
     1
  0
DICTIONARY
  5
D
102
{ACAD_REACTORS
330
C
102
}
330
C
100
AcDbDictionary
281
     1
  0
DICTIONARY
  5
1A
102
{ACAD_REACTORS
330
C
102
}
330
C
100
AcDbDictionary
281
     1
  3
Layout1
350
1E
  3
Layout2
350
26
  3
Model
350
22
  0
DICTIONARY
  5
3B
102
{ACAD_REACTORS
330
C
102
}
330
C
100
AcDbDictionary
281
     1
  3
ByBlock
350
3D
  3
ByLayer
350
3C
  3
Global
350
3E
  0
DICTIONARY
  5
C1
102
{ACAD_REACTORS
330
C
102
}
330
C
100
AcDbDictionary
281
     1
  0
DICTIONARY
  5
17
102
{ACAD_REACTORS
330
C
102
}
330
C
100
AcDbDictionary
281
     1
  3
Standard
350
18
  0
DICTIONARY
  5
19
102
{ACAD_REACTORS
330
C
102
}
330
C
100
AcDbDictionary
281
     1
  0
ACDBDICTIONARYWDFLT
  5
E
102
{ACAD_REACTORS
330
C
102
}
330
C
100
AcDbDictionary
281
     1
  3
Normal
350
F
100
AcDbDictionaryWithDefault
340
F
  0
DICTIONARY
  5
C0
102
{ACAD_REACTORS
330
C
102
}
330
C
100
AcDbDictionary
281
     1
  0
DICTIONARY
  5
2A
102
{ACAD_REACTORS
330
C
102
}
330
C
100
AcDbDictionary
281
     1
  3
2dWireframe
350
2F
  3
3D Hidden
350
31
  3
3dWireframe
350
30
  3
Basic
350
32
  3
Brighten
350
36
  3
ColorChange
350
3A
  3
Conceptual
350
34
  3
Dim
350
35
  3
Facepattern
350
39
  3
Flat
350
2B
  3
FlatWithEdges
350
2C
  3
Gouraud
350
2D
  3
GouraudWithEdges
350
2E
  3
Linepattern
350
38
  3
Realistic
350
33
  3
Thicken
350
37
  0
LAYOUT
  5
1E
102
{ACAD_REACTORS
330
1A
102
}
330
1A
100
AcDbPlotSettings
  1

  2
none_device
  4

  6

 40
0.0
 41
0.0
 42
0.0
 43
0.0
 44
0.0
 45
0.0
 46
0.0
 47
0.0
 48
0.0
 49
0.0
140
0.0
141
0.0
142
1.0
143
1.0
 70
   688
 72
     0
 73
     0
 74
     5
  7

 75
    16
 76
     0
 77
     2
 78
   300
147
1.0
148
0.0
149
0.0
100
AcDbLayout
  1
Layout1
 70
     1
 71
     1
 10
0.0
 20
0.0
 11
12.0
 21
9.0
 12
0.0
 22
0.0
 32
0.0
 14
1.000000000000000E+20
 24
1.000000000000000E+20
 34
1.000000000000000E+20
 15
-1.000000000000000E+20
 25
-1.000000000000000E+20
 35
-1.000000000000000E+20
146
0.0
 13
0.0
 23
0.0
 33
0.0
 16
1.0
 26
0.0
 36
0.0
 17
0.0
 27
1.0
 37
0.0
 76
     0
330
1B
  0
LAYOUT
  5
26
102
{ACAD_REACTORS
330
1A
102
}
330
1A
100
AcDbPlotSettings
  1

  2
none_device
  4

  6

 40
0.0
 41
0.0
 42
0.0
 43
0.0
 44
0.0
 45
0.0
 46
0.0
 47
0.0
 48
0.0
 49
0.0
140
0.0
141
0.0
142
1.0
143
1.0
 70
   688
 72
     0
 73
     0
 74
     5
  7

 75
    16
 76
     0
 77
     2
 78
   300
147
1.0
148
0.0
149
0.0
100
AcDbLayout
  1
Layout2
 70
     1
 71
     2
 10
0.0
 20
0.0
 11
0.0
 21
0.0
 12
0.0
 22
0.0
 32
0.0
 14
0.0
 24
0.0
 34
0.0
 15
0.0
 25
0.0
 35
0.0
146
0.0
 13
0.0
 23
0.0
 33
0.0
 16
1.0
 26
0.0
 36
0.0
 17
0.0
 27
1.0
 37
0.0
 76
     0
330
23
  0
LAYOUT
  5
22
102
{ACAD_REACTORS
330
1A
102
}
330
1A
100
AcDbPlotSettings
  1

  2
none_device
  4

  6

 40
0.0
 41
0.0
 42
0.0
 43
0.0
 44
0.0
 45
0.0
 46
0.0
 47
0.0
 48
0.0
 49
0.0
140
0.0
141
0.0
142
1.0
143
1.0
 70
  1712
 72
     0
 73
     0
 74
     0
  7

 75
     0
 76
     0
 77
     2
 78
   300
147
1.0
148
0.0
149
0.0
100
AcDbLayout
  1
Model
 70
     1
 71
     0
 10
0.0
 20
0.0
 11
12.0
 21
9.0
 12
0.0
 22
0.0
 32
0.0
 14
1.000000000000000E+20
 24
1.000000000000000E+20
 34
1.000000000000000E+20
 15
-1.000000000000000E+20
 25
-1.000000000000000E+20
 35
-1.000000000000000E+20
146
0.0
 13
0.0
 23
0.0
 33
0.0
 16
1.0
 26
0.0
 36
0.0
 17
0.0
 27
1.0
 37
0.0
 76
     0
330
1F
331
29
  0
MATERIAL
  5
3D
102
{ACAD_REACTORS
330
3B
102
}
330
3B
100
AcDbMaterial
  1
ByBlock
 72
     1
 94
      127
  0
MATERIAL
  5
3C
102
{ACAD_REACTORS
330
3B
102
}
330
3B
100
AcDbMaterial
  1
ByLayer
 72
     1
 94
      127
  0
MATERIAL
  5
3E
102
{ACAD_REACTORS
330
3B
102
}
330
3B
100
AcDbMaterial
  1
Global
 72
     1
 94
      127
  0
MLINESTYLE
  5
18
102
{ACAD_REACTORS
330
17
102
}
330
17
100
AcDbMlineStyle
  2
Standard
 70
     0
  3

 62
   256
 51
90.0
 52
90.0
 71
     2
 49
0.5
 62
   256
  6
BYLAYER
 49
-0.5
 62
   256
  6
BYLAYER
  0
ACDBPLACEHOLDER
  5
F
102
{ACAD_REACTORS
330
E
102
}
330
E
  0
VISUALSTYLE
  5
2F
102
{ACAD_REACTORS
330
2A
102
}
330
2A
100
AcDbVisualStyle
  2
2dWireframe
 70
     4
177
     2
291
     0
 71
     0
176
     1
 72
     2
176
     1
 73
     0
176
     1
 90
        0
176
     1
 40
-0.6
176
     1
 41
-30.0
176
     1
 62
     5
 63
     7
421
 16777215
176
     1
 74
     1
176
     1
 91
        4
176
     1
 64
     7
176
     1
 65
   257
176
     1
 75
     1
176
     1
175
     1
176
     1
 42
1.0
176
     1
 92
        0
176
     1
 66
   257
176
     1
 43
1.0
176
     1
 76
     1
176
     1
 77
     6
176
     1
 78
     2
176
     1
 67
     7
176
     1
 79
     5
176
     1
170
     0
176
     1
171
     0
176
     1
290
     0
176
     1
 93
        1
176
     1
 44
0.0
176
     1
173
     0
176
     1
  0
VISUALSTYLE
  5
31
102
{ACAD_REACTORS
330
2A
102
}
330
2A
100
AcDbVisualStyle
  2
3D Hidden
 70
     6
177
     2
291
     0
 71
     1
176
     1
 72
     2
176
     1
 73
     2
176
     1
 90
        0
176
     1
 40
-0.6
176
     1
 41
-30.0
176
     1
 62
     5
 63
     7
421
 16777215
176
     1
 74
     2
176
     1
 91
        2
176
     1
 64
     7
176
     1
 65
   257
176
     1
 75
     2
176
     1
175
     1
176
     1
 42
40.0
176
     1
 92
        0
176
     1
 66
   257
176
     1
 43
1.0
176
     1
 76
     1
176
     1
 77
     6
176
     1
 78
     2
176
     1
 67
     7
176
     1
 79
     3
176
     1
170
     0
176
     1
171
     0
176
     1
290
     0
176
     1
 93
        1
176
     1
 44
0.0
176
     1
173
     0
176
     1
  0
VISUALSTYLE
  5
30
102
{ACAD_REACTORS
330
2A
102
}
330
2A
100
AcDbVisualStyle
  2
3dWireframe
 70
     5
177
     2
291
     0
 71
     0
176
     1
 72
     2
176
     1
 73
     0
176
     1
 90
        0
176
     1
 40
-0.6
176
     1
 41
-30.0
176
     1
 62
     5
 63
     7
421
 16777215
176
     1
 74
     1
176
     1
 91
        4
176
     1
 64
     7
176
     1
 65
   257
176
     1
 75
     1
176
     1
175
     1
176
     1
 42
1.0
176
     1
 92
        0
176
     1
 66
   257
176
     1
 43
1.0
176
     1
 76
     1
176
     1
 77
     6
176
     1
 78
     2
176
     1
 67
     7
176
     1
 79
     5
176
     1
170
     0
176
     1
171
     0
176
     1
290
     0
176
     1
 93
        1
176
     1
 44
0.0
176
     1
173
     0
176
     1
  0
VISUALSTYLE
  5
32
102
{ACAD_REACTORS
330
2A
102
}
330
2A
100
AcDbVisualStyle
  2
Basic
 70
     7
177
     2
291
     1
 71
     1
176
     1
 72
     0
176
     1
 73
     1
176
     1
 90
        0
176
     1
 40
-0.6
176
     1
 41
-30.0
176
     1
 62
     5
 63
     7
421
 16777215
176
     1
 74
     0
176
     1
 91
        4
176
     1
 64
     7
176
     1
 65
   257
176
     1
 75
     1
176
     1
175
     1
176
     1
 42
1.0
176
     1
 92
        8
176
     1
 66
     7
176
     1
 43
1.0
176
     1
 76
     1
176
     1
 77
     6
176
     1
 78
     2
176
     1
 67
     7
176
     1
 79
     5
176
     1
170
     0
176
     1
171
     0
176
     1
290
     0
176
     1
 93
        1
176
     1
 44
0.0
176
     1
173
     0
176
     1
  0
VISUALSTYLE
  5
36
102
{ACAD_REACTORS
330
2A
102
}
330
2A
100
AcDbVisualStyle
  2
Brighten
 70
    12
177
     2
291
     1
 71
     2
176
     1
 72
     2
176
     1
 73
     0
176
     1
 90
        0
176
     1
 40
-0.6
176
     1
 41
-30.0
176
     1
 62
     5
 63
     7
421
 16777215
176
     1
 74
     1
176
     1
 91
        4
176
     1
 64
     7
176
     1
 65
   257
176
     1
 75
     1
176
     1
175
     1
176
     1
 42
1.0
176
     1
 92
        8
176
     1
 66
     7
176
     1
 43
1.0
176
     1
 76
     1
176
     1
 77
     6
176
     1
 78
     2
176
     1
 67
     7
176
     1
 79
     5
176
     1
170
     0
176
     1
171
     0
176
     1
290
     0
176
     1
 93
        1
176
     1
 44
50.0
176
     1
173
     0
176
     1
  0
VISUALSTYLE
  5
3A
102
{ACAD_REACTORS
330
2A
102
}
330
2A
100
AcDbVisualStyle
  2
ColorChange
 70
    16
177
     2
291
     1
 71
     2
176
     1
 72
     2
176
     1
 73
     3
176
     1
 90
        0
176
     1
 40
-0.6
176
     1
 41
-30.0
176
     1
 62
     5
 63
     8
421
  8421504
176
     1
 74
     1
176
     1
 91
        4
176
     1
 64
     7
176
     1
 65
   257
176
     1
 75
     1
176
     1
175
     1
176
     1
 42
1.0
176
     1
 92
        8
176
     1
 66
     8
424
  8421504
176
     1
 43
1.0
176
     1
 76
     1
176
     1
 77
     6
176
     1
 78
     2
176
     1
 67
     7
176
     1
 79
     5
176
     1
170
     0
176
     1
171
     0
176
     1
290
     0
176
     1
 93
        1
176
     1
 44
0.0
176
     1
173
     0
176
     1
  0
VISUALSTYLE
  5
34
102
{ACAD_REACTORS
330
2A
102
}
330
2A
100
AcDbVisualStyle
  2
Conceptual
 70
     9
177
     2
291
     0
 71
     3
176
     1
 72
     2
176
     1
 73
     0
176
     1
 90
        0
176
     1
 40
-0.6
176
     1
 41
-30.0
176
     1
 62
     5
 63
     7
421
 16777215
176
     1
 74
     2
176
     1
 91
        2
176
     1
 64
     7
176
     1
 65
   257
176
     1
 75
     1
176
     1
175
     1
176
     1
 42
40.0
176
     1
 92
        8
176
     1
 66
     7
176
     1
 43
1.0
176
     1
 76
     1
176
     1
 77
     6
176
     1
 78
     2
176
     1
 67
     7
176
     1
 79
     3
176
     1
170
     0
176
     1
171
     0
176
     1
290
     0
176
     1
 93
        1
176
     1
 44
0.0
176
     1
173
     0
176
     1
  0
VISUALSTYLE
  5
35
102
{ACAD_REACTORS
330
2A
102
}
330
2A
100
AcDbVisualStyle
  2
Dim
 70
    11
177
     2
291
     1
 71
     2
176
     1
 72
     2
176
     1
 73
     0
176
     1
 90
        0
176
     1
 40
-0.6
176
     1
 41
-30.0
176
     1
 62
     5
 63
     7
421
 16777215
176
     1
 74
     1
176
     1
 91
        4
176
     1
 64
     7
176
     1
 65
   257
176
     1
 75
     1
176
     1
175
     1
176
     1
 42
1.0
176
     1
 92
        8
176
     1
 66
     7
176
     1
 43
1.0
176
     1
 76
     1
176
     1
 77
     6
176
     1
 78
     2
176
     1
 67
     7
176
     1
 79
     5
176
     1
170
     0
176
     1
171
     0
176
     1
290
     0
176
     1
 93
        1
176
     1
 44
-50.0
176
     1
173
     0
176
     1
  0
VISUALSTYLE
  5
39
102
{ACAD_REACTORS
330
2A
102
}
330
2A
100
AcDbVisualStyle
  2
Facepattern
 70
    15
177
     2
291
     1
 71
     2
176
     1
 72
     2
176
     1
 73
     0
176
     1
 90
        0
176
     1
 40
-0.6
176
     1
 41
-30.0
176
     1
 62
     5
 63
     7
421
 16777215
176
     1
 74
     1
176
     1
 91
        4
176
     1
 64
     7
176
     1
 65
   257
176
     1
 75
     1
176
     1
175
     1
176
     1
 42
1.0
176
     1
 92
        8
176
     1
 66
     7
176
     1
 43
1.0
176
     1
 76
     1
176
     1
 77
     6
176
     1
 78
     2
176
     1
 67
     7
176
     1
 79
     5
176
     1
170
     0
176
     1
171
     0
176
     1
290
     0
176
     1
 93
        1
176
     1
 44
0.0
176
     1
173
     0
176
     1
  0
VISUALSTYLE
  5
2B
102
{ACAD_REACTORS
330
2A
102
}
330
2A
100
AcDbVisualStyle
  2
Flat
 70
     0
177
     2
291
     1
 71
     2
176
     1
 72
     1
176
     1
 73
     1
176
     1
 90
        2
176
     1
 40
-0.6
176
     1
 41
30.0
176
     1
 62
     5
 63
     7
421
 16777215
176
     1
 74
     0
176
     1
 91
        4
176
     1
 64
     7
176
     1
 65
   257
176
     1
 75
     1
176
     1
175
     1
176
     1
 42
1.0
176
     1
 92
        8
176
     1
 66
     7
176
     1
 43
1.0
176
     1
 76
     1
176
     1
 77
     6
176
     1
 78
     2
176
     1
 67
     7
176
     1
 79
     5
176
     1
170
     0
176
     1
171
     0
176
     1
290
     0
176
     1
 93
       13
176
     1
 44
0.0
176
     1
173
     0
176
     1
  0
VISUALSTYLE
  5
2C
102
{ACAD_REACTORS
330
2A
102
}
330
2A
100
AcDbVisualStyle
  2
FlatWithEdges
 70
     1
177
     2
291
     1
 71
     2
176
     1
 72
     1
176
     1
 73
     1
176
     1
 90
        2
176
     1
 40
-0.6
176
     1
 41
30.0
176
     1
 62
     5
 63
     7
421
 16777215
176
     1
 74
     1
176
     1
 91
        4
176
     1
 64
     7
176
     1
 65
   257
176
     1
 75
     1
176
     1
175
     1
176
     1
 42
1.0
176
     1
 92
        0
176
     1
 66
   257
176
     1
 43
1.0
176
     1
 76
     1
176
     1
 77
     6
176
     1
 78
     2
176
     1
 67
     7
176
     1
 79
     5
176
     1
170
     0
176
     1
171
     0
176
     1
290
     0
176
     1
 93
       13
176
     1
 44
0.0
176
     1
173
     0
176
     1
  0
VISUALSTYLE
  5
2D
102
{ACAD_REACTORS
330
2A
102
}
330
2A
100
AcDbVisualStyle
  2
Gouraud
 70
     2
177
     2
291
     1
 71
     2
176
     1
 72
     2
176
     1
 73
     1
176
     1
 90
        2
176
     1
 40
-0.6
176
     1
 41
30.0
176
     1
 62
     5
 63
     7
421
 16777215
176
     1
 74
     0
176
     1
 91
        4
176
     1
 64
     7
176
     1
 65
   257
176
     1
 75
     1
176
     1
175
     1
176
     1
 42
1.0
176
     1
 92
        0
176
     1
 66
     7
176
     1
 43
1.0
176
     1
 76
     1
176
     1
 77
     6
176
     1
 78
     2
176
     1
 67
     7
176
     1
 79
     5
176
     1
170
     0
176
     1
171
     0
176
     1
290
     0
176
     1
 93
       13
176
     1
 44
0.0
176
     1
173
     0
176
     1
  0
VISUALSTYLE
  5
2E
102
{ACAD_REACTORS
330
2A
102
}
330
2A
100
AcDbVisualStyle
  2
GouraudWithEdges
 70
     3
177
     2
291
     1
 71
     2
176
     1
 72
     2
176
     1
 73
     1
176
     1
 90
        2
176
     1
 40
-0.6
176
     1
 41
30.0
176
     1
 62
     5
 63
     7
421
 16777215
176
     1
 74
     1
176
     1
 91
        4
176
     1
 64
     7
176
     1
 65
   257
176
     1
 75
     1
176
     1
175
     1
176
     1
 42
1.0
176
     1
 92
        0
176
     1
 66
   257
176
     1
 43
1.0
176
     1
 76
     1
176
     1
 77
     6
176
     1
 78
     2
176
     1
 67
     7
176
     1
 79
     5
176
     1
170
     0
176
     1
171
     0
176
     1
290
     0
176
     1
 93
       13
176
     1
 44
0.0
176
     1
173
     0
176
     1
  0
VISUALSTYLE
  5
38
102
{ACAD_REACTORS
330
2A
102
}
330
2A
100
AcDbVisualStyle
  2
Linepattern
 70
    14
177
     2
291
     1
 71
     2
176
     1
 72
     2
176
     1
 73
     0
176
     1
 90
        0
176
     1
 40
-0.6
176
     1
 41
-30.0
176
     1
 62
     5
 63
     7
421
 16777215
176
     1
 74
     1
176
     1
 91
        4
176
     1
 64
     7
176
     1
 65
   257
176
     1
 75
     7
176
     1
175
     7
176
     1
 42
1.0
176
     1
 92
        8
176
     1
 66
     7
176
     1
 43
1.0
176
     1
 76
     1
176
     1
 77
     6
176
     1
 78
     2
176
     1
 67
     7
176
     1
 79
     5
176
     1
170
     0
176
     1
171
     0
176
     1
290
     0
176
     1
 93
        1
176
     1
 44
0.0
176
     1
173
     0
176
     1
  0
VISUALSTYLE
  5
33
102
{ACAD_REACTORS
330
2A
102
}
330
2A
100
AcDbVisualStyle
  2
Realistic
 70
     8
177
     2
291
     0
 71
     2
176
     1
 72
     2
176
     1
 73
     0
176
     1
 90
        0
176
     1
 40
-0.6
176
     1
 41
-30.0
176
     1
 62
     5
 63
     7
421
 16777215
176
     1
 74
     1
176
     1
 91
        0
176
     1
 64
     7
176
     1
 65
   257
176
     1
 75
     1
176
     1
175
     1
176
     1
 42
1.0
176
     1
 92
        8
176
     1
 66
     8
424
  7895160
176
     1
 43
1.0
176
     1
 76
     1
176
     1
 77
     6
176
     1
 78
     2
176
     1
 67
     7
176
     1
 79
     5
176
     1
170
     0
176
     1
171
     0
176
     1
290
     0
176
     1
 93
       13
176
     1
 44
0.0
176
     1
173
     0
176
     1
  0
VISUALSTYLE
  5
37
102
{ACAD_REACTORS
330
2A
102
}
330
2A
100
AcDbVisualStyle
  2
Thicken
 70
    13
177
     2
291
     1
 71
     2
176
     1
 72
     2
176
     1
 73
     0
176
     1
 90
        0
176
     1
 40
-0.6
176
     1
 41
-30.0
176
     1
 62
     5
 63
     7
421
 16777215
176
     1
 74
     1
176
     1
 91
        4
176
     1
 64
     7
176
     1
 65
   257
176
     1
 75
     1
176
     1
175
     1
176
     1
 42
1.0
176
     1
 92
       12
176
     1
 66
     7
176
     1
 43
1.0
176
     1
 76
     1
176
     1
 77
     6
176
     1
 78
     2
176
     1
 67
     7
176
     1
 79
     5
176
     1
170
     0
176
     1
171
     0
176
     1
290
     0
176
     1
 93
        1
176
     1
 44
0.0
176
     1
173
     0
176
     1
  0
ENDSEC
  0
EOF
