  0
SECTION
  2
HEADER
  9
$ACADVER
  1
AC1024
  9
$ACADMAINTVER
 70
     6
  9
$DWGCODEPAGE
  3
UNDEFINED
  9
$INSBASE
 10
0.0
 20
0.0
 30
0.0
  9
$EXTMIN
 10
1.000000000000000E+20
 20
1.000000000000000E+20
 30
1.000000000000000E+20
  9
$EXTMAX
 10
-1.000000000000000E+20
 20
-1.000000000000000E+20
 30
-1.000000000000000E+20
  9
$LIMMIN
 10
0.0
 20
0.0
  9
$LIMMAX
 10
12.0
 20
9.0
  9
$ORTHOMODE
 70
     0
  9
$REGENMODE
 70
     1
  9
$FILLMODE
 70
     1
  9
$QTEXTMODE
 70
     0
  9
$MIRRTEXT
 70
     1
  9
$LTSCALE
 40
1.0
  9
$ATTMODE
 70
     1
  9
$TEXTSIZE
 40
0.2
  9
$TRACEWID
 40
0.05
  9
$TEXTSTYLE
  7
Standard
  9
$CLAYER
  8
0
  9
$CELTYPE
  6
ByLayer
  9
$CECOLOR
 62
   256
  9
$CELTSCALE
 40
1.0
  9
$DISPSILH
 70
     0
  9
$DIMSCALE
 40
1.0
  9
$DIMASZ
 40
0.18
  9
$DIMEXO
 40
0.0625
  9
$DIMDLI
 40
0.38
  9
$DIMRND
 40
0.0
  9
$DIMDLE
 40
0.0
  9
$DIMEXE
 40
0.18
  9
$DIMTP
 40
0.0
  9
$DIMTM
 40
0.0
  9
$DIMTXT
 40
0.18
  9
$DIMCEN
 40
0.09
  9
$DIMTSZ
 40
0.0
  9
$DIMTOL
 70
     0
  9
$DIMLIM
 70
     0
  9
$DIMTIH
 70
     1
  9
$DIMTOH
 70
     1
  9
$DIMSE1
 70
     0
  9
$DIMSE2
 70
     0
  9
$DIMTAD
 70
     0
  9
$DIMZIN
 70
     0
  9
$DIMBLK
  1

  9
$DIMASO
 70
     1
  9
$DIMSHO
 70
     1
  9
$DIMPOST
  1

  9
$DIMAPOST
  1

  9
$DIMALT
 70
     0
  9
$DIMALTD
 70
     2
  9
$DIMALTF
 40
25.4
  9
$DIMLFAC
 40
1.0
  9
$DIMTOFL
 70
     0
  9
$DIMTVP
 40
0.0
  9
$DIMTIX
 70
     0
  9
$DIMSOXD
 70
     0
  9
$DIMSAH
 70
     0
  9
$DIMBLK1
  1

  9
$DIMBLK2
  1

  9
$DIMSTYLE
  2
Standard
  9
$DIMCLRD
 70
     0
  9
$DIMCLRE
 70
     0
  9
$DIMCLRT
 70
     0
  9
$DIMTFAC
 40
1.0
  9
$DIMGAP
 40
0.09
  9
$DIMJUST
 70
     0
  9
$DIMSD1
 70
     0
  9
$DIMSD2
 70
     0
  9
$DIMTOLJ
 70
     1
  9
$DIMTZIN
 70
     0
  9
$DIMALTZ
 70
     0
  9
$DIMALTTZ
 70
     0
  9
$DIMUPT
 70
     0
  9
$DIMDEC
 70
     4
  9
$DIMTDEC
 70
     4
  9
$DIMALTU
 70
     2
  9
$DIMALTTD
 70
     2
  9
$DIMTXSTY
  7
Standard
  9
$DIMAUNIT
 70
     0
  9
$DIMADEC
 70
     0
  9
$DIMALTRND
 40
0.0
  9
$DIMAZIN
 70
     0
  9
$DIMDSEP
 70
    46
  9
$DIMATFIT
 70
     3
  9
$DIMFRAC
 70
     0
  9
$DIMLDRBLK
  1

  9
$DIMLUNIT
 70
     2
  9
$DIMLWD
 70
    -2
  9
$DIMLWE
 70
    -2
  9
$DIMTMOVE
 70
     0
  9
$DIMFXL
 40
1.0
  9
$DIMFXLON
 70
     0
  9
$DIMJOGANG
 40
0.7853981633974483
  9
$DIMTFILL
 70
     0
  9
$DIMTFILLCLR
 70
     0
  9
$DIMARCSYM
 70
     0
  9
$DIMLTYPE
  6

  9
$DIMLTEX1
  6

  9
$DIMLTEX2
  6

  9
$DIMTXTDIRECTION
 70
     0
  9
$LUNITS
 70
     2
  9
$LUPREC
 70
     4
  9
$SKETCHINC
 40
0.1
  9
$FILLETRAD
 40
0.5
  9
$AUNITS
 70
     0
  9
$AUPREC
 70
     0
  9
$MENU
  1
.
  9
$ELEVATION
 40
0.0
  9
$PELEVATION
 40
0.0
  9
$THICKNESS
 40
0.0
  9
$LIMCHECK
 70
     0
  9
$CHAMFERA
 40
0.5
  9
$CHAMFERB
 40
0.5
  9
$CHAMFERC
 40
1.0
  9
$CHAMFERD
 40
0.0
  9
$SKPOLY
 70
     0
  9
$TDCREATE
 40
2457917.589675926
  9
$TDUCREATE
 40
2457917.214675926
  9
$TDUPDATE
 40
2457917.589675926
  9
$TDUUPDATE
 40
2457917.214675926
  9
$TDINDWG
 40
0.0000000116
  9
$TDUSRTIMER
 40
0.0000000116
  9
$USRTIMER
 70
     1
  9
$ANGBASE
 50
0.0
  9
$ANGDIR
 70
     0
  9
$PDMODE
 70
     0
  9
$PDSIZE
 40
0.0
  9
$PLINEWID
 40
0.0
  9
$SPLFRAME
 70
     0
  9
$SPLINETYPE
 70
     6
  9
$SPLINESEGS
 70
     8
  9
$HANDSEED
  5
124
  9
$SURFTAB1
 70
     6
  9
$SURFTAB2
 70
     6
  9
$SURFTYPE
 70
     6
  9
$SURFU
 70
     6
  9
$SURFV
 70
     6
  9
$UCSBASE
  2

  9
$UCSNAME
  2

  9
$UCSORG
 10
0.0
 20
0.0
 30
0.0
  9
$UCSXDIR
 10
1.0
 20
0.0
 30
0.0
  9
$UCSYDIR
 10
0.0
 20
1.0
 30
0.0
  9
$UCSORTHOREF
  2

  9
$UCSORTHOVIEW
 70
     0
  9
$UCSORGTOP
 10
0.0
 20
0.0
 30
0.0
  9
$UCSORGBOTTOM
 10
0.0
 20
0.0
 30
0.0
  9
$UCSORGLEFT
 10
0.0
 20
0.0
 30
0.0
  9
$UCSORGRIGHT
 10
0.0
 20
0.0
 30
0.0
  9
$UCSORGFRONT
 10
0.0
 20
0.0
 30
0.0
  9
$UCSORGBACK
 10
0.0
 20
0.0
 30
0.0
  9
$PUCSBASE
  2

  9
$PUCSNAME
  2

  9
$PUCSORG
 10
0.0
 20
0.0
 30
0.0
  9
$PUCSXDIR
 10
1.0
 20
0.0
 30
0.0
  9
$PUCSYDIR
 10
0.0
 20
1.0
 30
0.0
  9
$PUCSORTHOREF
  2

  9
$PUCSORTHOVIEW
 70
     0
  9
$PUCSORGTOP
 10
0.0
 20
0.0
 30
0.0
  9
$PUCSORGBOTTOM
 10
0.0
 20
0.0
 30
0.0
  9
$PUCSORGLEFT
 10
0.0
 20
0.0
 30
0.0
  9
$PUCSORGRIGHT
 10
0.0
 20
0.0
 30
0.0
  9
$PUCSORGFRONT
 10
0.0
 20
0.0
 30
0.0
  9
$PUCSORGBACK
 10
0.0
 20
0.0
 30
0.0
  9
$USERI1
 70
     0
  9
$USERI2
 70
     0
  9
$USERI3
 70
     0
  9
$USERI4
 70
     0
  9
$USERI5
 70
     0
  9
$USERR1
 40
0.0
  9
$USERR2
 40
0.0
  9
$USERR3
 40
0.0
  9
$USERR4
 40
0.0
  9
$USERR5
 40
0.0
  9
$WORLDVIEW
 70
     1
  9
$SHADEDGE
 70
     3
  9
$SHADEDIF
 70
    70
  9
$TILEMODE
 70
     1
  9
$MAXACTVP
 70
    64
  9
$PINSBASE
 10
0.0
 20
0.0
 30
0.0
  9
$PLIMCHECK
 70
     0
  9
$PEXTMIN
 10
1.000000000000000E+20
 20
1.000000000000000E+20
 30
1.000000000000000E+20
  9
$PEXTMAX
 10
-1.000000000000000E+20
 20
-1.000000000000000E+20
 30
-1.000000000000000E+20
  9
$PLIMMIN
 10
0.0
 20
0.0
  9
$PLIMMAX
 10
12.0
 20
9.0
  9
$UNITMODE
 70
     0
  9
$VISRETAIN
 70
     1
  9
$PLINEGEN
 70
     0
  9
$PSLTSCALE
 70
     1
  9
$TREEDEPTH
 70
  3020
  9
$CMLSTYLE
  2
Standard
  9
$CMLJUST
 70
     0
  9
$CMLSCALE
 40
1.0
  9
$PROXYGRAPHICS
 70
     1
  9
$MEASUREMENT
 70
     0
  9
$CELWEIGHT
370
    -1
  9
$ENDCAPS
280
     0
  9
$JOINSTYLE
280
     0
  9
$LWDISPLAY
290
     1
  9
$INSUNITS
 70
     1
  9
$HYPERLINKBASE
  1

  9
$STYLESHEET
  1

  9
$XEDIT
290
     1
  9
$CEPSNTYPE
380
     0
  9
$PSTYLEMODE
290
     1
  9
$FINGERPRINTGUID
  2
{55BF8509-D117-CCD8-2FDA-4AD1412607E4}
  9
$VERSIONGUID
  2
{FAEB1C32-E019-11D5-929B-00C0DF256EC4}
  9
$EXTNAMES
290
     1
  9
$PSVPSCALE
 40
0.0
  9
$OLESTARTUP
290
     0
  9
$SORTENTS
280
   127
  9
$INDEXCTL
280
     0
  9
$HIDETEXT
280
     1
  9
$XCLIPFRAME
280
     2
  9
$HALOGAP
280
     0
  9
$OBSCOLOR
 70
   257
  9
$OBSLTYPE
280
     0
  9
$INTERSECTIONDISPLAY
280
     0
  9
$INTERSECTIONCOLOR
 70
   257
  9
$DIMASSOC
280
     2
  9
$PROJECTNAME
  1

  9
$CAMERADISPLAY
290
     0
  9
$LENSLENGTH
 40
50.0
  9
$CAMERAHEIGHT
 40
0.0
  9
$STEPSPERSEC
 40
2.0
  9
$STEPSIZE
 40
6.0
  9
$3DDWFPREC
 40
2.0
  9
$PSOLWIDTH
 40
0.25
  9
$PSOLHEIGHT
 40
4.0
  9
$LOFTANG1
 40
1.570796326794897
  9
$LOFTANG2
 40
1.570796326794897
  9
$LOFTMAG1
 40
0.0
  9
$LOFTMAG2
 40
0.0
  9
$LOFTPARAM
 70
     7
  9
$LOFTNORMALS
280
     1
  9
$LATITUDE
 40
37.795
  9
$LONGITUDE
 40
-122.394
  9
$NORTHDIRECTION
 40
0.0
  9
$TIMEZONE
 70
 -8000
  9
$LIGHTGLYPHDISPLAY
280
     1
  9
$TILEMODELIGHTSYNCH
280
     1
  9
$CMATERIAL
347
3C
  9
$SOLIDHIST
280
     1
  9
$SHOWHIST
280
     1
  9
$DWFFRAME
280
     2
  9
$DGNFRAME
280
     2
  9
$REALWORLDSCALE
290
     1
  9
$INTERFERECOLOR
 62
   256
  9
$CSHADOW
280
     0
  9
$SHADOWPLANELOCATION
 40
0.0
  0
ENDSEC
  0
SECTION
  2
CLASSES
  0
CLASS
  1
ACDBDICTIONARYWDFLT
  2
AcDbDictionaryWithDefault
  3
ObjectDBX Classes
 90
        0
 91
        4
280
     0
281
     0
  0
CLASS
  1
VISUALSTYLE
  2
AcDbVisualStyle
  3
ObjectDBX Classes
 90
     4095
 91
        4
280
     0
281
     0
  0
CLASS
  1
MATERIAL
  2
AcDbMaterial
  3
ObjectDBX Classes
 90
     1153
 91
        4
280
     0
281
     0
  0
CLASS
  1
SUN
  2
AcDbSun
  3
SCENEOE
 90
     1024
 91
        4
280
     0
281
     0
  0
ENDSEC
  0
SECTION
  2
TABLES
  0
TABLE
  2
VPORT
  5
8
330
0
100
AcDbSymbolTable
 70
     1
  0
VPORT
  5
29
330
8
100
AcDbSymbolTableRecord
100
AcDbViewportTableRecord
  2
*Active
 70
     0
 10
0.0
 20
0.0
 11
1.0
 21
1.0
 12
0.0
 22
0.0
 13
0.0
 23
0.0
 14
0.5
 24
0.5
 15
0.5
 25
0.5
 16
0.0
 26
0.0
 36
1.0
 17
91.00082462281999
 27
-128.4993055234307
 37
0.0
 40
256.9986110468615
 41
0.7081814508812795
 42
50.0
 43
0.0
 44
0.0
 50
0.0
 51
0.0
 71
     0
 72
   100
 73
     1
 74
     3
 75
     0
 76
     0
 77
     0
 78
     0
281
     0
 65
     1
110
0.0
120
0.0
130
0.0
111
1.0
121
0.0
131
0.0
112
0.0
122
1.0
132
0.0
 79
     0
146
0.0
 60
     3
 61
     5
292
     1
282
     1
141
0.0
142
0.0
 63
   250
361
3F
  0
ENDTAB
  0
TABLE
  2
LTYPE
  5
5
330
0
100
AcDbSymbolTable
 70
     2
  0
LTYPE
  5
14
330
5
100
AcDbSymbolTableRecord
100
AcDbLinetypeTableRecord
  2
ByBlock
 70
     0
  3

 72
    65
 73
     0
 40
0.0
  0
LTYPE
  5
15
330
5
100
AcDbSymbolTableRecord
100
AcDbLinetypeTableRecord
  2
ByLayer
 70
     0
  3

 72
    65
 73
     0
 40
0.0
  0
LTYPE
  5
16
330
5
100
AcDbSymbolTableRecord
100
AcDbLinetypeTableRecord
  2
Continuous
 70
     0
  3
Solid line
 72
    65
 73
     0
 40
0.0
  0
LTYPE
  5
EC
330
5
100
AcDbSymbolTableRecord
100
AcDbLinetypeTableRecord
  2
AI-Linetype-1
 70
     0
  3
Adobe Illustrator Linetype No. 1
 72
    65
 73
     2
 40
1.411111110758333
 49
0.7055555553791667
 74
     0
 49
-0.7055555553791667
 74
     0
  0
ENDTAB
  0
TABLE
  2
LAYER
  5
2
330
0
100
AcDbSymbolTable
 70
     2
  0
LAYER
  5
10
330
2
100
AcDbSymbolTableRecord
100
AcDbLayerTableRecord
  2
0
 70
     0
 62
     7
  6
Continuous
370
    -3
390
F
347
3E
  0
LAYER
  5
40
330
2
100
AcDbSymbolTableRecord
100
AcDbLayerTableRecord
  2
_U+30EC_U+30A4_U+30E4_U+30FC 1
 70
     0
 62
     7
  6
Continuous
370
    -3
390
F
347
3E
  0
ENDTAB
  0
TABLE
  2
STYLE
  5
3
330
0
100
AcDbSymbolTable
 70
     1
  0
STYLE
  5
11
330
3
100
AcDbSymbolTableRecord
100
AcDbTextStyleTableRecord
  2
Standard
 70
     0
 40
0.0
 41
1.0
 50
0.0
 71
     0
 42
0.2
  3
txt
  4

  0
ENDTAB
  0
TABLE
  2
VIEW
  5
6
330
0
100
AcDbSymbolTable
 70
     0
  0
ENDTAB
  0
TABLE
  2
UCS
  5
7
330
0
100
AcDbSymbolTable
 70
     0
  0
ENDTAB
  0
TABLE
  2
APPID
  5
9
330
0
100
AcDbSymbolTable
 70
     1
  0
APPID
  5
12
330
9
100
AcDbSymbolTableRecord
100
AcDbRegAppTableRecord
  2
ACAD
 70
     0
  0
ENDTAB
  0
TABLE
  2
DIMSTYLE
  5
A
330
0
100
AcDbSymbolTable
 70
     1
100
AcDbDimStyleTable
  0
DIMSTYLE
105
27
330
A
100
AcDbSymbolTableRecord
100
AcDbDimStyleTableRecord
  2
Standard
 70
     0
178
     0
340
11
  0
ENDTAB
  0
TABLE
  2
BLOCK_RECORD
  5
1
330
0
100
AcDbSymbolTable
 70
     8
  0
BLOCK_RECORD
  5
1F
330
1
100
AcDbSymbolTableRecord
100
AcDbBlockTableRecord
  2
*Model_Space
340
22
 70
     0
280
     1
281
     0
  0
BLOCK_RECORD
  5
1B
330
1
100
AcDbSymbolTableRecord
100
AcDbBlockTableRecord
  2
*Paper_Space
340
1E
 70
     0
280
     1
281
     0
  0
BLOCK_RECORD
  5
23
330
1
100
AcDbSymbolTableRecord
100
AcDbBlockTableRecord
  2
*Paper_Space0
340
26
 70
     0
280
     1
281
     0
  0
BLOCK_RECORD
  5
41
330
1
100
AcDbSymbolTableRecord
100
AcDbBlockTableRecord
  2
block 2
340
0
102
{BLKREFS
331
42
102
}
 70
     0
280
     1
281
     0
  0
BLOCK_RECORD
  5
8D
330
1
100
AcDbSymbolTableRecord
100
AcDbBlockTableRecord
  2
block 3
340
0
102
{BLKREFS
331
8E
102
}
 70
     0
280
     1
281
     0
  0
BLOCK_RECORD
  5
A8
330
1
100
AcDbSymbolTableRecord
100
AcDbBlockTableRecord
  2
block 4
340
0
102
{BLKREFS
331
A9
102
}
 70
     0
280
     1
281
     0
  0
BLOCK_RECORD
  5
BA
330
1
100
AcDbSymbolTableRecord
100
AcDbBlockTableRecord
  2
block 5
340
0
102
{BLKREFS
331
BB
102
}
 70
     0
280
     1
281
     0
  0
BLOCK_RECORD
  5
CE
330
1
100
AcDbSymbolTableRecord
100
AcDbBlockTableRecord
  2
block 6
340
0
102
{BLKREFS
331
CF
102
}
 70
     0
280
     1
281
     0
  0
BLOCK_RECORD
  5
E1
330
1
100
AcDbSymbolTableRecord
100
AcDbBlockTableRecord
  2
block 7
340
0
102
{BLKREFS
331
E2
102
}
 70
     0
280
     1
281
     0
  0
BLOCK_RECORD
  5
FA
330
1
100
AcDbSymbolTableRecord
100
AcDbBlockTableRecord
  2
block 8
340
0
102
{BLKREFS
331
FB
102
}
 70
     0
280
     1
281
     0
  0
ENDTAB
  0
ENDSEC
  0
SECTION
  2
BLOCKS
  0
BLOCK
  5
20
330
1F
100
AcDbEntity
  8
0
100
AcDbBlockBegin
  2
*Model_Space
 70
     0
 10
0.0
 20
0.0
 30
0.0
  3
*Model_Space
  1

  0
ENDBLK
  5
21
330
1F
100
AcDbEntity
  8
0
100
AcDbBlockEnd
  0
BLOCK
  5
1C
330
1B
100
AcDbEntity
 67
     1
  8
0
100
AcDbBlockBegin
  2
*Paper_Space
 70
     0
 10
0.0
 20
0.0
 30
0.0
  3
*Paper_Space
  1

  0
ENDBLK
  5
1D
330
1B
100
AcDbEntity
 67
     1
  8
0
100
AcDbBlockEnd
  0
BLOCK
  5
24
330
23
100
AcDbEntity
  8
0
100
AcDbBlockBegin
  2
*Paper_Space0
 70
     0
 10
0.0
 20
0.0
 30
0.0
  3
*Paper_Space0
  1

  0
ENDBLK
  5
25
330
23
100
AcDbEntity
  8
0
100
AcDbBlockEnd
  0
BLOCK
  5
43
330
41
100
AcDbEntity
  8
0
100
AcDbBlockBegin
  2
block 2
 70
     0
 10
0.0
 20
0.0
 30
0.0
  3
block 2
  1

  0
POLYLINE
  5
45
330
41
100
AcDbEntity
  8
_U+30EC_U+30A4_U+30E4_U+30FC 1
 62
   179
420
  2234388
370
    25
100
AcDb2dPolyline
 66
     1
 10
0.0
 20
0.0
 30
0.0
  0
VERTEX
  5
46
330
45
100
AcDbEntity
  8
_U+30EC_U+30A4_U+30E4_U+30FC 1
 62
   179
420
  2234388
370
    25
100
AcDbVertex
100
AcDb2dVertex
 10
84.61671117458118
 20
-122.2495649694376
 30
0.0
  0
VERTEX
  5
47
330
45
100
AcDbEntity
  8
_U+30EC_U+30A4_U+30E4_U+30FC 1
 62
   179
420
  2234388
370
    25
100
AcDbVertex
100
AcDb2dVertex
 10
105.61661924994
 20
-122.2495649694376
 30
0.0
  0
SEQEND
  5
48
330
45
100
AcDbEntity
  8
_U+30EC_U+30A4_U+30E4_U+30FC 1
 62
   179
420
  2234388
370
    25
  0
POLYLINE
  5
49
330
41
100
AcDbEntity
  8
_U+30EC_U+30A4_U+30E4_U+30FC 1
 62
   179
420
  2234388
370
    25
100
AcDb2dPolyline
 66
     1
 10
0.0
 20
0.0
 30
0.0
  0
VERTEX
  5
4A
330
49
100
AcDbEntity
  8
_U+30EC_U+30A4_U+30E4_U+30FC 1
 62
   179
420
  2234388
370
    25
100
AcDbVertex
100
AcDb2dVertex
 10
85.41667220086813
 20
-123.0495238581266
 30
0.0
  0
VERTEX
  5
4B
330
49
100
AcDbEntity
  8
_U+30EC_U+30A4_U+30E4_U+30FC 1
 62
   179
420
  2234388
370
    25
100
AcDbVertex
100
AcDb2dVertex
 10
105.61661924994
 20
-123.0495238581266
 30
0.0
  0
SEQEND
  5
4C
330
49
100
AcDbEntity
  8
_U+30EC_U+30A4_U+30E4_U+30FC 1
 62
   179
420
  2234388
370
    25
  0
POLYLINE
  5
4D
330
41
100
AcDbEntity
  8
_U+30EC_U+30A4_U+30E4_U+30FC 1
 62
   179
420
  2234388
370
    25
100
AcDb2dPolyline
 66
     1
 10
0.0
 20
0.0
 30
0.0
  0
VERTEX
  5
4E
330
4D
100
AcDbEntity
  8
_U+30EC_U+30A4_U+30E4_U+30FC 1
 62
   179
420
  2234388
370
    25
100
AcDbVertex
100
AcDb2dVertex
 10
105.61661924994
 20
-122.2495649694376
 30
0.0
  0
VERTEX
  5
4F
330
4D
100
AcDbEntity
  8
_U+30EC_U+30A4_U+30E4_U+30FC 1
 62
   179
420
  2234388
370
    25
100
AcDbVertex
100
AcDb2dVertex
 10
105.61661924994
 20
-123.0495238581266
 30
0.0
  0
SEQEND
  5
50
330
4D
100
AcDbEntity
  8
_U+30EC_U+30A4_U+30E4_U+30FC 1
 62
   179
420
  2234388
370
    25
  0
POLYLINE
  5
51
330
41
100
AcDbEntity
  8
_U+30EC_U+30A4_U+30E4_U+30FC 1
 62
   179
420
  2234388
370
    25
100
AcDb2dPolyline
 66
     1
 10
0.0
 20
0.0
 30
0.0
  0
VERTEX
  5
52
330
51
100
AcDbEntity
  8
_U+30EC_U+30A4_U+30E4_U+30FC 1
 62
   179
420
  2234388
370
    25
100
AcDbVertex
100
AcDb2dVertex
 10
84.61671117458118
 20
-122.2495649694376
 30
0.0
  0
VERTEX
  5
53
330
51
100
AcDbEntity
  8
_U+30EC_U+30A4_U+30E4_U+30FC 1
 62
   179
420
  2234388
370
    25
100
AcDbVertex
100
AcDb2dVertex
 10
84.61671117458118
 20
-139.0499010763485
 30
0.0
  0
SEQEND
  5
54
330
51
100
AcDbEntity
  8
_U+30EC_U+30A4_U+30E4_U+30FC 1
 62
   179
420
  2234388
370
    25
  0
POLYLINE
  5
55
330
41
100
AcDbEntity
  8
_U+30EC_U+30A4_U+30E4_U+30FC 1
 62
   179
420
  2234388
370
    25
100
AcDb2dPolyline
 66
     1
 10
0.0
 20
0.0
 30
0.0
  0
VERTEX
  5
56
330
55
100
AcDbEntity
  8
_U+30EC_U+30A4_U+30E4_U+30FC 1
 62
   179
420
  2234388
370
    25
100
AcDbVertex
100
AcDb2dVertex
 10
85.41667220086813
 20
-123.0495238581266
 30
0.0
  0
VERTEX
  5
57
330
55
100
AcDbEntity
  8
_U+30EC_U+30A4_U+30E4_U+30FC 1
 62
   179
420
  2234388
370
    25
100
AcDbVertex
100
AcDb2dVertex
 10
85.41667220086813
 20
-138.2499421876599
 30
0.0
  0
SEQEND
  5
58
330
55
100
AcDbEntity
  8
_U+30EC_U+30A4_U+30E4_U+30FC 1
 62
   179
420
  2234388
370
    25
  0
POLYLINE
  5
59
330
41
100
AcDbEntity
  8
_U+30EC_U+30A4_U+30E4_U+30FC 1
 62
   179
420
  2234388
370
    25
100
AcDb2dPolyline
 66
     1
 10
0.0
 20
0.0
 30
0.0
  0
VERTEX
  5
5A
330
59
100
AcDbEntity
  8
_U+30EC_U+30A4_U+30E4_U+30FC 1
 62
   179
420
  2234388
370
    25
100
AcDbVertex
100
AcDb2dVertex
 10
88.6164702392055
 20
-136.0499141326542
 30
0.0
  0
VERTEX
  5
5B
330
59
100
AcDbEntity
  8
_U+30EC_U+30A4_U+30E4_U+30FC 1
 62
   179
420
  2234388
370
    25
100
AcDbVertex
100
AcDb2dVertex
 10
90.61668491039799
 20
-136.0499141326542
 30
0.0
  0
SEQEND
  5
5C
330
59
100
AcDbEntity
  8
_U+30EC_U+30A4_U+30E4_U+30FC 1
 62
   179
420
  2234388
370
    25
  0
POLYLINE
  5
5D
330
41
100
AcDbEntity
  8
_U+30EC_U+30A4_U+30E4_U+30FC 1
 62
   179
420
  2234388
370
    25
100
AcDb2dPolyline
 66
     1
 10
0.0
 20
0.0
 30
0.0
  0
VERTEX
  5
5E
330
5D
100
AcDbEntity
  8
_U+30EC_U+30A4_U+30E4_U+30FC 1
 62
   179
420
  2234388
370
    25
100
AcDbVertex
100
AcDb2dVertex
 10
84.61671117458118
 20
-139.0499010763485
 30
0.0
  0
VERTEX
  5
5F
330
5D
100
AcDbEntity
  8
_U+30EC_U+30A4_U+30E4_U+30FC 1
 62
   179
420
  2234388
370
    25
100
AcDbVertex
100
AcDb2dVertex
 10
90.61668491039799
 20
-139.0499010763485
 30
0.0
  0
SEQEND
  5
60
330
5D
100
AcDbEntity
  8
_U+30EC_U+30A4_U+30E4_U+30FC 1
 62
   179
420
  2234388
370
    25
  0
POLYLINE
  5
61
330
41
100
AcDbEntity
  8
_U+30EC_U+30A4_U+30E4_U+30FC 1
 62
   179
420
  2234388
370
    25
100
AcDb2dPolyline
 66
     1
 10
0.0
 20
0.0
 30
0.0
  0
VERTEX
  5
62
330
61
100
AcDbEntity
  8
_U+30EC_U+30A4_U+30E4_U+30FC 1
 62
   179
420
  2234388
370
    25
100
AcDbVertex
100
AcDb2dVertex
 10
90.61668491039799
 20
-136.0499141326542
 30
0.0
  0
VERTEX
  5
63
330
61
100
AcDbEntity
  8
_U+30EC_U+30A4_U+30E4_U+30FC 1
 62
   179
420
  2234388
370
    25
100
AcDbVertex
100
AcDb2dVertex
 10
90.61668491039799
 20
-139.0499010763485
 30
0.0
  0
SEQEND
  5
64
330
61
100
AcDbEntity
  8
_U+30EC_U+30A4_U+30E4_U+30FC 1
 62
   179
420
  2234388
370
    25
  0
POLYLINE
  5
65
330
41
100
AcDbEntity
  8
_U+30EC_U+30A4_U+30E4_U+30FC 1
 62
   179
420
  2234388
370
    25
100
AcDb2dPolyline
 66
     1
 10
0.0
 20
0.0
 30
0.0
  0
VERTEX
  5
66
330
65
100
AcDbEntity
  8
_U+30EC_U+30A4_U+30E4_U+30FC 1
 62
   179
420
  2234388
370
    25
100
AcDbVertex
100
AcDb2dVertex
 10
88.6164702392055
 20
-136.0499141326542
 30
0.0
  0
VERTEX
  5
67
330
65
100
AcDbEntity
  8
_U+30EC_U+30A4_U+30E4_U+30FC 1
 62
   179
420
  2234388
370
    25
100
AcDbVertex
100
AcDb2dVertex
 10
88.6164702392055
 20
-136.8498730213428
 30
0.0
  0
SEQEND
  5
68
330
65
100
AcDbEntity
  8
_U+30EC_U+30A4_U+30E4_U+30FC 1
 62
   179
420
  2234388
370
    25
  0
POLYLINE
  5
69
330
41
100
AcDbEntity
  8
_U+30EC_U+30A4_U+30E4_U+30FC 1
 62
   179
420
  2234388
370
    25
100
AcDb2dPolyline
 66
     1
 10
0.0
 20
0.0
 30
0.0
  0
VERTEX
  5
6A
330
69
100
AcDbEntity
  8
_U+30EC_U+30A4_U+30E4_U+30FC 1
 62
   179
420
  2234388
370
    25
100
AcDbVertex
100
AcDb2dVertex
 10
85.41667220086813
 20
-138.2499421876599
 30
0.0
  0
VERTEX
  5
6B
330
69
100
AcDbEntity
  8
_U+30EC_U+30A4_U+30E4_U+30FC 1
 62
   179
420
  2234388
370
    25
100
AcDbVertex
100
AcDb2dVertex
 10
89.81672604191775
 20
-138.2499421876599
 30
0.0
  0
SEQEND
  5
6C
330
69
100
AcDbEntity
  8
_U+30EC_U+30A4_U+30E4_U+30FC 1
 62
   179
420
  2234388
370
    25
  0
POLYLINE
  5
6D
330
41
100
AcDbEntity
  8
_U+30EC_U+30A4_U+30E4_U+30FC 1
 62
   179
420
  2234388
370
    25
100
AcDb2dPolyline
 66
     1
 10
0.0
 20
0.0
 30
0.0
  0
VERTEX
  5
6E
330
6D
100
AcDbEntity
  8
_U+30EC_U+30A4_U+30E4_U+30FC 1
 62
   179
420
  2234388
370
    25
100
AcDbVertex
100
AcDb2dVertex
 10
89.81672604191775
 20
-136.8498730213428
 30
0.0
  0
VERTEX
  5
6F
330
6D
100
AcDbEntity
  8
_U+30EC_U+30A4_U+30E4_U+30FC 1
 62
   179
420
  2234388
370
    25
100
AcDbVertex
100
AcDb2dVertex
 10
89.81672604191775
 20
-138.2499421876599
 30
0.0
  0
SEQEND
  5
70
330
6D
100
AcDbEntity
  8
_U+30EC_U+30A4_U+30E4_U+30FC 1
 62
   179
420
  2234388
370
    25
  0
POLYLINE
  5
71
330
41
100
AcDbEntity
  8
_U+30EC_U+30A4_U+30E4_U+30FC 1
 62
   179
420
  2234388
370
    25
100
AcDb2dPolyline
 66
     1
 10
0.0
 20
0.0
 30
0.0
  0
VERTEX
  5
72
330
71
100
AcDbEntity
  8
_U+30EC_U+30A4_U+30E4_U+30FC 1
 62
   179
420
  2234388
370
    25
100
AcDbVertex
100
AcDb2dVertex
 10
88.6164702392055
 20
-136.8498730213428
 30
0.0
  0
VERTEX
  5
73
330
71
100
AcDbEntity
  8
_U+30EC_U+30A4_U+30E4_U+30FC 1
 62
   179
420
  2234388
370
    25
100
AcDbVertex
100
AcDb2dVertex
 10
89.81672604191775
 20
-136.8498730213428
 30
0.0
  0
SEQEND
  5
74
330
71
100
AcDbEntity
  8
_U+30EC_U+30A4_U+30E4_U+30FC 1
 62
   179
420
  2234388
370
    25
  0
ENDBLK
  5
44
330
41
100
AcDbEntity
  8
0
100
AcDbBlockEnd
  0
BLOCK
  5
8F
330
8D
100
AcDbEntity
  8
0
100
AcDbBlockBegin
  2
block 3
 70
     0
 10
0.0
 20
0.0
 30
0.0
  3
block 3
  1

  0
SPLINE
  5
91
330
8D
100
AcDbEntity
  8
_U+30EC_U+30A4_U+30E4_U+30FC 1
370
     0
100
AcDbSpline
210
0.0
220
0.0
230
1.0
 70
    11
 71
     3
 72
    29
 73
    25
 74
     0
 42
0.0000000001
 43
0.0000000001
 12
1.0
 22
0.0
 32
0.0
 13
1.0
 23
0.0
 33
0.0
 40
0.0
 40
0.0
 40
0.0
 40
0.0
 40
1.0
 40
1.0
 40
1.0
 40
2.0
 40
2.0
 40
2.0
 40
3.0
 40
3.0
 40
3.0
 40
4.0
 40
4.0
 40
4.0
 40
5.0
 40
5.0
 40
5.0
 40
6.0
 40
6.0
 40
6.0
 40
7.0
 40
7.0
 40
7.0
 40
8.0
 40
8.0
 40
8.0
 40
8.0
 10
108.0871147733255
 20
-119.7477294622506
 30
0.0
 10
108.2965765788286
 20
-119.8631401610064
 30
0.0
 10
108.3155246039975
 20
-120.0484862981129
 30
0.0
 10
108.3155246039975
 20
-120.1728542451304
 30
0.0
 10
108.3155246039975
 20
-120.3444200002958
 30
0.0
 10
108.2690158149466
 20
-120.4960042016468
 30
0.0
 10
108.0871147733255
 20
-120.5976345184617
 30
0.0
 10
107.8924668784088
 20
-120.7085665930868
 30
0.0
 10
107.6554443090237
 20
-120.7288926564497
 30
0.0
 10
107.4928358021199
 20
-120.7288926564497
 30
0.0
 10
107.3488308108364
 20
-120.7288926564497
 30
0.0
 10
107.0969943308646
 20
-120.7106336503779
 30
0.0
 10
106.8982123213657
 20
-120.5976345184617
 30
0.0
 10
106.6952961972845
 20
-120.4825683292544
 30
0.0
 10
106.6718695479848
 20
-120.3106580645404
 30
0.0
 10
106.6718695479848
 20
-120.1728542451304
 30
0.0
 10
106.6718695479848
 20
-120.0030110377076
 30
0.0
 10
106.7163112797445
 20
-119.8493597790654
 30
0.0
 10
106.8982123213657
 20
-119.7477294622506
 30
0.0
 10
107.0907931589912
 20
-119.6412760117563
 30
0.0
 10
107.3192029896633
 20
-119.6164713242625
 30
0.0
 10
107.4928358021199
 20
-119.6164713242625
 30
0.0
 10
107.6640570477368
 20
-119.6164713242625
 30
0.0
 10
107.8945339357
 20
-119.6392089544652
 30
0.0
 10
108.0871147733255
 20
-119.7477294622506
 30
0.0
  0
SPLINE
  5
92
330
8D
100
AcDbEntity
  8
_U+30EC_U+30A4_U+30E4_U+30FC 1
370
     0
100
AcDbSpline
210
0.0
220
0.0
230
1.0
 70
    11
 71
     3
 72
    17
 73
    13
 74
     0
 42
0.0000000001
 43
0.0000000001
 12
1.0
 22
0.0
 32
0.0
 13
1.0
 23
0.0
 33
0.0
 40
0.0
 40
0.0
 40
0.0
 40
0.0
 40
1.0
 40
1.0
 40
1.0
 40
2.0
 40
2.0
 40
2.0
 40
3.0
 40
3.0
 40
3.0
 40
4.0
 40
4.0
 40
4.0
 40
4.0
 10
106.8644503856103
 20
-120.1728542451304
 30
0.0
 10
106.8644503856103
 20
-120.4395046356887
 30
0.0
 10
107.1479817440463
 20
-120.4891140106763
 30
0.0
 10
107.4928358021199
 20
-120.4891140106763
 30
0.0
 10
107.8121961536025
 20
-120.4891140106763
 30
0.0
 10
108.1208767090809
 20
-120.4508734507901
 30
0.0
 10
108.1208767090809
 20
-120.1728542451304
 30
0.0
 10
108.1208767090809
 20
-119.9082709118632
 30
0.0
 10
107.8397569174845
 20
-119.8562499700359
 30
0.0
 10
107.4928358021199
 20
-119.8562499700359
 30
0.0
 10
107.1731309410887
 20
-119.8562499700359
 30
0.0
 10
106.8644503856103
 20
-119.8969020967619
 30
0.0
 10
106.8644503856103
 20
-120.1728542451304
 30
0.0
  0
HATCH
  5
93
330
8D
100
AcDbEntity
  8
_U+30EC_U+30A4_U+30E4_U+30FC 1
 62
   179
420
  2234388
100
AcDbHatch
 10
0.0
 20
0.0
 30
0.0
210
0.0
220
0.0
230
1.0
  2
SOLID
 70
     1
 71
     0
 91
        2
 92
        1
 93
        1
 72
     4
 94
        3
 73
     0
 74
     1
 95
       29
 96
       25
 40
0.0
 40
0.0
 40
0.0
 40
0.0
 40
1.0
 40
1.0
 40
1.0
 40
2.0
 40
2.0
 40
2.0
 40
3.0
 40
3.0
 40
3.0
 40
4.0
 40
4.0
 40
4.0
 40
5.0
 40
5.0
 40
5.0
 40
6.0
 40
6.0
 40
6.0
 40
7.0
 40
7.0
 40
7.0
 40
8.0
 40
8.0
 40
8.0
 40
8.0
 10
108.0871147733255
 20
-119.7477294622506
 10
108.2965765788286
 20
-119.8631401610064
 10
108.3155246039975
 20
-120.0484862981129
 10
108.3155246039975
 20
-120.1728542451304
 10
108.3155246039975
 20
-120.3444200002958
 10
108.2690158149466
 20
-120.4960042016468
 10
108.0871147733255
 20
-120.5976345184617
 10
107.8924668784088
 20
-120.7085665930868
 10
107.6554443090237
 20
-120.7288926564497
 10
107.4928358021199
 20
-120.7288926564497
 10
107.3488308108364
 20
-120.7288926564497
 10
107.0969943308646
 20
-120.7106336503779
 10
106.8982123213657
 20
-120.5976345184617
 10
106.6952961972845
 20
-120.4825683292544
 10
106.6718695479848
 20
-120.3106580645404
 10
106.6718695479848
 20
-120.1728542451304
 10
106.6718695479848
 20
-120.0030110377076
 10
106.7163112797445
 20
-119.8493597790654
 10
106.8982123213657
 20
-119.7477294622506
 10
107.0907931589912
 20
-119.6412760117563
 10
107.3192029896633
 20
-119.6164713242625
 10
107.4928358021199
 20
-119.6164713242625
 10
107.6640570477368
 20
-119.6164713242625
 10
107.8945339357
 20
-119.6392089544652
 10
108.0871147733255
 20
-119.7477294622506
 97
        0
 97
        0
 92
        1
 93
        1
 72
     4
 94
        3
 73
     0
 74
     1
 95
       17
 96
       13
 40
0.0
 40
0.0
 40
0.0
 40
0.0
 40
1.0
 40
1.0
 40
1.0
 40
2.0
 40
2.0
 40
2.0
 40
3.0
 40
3.0
 40
3.0
 40
4.0
 40
4.0
 40
4.0
 40
4.0
 10
106.8644503856103
 20
-120.1728542451304
 10
106.8644503856103
 20
-120.4395046356887
 10
107.1479817440463
 20
-120.4891140106763
 10
107.4928358021199
 20
-120.4891140106763
 10
107.8121961536025
 20
-120.4891140106763
 10
108.1208767090809
 20
-120.4508734507901
 10
108.1208767090809
 20
-120.1728542451304
 10
108.1208767090809
 20
-119.9082709118632
 10
107.8397569174845
 20
-119.8562499700359
 10
107.4928358021199
 20
-119.8562499700359
 10
107.1731309410887
 20
-119.8562499700359
 10
106.8644503856103
 20
-119.8969020967619
 10
106.8644503856103
 20
-120.1728542451304
 97
        0
 97
        0
 75
     2
 76
     1
 98
        0
  0
POLYLINE
  5
94
330
8D
100
AcDbEntity
  8
_U+30EC_U+30A4_U+30E4_U+30FC 1
370
     0
100
AcDb2dPolyline
 66
     1
 10
0.0
 20
0.0
 30
0.0
  0
VERTEX
  5
95
330
94
100
AcDbEntity
  8
_U+30EC_U+30A4_U+30E4_U+30FC 1
370
     0
100
AcDbVertex
100
AcDb2dVertex
 10
108.2648817003643
 20
-119.3853054172023
 30
0.0
  0
VERTEX
  5
96
330
94
100
AcDbEntity
  8
_U+30EC_U+30A4_U+30E4_U+30FC 1
370
     0
100
AcDbVertex
100
AcDb2dVertex
 10
108.0130452203926
 20
-119.3853054172023
 30
0.0
  0
VERTEX
  5
97
330
94
100
AcDbEntity
  8
_U+30EC_U+30A4_U+30E4_U+30FC 1
370
     0
100
AcDbVertex
100
AcDb2dVertex
 10
108.0130452203926
 20
-119.1162434598043
 30
0.0
  0
VERTEX
  5
98
330
94
100
AcDbEntity
  8
_U+30EC_U+30A4_U+30E4_U+30FC 1
370
     0
100
AcDbVertex
100
AcDb2dVertex
 10
108.2648817003643
 20
-119.1162434598043
 30
0.0
  0
VERTEX
  5
99
330
94
100
AcDbEntity
  8
_U+30EC_U+30A4_U+30E4_U+30FC 1
370
     0
100
AcDbVertex
100
AcDb2dVertex
 10
108.2648817003643
 20
-119.3853054172023
 30
0.0
  0
SEQEND
  5
9A
330
94
100
AcDbEntity
  8
_U+30EC_U+30A4_U+30E4_U+30FC 1
370
     0
  0
HATCH
  5
9B
330
8D
100
AcDbEntity
  8
_U+30EC_U+30A4_U+30E4_U+30FC 1
 62
   179
420
  2234388
100
AcDbHatch
 10
0.0
 20
0.0
 30
0.0
210
0.0
220
0.0
230
1.0
  2
SOLID
 70
     1
 71
     0
 91
        1
 92
        1
 93
        4
 72
     1
 10
108.2648817003643
 20
-119.3853054172023
 11
108.0130452203926
 21
-119.3853054172023
 72
     1
 10
108.0130452203926
 20
-119.3853054172023
 11
108.0130452203926
 21
-119.1162434598043
 72
     1
 10
108.0130452203926
 20
-119.1162434598043
 11
108.2648817003643
 21
-119.1162434598043
 72
     1
 10
108.2648817003643
 20
-119.1162434598043
 11
108.2648817003643
 21
-119.3853054172023
 97
        0
 75
     2
 76
     1
 98
        0
  0
SPLINE
  5
9C
330
8D
100
AcDbEntity
  8
_U+30EC_U+30A4_U+30E4_U+30FC 1
370
     0
100
AcDbSpline
210
0.0
220
0.0
230
1.0
 70
    11
 71
     3
 72
    29
 73
    25
 74
     0
 42
0.0000000001
 43
0.0000000001
 12
1.0
 22
0.0
 32
0.0
 13
1.0
 23
0.0
 33
0.0
 40
0.0
 40
0.0
 40
0.0
 40
0.0
 40
1.0
 40
1.0
 40
1.0
 40
2.0
 40
2.0
 40
2.0
 40
3.0
 40
3.0
 40
3.0
 40
4.0
 40
4.0
 40
4.0
 40
5.0
 40
5.0
 40
5.0
 40
6.0
 40
6.0
 40
6.0
 40
7.0
 40
7.0
 40
7.0
 40
8.0
 40
8.0
 40
8.0
 40
8.0
 10
108.3155246039975
 20
-118.3290391414247
 30
0.0
 10
108.3155246039975
 20
-118.6139485380549
 30
0.0
 10
108.178065294136
 20
-118.885077552744
 30
0.0
 10
107.8290771214802
 20
-118.885077552744
 30
0.0
 10
107.5731065269262
 20
-118.885077552744
 30
0.0
 10
107.4780218915333
 20
-118.733493351393
 30
0.0
 10
107.4166991918958
 20
-118.6204942194768
 30
0.0
 10
107.3574435495495
 20
-118.753819414756
 30
0.0
 10
107.2430663794392
 20
-118.8354681777564
 30
0.0
 10
107.0821804202781
 20
-118.8354681777564
 30
0.0
 10
106.8072618005551
 20
-118.8354681777564
 30
0.0
 10
106.6718695479848
 20
-118.6229057863165
 30
0.0
 10
106.6718695479848
 20
-118.3290391414247
 30
0.0
 10
106.6718695479848
 20
-118.0258707387227
 30
0.0
 10
106.8158745392683
 20
-117.822610105093
 30
0.0
 10
107.0821804202781
 20
-117.822610105093
 30
0.0
 10
107.2430663794392
 20
-117.822610105093
 30
0.0
 10
107.3574435495495
 20
-117.905981415836
 30
0.0
 10
107.4166991918958
 20
-118.0396511206637
 30
0.0
 10
107.467342095529
 20
-117.9445664852708
 30
0.0
 10
107.5624267309219
 20
-117.7750677873965
 30
0.0
 10
107.8249430068979
 20
-117.7750677873965
 30
0.0
 10
108.1994248861446
 20
-117.7750677873965
 30
0.0
 10
108.3155246039975
 20
-118.0734130564192
 30
0.0
 10
108.3155246039975
 20
-118.3290391414247
 30
0.0
  0
SPLINE
  5
9D
330
8D
100
AcDbEntity
  8
_U+30EC_U+30A4_U+30E4_U+30FC 1
370
     0
100
AcDbSpline
210
0.0
220
0.0
230
1.0
 70
    11
 71
     3
 72
    17
 73
    13
 74
     0
 42
0.0000000001
 43
0.0000000001
 12
1.0
 22
0.0
 32
0.0
 13
1.0
 23
0.0
 33
0.0
 40
0.0
 40
0.0
 40
0.0
 40
0.0
 40
1.0
 40
1.0
 40
1.0
 40
2.0
 40
2.0
 40
2.0
 40
3.0
 40
3.0
 40
3.0
 40
4.0
 40
4.0
 40
4.0
 40
4.0
 10
106.8644503856103
 20
-118.3290391414247
 30
0.0
 10
106.8644503856103
 20
-118.505083520721
 30
0.0
 10
106.9595350210032
 20
-118.595689531983
 30
0.0
 10
107.0949272735735
 20
-118.595689531983
 30
0.0
 10
107.2175726728484
 20
-118.595689531983
 30
0.0
 10
107.336083957541
 20
-118.518863902662
 30
0.0
 10
107.336083957541
 20
-118.3290391414247
 30
0.0
 10
107.336083957541
 20
-118.1388698706389
 30
0.0
 10
107.2175726728484
 20
-118.0620442413178
 30
0.0
 10
107.0949272735735
 20
-118.0620442413178
 30
0.0
 10
106.9595350210032
 20
-118.0620442413178
 30
0.0
 10
106.8644503856103
 20
-118.154717309871
 30
0.0
 10
106.8644503856103
 20
-118.3290391414247
 30
0.0
  0
SPLINE
  5
9E
330
8D
100
AcDbEntity
  8
_U+30EC_U+30A4_U+30E4_U+30FC 1
370
     0
100
AcDbSpline
210
0.0
220
0.0
230
1.0
 70
    11
 71
     3
 72
    17
 73
    13
 74
     0
 42
0.0000000001
 43
0.0000000001
 12
1.0
 22
0.0
 32
0.0
 13
1.0
 23
0.0
 33
0.0
 40
0.0
 40
0.0
 40
0.0
 40
0.0
 40
1.0
 40
1.0
 40
1.0
 40
2.0
 40
2.0
 40
2.0
 40
3.0
 40
3.0
 40
3.0
 40
4.0
 40
4.0
 40
4.0
 40
4.0
 10
107.5245306805841
 20
-118.3290391414247
 30
0.0
 10
107.5245306805841
 20
-118.4826904000668
 30
0.0
 10
107.6113470868124
 20
-118.6452989069706
 30
0.0
 10
107.8142632108937
 20
-118.6452989069706
 30
0.0
 10
108.0195909018146
 20
-118.6452989069706
 30
0.0
 10
108.1208767090809
 20
-118.5099066544003
 30
0.0
 10
108.1208767090809
 20
-118.3290391414247
 30
0.0
 10
108.1208767090809
 20
-118.1299126223772
 30
0.0
 10
107.998231309806
 20
-118.0124348663302
 30
0.0
 10
107.8204643827671
 20
-118.0124348663302
 30
0.0
 10
107.598600233517
 20
-118.0124348663302
 30
0.0
 10
107.5245306805841
 20
-118.1864121883354
 30
0.0
 10
107.5245306805841
 20
-118.3290391414247
 30
0.0
  0
HATCH
  5
9F
330
8D
100
AcDbEntity
  8
_U+30EC_U+30A4_U+30E4_U+30FC 1
 62
   179
420
  2234388
100
AcDbHatch
 10
0.0
 20
0.0
 30
0.0
210
0.0
220
0.0
230
1.0
  2
SOLID
 70
     1
 71
     0
 91
        3
 92
        1
 93
        1
 72
     4
 94
        3
 73
     0
 74
     1
 95
       29
 96
       25
 40
0.0
 40
0.0
 40
0.0
 40
0.0
 40
1.0
 40
1.0
 40
1.0
 40
2.0
 40
2.0
 40
2.0
 40
3.0
 40
3.0
 40
3.0
 40
4.0
 40
4.0
 40
4.0
 40
5.0
 40
5.0
 40
5.0
 40
6.0
 40
6.0
 40
6.0
 40
7.0
 40
7.0
 40
7.0
 40
8.0
 40
8.0
 40
8.0
 40
8.0
 10
108.3155246039975
 20
-118.3290391414247
 10
108.3155246039975
 20
-118.6139485380549
 10
108.178065294136
 20
-118.885077552744
 10
107.8290771214802
 20
-118.885077552744
 10
107.5731065269262
 20
-118.885077552744
 10
107.4780218915333
 20
-118.733493351393
 10
107.4166991918958
 20
-118.6204942194768
 10
107.3574435495495
 20
-118.753819414756
 10
107.2430663794392
 20
-118.8354681777564
 10
107.0821804202781
 20
-118.8354681777564
 10
106.8072618005551
 20
-118.8354681777564
 10
106.6718695479848
 20
-118.6229057863165
 10
106.6718695479848
 20
-118.3290391414247
 10
106.6718695479848
 20
-118.0258707387227
 10
106.8158745392683
 20
-117.822610105093
 10
107.0821804202781
 20
-117.822610105093
 10
107.2430663794392
 20
-117.822610105093
 10
107.3574435495495
 20
-117.905981415836
 10
107.4166991918958
 20
-118.0396511206637
 10
107.467342095529
 20
-117.9445664852708
 10
107.5624267309219
 20
-117.7750677873965
 10
107.8249430068979
 20
-117.7750677873965
 10
108.1994248861446
 20
-117.7750677873965
 10
108.3155246039975
 20
-118.0734130564192
 10
108.3155246039975
 20
-118.3290391414247
 97
        0
 97
        0
 92
        1
 93
        1
 72
     4
 94
        3
 73
     0
 74
     1
 95
       17
 96
       13
 40
0.0
 40
0.0
 40
0.0
 40
0.0
 40
1.0
 40
1.0
 40
1.0
 40
2.0
 40
2.0
 40
2.0
 40
3.0
 40
3.0
 40
3.0
 40
4.0
 40
4.0
 40
4.0
 40
4.0
 10
106.8644503856103
 20
-118.3290391414247
 10
106.8644503856103
 20
-118.505083520721
 10
106.9595350210032
 20
-118.595689531983
 10
107.0949272735735
 20
-118.595689531983
 10
107.2175726728484
 20
-118.595689531983
 10
107.336083957541
 20
-118.518863902662
 10
107.336083957541
 20
-118.3290391414247
 10
107.336083957541
 20
-118.1388698706389
 10
107.2175726728484
 20
-118.0620442413178
 10
107.0949272735735
 20
-118.0620442413178
 10
106.9595350210032
 20
-118.0620442413178
 10
106.8644503856103
 20
-118.154717309871
 10
106.8644503856103
 20
-118.3290391414247
 97
        0
 97
        0
 92
        1
 93
        1
 72
     4
 94
        3
 73
     0
 74
     1
 95
       17
 96
       13
 40
0.0
 40
0.0
 40
0.0
 40
0.0
 40
1.0
 40
1.0
 40
1.0
 40
2.0
 40
2.0
 40
2.0
 40
3.0
 40
3.0
 40
3.0
 40
4.0
 40
4.0
 40
4.0
 40
4.0
 10
107.5245306805841
 20
-118.3290391414247
 10
107.5245306805841
 20
-118.4826904000668
 10
107.6113470868124
 20
-118.6452989069706
 10
107.8142632108937
 20
-118.6452989069706
 10
108.0195909018146
 20
-118.6452989069706
 10
108.1208767090809
 20
-118.5099066544003
 10
108.1208767090809
 20
-118.3290391414247
 10
108.1208767090809
 20
-118.1299126223772
 10
107.998231309806
 20
-118.0124348663302
 10
107.8204643827671
 20
-118.0124348663302
 10
107.598600233517
 20
-118.0124348663302
 10
107.5245306805841
 20
-118.1864121883354
 10
107.5245306805841
 20
-118.3290391414247
 97
        0
 97
        0
 75
     2
 76
     1
 98
        0
  0
ENDBLK
  5
90
330
8D
100
AcDbEntity
  8
0
100
AcDbBlockEnd
  0
BLOCK
  5
AA
330
A8
100
AcDbEntity
  8
0
100
AcDbBlockBegin
  2
block 4
 70
     0
 10
0.0
 20
0.0
 30
0.0
  3
block 4
  1

  0
SPLINE
  5
AC
330
A8
100
AcDbEntity
  8
_U+30EC_U+30A4_U+30E4_U+30FC 1
370
     0
100
AcDbSpline
210
0.0
220
0.0
230
1.0
 70
    11
 71
     3
 72
    62
 73
    58
 74
     0
 42
0.0000000001
 43
0.0000000001
 12
1.0
 22
0.0
 32
0.0
 13
1.0
 23
0.0
 33
0.0
 40
0.0
 40
0.0
 40
0.0
 40
0.0
 40
1.0
 40
1.0
 40
1.0
 40
2.0
 40
2.0
 40
2.0
 40
3.0
 40
3.0
 40
3.0
 40
4.0
 40
4.0
 40
4.0
 40
5.0
 40
5.0
 40
5.0
 40
6.0
 40
6.0
 40
6.0
 40
7.0
 40
7.0
 40
7.0
 40
8.0
 40
8.0
 40
8.0
 40
9.0
 40
9.0
 40
9.0
 40
10.0
 40
10.0
 40
10.0
 40
11.0
 40
11.0
 40
11.0
 40
12.0
 40
12.0
 40
12.0
 40
13.0
 40
13.0
 40
13.0
 40
14.0
 40
14.0
 40
14.0
 40
15.0
 40
15.0
 40
15.0
 40
16.0
 40
16.0
 40
16.0
 40
17.0
 40
17.0
 40
17.0
 40
18.0
 40
18.0
 40
18.0
 40
19.0
 40
19.0
 40
19.0
 40
19.0
 10
108.3155246039975
 20
-137.5605956687349
 30
0.0
 10
108.3155246039975
 20
-137.6622259855497
 30
0.0
 10
108.2945095215375
 20
-137.8951144403526
 30
0.0
 10
108.108474365334
 20
-138.0284396356318
 30
0.0
 10
107.9961642525149
 20
-138.1076768317925
 30
0.0
 10
107.8969455025397
 20
-138.1121554559234
 30
0.0
 10
107.8121961536025
 20
-138.1166340800542
 30
0.0
 10
107.8121961536025
 20
-138.1166340800542
 30
0.0
 10
107.8121961536025
 20
-137.8816785679601
 30
0.0
 10
107.8121961536025
 20
-137.8816785679601
 30
0.0
 10
107.8862657065354
 20
-137.8792670011205
 30
0.0
 10
108.1208767090809
 20
-137.8678981860191
 30
0.0
 10
108.1208767090809
 20
-137.5650742928657
 30
0.0
 10
108.1208767090809
 20
-137.4179687156455
 30
0.0
 10
108.0512857802788
 20
-137.2553602087417
 30
0.0
 10
107.8228759496068
 20
-137.2553602087417
 30
0.0
 10
107.7064317222053
 20
-137.2553602087417
 30
0.0
 10
107.6578558758633
 20
-137.2960123354677
 30
0.0
 10
107.626160997399
 20
-137.3297742712231
 30
0.0
 10
107.5520914444661
 20
-137.4090114673839
 30
0.0
 10
107.5393445911707
 20
-137.5333794144014
 30
0.0
 10
107.5393445911707
 20
-137.5922905471992
 30
0.0
 10
107.5393445911707
 20
-137.6126166105621
 30
0.0
 10
107.5414116484619
 20
-137.6508571704484
 30
0.0
 10
107.5455457630442
 20
-137.6804849916215
 30
0.0
 10
107.5455457630442
 20
-137.6804849916215
 30
0.0
 10
107.3508978681276
 20
-137.6804849916215
 30
0.0
 10
107.3508978681276
 20
-137.6804849916215
 30
0.0
 10
107.3574435495495
 20
-137.6398328648956
 30
0.0
 10
107.3595106068407
 20
-137.5943576044903
 30
0.0
 10
107.3595106068407
 20
-137.5878119230683
 30
0.0
 10
107.3595106068407
 20
-137.5175319751692
 30
0.0
 10
107.3381510148321
 20
-137.3049695837293
 30
0.0
 10
107.1014729549955
 20
-137.3049695837293
 30
0.0
 10
106.9237060279566
 20
-137.3049695837293
 30
0.0
 10
106.8685845001926
 20
-137.445184969979
 30
0.0
 10
106.8685845001926
 20
-137.562662726026
 30
0.0
 10
106.8685845001926
 20
-137.845505065365
 30
0.0
 10
107.1014729549955
 20
-137.8544623136267
 30
0.0
 10
107.1731309410887
 20
-137.8589409377575
 30
0.0
 10
107.1731309410887
 20
-137.8589409377575
 30
0.0
 10
107.1731309410887
 20
-138.0759819533282
 30
0.0
 10
107.1731309410887
 20
-138.0759819533282
 30
0.0
 10
107.0484184845226
 20
-138.0670247050666
 30
0.0
 10
106.6718695479848
 20
-138.037741393442
 30
0.0
 10
106.6718695479848
 20
-137.5492268536335
 30
0.0
 10
106.6718695479848
 20
-137.3094482078602
 30
0.0
 10
106.7989935713905
 20
-137.0517550655635
 30
0.0
 10
107.0949272735735
 20
-137.0517550655635
 30
0.0
 10
107.2813069393255
 20
-137.0517550655635
 30
0.0
 10
107.363644721423
 20
-137.1537298919268
 30
0.0
 10
107.4249674210604
 20
-137.2598388328726
 30
0.0
 10
107.4525281849424
 20
-137.1943820186528
 30
0.0
 10
107.5327989097487
 20
-136.9997341237362
 30
0.0
 10
107.8101290963114
 20
-136.9997341237362
 30
0.0
 10
108.1484374729629
 20
-136.9997341237362
 30
0.0
 10
108.3155246039975
 20
-137.2643174570034
 30
0.0
 10
108.3155246039975
 20
-137.5605956687349
 30
0.0
  0
HATCH
  5
AD
330
A8
100
AcDbEntity
  8
_U+30EC_U+30A4_U+30E4_U+30FC 1
 62
   179
420
  2234388
100
AcDbHatch
 10
0.0
 20
0.0
 30
0.0
210
0.0
220
0.0
230
1.0
  2
SOLID
 70
     1
 71
     0
 91
        1
 92
        1
 93
        1
 72
     4
 94
        3
 73
     0
 74
     1
 95
       62
 96
       58
 40
0.0
 40
0.0
 40
0.0
 40
0.0
 40
1.0
 40
1.0
 40
1.0
 40
2.0
 40
2.0
 40
2.0
 40
3.0
 40
3.0
 40
3.0
 40
4.0
 40
4.0
 40
4.0
 40
5.0
 40
5.0
 40
5.0
 40
6.0
 40
6.0
 40
6.0
 40
7.0
 40
7.0
 40
7.0
 40
8.0
 40
8.0
 40
8.0
 40
9.0
 40
9.0
 40
9.0
 40
10.0
 40
10.0
 40
10.0
 40
11.0
 40
11.0
 40
11.0
 40
12.0
 40
12.0
 40
12.0
 40
13.0
 40
13.0
 40
13.0
 40
14.0
 40
14.0
 40
14.0
 40
15.0
 40
15.0
 40
15.0
 40
16.0
 40
16.0
 40
16.0
 40
17.0
 40
17.0
 40
17.0
 40
18.0
 40
18.0
 40
18.0
 40
19.0
 40
19.0
 40
19.0
 40
19.0
 10
108.3155246039975
 20
-137.5605956687349
 10
108.3155246039975
 20
-137.6622259855497
 10
108.2945095215375
 20
-137.8951144403526
 10
108.108474365334
 20
-138.0284396356318
 10
107.9961642525149
 20
-138.1076768317925
 10
107.8969455025397
 20
-138.1121554559234
 10
107.8121961536025
 20
-138.1166340800542
 10
107.8121961536025
 20
-138.1166340800542
 10
107.8121961536025
 20
-137.8816785679601
 10
107.8121961536025
 20
-137.8816785679601
 10
107.8862657065354
 20
-137.8792670011205
 10
108.1208767090809
 20
-137.8678981860191
 10
108.1208767090809
 20
-137.5650742928657
 10
108.1208767090809
 20
-137.4179687156455
 10
108.0512857802788
 20
-137.2553602087417
 10
107.8228759496068
 20
-137.2553602087417
 10
107.7064317222053
 20
-137.2553602087417
 10
107.6578558758633
 20
-137.2960123354677
 10
107.626160997399
 20
-137.3297742712231
 10
107.5520914444661
 20
-137.4090114673839
 10
107.5393445911707
 20
-137.5333794144014
 10
107.5393445911707
 20
-137.5922905471992
 10
107.5393445911707
 20
-137.6126166105621
 10
107.5414116484619
 20
-137.6508571704484
 10
107.5455457630442
 20
-137.6804849916215
 10
107.5455457630442
 20
-137.6804849916215
 10
107.3508978681276
 20
-137.6804849916215
 10
107.3508978681276
 20
-137.6804849916215
 10
107.3574435495495
 20
-137.6398328648956
 10
107.3595106068407
 20
-137.5943576044903
 10
107.3595106068407
 20
-137.5878119230683
 10
107.3595106068407
 20
-137.5175319751692
 10
107.3381510148321
 20
-137.3049695837293
 10
107.1014729549955
 20
-137.3049695837293
 10
106.9237060279566
 20
-137.3049695837293
 10
106.8685845001926
 20
-137.445184969979
 10
106.8685845001926
 20
-137.562662726026
 10
106.8685845001926
 20
-137.845505065365
 10
107.1014729549955
 20
-137.8544623136267
 10
107.1731309410887
 20
-137.8589409377575
 10
107.1731309410887
 20
-137.8589409377575
 10
107.1731309410887
 20
-138.0759819533282
 10
107.1731309410887
 20
-138.0759819533282
 10
107.0484184845226
 20
-138.0670247050666
 10
106.6718695479848
 20
-138.037741393442
 10
106.6718695479848
 20
-137.5492268536335
 10
106.6718695479848
 20
-137.3094482078602
 10
106.7989935713905
 20
-137.0517550655635
 10
107.0949272735735
 20
-137.0517550655635
 10
107.2813069393255
 20
-137.0517550655635
 10
107.363644721423
 20
-137.1537298919268
 10
107.4249674210604
 20
-137.2598388328726
 10
107.4525281849424
 20
-137.1943820186528
 10
107.5327989097487
 20
-136.9997341237362
 10
107.8101290963114
 20
-136.9997341237362
 10
108.1484374729629
 20
-136.9997341237362
 10
108.3155246039975
 20
-137.2643174570034
 10
108.3155246039975
 20
-137.5605956687349
 97
        0
 97
        0
 75
     2
 76
     1
 98
        0
  0
ENDBLK
  5
AB
330
A8
100
AcDbEntity
  8
0
100
AcDbBlockEnd
  0
BLOCK
  5
BC
330
BA
100
AcDbEntity
  8
0
100
AcDbBlockBegin
  2
block 5
 70
     0
 10
0.0
 20
0.0
 30
0.0
  3
block 5
  1

  0
SPLINE
  5
BE
330
BA
100
AcDbEntity
  8
_U+30EC_U+30A4_U+30E4_U+30FC 1
370
     0
100
AcDbSpline
210
0.0
220
0.0
230
1.0
 70
    11
 71
     3
 72
    44
 73
    40
 74
     0
 42
0.0000000001
 43
0.0000000001
 12
1.0
 22
0.0
 32
0.0
 13
1.0
 23
0.0
 33
0.0
 40
0.0
 40
0.0
 40
0.0
 40
0.0
 40
1.0
 40
1.0
 40
1.0
 40
2.0
 40
2.0
 40
2.0
 40
3.0
 40
3.0
 40
3.0
 40
4.0
 40
4.0
 40
4.0
 40
5.0
 40
5.0
 40
5.0
 40
6.0
 40
6.0
 40
6.0
 40
7.0
 40
7.0
 40
7.0
 40
8.0
 40
8.0
 40
8.0
 40
9.0
 40
9.0
 40
9.0
 40
10.0
 40
10.0
 40
10.0
 40
11.0
 40
11.0
 40
11.0
 40
12.0
 40
12.0
 40
12.0
 40
13.0
 40
13.0
 40
13.0
 40
13.0
 10
94.58613007617986
 20
-116.3172756328131
 30
0.0
 10
94.35324162137697
 20
-116.4759222799088
 30
0.0
 10
94.25367836185325
 20
-116.5499918328417
 30
0.0
 10
94.20165742002598
 20
-116.6938245693509
 30
0.0
 10
94.20165742002598
 20
-116.6938245693509
 30
0.0
 10
95.03399248926235
 20
-116.6938245693509
 30
0.0
 10
95.03399248926235
 20
-116.6938245693509
 30
0.0
 10
95.03399248926235
 20
-116.6938245693509
 30
0.0
 10
95.03399248926235
 20
-116.8989800054975
 30
0.0
 10
95.03399248926235
 20
-116.8989800054975
 30
0.0
 10
95.03399248926235
 20
-116.8989800054975
 30
0.0
 10
93.93500702946764
 20
-116.8989800054975
 30
0.0
 10
93.93500702946764
 20
-116.8989800054975
 30
0.0
 10
93.96911347477162
 20
-116.5413790941285
 30
0.0
 10
94.03904891312219
 20
-116.4631754266134
 30
0.0
 10
94.45039331406102
 20
-116.1648301575907
 30
0.0
 10
94.72393389558985
 20
-115.9660481480918
 30
0.0
 10
94.79421384348895
 20
-115.8983520218067
 30
0.0
 10
94.79421384348895
 20
-115.7608927119452
 30
0.0
 10
94.79421384348895
 20
-115.6423814272526
 30
0.0
 10
94.71738821416788
 20
-115.5112955440388
 30
0.0
 10
94.50689288001911
 20
-115.5112955440388
 30
0.0
 10
94.22887367435945
 20
-115.5112955440388
 30
0.0
 10
94.2199164260978
 20
-115.7417724320021
 30
0.0
 10
94.21543780196698
 20
-115.8582166594035
 30
0.0
 10
94.21543780196698
 20
-115.8582166594035
 30
0.0
 10
93.97565915619359
 20
-115.8582166594035
 30
0.0
 10
93.97565915619359
 20
-115.8582166594035
 30
0.0
 10
93.98461640445524
 20
-115.7312648907721
 30
0.0
 10
93.99598521955656
 20
-115.6191270327272
 30
0.0
 10
94.08211260668782
 20
-115.5006157480346
 30
0.0
 10
94.19959036273482
 20
-115.3399020436477
 30
0.0
 10
94.39837237223375
 20
-115.305967853118
 30
0.0
 10
94.52274031925127
 20
-115.305967853118
 30
0.0
 10
94.81901853098275
 20
-115.305967853118
 30
0.0
 10
95.04053817068431
 20
-115.4901082068046
 30
0.0
 10
95.04053817068431
 20
-115.7629597692363
 30
0.0
 10
95.04053817068431
 20
-115.9913695999084
 30
0.0
 10
94.9161702236668
 20
-116.0909328594321
 30
0.0
 10
94.58613007617986
 20
-116.3172756328131
 30
0.0
  0
HATCH
  5
BF
330
BA
100
AcDbEntity
  8
_U+30EC_U+30A4_U+30E4_U+30FC 1
 62
   179
420
  2234388
100
AcDbHatch
 10
0.0
 20
0.0
 30
0.0
210
0.0
220
0.0
230
1.0
  2
SOLID
 70
     1
 71
     0
 91
        1
 92
        1
 93
        1
 72
     4
 94
        3
 73
     0
 74
     1
 95
       44
 96
       40
 40
0.0
 40
0.0
 40
0.0
 40
0.0
 40
1.0
 40
1.0
 40
1.0
 40
2.0
 40
2.0
 40
2.0
 40
3.0
 40
3.0
 40
3.0
 40
4.0
 40
4.0
 40
4.0
 40
5.0
 40
5.0
 40
5.0
 40
6.0
 40
6.0
 40
6.0
 40
7.0
 40
7.0
 40
7.0
 40
8.0
 40
8.0
 40
8.0
 40
9.0
 40
9.0
 40
9.0
 40
10.0
 40
10.0
 40
10.0
 40
11.0
 40
11.0
 40
11.0
 40
12.0
 40
12.0
 40
12.0
 40
13.0
 40
13.0
 40
13.0
 40
13.0
 10
94.58613007617986
 20
-116.3172756328131
 10
94.35324162137697
 20
-116.4759222799088
 10
94.25367836185325
 20
-116.5499918328417
 10
94.20165742002598
 20
-116.6938245693509
 10
94.20165742002598
 20
-116.6938245693509
 10
95.03399248926235
 20
-116.6938245693509
 10
95.03399248926235
 20
-116.6938245693509
 10
95.03399248926235
 20
-116.6938245693509
 10
95.03399248926235
 20
-116.8989800054975
 10
95.03399248926235
 20
-116.8989800054975
 10
95.03399248926235
 20
-116.8989800054975
 10
93.93500702946764
 20
-116.8989800054975
 10
93.93500702946764
 20
-116.8989800054975
 10
93.96911347477162
 20
-116.5413790941285
 10
94.03904891312219
 20
-116.4631754266134
 10
94.45039331406102
 20
-116.1648301575907
 10
94.72393389558985
 20
-115.9660481480918
 10
94.79421384348895
 20
-115.8983520218067
 10
94.79421384348895
 20
-115.7608927119452
 10
94.79421384348895
 20
-115.6423814272526
 10
94.71738821416788
 20
-115.5112955440388
 10
94.50689288001911
 20
-115.5112955440388
 10
94.22887367435945
 20
-115.5112955440388
 10
94.2199164260978
 20
-115.7417724320021
 10
94.21543780196698
 20
-115.8582166594035
 10
94.21543780196698
 20
-115.8582166594035
 10
93.97565915619359
 20
-115.8582166594035
 10
93.97565915619359
 20
-115.8582166594035
 10
93.98461640445524
 20
-115.7312648907721
 10
93.99598521955656
 20
-115.6191270327272
 10
94.08211260668782
 20
-115.5006157480346
 10
94.19959036273482
 20
-115.3399020436477
 10
94.39837237223375
 20
-115.305967853118
 10
94.52274031925127
 20
-115.305967853118
 10
94.81901853098275
 20
-115.305967853118
 10
95.04053817068431
 20
-115.4901082068046
 10
95.04053817068431
 20
-115.7629597692363
 10
95.04053817068431
 20
-115.9913695999084
 10
94.9161702236668
 20
-116.0909328594321
 10
94.58613007617986
 20
-116.3172756328131
 97
        0
 97
        0
 75
     2
 76
     1
 98
        0
  0
SPLINE
  5
C0
330
BA
100
AcDbEntity
  8
_U+30EC_U+30A4_U+30E4_U+30FC 1
370
     0
100
AcDbSpline
210
0.0
220
0.0
230
1.0
 70
    11
 71
     3
 72
    26
 73
    22
 74
     0
 42
0.0000000001
 43
0.0000000001
 12
1.0
 22
0.0
 32
0.0
 13
1.0
 23
0.0
 33
0.0
 40
0.0
 40
0.0
 40
0.0
 40
0.0
 40
1.0
 40
1.0
 40
1.0
 40
2.0
 40
2.0
 40
2.0
 40
3.0
 40
3.0
 40
3.0
 40
4.0
 40
4.0
 40
4.0
 40
5.0
 40
5.0
 40
5.0
 40
6.0
 40
6.0
 40
6.0
 40
7.0
 40
7.0
 40
7.0
 40
7.0
 10
95.69235023649358
 20
-116.8989800054975
 30
0.0
 10
95.69235023649358
 20
-116.8989800054975
 30
0.0
 10
95.69235023649358
 20
-115.7946546477007
 30
0.0
 10
95.69235023649358
 20
-115.7946546477007
 30
0.0
 10
95.69235023649358
 20
-115.7946546477007
 30
0.0
 10
95.33991696835253
 20
-115.7946546477007
 30
0.0
 10
95.33991696835253
 20
-115.7946546477007
 30
0.0
 10
95.33991696835253
 20
-115.7946546477007
 30
0.0
 10
95.33991696835253
 20
-115.6466877966092
 30
0.0
 10
95.33991696835253
 20
-115.6466877966092
 30
0.0
 10
95.69476180333326
 20
-115.6318738860226
 30
0.0
 10
95.74437117832086
 20
-115.4689208695703
 30
0.0
 10
95.77606605678515
 20
-115.3547159542342
 30
0.0
 10
95.77606605678515
 20
-115.3547159542342
 30
0.0
 10
95.93212888226697
 20
-115.3547159542342
 30
0.0
 10
95.93212888226697
 20
-115.3547159542342
 30
0.0
 10
95.93212888226697
 20
-115.3547159542342
 30
0.0
 10
95.93212888226697
 20
-116.8989800054975
 30
0.0
 10
95.93212888226697
 20
-116.8989800054975
 30
0.0
 10
95.93212888226697
 20
-116.8989800054975
 30
0.0
 10
95.69235023649358
 20
-116.8989800054975
 30
0.0
 10
95.69235023649358
 20
-116.8989800054975
 30
0.0
  0
HATCH
  5
C1
330
BA
100
AcDbEntity
  8
_U+30EC_U+30A4_U+30E4_U+30FC 1
 62
   179
420
  2234388
100
AcDbHatch
 10
0.0
 20
0.0
 30
0.0
210
0.0
220
0.0
230
1.0
  2
SOLID
 70
     1
 71
     0
 91
        1
 92
        1
 93
        1
 72
     4
 94
        3
 73
     0
 74
     1
 95
       26
 96
       22
 40
0.0
 40
0.0
 40
0.0
 40
0.0
 40
1.0
 40
1.0
 40
1.0
 40
2.0
 40
2.0
 40
2.0
 40
3.0
 40
3.0
 40
3.0
 40
4.0
 40
4.0
 40
4.0
 40
5.0
 40
5.0
 40
5.0
 40
6.0
 40
6.0
 40
6.0
 40
7.0
 40
7.0
 40
7.0
 40
7.0
 10
95.69235023649358
 20
-116.8989800054975
 10
95.69235023649358
 20
-116.8989800054975
 10
95.69235023649358
 20
-115.7946546477007
 10
95.69235023649358
 20
-115.7946546477007
 10
95.69235023649358
 20
-115.7946546477007
 10
95.33991696835253
 20
-115.7946546477007
 10
95.33991696835253
 20
-115.7946546477007
 10
95.33991696835253
 20
-115.7946546477007
 10
95.33991696835253
 20
-115.6466877966092
 10
95.33991696835253
 20
-115.6466877966092
 10
95.69476180333326
 20
-115.6318738860226
 10
95.74437117832086
 20
-115.4689208695703
 10
95.77606605678515
 20
-115.3547159542342
 10
95.77606605678515
 20
-115.3547159542342
 10
95.93212888226697
 20
-115.3547159542342
 10
95.93212888226697
 20
-115.3547159542342
 10
95.93212888226697
 20
-115.3547159542342
 10
95.93212888226697
 20
-116.8989800054975
 10
95.93212888226697
 20
-116.8989800054975
 10
95.93212888226697
 20
-116.8989800054975
 10
95.69235023649358
 20
-116.8989800054975
 10
95.69235023649358
 20
-116.8989800054975
 97
        0
 97
        0
 75
     2
 76
     1
 98
        0
  0
ENDBLK
  5
BD
330
BA
100
AcDbEntity
  8
0
100
AcDbBlockEnd
  0
BLOCK
  5
D0
330
CE
100
AcDbEntity
  8
0
100
AcDbBlockBegin
  2
block 6
 70
     0
 10
0.0
 20
0.0
 30
0.0
  3
block 6
  1

  0
SPLINE
  5
D2
330
CE
100
AcDbEntity
  8
_U+30EC_U+30A4_U+30E4_U+30FC 1
370
     0
100
AcDbSpline
210
0.0
220
0.0
230
1.0
 70
    11
 71
     3
 72
    32
 73
    28
 74
     0
 42
0.0000000001
 43
0.0000000001
 12
1.0
 22
0.0
 32
0.0
 13
1.0
 23
0.0
 33
0.0
 40
0.0
 40
0.0
 40
0.0
 40
0.0
 40
1.0
 40
1.0
 40
1.0
 40
2.0
 40
2.0
 40
2.0
 40
3.0
 40
3.0
 40
3.0
 40
4.0
 40
4.0
 40
4.0
 40
5.0
 40
5.0
 40
5.0
 40
6.0
 40
6.0
 40
6.0
 40
7.0
 40
7.0
 40
7.0
 40
8.0
 40
8.0
 40
8.0
 40
9.0
 40
9.0
 40
9.0
 40
9.0
 10
87.62049151455321
 20
-141.7501762883472
 30
0.0
 10
87.06875947259046
 20
-141.7501762883472
 30
0.0
 10
87.0598022243288
 20
-141.196204934319
 30
0.0
 10
87.0598022243288
 20
-140.982264504685
 30
0.0
 10
87.0598022243288
 20
-140.7517876167218
 30
0.0
 10
87.08012828769178
 20
-140.1044541750433
 30
0.0
 10
87.66114364127917
 20
-140.1044541750433
 30
0.0
 10
87.84666203315987
 20
-140.1044541750433
 30
0.0
 10
88.10883379958737
 20
-140.1743896133939
 30
0.0
 10
88.14948592631333
 20
-140.506496818172
 30
0.0
 10
88.14948592631333
 20
-140.506496818172
 30
0.0
 10
87.92124835041552
 20
-140.506496818172
 30
0.0
 10
87.92124835041552
 20
-140.506496818172
 30
0.0
 10
87.9098795353142
 20
-140.4493082331169
 30
0.0
 10
87.87594534478448
 20
-140.3011691272511
 30
0.0
 10
87.65890432921375
 20
-140.3011691272511
 30
0.0
 10
87.34695093302437
 20
-140.3011691272511
 30
0.0
 10
87.30405949423302
 20
-140.6291422174469
 30
0.0
 10
87.29045136706628
 20
-140.8341253988193
 30
0.0
 10
87.38984237181573
 20
-140.7559217313041
 30
0.0
 10
87.46218937700598
 20
-140.6966660889578
 30
0.0
 10
87.65666501714834
 20
-140.6966660889578
 30
0.0
 10
87.84890134522527
 20
-140.6966660889578
 30
0.0
 10
88.17222355651597
 20
-140.8048420871946
 30
0.0
 10
88.17222355651597
 20
-141.2110188449056
 30
0.0
 10
88.17222355651597
 20
-141.5303791963883
 30
0.0
 10
87.95966116507606
 20
-141.7501762883472
 30
0.0
 10
87.62049151455321
 20
-141.7501762883472
 30
0.0
  0
SPLINE
  5
D3
330
CE
100
AcDbEntity
  8
_U+30EC_U+30A4_U+30E4_U+30FC 1
370
     0
100
AcDbSpline
210
0.0
220
0.0
230
1.0
 70
    11
 71
     3
 72
    17
 73
    13
 74
     0
 42
0.0000000001
 43
0.0000000001
 12
1.0
 22
0.0
 32
0.0
 13
1.0
 23
0.0
 33
0.0
 40
0.0
 40
0.0
 40
0.0
 40
0.0
 40
1.0
 40
1.0
 40
1.0
 40
2.0
 40
2.0
 40
2.0
 40
3.0
 40
3.0
 40
3.0
 40
4.0
 40
4.0
 40
4.0
 40
4.0
 10
87.63857826585078
 20
-140.8913139838744
 30
0.0
 10
87.35814749335144
 20
-140.8913139838744
 30
0.0
 10
87.3174953666255
 20
-141.1028428466688
 30
0.0
 10
87.3174953666255
 20
-141.2192870740702
 30
0.0
 10
87.3174953666255
 20
-141.3949869438179
 30
0.0
 10
87.41929793821463
 20
-141.5579399602702
 30
0.0
 10
87.6160128904224
 20
-141.5579399602702
 30
0.0
 10
87.74485946157074
 20
-141.5579399602702
 30
0.0
 10
87.93244491074259
 20
-141.498684317924
 30
0.0
 10
87.93244491074259
 20
-141.2130859021967
 30
0.0
 10
87.93244491074259
 20
-140.988810186107
 30
0.0
 10
87.78327227623127
 20
-140.8913139838744
 30
0.0
 10
87.63857826585078
 20
-140.8913139838744
 30
0.0
  0
HATCH
  5
D4
330
CE
100
AcDbEntity
  8
_U+30EC_U+30A4_U+30E4_U+30FC 1
 62
   179
420
  2234388
100
AcDbHatch
 10
0.0
 20
0.0
 30
0.0
210
0.0
220
0.0
230
1.0
  2
SOLID
 70
     1
 71
     0
 91
        2
 92
        1
 93
        1
 72
     4
 94
        3
 73
     0
 74
     1
 95
       32
 96
       28
 40
0.0
 40
0.0
 40
0.0
 40
0.0
 40
1.0
 40
1.0
 40
1.0
 40
2.0
 40
2.0
 40
2.0
 40
3.0
 40
3.0
 40
3.0
 40
4.0
 40
4.0
 40
4.0
 40
5.0
 40
5.0
 40
5.0
 40
6.0
 40
6.0
 40
6.0
 40
7.0
 40
7.0
 40
7.0
 40
8.0
 40
8.0
 40
8.0
 40
9.0
 40
9.0
 40
9.0
 40
9.0
 10
87.62049151455321
 20
-141.7501762883472
 10
87.06875947259046
 20
-141.7501762883472
 10
87.0598022243288
 20
-141.196204934319
 10
87.0598022243288
 20
-140.982264504685
 10
87.0598022243288
 20
-140.7517876167218
 10
87.08012828769178
 20
-140.1044541750433
 10
87.66114364127917
 20
-140.1044541750433
 10
87.84666203315987
 20
-140.1044541750433
 10
88.10883379958737
 20
-140.1743896133939
 10
88.14948592631333
 20
-140.506496818172
 10
88.14948592631333
 20
-140.506496818172
 10
87.92124835041552
 20
-140.506496818172
 10
87.92124835041552
 20
-140.506496818172
 10
87.9098795353142
 20
-140.4493082331169
 10
87.87594534478448
 20
-140.3011691272511
 10
87.65890432921375
 20
-140.3011691272511
 10
87.34695093302437
 20
-140.3011691272511
 10
87.30405949423302
 20
-140.6291422174469
 10
87.29045136706628
 20
-140.8341253988193
 10
87.38984237181573
 20
-140.7559217313041
 10
87.46218937700598
 20
-140.6966660889578
 10
87.65666501714834
 20
-140.6966660889578
 10
87.84890134522527
 20
-140.6966660889578
 10
88.17222355651597
 20
-140.8048420871946
 10
88.17222355651597
 20
-141.2110188449056
 10
88.17222355651597
 20
-141.5303791963883
 10
87.95966116507606
 20
-141.7501762883472
 10
87.62049151455321
 20
-141.7501762883472
 97
        0
 97
        0
 92
        1
 93
        1
 72
     4
 94
        3
 73
     0
 74
     1
 95
       17
 96
       13
 40
0.0
 40
0.0
 40
0.0
 40
0.0
 40
1.0
 40
1.0
 40
1.0
 40
2.0
 40
2.0
 40
2.0
 40
3.0
 40
3.0
 40
3.0
 40
4.0
 40
4.0
 40
4.0
 40
4.0
 10
87.63857826585078
 20
-140.8913139838744
 10
87.35814749335144
 20
-140.8913139838744
 10
87.3174953666255
 20
-141.1028428466688
 10
87.3174953666255
 20
-141.2192870740702
 10
87.3174953666255
 20
-141.3949869438179
 10
87.41929793821463
 20
-141.5579399602702
 10
87.6160128904224
 20
-141.5579399602702
 10
87.74485946157074
 20
-141.5579399602702
 10
87.93244491074259
 20
-141.498684317924
 10
87.93244491074259
 20
-141.2130859021967
 10
87.93244491074259
 20
-140.988810186107
 10
87.78327227623127
 20
-140.8913139838744
 10
87.63857826585078
 20
-140.8913139838744
 97
        0
 97
        0
 75
     2
 76
     1
 98
        0
  0
ENDBLK
  5
D1
330
CE
100
AcDbEntity
  8
0
100
AcDbBlockEnd
  0
BLOCK
  5
E3
330
E1
100
AcDbEntity
  8
0
100
AcDbBlockBegin
  2
block 7
 70
     0
 10
0.0
 20
0.0
 30
0.0
  3
block 7
  1

  0
SPLINE
  5
E5
330
E1
100
AcDbEntity
  8
_U+30EC_U+30A4_U+30E4_U+30FC 1
370
     0
100
AcDbSpline
210
0.0
220
0.0
230
1.0
 70
    11
 71
     3
 72
    26
 73
    22
 74
     0
 42
0.0000000001
 43
0.0000000001
 12
1.0
 22
0.0
 32
0.0
 13
1.0
 23
0.0
 33
0.0
 40
0.0
 40
0.0
 40
0.0
 40
0.0
 40
1.0
 40
1.0
 40
1.0
 40
2.0
 40
2.0
 40
2.0
 40
3.0
 40
3.0
 40
3.0
 40
4.0
 40
4.0
 40
4.0
 40
5.0
 40
5.0
 40
5.0
 40
6.0
 40
6.0
 40
6.0
 40
7.0
 40
7.0
 40
7.0
 40
7.0
 10
108.2648817003643
 20
-130.2318440429629
 30
0.0
 10
108.2648817003643
 20
-130.2318440429629
 30
0.0
 10
107.1607285973418
 20
-130.2318440429629
 30
0.0
 10
107.1607285973418
 20
-130.2318440429629
 30
0.0
 10
107.1607285973418
 20
-130.2318440429629
 30
0.0
 10
107.1607285973418
 20
-130.5842773111039
 30
0.0
 10
107.1607285973418
 20
-130.5842773111039
 30
0.0
 10
107.1607285973418
 20
-130.5842773111039
 30
0.0
 10
107.012589491476
 20
-130.5842773111039
 30
0.0
 10
107.012589491476
 20
-130.5842773111039
 30
0.0
 10
106.9977755808895
 20
-130.2294324761232
 30
0.0
 10
106.8348225644371
 20
-130.1798231011356
 30
0.0
 10
106.7204453943268
 20
-130.1481282226713
 30
0.0
 10
106.7204453943268
 20
-130.1481282226713
 30
0.0
 10
106.7204453943268
 20
-129.9920653971895
 30
0.0
 10
106.7204453943268
 20
-129.9920653971895
 30
0.0
 10
106.7204453943268
 20
-129.9920653971895
 30
0.0
 10
108.2648817003643
 20
-129.9920653971895
 30
0.0
 10
108.2648817003643
 20
-129.9920653971895
 30
0.0
 10
108.2648817003643
 20
-129.9920653971895
 30
0.0
 10
108.2648817003643
 20
-130.2318440429629
 30
0.0
 10
108.2648817003643
 20
-130.2318440429629
 30
0.0
  0
HATCH
  5
E6
330
E1
100
AcDbEntity
  8
_U+30EC_U+30A4_U+30E4_U+30FC 1
 62
   179
420
  2234388
100
AcDbHatch
 10
0.0
 20
0.0
 30
0.0
210
0.0
220
0.0
230
1.0
  2
SOLID
 70
     1
 71
     0
 91
        1
 92
        1
 93
        1
 72
     4
 94
        3
 73
     0
 74
     1
 95
       26
 96
       22
 40
0.0
 40
0.0
 40
0.0
 40
0.0
 40
1.0
 40
1.0
 40
1.0
 40
2.0
 40
2.0
 40
2.0
 40
3.0
 40
3.0
 40
3.0
 40
4.0
 40
4.0
 40
4.0
 40
5.0
 40
5.0
 40
5.0
 40
6.0
 40
6.0
 40
6.0
 40
7.0
 40
7.0
 40
7.0
 40
7.0
 10
108.2648817003643
 20
-130.2318440429629
 10
108.2648817003643
 20
-130.2318440429629
 10
107.1607285973418
 20
-130.2318440429629
 10
107.1607285973418
 20
-130.2318440429629
 10
107.1607285973418
 20
-130.2318440429629
 10
107.1607285973418
 20
-130.5842773111039
 10
107.1607285973418
 20
-130.5842773111039
 10
107.1607285973418
 20
-130.5842773111039
 10
107.012589491476
 20
-130.5842773111039
 10
107.012589491476
 20
-130.5842773111039
 10
106.9977755808895
 20
-130.2294324761232
 10
106.8348225644371
 20
-130.1798231011356
 10
106.7204453943268
 20
-130.1481282226713
 10
106.7204453943268
 20
-130.1481282226713
 10
106.7204453943268
 20
-129.9920653971895
 10
106.7204453943268
 20
-129.9920653971895
 10
106.7204453943268
 20
-129.9920653971895
 10
108.2648817003643
 20
-129.9920653971895
 10
108.2648817003643
 20
-129.9920653971895
 10
108.2648817003643
 20
-129.9920653971895
 10
108.2648817003643
 20
-130.2318440429629
 10
108.2648817003643
 20
-130.2318440429629
 97
        0
 97
        0
 75
     2
 76
     1
 98
        0
  0
SPLINE
  5
E7
330
E1
100
AcDbEntity
  8
_U+30EC_U+30A4_U+30E4_U+30FC 1
370
     0
100
AcDbSpline
210
0.0
220
0.0
230
1.0
 70
    11
 71
     3
 72
    62
 73
    58
 74
     0
 42
0.0000000001
 43
0.0000000001
 12
1.0
 22
0.0
 32
0.0
 13
1.0
 23
0.0
 33
0.0
 40
0.0
 40
0.0
 40
0.0
 40
0.0
 40
1.0
 40
1.0
 40
1.0
 40
2.0
 40
2.0
 40
2.0
 40
3.0
 40
3.0
 40
3.0
 40
4.0
 40
4.0
 40
4.0
 40
5.0
 40
5.0
 40
5.0
 40
6.0
 40
6.0
 40
6.0
 40
7.0
 40
7.0
 40
7.0
 40
8.0
 40
8.0
 40
8.0
 40
9.0
 40
9.0
 40
9.0
 40
10.0
 40
10.0
 40
10.0
 40
11.0
 40
11.0
 40
11.0
 40
12.0
 40
12.0
 40
12.0
 40
13.0
 40
13.0
 40
13.0
 40
14.0
 40
14.0
 40
14.0
 40
15.0
 40
15.0
 40
15.0
 40
16.0
 40
16.0
 40
16.0
 40
17.0
 40
17.0
 40
17.0
 40
18.0
 40
18.0
 40
18.0
 40
19.0
 40
19.0
 40
19.0
 40
19.0
 10
108.3155246039975
 20
-128.9309759877326
 30
0.0
 10
108.3155246039975
 20
-129.0326063045474
 30
0.0
 10
108.2945095215375
 20
-129.2654947593503
 30
0.0
 10
108.108474365334
 20
-129.3988199546295
 30
0.0
 10
107.9961642525149
 20
-129.4780571507902
 30
0.0
 10
107.8969455025397
 20
-129.482535774921
 30
0.0
 10
107.8121961536025
 20
-129.4870143990519
 30
0.0
 10
107.8121961536025
 20
-129.4870143990519
 30
0.0
 10
107.8121961536025
 20
-129.2520588869578
 30
0.0
 10
107.8121961536025
 20
-129.2520588869578
 30
0.0
 10
107.8862657065354
 20
-129.2496473201182
 30
0.0
 10
108.1208767090809
 20
-129.2382785050168
 30
0.0
 10
108.1208767090809
 20
-128.9354546118634
 30
0.0
 10
108.1208767090809
 20
-128.7883490346432
 30
0.0
 10
108.0512857802788
 20
-128.6257405277394
 30
0.0
 10
107.8228759496068
 20
-128.6257405277394
 30
0.0
 10
107.7064317222053
 20
-128.6257405277394
 30
0.0
 10
107.6578558758633
 20
-128.6663926544653
 30
0.0
 10
107.626160997399
 20
-128.7004990997693
 30
0.0
 10
107.5520914444661
 20
-128.7793917863816
 30
0.0
 10
107.5393445911707
 20
-128.9037597333991
 30
0.0
 10
107.5393445911707
 20
-128.9626708661968
 30
0.0
 10
107.5393445911707
 20
-128.9829969295598
 30
0.0
 10
107.5414116484619
 20
-129.0212374894461
 30
0.0
 10
107.5455457630442
 20
-129.0508653106192
 30
0.0
 10
107.5455457630442
 20
-129.0508653106192
 30
0.0
 10
107.3508978681276
 20
-129.0508653106192
 30
0.0
 10
107.3508978681276
 20
-129.0508653106192
 30
0.0
 10
107.3574435495495
 20
-129.0102131838933
 30
0.0
 10
107.3595106068407
 20
-128.964737923488
 30
0.0
 10
107.3595106068407
 20
-128.958192242066
 30
0.0
 10
107.3595106068407
 20
-128.8879122941669
 30
0.0
 10
107.3381510148321
 20
-128.675349902727
 30
0.0
 10
107.1014729549955
 20
-128.675349902727
 30
0.0
 10
106.9237060279566
 20
-128.675349902727
 30
0.0
 10
106.8685845001926
 20
-128.8155652889767
 30
0.0
 10
106.8685845001926
 20
-128.9330430450237
 30
0.0
 10
106.8685845001926
 20
-129.2158853843627
 30
0.0
 10
107.1014729549955
 20
-129.2248426326244
 30
0.0
 10
107.1731309410887
 20
-129.2293212567552
 30
0.0
 10
107.1731309410887
 20
-129.2293212567552
 30
0.0
 10
107.1731309410887
 20
-129.4463622723259
 30
0.0
 10
107.1731309410887
 20
-129.4463622723259
 30
0.0
 10
107.0484184845226
 20
-129.4374050240643
 30
0.0
 10
106.6718695479848
 20
-129.4081217124397
 30
0.0
 10
106.6718695479848
 20
-128.9196071726312
 30
0.0
 10
106.6718695479848
 20
-128.6798285268578
 30
0.0
 10
106.7989935713905
 20
-128.4221353845611
 30
0.0
 10
107.0949272735735
 20
-128.4221353845611
 30
0.0
 10
107.2813069393255
 20
-128.4221353845611
 30
0.0
 10
107.363644721423
 20
-128.5241102109245
 30
0.0
 10
107.4249674210604
 20
-128.6302191518702
 30
0.0
 10
107.4525281849424
 20
-128.5647623376505
 30
0.0
 10
107.5327989097487
 20
-128.3701144427339
 30
0.0
 10
107.8101290963114
 20
-128.3701144427339
 30
0.0
 10
108.1484374729629
 20
-128.3701144427339
 30
0.0
 10
108.3155246039975
 20
-128.634697776001
 30
0.0
 10
108.3155246039975
 20
-128.9309759877326
 30
0.0
  0
HATCH
  5
E8
330
E1
100
AcDbEntity
  8
_U+30EC_U+30A4_U+30E4_U+30FC 1
 62
   179
420
  2234388
100
AcDbHatch
 10
0.0
 20
0.0
 30
0.0
210
0.0
220
0.0
230
1.0
  2
SOLID
 70
     1
 71
     0
 91
        1
 92
        1
 93
        1
 72
     4
 94
        3
 73
     0
 74
     1
 95
       62
 96
       58
 40
0.0
 40
0.0
 40
0.0
 40
0.0
 40
1.0
 40
1.0
 40
1.0
 40
2.0
 40
2.0
 40
2.0
 40
3.0
 40
3.0
 40
3.0
 40
4.0
 40
4.0
 40
4.0
 40
5.0
 40
5.0
 40
5.0
 40
6.0
 40
6.0
 40
6.0
 40
7.0
 40
7.0
 40
7.0
 40
8.0
 40
8.0
 40
8.0
 40
9.0
 40
9.0
 40
9.0
 40
10.0
 40
10.0
 40
10.0
 40
11.0
 40
11.0
 40
11.0
 40
12.0
 40
12.0
 40
12.0
 40
13.0
 40
13.0
 40
13.0
 40
14.0
 40
14.0
 40
14.0
 40
15.0
 40
15.0
 40
15.0
 40
16.0
 40
16.0
 40
16.0
 40
17.0
 40
17.0
 40
17.0
 40
18.0
 40
18.0
 40
18.0
 40
19.0
 40
19.0
 40
19.0
 40
19.0
 10
108.3155246039975
 20
-128.9309759877326
 10
108.3155246039975
 20
-129.0326063045474
 10
108.2945095215375
 20
-129.2654947593503
 10
108.108474365334
 20
-129.3988199546295
 10
107.9961642525149
 20
-129.4780571507902
 10
107.8969455025397
 20
-129.482535774921
 10
107.8121961536025
 20
-129.4870143990519
 10
107.8121961536025
 20
-129.4870143990519
 10
107.8121961536025
 20
-129.2520588869578
 10
107.8121961536025
 20
-129.2520588869578
 10
107.8862657065354
 20
-129.2496473201182
 10
108.1208767090809
 20
-129.2382785050168
 10
108.1208767090809
 20
-128.9354546118634
 10
108.1208767090809
 20
-128.7883490346432
 10
108.0512857802788
 20
-128.6257405277394
 10
107.8228759496068
 20
-128.6257405277394
 10
107.7064317222053
 20
-128.6257405277394
 10
107.6578558758633
 20
-128.6663926544653
 10
107.626160997399
 20
-128.7004990997693
 10
107.5520914444661
 20
-128.7793917863816
 10
107.5393445911707
 20
-128.9037597333991
 10
107.5393445911707
 20
-128.9626708661968
 10
107.5393445911707
 20
-128.9829969295598
 10
107.5414116484619
 20
-129.0212374894461
 10
107.5455457630442
 20
-129.0508653106192
 10
107.5455457630442
 20
-129.0508653106192
 10
107.3508978681276
 20
-129.0508653106192
 10
107.3508978681276
 20
-129.0508653106192
 10
107.3574435495495
 20
-129.0102131838933
 10
107.3595106068407
 20
-128.964737923488
 10
107.3595106068407
 20
-128.958192242066
 10
107.3595106068407
 20
-128.8879122941669
 10
107.3381510148321
 20
-128.675349902727
 10
107.1014729549955
 20
-128.675349902727
 10
106.9237060279566
 20
-128.675349902727
 10
106.8685845001926
 20
-128.8155652889767
 10
106.8685845001926
 20
-128.9330430450237
 10
106.8685845001926
 20
-129.2158853843627
 10
107.1014729549955
 20
-129.2248426326244
 10
107.1731309410887
 20
-129.2293212567552
 10
107.1731309410887
 20
-129.2293212567552
 10
107.1731309410887
 20
-129.4463622723259
 10
107.1731309410887
 20
-129.4463622723259
 10
107.0484184845226
 20
-129.4374050240643
 10
106.6718695479848
 20
-129.4081217124397
 10
106.6718695479848
 20
-128.9196071726312
 10
106.6718695479848
 20
-128.6798285268578
 10
106.7989935713905
 20
-128.4221353845611
 10
107.0949272735735
 20
-128.4221353845611
 10
107.2813069393255
 20
-128.4221353845611
 10
107.363644721423
 20
-128.5241102109245
 10
107.4249674210604
 20
-128.6302191518702
 10
107.4525281849424
 20
-128.5647623376505
 10
107.5327989097487
 20
-128.3701144427339
 10
107.8101290963114
 20
-128.3701144427339
 10
108.1484374729629
 20
-128.3701144427339
 10
108.3155246039975
 20
-128.634697776001
 10
108.3155246039975
 20
-128.9309759877326
 97
        0
 97
        0
 75
     2
 76
     1
 98
        0
  0
ENDBLK
  5
E4
330
E1
100
AcDbEntity
  8
0
100
AcDbBlockEnd
  0
BLOCK
  5
FC
330
FA
100
AcDbEntity
  8
0
100
AcDbBlockBegin
  2
block 8
 70
     0
 10
0.0
 20
0.0
 30
0.0
  3
block 8
  1

  0
SPLINE
  5
FE
330
FA
100
AcDbEntity
  8
_U+30EC_U+30A4_U+30E4_U+30FC 1
370
     0
100
AcDbSpline
210
0.0
220
0.0
230
1.0
 70
    11
 71
     3
 72
   242
 73
   238
 74
     0
 42
0.0000000001
 43
0.0000000001
 12
1.0
 22
0.0
 32
0.0
 13
1.0
 23
0.0
 33
0.0
 40
0.0
 40
0.0
 40
0.0
 40
0.0
 40
1.0
 40
1.0
 40
1.0
 40
2.0
 40
2.0
 40
2.0
 40
3.0
 40
3.0
 40
3.0
 40
4.0
 40
4.0
 40
4.0
 40
5.0
 40
5.0
 40
5.0
 40
6.0
 40
6.0
 40
6.0
 40
7.0
 40
7.0
 40
7.0
 40
8.0
 40
8.0
 40
8.0
 40
9.0
 40
9.0
 40
9.0
 40
10.0
 40
10.0
 40
10.0
 40
11.0
 40
11.0
 40
11.0
 40
12.0
 40
12.0
 40
12.0
 40
13.0
 40
13.0
 40
13.0
 40
14.0
 40
14.0
 40
14.0
 40
15.0
 40
15.0
 40
15.0
 40
16.0
 40
16.0
 40
16.0
 40
17.0
 40
17.0
 40
17.0
 40
18.0
 40
18.0
 40
18.0
 40
19.0
 40
19.0
 40
19.0
 40
20.0
 40
20.0
 40
20.0
 40
21.0
 40
21.0
 40
21.0
 40
22.0
 40
22.0
 40
22.0
 40
23.0
 40
23.0
 40
23.0
 40
24.0
 40
24.0
 40
24.0
 40
25.0
 40
25.0
 40
25.0
 40
26.0
 40
26.0
 40
26.0
 40
27.0
 40
27.0
 40
27.0
 40
28.0
 40
28.0
 40
28.0
 40
29.0
 40
29.0
 40
29.0
 40
30.0
 40
30.0
 40
30.0
 40
31.0
 40
31.0
 40
31.0
 40
32.0
 40
32.0
 40
32.0
 40
33.0
 40
33.0
 40
33.0
 40
34.0
 40
34.0
 40
34.0
 40
35.0
 40
35.0
 40
35.0
 40
36.0
 40
36.0
 40
36.0
 40
37.0
 40
37.0
 40
37.0
 40
38.0
 40
38.0
 40
38.0
 40
39.0
 40
39.0
 40
39.0
 40
40.0
 40
40.0
 40
40.0
 40
41.0
 40
41.0
 40
41.0
 40
42.0
 40
42.0
 40
42.0
 40
43.0
 40
43.0
 40
43.0
 40
44.0
 40
44.0
 40
44.0
 40
45.0
 40
45.0
 40
45.0
 40
46.0
 40
46.0
 40
46.0
 40
47.0
 40
47.0
 40
47.0
 40
48.0
 40
48.0
 40
48.0
 40
49.0
 40
49.0
 40
49.0
 40
50.0
 40
50.0
 40
50.0
 40
51.0
 40
51.0
 40
51.0
 40
52.0
 40
52.0
 40
52.0
 40
53.0
 40
53.0
 40
53.0
 40
54.0
 40
54.0
 40
54.0
 40
55.0
 40
55.0
 40
55.0
 40
56.0
 40
56.0
 40
56.0
 40
57.0
 40
57.0
 40
57.0
 40
58.0
 40
58.0
 40
58.0
 40
59.0
 40
59.0
 40
59.0
 40
60.0
 40
60.0
 40
60.0
 40
61.0
 40
61.0
 40
61.0
 40
62.0
 40
62.0
 40
62.0
 40
63.0
 40
63.0
 40
63.0
 40
64.0
 40
64.0
 40
64.0
 40
65.0
 40
65.0
 40
65.0
 40
66.0
 40
66.0
 40
66.0
 40
67.0
 40
67.0
 40
67.0
 40
68.0
 40
68.0
 40
68.0
 40
69.0
 40
69.0
 40
69.0
 40
70.0
 40
70.0
 40
70.0
 40
71.0
 40
71.0
 40
71.0
 40
72.0
 40
72.0
 40
72.0
 40
73.0
 40
73.0
 40
73.0
 40
74.0
 40
74.0
 40
74.0
 40
75.0
 40
75.0
 40
75.0
 40
76.0
 40
76.0
 40
76.0
 40
77.0
 40
77.0
 40
77.0
 40
78.0
 40
78.0
 40
78.0
 40
79.0
 40
79.0
 40
79.0
 40
79.0
 10
73.12146265533075
 20
-138.6499348611709
 30
0.0
 10
73.12146265533075
 20
-138.6499348611709
 30
0.0
 10
72.86755911806783
 20
-138.6499348611709
 30
0.0
 10
72.86755911806783
 20
-138.6499348611709
 30
0.0
 10
72.86755911806783
 20
-138.6499348611709
 30
0.0
 10
72.59057344105375
 20
-138.6499348611709
 30
0.0
 10
72.59057344105375
 20
-138.6499348611709
 30
0.0
 10
72.59057344105375
 20
-138.6499348611709
 30
0.0
 10
72.71735295491094
 20
-138.6923095356394
 30
0.0
 10
72.71735295491094
 20
-138.6923095356394
 30
0.0
 10
72.72803275091522
 20
-138.6964436502217
 30
0.0
 10
72.74077960421064
 20
-138.7026448220952
 30
0.0
 10
72.74077960421064
 20
-138.7153916753906
 30
0.0
 10
72.74077960421064
 20
-138.7367512673991
 30
0.0
 10
72.70874021619782
 20
-138.7429524392726
 30
0.0
 10
72.6877251337378
 20
-138.7470865538549
 30
0.0
 10
72.67704533773352
 20
-138.7705132031546
 30
0.0
 10
72.64741751656037
 20
-138.8359700173743
 30
0.0
 10
72.6284694913915
 20
-138.8804117491341
 30
0.0
 10
72.6284694913915
 20
-138.8804117491341
 30
0.0
 10
72.89925399653214
 20
-138.8804117491341
 30
0.0
 10
72.89925399653214
 20
-138.8804117491341
 30
0.0
 10
72.99020451734273
 20
-138.8804117491341
 30
0.0
 10
73.18691946955049
 20
-138.8762776345518
 30
0.0
 10
73.32885740354278
 20
-138.8676648958387
 30
0.0
 10
73.32885740354278
 20
-138.8676648958387
 30
0.0
 10
73.32885740354278
 20
-139.0454318228775
 30
0.0
 10
73.32885740354278
 20
-139.0454318228775
 30
0.0
 10
73.24617511189679
 20
-139.0412977082952
 30
0.0
 10
73.22516002943676
 20
-139.0412977082952
 30
0.0
 10
73.04532604510673
 20
-139.0371635937129
 30
0.0
 10
73.01363116664243
 20
-139.1915038714521
 30
0.0
 10
72.96918943488271
 20
-139.2717745962584
 30
0.0
 10
72.92474770312299
 20
-139.341710034609
 30
0.0
 10
73.04532604510673
 20
-139.4009656769553
 30
0.0
 10
73.1510904765039
 20
-139.4684895484662
 30
0.0
 10
73.25478785060992
 20
-139.5511718401122
 30
0.0
 10
73.25478785060992
 20
-139.5511718401122
 30
0.0
 10
73.13627656591733
 20
-139.7182589711468
 30
0.0
 10
73.13627656591733
 20
-139.7182589711468
 30
0.0
 10
73.11284991661762
 20
-139.699310945978
 30
0.0
 10
73.1001030633222
 20
-139.6906982072648
 30
0.0
 10
72.98813746005158
 20
-139.6059488583277
 30
0.0
 10
72.93956161370956
 20
-139.5680528079899
 30
0.0
 10
72.88030597136326
 20
-139.5322238149433
 30
0.0
 10
72.79969073700842
 20
-139.4877820831836
 30
0.0
 10
72.58816187421408
 20
-139.6738172393871
 30
0.0
 10
72.38317869284171
 20
-139.6972438886868
 30
0.0
 10
72.09310165298368
 20
-139.7268717098599
 30
0.0
 10
72.09310165298368
 20
-139.7268717098599
 30
0.0
 10
71.98974878842618
 20
-139.5470377255299
 30
0.0
 10
71.98974878842618
 20
-139.5470377255299
 30
0.0
 10
72.30704208261768
 20
-139.5425591013991
 30
0.0
 10
72.4823974428169
 20
-139.5174099043568
 30
0.0
 10
72.63467066326494
 20
-139.4071668488288
 30
0.0
 10
72.51650388812088
 20
-139.3565239451956
 30
0.0
 10
72.42762042460143
 20
-139.3289631813136
 30
0.0
 10
72.39144692200631
 20
-139.3162163280182
 30
0.0
 10
72.37249889683743
 20
-139.3437770919002
 30
0.0
 10
72.35768498625086
 20
-139.3627251170691
 30
0.0
 10
72.33012422236887
 20
-139.396831562373
 30
0.0
 10
72.33012422236887
 20
-139.396831562373
 30
0.0
 10
72.1334092701611
 20
-139.314149270727
 30
0.0
 10
72.1334092701611
 20
-139.314149270727
 30
0.0
 10
72.21609156180709
 20
-139.2338785459207
 30
0.0
 10
72.27741426144453
 20
-139.1384494009793
 30
0.0
 10
72.33425833695117
 20
-139.0371635937129
 30
0.0
 10
72.14408906616536
 20
-139.0412977082952
 30
0.0
 10
72.12272947415683
 20
-139.0412977082952
 30
0.0
 10
72.04039169205934
 20
-139.0454318228775
 30
0.0
 10
72.04039169205934
 20
-139.0454318228775
 30
0.0
 10
72.04039169205934
 20
-138.8676648958387
 30
0.0
 10
72.04039169205934
 20
-138.8676648958387
 30
0.0
 10
72.17991805921197
 20
-138.8742105772606
 30
0.0
 10
72.38937986471515
 20
-138.8783446918429
 30
0.0
 10
72.414873571306
 20
-138.8783446918429
 30
0.0
 10
72.43175453918373
 20
-138.8445827560875
 30
0.0
 10
72.48687606694773
 20
-138.7240044141037
 30
0.0
 10
72.5058240921166
 20
-138.6499348611709
 30
0.0
 10
72.48687606694773
 20
-138.6499348611709
 30
0.0
 10
72.30910913990884
 20
-138.6561360330443
 30
0.0
 10
72.11446124499223
 20
-138.6688828863397
 30
0.0
 10
72.11446124499223
 20
-138.6688828863397
 30
0.0
 10
72.11446124499223
 20
-138.8022080816189
 30
0.0
 10
72.11446124499223
 20
-138.8022080816189
 30
0.0
 10
72.0658853986502
 20
-138.8277017882097
 30
0.0
 10
72.0066297563039
 20
-138.8593966666741
 30
0.0
 10
71.87330456102474
 20
-138.9248534808938
 30
0.0
 10
71.87330456102474
 20
-138.9248534808938
 30
0.0
 10
71.87330456102474
 20
-139.0709255294684
 30
0.0
 10
71.87330456102474
 20
-139.0709255294684
 30
0.0
 10
71.87330456102474
 20
-139.0709255294684
 30
0.0
 10
71.87330456102474
 20
-139.5384249868168
 30
0.0
 10
71.87330456102474
 20
-139.5384249868168
 30
0.0
 10
71.87330456102474
 20
-139.665204500674
 30
0.0
 10
71.8371310584296
 20
-139.7244601430203
 30
0.0
 10
71.55394420954207
 20
-139.7161919138557
 30
0.0
 10
71.55394420954207
 20
-139.7161919138557
 30
0.0
 10
71.45024683543605
 20
-139.5087971656436
 30
0.0
 10
71.45024683543605
 20
-139.5087971656436
 30
0.0
 10
71.51363659236465
 20
-139.5215440189391
 30
0.0
 10
71.56221243870667
 20
-139.5256781335214
 30
0.0
 10
71.6025200558841
 20
-139.5256781335214
 30
0.0
 10
71.67865666610811
 20
-139.5256781335214
 30
0.0
 10
71.6893364621124
 20
-139.5025959937702
 30
0.0
 10
71.6893364621124
 20
-139.4367946700019
 30
0.0
 10
71.6893364621124
 20
-139.4367946700019
 30
0.0
 10
71.6893364621124
 20
-139.0075357725398
 30
0.0
 10
71.6893364621124
 20
-139.0075357725398
 30
0.0
 10
71.59184025987982
 20
-139.0474988801687
 30
0.0
 10
71.57495929200209
 20
-139.0540445615907
 30
0.0
 10
71.52845050295123
 20
-139.0729925867595
 30
0.0
 10
71.52431638836893
 20
-139.0940076692196
 30
0.0
 10
71.5198377642381
 20
-139.1236354903927
 30
0.0
 10
71.50088973906922
 20
-139.1236354903927
 30
0.0
 10
71.49262150990462
 20
-139.1236354903927
 30
0.0
 10
71.48194171390035
 20
-139.1195013758104
 30
0.0
 10
71.47539603247837
 20
-139.0964192360592
 30
0.0
 10
71.47539603247837
 20
-139.0964192360592
 30
0.0
 10
71.42268607155405
 20
-138.9038383984338
 30
0.0
 10
71.42268607155405
 20
-138.9038383984338
 30
0.0
 10
71.56875812012865
 20
-138.8573296093829
 30
0.0
 10
71.63421493434839
 20
-138.8339029600832
 30
0.0
 10
71.6893364621124
 20
-138.8128878776232
 30
0.0
 10
71.6893364621124
 20
-138.8128878776232
 30
0.0
 10
71.6893364621124
 20
-138.4001654384902
 30
0.0
 10
71.6893364621124
 20
-138.4001654384902
 30
0.0
 10
71.6893364621124
 20
-138.4001654384902
 30
0.0
 10
71.63628199163955
 20
-138.4001654384902
 30
0.0
 10
71.63628199163955
 20
-138.4001654384902
 30
0.0
 10
71.63628199163955
 20
-138.4001654384902
 30
0.0
 10
71.55807832412437
 20
-138.4001654384902
 30
0.0
 10
71.55807832412437
 20
-138.4001654384902
 30
0.0
 10
71.49020994306495
 20
-138.4001654384902
 30
0.0
 10
71.48194171390035
 20
-138.4001654384902
 30
0.0
 10
71.44576821130522
 20
-138.4067111199122
 30
0.0
 10
71.44576821130522
 20
-138.4067111199122
 30
0.0
 10
71.44576821130522
 20
-138.2120632249956
 30
0.0
 10
71.44576821130522
 20
-138.2120632249956
 30
0.0
 10
71.47332897518723
 20
-138.218264396869
 30
0.0
 10
71.48194171390035
 20
-138.218264396869
 30
0.0
 10
71.5515326427024
 20
-138.218264396869
 30
0.0
 10
71.5515326427024
 20
-138.218264396869
 30
0.0
 10
71.68485783798157
 20
-138.218264396869
 30
0.0
 10
71.68485783798157
 20
-138.218264396869
 30
0.0
 10
71.68485783798157
 20
-138.148673468067
 30
0.0
 10
71.68485783798157
 20
-138.065991176421
 30
0.0
 10
71.68279078069041
 20
-138.0618570618387
 30
0.0
 10
71.67452255152581
 20
-137.8820230775087
 30
0.0
 10
71.67452255152581
 20
-137.8630750523398
 30
0.0
 10
71.67211098468614
 20
-137.8165662632889
 30
0.0
 10
71.67211098468614
 20
-137.8165662632889
 30
0.0
 10
71.8881184716113
 20
-137.8248344924535
 30
0.0
 10
71.8881184716113
 20
-137.8248344924535
 30
0.0
 10
71.89879826761558
 20
-137.8248344924535
 30
0.0
 10
71.9198133500756
 20
-137.8269015497447
 30
0.0
 10
71.9198133500756
 20
-137.8437825176224
 30
0.0
 10
71.9198133500756
 20
-137.8630750523398
 30
0.0
 10
71.90499943948903
 20
-137.8734103387955
 30
0.0
 10
71.87950573289818
 20
-137.8927028735129
 30
0.0
 10
71.87950573289818
 20
-137.9433457771461
 30
0.0
 10
71.87330456102474
 20
-138.1717556078182
 30
0.0
 10
71.87537161831588
 20
-138.218264396869
 30
0.0
 10
72.00456269901275
 20
-138.218264396869
 30
0.0
 10
72.01696504275965
 20
-138.218264396869
 30
0.0
 10
72.11446124499223
 20
-138.2099961677044
 30
0.0
 10
72.11446124499223
 20
-138.2099961677044
 30
0.0
 10
72.11446124499223
 20
-138.4046440626211
 30
0.0
 10
72.11446124499223
 20
-138.4046440626211
 30
0.0
 10
72.07622068510595
 20
-138.4022324957814
 30
0.0
 10
72.00869681359505
 20
-138.3980983811991
 30
0.0
 10
71.87330456102474
 20
-138.4001654384902
 30
0.0
 10
71.87330456102474
 20
-138.4001654384902
 30
0.0
 10
71.87330456102474
 20
-138.7388183246903
 30
0.0
 10
71.87330456102474
 20
-138.7388183246903
 30
0.0
 10
71.92842608878873
 20
-138.7153916753906
 30
0.0
 10
71.99388290300848
 20
-138.6878309115086
 30
0.0
 10
72.0424587493505
 20
-138.6647487717574
 30
0.0
 10
72.0424587493505
 20
-138.6647487717574
 30
0.0
 10
72.0424587493505
 20
-138.4869818447185
 30
0.0
 10
72.0424587493505
 20
-138.4869818447185
 30
0.0
 10
72.15683591946079
 20
-138.499728698014
 30
0.0
 10
72.27534720415339
 20
-138.499728698014
 30
0.0
 10
72.39144692200631
 20
-138.499728698014
 30
0.0
 10
72.36836478225513
 20
-138.4046440626211
 30
0.0
 10
72.34080401837313
 20
-138.3219617709751
 30
0.0
 10
72.27741426144453
 20
-138.1886365756959
 30
0.0
 10
72.23297252968482
 20
-138.1907036329871
 30
0.0
 10
72.15029023803882
 20
-138.1951822571179
 30
0.0
 10
72.11239418770107
 20
-138.197249314409
 30
0.0
 10
72.11239418770107
 20
-138.197249314409
 30
0.0
 10
72.11239418770107
 20
-138.017415330079
 30
0.0
 10
72.11239418770107
 20
-138.017415330079
 30
0.0
 10
72.23710664426712
 20
-138.0256835592436
 30
0.0
 10
72.4107394567237
 20
-138.0301621833744
 30
0.0
 10
72.49307723882117
 20
-138.0301621833744
 30
0.0
 10
72.49307723882117
 20
-138.0301621833744
 30
0.0
 10
72.57575953046718
 20
-138.0301621833744
 30
0.0
 10
72.57575953046718
 20
-138.0301621833744
 30
0.0
 10
72.57575953046718
 20
-137.8672091669221
 30
0.0
 10
72.57575953046718
 20
-137.8565293709178
 30
0.0
 10
72.5733479636275
 20
-137.8017523527024
 30
0.0
 10
72.5733479636275
 20
-137.8017523527024
 30
0.0
 10
72.79762367971726
 20
-137.8269015497447
 30
0.0
 10
72.79762367971726
 20
-137.8269015497447
 30
0.0
 10
72.80210230384809
 20
-137.8269015497447
 30
0.0
 10
72.82311738630811
 20
-137.8289686070358
 30
0.0
 10
72.82311738630811
 20
-137.8458495749136
 30
0.0
 10
72.82311738630811
 20
-137.8606634855001
 30
0.0
 10
72.81243759030384
 20
-137.8692762242133
 30
0.0
 10
72.78487682642184
 20
-137.8840901347998
 30
0.0
 10
72.7786756545484
 20
-137.9495469490196
 30
0.0
 10
72.77660859725724
 20
-137.9709065410281
 30
0.0
 10
72.77660859725724
 20
-138.0301621833744
 30
0.0
 10
72.77660859725724
 20
-138.0301621833744
 30
0.0
 10
72.87169323265013
 20
-138.0301621833744
 30
0.0
 10
72.87169323265013
 20
-138.0301621833744
 30
0.0
 10
72.95437552429613
 20
-138.0301621833744
 30
0.0
 10
73.1276638272042
 20
-138.0256835592436
 30
0.0
 10
73.25272079331877
 20
-138.017415330079
 30
0.0
 10
73.25272079331877
 20
-138.017415330079
 30
0.0
 10
73.25272079331877
 20
-138.197249314409
 30
0.0
 10
73.25272079331877
 20
-138.197249314409
 30
0.0
 10
73.22309297214562
 20
-138.1951822571179
 30
0.0
 10
73.10458168745302
 20
-138.1907036329871
 30
0.0
 10
73.0642740702756
 20
-138.1886365756959
 30
0.0
 10
73.04946015968903
 20
-138.2396239888776
 30
0.0
 10
73.01569822393358
 20
-138.3515895921482
 30
0.0
 10
72.94989690016531
 20
-138.4911159593008
 30
0.0
 10
72.99227157463388
 20
-138.4911159593008
 30
0.0
 10
73.2696017611965
 20
-138.472167934132
 30
0.0
 10
73.33092446083394
 20
-138.4701008768408
 30
0.0
 10
73.33092446083394
 20
-138.4701008768408
 30
0.0
 10
73.33092446083394
 20
-138.6540689757531
 30
0.0
 10
73.33092446083394
 20
-138.6540689757531
 30
0.0
 10
73.30129663966079
 20
-138.6540689757531
 30
0.0
 10
73.28441567178307
 20
-138.6499348611709
 30
0.0
 10
73.12146265533075
 20
-138.6499348611709
 30
0.0
  0
SPLINE
  5
FF
330
FA
100
AcDbEntity
  8
_U+30EC_U+30A4_U+30E4_U+30FC 1
370
     0
100
AcDbSpline
210
0.0
220
0.0
230
1.0
 70
    11
 71
     3
 72
    20
 73
    16
 74
     0
 42
0.0000000001
 43
0.0000000001
 12
1.0
 22
0.0
 32
0.0
 13
1.0
 23
0.0
 33
0.0
 40
0.0
 40
0.0
 40
0.0
 40
0.0
 40
1.0
 40
1.0
 40
1.0
 40
2.0
 40
2.0
 40
2.0
 40
3.0
 40
3.0
 40
3.0
 40
4.0
 40
4.0
 40
4.0
 40
5.0
 40
5.0
 40
5.0
 40
5.0
 10
72.49307723882117
 20
-138.1845024611136
 30
0.0
 10
72.49307723882117
 20
-138.1845024611136
 30
0.0
 10
72.46138236035688
 20
-138.1845024611136
 30
0.0
 10
72.46138236035688
 20
-138.1845024611136
 30
0.0
 10
72.50789114940775
 20
-138.2840657206373
 30
0.0
 10
72.53958602787205
 20
-138.3643364454437
 30
0.0
 10
72.5733479636275
 20
-138.4911159593008
 30
0.0
 10
72.5733479636275
 20
-138.4911159593008
 30
0.0
 10
72.78074271183954
 20
-138.4911159593008
 30
0.0
 10
72.78074271183954
 20
-138.4911159593008
 30
0.0
 10
72.81243759030384
 20
-138.3980983811991
 30
0.0
 10
72.83586423960354
 20
-138.3136935418105
 30
0.0
 10
72.8589463793547
 20
-138.1845024611136
 30
0.0
 10
72.8589463793547
 20
-138.1845024611136
 30
0.0
 10
72.49307723882117
 20
-138.1845024611136
 30
0.0
 10
72.49307723882117
 20
-138.1845024611136
 30
0.0
  0
SPLINE
  5
100
330
FA
100
AcDbEntity
  8
_U+30EC_U+30A4_U+30E4_U+30FC 1
370
     0
100
AcDbSpline
210
0.0
220
0.0
230
1.0
 70
    11
 71
     3
 72
    17
 73
    13
 74
     0
 42
0.0000000001
 43
0.0000000001
 12
1.0
 22
0.0
 32
0.0
 13
1.0
 23
0.0
 33
0.0
 40
0.0
 40
0.0
 40
0.0
 40
0.0
 40
1.0
 40
1.0
 40
1.0
 40
2.0
 40
2.0
 40
2.0
 40
3.0
 40
3.0
 40
3.0
 40
4.0
 40
4.0
 40
4.0
 40
4.0
 10
72.55646699574977
 20
-139.0350965364218
 30
0.0
 10
72.53958602787205
 20
-139.0643798480464
 30
0.0
 10
72.48894312423887
 20
-139.1577419356967
 30
0.0
 10
72.4782633282346
 20
-139.1766899608656
 30
0.0
 10
72.66877710856892
 20
-139.2359456032119
 30
0.0
 10
72.68979219102894
 20
-139.2421467750853
 30
0.0
 10
72.76179468667067
 20
-139.2697075389673
 30
0.0
 10
72.81691621443467
 20
-139.182891132739
 30
0.0
 10
72.83999835418584
 20
-139.1088215798061
 30
0.0
 10
72.8548122647724
 20
-139.0350965364218
 30
0.0
 10
72.8548122647724
 20
-139.0350965364218
 30
0.0
 10
72.55646699574977
 20
-139.0350965364218
 30
0.0
 10
72.55646699574977
 20
-139.0350965364218
 30
0.0
  0
HATCH
  5
101
330
FA
100
AcDbEntity
  8
_U+30EC_U+30A4_U+30E4_U+30FC 1
 62
   179
420
  2234388
100
AcDbHatch
 10
0.0
 20
0.0
 30
0.0
210
0.0
220
0.0
230
1.0
  2
SOLID
 70
     1
 71
     0
 91
        3
 92
        1
 93
        1
 72
     4
 94
        3
 73
     0
 74
     1
 95
      242
 96
      238
 40
0.0
 40
0.0
 40
0.0
 40
0.0
 40
1.0
 40
1.0
 40
1.0
 40
2.0
 40
2.0
 40
2.0
 40
3.0
 40
3.0
 40
3.0
 40
4.0
 40
4.0
 40
4.0
 40
5.0
 40
5.0
 40
5.0
 40
6.0
 40
6.0
 40
6.0
 40
7.0
 40
7.0
 40
7.0
 40
8.0
 40
8.0
 40
8.0
 40
9.0
 40
9.0
 40
9.0
 40
10.0
 40
10.0
 40
10.0
 40
11.0
 40
11.0
 40
11.0
 40
12.0
 40
12.0
 40
12.0
 40
13.0
 40
13.0
 40
13.0
 40
14.0
 40
14.0
 40
14.0
 40
15.0
 40
15.0
 40
15.0
 40
16.0
 40
16.0
 40
16.0
 40
17.0
 40
17.0
 40
17.0
 40
18.0
 40
18.0
 40
18.0
 40
19.0
 40
19.0
 40
19.0
 40
20.0
 40
20.0
 40
20.0
 40
21.0
 40
21.0
 40
21.0
 40
22.0
 40
22.0
 40
22.0
 40
23.0
 40
23.0
 40
23.0
 40
24.0
 40
24.0
 40
24.0
 40
25.0
 40
25.0
 40
25.0
 40
26.0
 40
26.0
 40
26.0
 40
27.0
 40
27.0
 40
27.0
 40
28.0
 40
28.0
 40
28.0
 40
29.0
 40
29.0
 40
29.0
 40
30.0
 40
30.0
 40
30.0
 40
31.0
 40
31.0
 40
31.0
 40
32.0
 40
32.0
 40
32.0
 40
33.0
 40
33.0
 40
33.0
 40
34.0
 40
34.0
 40
34.0
 40
35.0
 40
35.0
 40
35.0
 40
36.0
 40
36.0
 40
36.0
 40
37.0
 40
37.0
 40
37.0
 40
38.0
 40
38.0
 40
38.0
 40
39.0
 40
39.0
 40
39.0
 40
40.0
 40
40.0
 40
40.0
 40
41.0
 40
41.0
 40
41.0
 40
42.0
 40
42.0
 40
42.0
 40
43.0
 40
43.0
 40
43.0
 40
44.0
 40
44.0
 40
44.0
 40
45.0
 40
45.0
 40
45.0
 40
46.0
 40
46.0
 40
46.0
 40
47.0
 40
47.0
 40
47.0
 40
48.0
 40
48.0
 40
48.0
 40
49.0
 40
49.0
 40
49.0
 40
50.0
 40
50.0
 40
50.0
 40
51.0
 40
51.0
 40
51.0
 40
52.0
 40
52.0
 40
52.0
 40
53.0
 40
53.0
 40
53.0
 40
54.0
 40
54.0
 40
54.0
 40
55.0
 40
55.0
 40
55.0
 40
56.0
 40
56.0
 40
56.0
 40
57.0
 40
57.0
 40
57.0
 40
58.0
 40
58.0
 40
58.0
 40
59.0
 40
59.0
 40
59.0
 40
60.0
 40
60.0
 40
60.0
 40
61.0
 40
61.0
 40
61.0
 40
62.0
 40
62.0
 40
62.0
 40
63.0
 40
63.0
 40
63.0
 40
64.0
 40
64.0
 40
64.0
 40
65.0
 40
65.0
 40
65.0
 40
66.0
 40
66.0
 40
66.0
 40
67.0
 40
67.0
 40
67.0
 40
68.0
 40
68.0
 40
68.0
 40
69.0
 40
69.0
 40
69.0
 40
70.0
 40
70.0
 40
70.0
 40
71.0
 40
71.0
 40
71.0
 40
72.0
 40
72.0
 40
72.0
 40
73.0
 40
73.0
 40
73.0
 40
74.0
 40
74.0
 40
74.0
 40
75.0
 40
75.0
 40
75.0
 40
76.0
 40
76.0
 40
76.0
 40
77.0
 40
77.0
 40
77.0
 40
78.0
 40
78.0
 40
78.0
 40
79.0
 40
79.0
 40
79.0
 40
79.0
 10
73.12146265533075
 20
-138.6499348611709
 10
73.12146265533075
 20
-138.6499348611709
 10
72.86755911806783
 20
-138.6499348611709
 10
72.86755911806783
 20
-138.6499348611709
 10
72.86755911806783
 20
-138.6499348611709
 10
72.59057344105375
 20
-138.6499348611709
 10
72.59057344105375
 20
-138.6499348611709
 10
72.59057344105375
 20
-138.6499348611709
 10
72.71735295491094
 20
-138.6923095356394
 10
72.71735295491094
 20
-138.6923095356394
 10
72.72803275091522
 20
-138.6964436502217
 10
72.74077960421064
 20
-138.7026448220952
 10
72.74077960421064
 20
-138.7153916753906
 10
72.74077960421064
 20
-138.7367512673991
 10
72.70874021619782
 20
-138.7429524392726
 10
72.6877251337378
 20
-138.7470865538549
 10
72.67704533773352
 20
-138.7705132031546
 10
72.64741751656037
 20
-138.8359700173743
 10
72.6284694913915
 20
-138.8804117491341
 10
72.6284694913915
 20
-138.8804117491341
 10
72.89925399653214
 20
-138.8804117491341
 10
72.89925399653214
 20
-138.8804117491341
 10
72.99020451734273
 20
-138.8804117491341
 10
73.18691946955049
 20
-138.8762776345518
 10
73.32885740354278
 20
-138.8676648958387
 10
73.32885740354278
 20
-138.8676648958387
 10
73.32885740354278
 20
-139.0454318228775
 10
73.32885740354278
 20
-139.0454318228775
 10
73.24617511189679
 20
-139.0412977082952
 10
73.22516002943676
 20
-139.0412977082952
 10
73.04532604510673
 20
-139.0371635937129
 10
73.01363116664243
 20
-139.1915038714521
 10
72.96918943488271
 20
-139.2717745962584
 10
72.92474770312299
 20
-139.341710034609
 10
73.04532604510673
 20
-139.4009656769553
 10
73.1510904765039
 20
-139.4684895484662
 10
73.25478785060992
 20
-139.5511718401122
 10
73.25478785060992
 20
-139.5511718401122
 10
73.13627656591733
 20
-139.7182589711468
 10
73.13627656591733
 20
-139.7182589711468
 10
73.11284991661762
 20
-139.699310945978
 10
73.1001030633222
 20
-139.6906982072648
 10
72.98813746005158
 20
-139.6059488583277
 10
72.93956161370956
 20
-139.5680528079899
 10
72.88030597136326
 20
-139.5322238149433
 10
72.79969073700842
 20
-139.4877820831836
 10
72.58816187421408
 20
-139.6738172393871
 10
72.38317869284171
 20
-139.6972438886868
 10
72.09310165298368
 20
-139.7268717098599
 10
72.09310165298368
 20
-139.7268717098599
 10
71.98974878842618
 20
-139.5470377255299
 10
71.98974878842618
 20
-139.5470377255299
 10
72.30704208261768
 20
-139.5425591013991
 10
72.4823974428169
 20
-139.5174099043568
 10
72.63467066326494
 20
-139.4071668488288
 10
72.51650388812088
 20
-139.3565239451956
 10
72.42762042460143
 20
-139.3289631813136
 10
72.39144692200631
 20
-139.3162163280182
 10
72.37249889683743
 20
-139.3437770919002
 10
72.35768498625086
 20
-139.3627251170691
 10
72.33012422236887
 20
-139.396831562373
 10
72.33012422236887
 20
-139.396831562373
 10
72.1334092701611
 20
-139.314149270727
 10
72.1334092701611
 20
-139.314149270727
 10
72.21609156180709
 20
-139.2338785459207
 10
72.27741426144453
 20
-139.1384494009793
 10
72.33425833695117
 20
-139.0371635937129
 10
72.14408906616536
 20
-139.0412977082952
 10
72.12272947415683
 20
-139.0412977082952
 10
72.04039169205934
 20
-139.0454318228775
 10
72.04039169205934
 20
-139.0454318228775
 10
72.04039169205934
 20
-138.8676648958387
 10
72.04039169205934
 20
-138.8676648958387
 10
72.17991805921197
 20
-138.8742105772606
 10
72.38937986471515
 20
-138.8783446918429
 10
72.414873571306
 20
-138.8783446918429
 10
72.43175453918373
 20
-138.8445827560875
 10
72.48687606694773
 20
-138.7240044141037
 10
72.5058240921166
 20
-138.6499348611709
 10
72.48687606694773
 20
-138.6499348611709
 10
72.30910913990884
 20
-138.6561360330443
 10
72.11446124499223
 20
-138.6688828863397
 10
72.11446124499223
 20
-138.6688828863397
 10
72.11446124499223
 20
-138.8022080816189
 10
72.11446124499223
 20
-138.8022080816189
 10
72.0658853986502
 20
-138.8277017882097
 10
72.0066297563039
 20
-138.8593966666741
 10
71.87330456102474
 20
-138.9248534808938
 10
71.87330456102474
 20
-138.9248534808938
 10
71.87330456102474
 20
-139.0709255294684
 10
71.87330456102474
 20
-139.0709255294684
 10
71.87330456102474
 20
-139.0709255294684
 10
71.87330456102474
 20
-139.5384249868168
 10
71.87330456102474
 20
-139.5384249868168
 10
71.87330456102474
 20
-139.665204500674
 10
71.8371310584296
 20
-139.7244601430203
 10
71.55394420954207
 20
-139.7161919138557
 10
71.55394420954207
 20
-139.7161919138557
 10
71.45024683543605
 20
-139.5087971656436
 10
71.45024683543605
 20
-139.5087971656436
 10
71.51363659236465
 20
-139.5215440189391
 10
71.56221243870667
 20
-139.5256781335214
 10
71.6025200558841
 20
-139.5256781335214
 10
71.67865666610811
 20
-139.5256781335214
 10
71.6893364621124
 20
-139.5025959937702
 10
71.6893364621124
 20
-139.4367946700019
 10
71.6893364621124
 20
-139.4367946700019
 10
71.6893364621124
 20
-139.0075357725398
 10
71.6893364621124
 20
-139.0075357725398
 10
71.59184025987982
 20
-139.0474988801687
 10
71.57495929200209
 20
-139.0540445615907
 10
71.52845050295123
 20
-139.0729925867595
 10
71.52431638836893
 20
-139.0940076692196
 10
71.5198377642381
 20
-139.1236354903927
 10
71.50088973906922
 20
-139.1236354903927
 10
71.49262150990462
 20
-139.1236354903927
 10
71.48194171390035
 20
-139.1195013758104
 10
71.47539603247837
 20
-139.0964192360592
 10
71.47539603247837
 20
-139.0964192360592
 10
71.42268607155405
 20
-138.9038383984338
 10
71.42268607155405
 20
-138.9038383984338
 10
71.56875812012865
 20
-138.8573296093829
 10
71.63421493434839
 20
-138.8339029600832
 10
71.6893364621124
 20
-138.8128878776232
 10
71.6893364621124
 20
-138.8128878776232
 10
71.6893364621124
 20
-138.4001654384902
 10
71.6893364621124
 20
-138.4001654384902
 10
71.6893364621124
 20
-138.4001654384902
 10
71.63628199163955
 20
-138.4001654384902
 10
71.63628199163955
 20
-138.4001654384902
 10
71.63628199163955
 20
-138.4001654384902
 10
71.55807832412437
 20
-138.4001654384902
 10
71.55807832412437
 20
-138.4001654384902
 10
71.49020994306495
 20
-138.4001654384902
 10
71.48194171390035
 20
-138.4001654384902
 10
71.44576821130522
 20
-138.4067111199122
 10
71.44576821130522
 20
-138.4067111199122
 10
71.44576821130522
 20
-138.2120632249956
 10
71.44576821130522
 20
-138.2120632249956
 10
71.47332897518723
 20
-138.218264396869
 10
71.48194171390035
 20
-138.218264396869
 10
71.5515326427024
 20
-138.218264396869
 10
71.5515326427024
 20
-138.218264396869
 10
71.68485783798157
 20
-138.218264396869
 10
71.68485783798157
 20
-138.218264396869
 10
71.68485783798157
 20
-138.148673468067
 10
71.68485783798157
 20
-138.065991176421
 10
71.68279078069041
 20
-138.0618570618387
 10
71.67452255152581
 20
-137.8820230775087
 10
71.67452255152581
 20
-137.8630750523398
 10
71.67211098468614
 20
-137.8165662632889
 10
71.67211098468614
 20
-137.8165662632889
 10
71.8881184716113
 20
-137.8248344924535
 10
71.8881184716113
 20
-137.8248344924535
 10
71.89879826761558
 20
-137.8248344924535
 10
71.9198133500756
 20
-137.8269015497447
 10
71.9198133500756
 20
-137.8437825176224
 10
71.9198133500756
 20
-137.8630750523398
 10
71.90499943948903
 20
-137.8734103387955
 10
71.87950573289818
 20
-137.8927028735129
 10
71.87950573289818
 20
-137.9433457771461
 10
71.87330456102474
 20
-138.1717556078182
 10
71.87537161831588
 20
-138.218264396869
 10
72.00456269901275
 20
-138.218264396869
 10
72.01696504275965
 20
-138.218264396869
 10
72.11446124499223
 20
-138.2099961677044
 10
72.11446124499223
 20
-138.2099961677044
 10
72.11446124499223
 20
-138.4046440626211
 10
72.11446124499223
 20
-138.4046440626211
 10
72.07622068510595
 20
-138.4022324957814
 10
72.00869681359505
 20
-138.3980983811991
 10
71.87330456102474
 20
-138.4001654384902
 10
71.87330456102474
 20
-138.4001654384902
 10
71.87330456102474
 20
-138.7388183246903
 10
71.87330456102474
 20
-138.7388183246903
 10
71.92842608878873
 20
-138.7153916753906
 10
71.99388290300848
 20
-138.6878309115086
 10
72.0424587493505
 20
-138.6647487717574
 10
72.0424587493505
 20
-138.6647487717574
 10
72.0424587493505
 20
-138.4869818447185
 10
72.0424587493505
 20
-138.4869818447185
 10
72.15683591946079
 20
-138.499728698014
 10
72.27534720415339
 20
-138.499728698014
 10
72.39144692200631
 20
-138.499728698014
 10
72.36836478225513
 20
-138.4046440626211
 10
72.34080401837313
 20
-138.3219617709751
 10
72.27741426144453
 20
-138.1886365756959
 10
72.23297252968482
 20
-138.1907036329871
 10
72.15029023803882
 20
-138.1951822571179
 10
72.11239418770107
 20
-138.197249314409
 10
72.11239418770107
 20
-138.197249314409
 10
72.11239418770107
 20
-138.017415330079
 10
72.11239418770107
 20
-138.017415330079
 10
72.23710664426712
 20
-138.0256835592436
 10
72.4107394567237
 20
-138.0301621833744
 10
72.49307723882117
 20
-138.0301621833744
 10
72.49307723882117
 20
-138.0301621833744
 10
72.57575953046718
 20
-138.0301621833744
 10
72.57575953046718
 20
-138.0301621833744
 10
72.57575953046718
 20
-137.8672091669221
 10
72.57575953046718
 20
-137.8565293709178
 10
72.5733479636275
 20
-137.8017523527024
 10
72.5733479636275
 20
-137.8017523527024
 10
72.79762367971726
 20
-137.8269015497447
 10
72.79762367971726
 20
-137.8269015497447
 10
72.80210230384809
 20
-137.8269015497447
 10
72.82311738630811
 20
-137.8289686070358
 10
72.82311738630811
 20
-137.8458495749136
 10
72.82311738630811
 20
-137.8606634855001
 10
72.81243759030384
 20
-137.8692762242133
 10
72.78487682642184
 20
-137.8840901347998
 10
72.7786756545484
 20
-137.9495469490196
 10
72.77660859725724
 20
-137.9709065410281
 10
72.77660859725724
 20
-138.0301621833744
 10
72.77660859725724
 20
-138.0301621833744
 10
72.87169323265013
 20
-138.0301621833744
 10
72.87169323265013
 20
-138.0301621833744
 10
72.95437552429613
 20
-138.0301621833744
 10
73.1276638272042
 20
-138.0256835592436
 10
73.25272079331877
 20
-138.017415330079
 10
73.25272079331877
 20
-138.017415330079
 10
73.25272079331877
 20
-138.197249314409
 10
73.25272079331877
 20
-138.197249314409
 10
73.22309297214562
 20
-138.1951822571179
 10
73.10458168745302
 20
-138.1907036329871
 10
73.0642740702756
 20
-138.1886365756959
 10
73.04946015968903
 20
-138.2396239888776
 10
73.01569822393358
 20
-138.3515895921482
 10
72.94989690016531
 20
-138.4911159593008
 10
72.99227157463388
 20
-138.4911159593008
 10
73.2696017611965
 20
-138.472167934132
 10
73.33092446083394
 20
-138.4701008768408
 10
73.33092446083394
 20
-138.4701008768408
 10
73.33092446083394
 20
-138.6540689757531
 10
73.33092446083394
 20
-138.6540689757531
 10
73.30129663966079
 20
-138.6540689757531
 10
73.28441567178307
 20
-138.6499348611709
 10
73.12146265533075
 20
-138.6499348611709
 97
        0
 97
        0
 92
        1
 93
        1
 72
     4
 94
        3
 73
     0
 74
     1
 95
       20
 96
       16
 40
0.0
 40
0.0
 40
0.0
 40
0.0
 40
1.0
 40
1.0
 40
1.0
 40
2.0
 40
2.0
 40
2.0
 40
3.0
 40
3.0
 40
3.0
 40
4.0
 40
4.0
 40
4.0
 40
5.0
 40
5.0
 40
5.0
 40
5.0
 10
72.49307723882117
 20
-138.1845024611136
 10
72.49307723882117
 20
-138.1845024611136
 10
72.46138236035688
 20
-138.1845024611136
 10
72.46138236035688
 20
-138.1845024611136
 10
72.50789114940775
 20
-138.2840657206373
 10
72.53958602787205
 20
-138.3643364454437
 10
72.5733479636275
 20
-138.4911159593008
 10
72.5733479636275
 20
-138.4911159593008
 10
72.78074271183954
 20
-138.4911159593008
 10
72.78074271183954
 20
-138.4911159593008
 10
72.81243759030384
 20
-138.3980983811991
 10
72.83586423960354
 20
-138.3136935418105
 10
72.8589463793547
 20
-138.1845024611136
 10
72.8589463793547
 20
-138.1845024611136
 10
72.49307723882117
 20
-138.1845024611136
 10
72.49307723882117
 20
-138.1845024611136
 97
        0
 97
        0
 92
        1
 93
        1
 72
     4
 94
        3
 73
     0
 74
     1
 95
       17
 96
       13
 40
0.0
 40
0.0
 40
0.0
 40
0.0
 40
1.0
 40
1.0
 40
1.0
 40
2.0
 40
2.0
 40
2.0
 40
3.0
 40
3.0
 40
3.0
 40
4.0
 40
4.0
 40
4.0
 40
4.0
 10
72.55646699574977
 20
-139.0350965364218
 10
72.53958602787205
 20
-139.0643798480464
 10
72.48894312423887
 20
-139.1577419356967
 10
72.4782633282346
 20
-139.1766899608656
 10
72.66877710856892
 20
-139.2359456032119
 10
72.68979219102894
 20
-139.2421467750853
 10
72.76179468667067
 20
-139.2697075389673
 10
72.81691621443467
 20
-139.182891132739
 10
72.83999835418584
 20
-139.1088215798061
 10
72.8548122647724
 20
-139.0350965364218
 10
72.8548122647724
 20
-139.0350965364218
 10
72.55646699574977
 20
-139.0350965364218
 10
72.55646699574977
 20
-139.0350965364218
 97
        0
 97
        0
 75
     2
 76
     1
 98
        0
  0
SPLINE
  5
102
330
FA
100
AcDbEntity
  8
_U+30EC_U+30A4_U+30E4_U+30FC 1
370
     0
100
AcDbSpline
210
0.0
220
0.0
230
1.0
 70
    11
 71
     3
 72
   203
 73
   199
 74
     0
 42
0.0000000001
 43
0.0000000001
 12
1.0
 22
0.0
 32
0.0
 13
1.0
 23
0.0
 33
0.0
 40
0.0
 40
0.0
 40
0.0
 40
0.0
 40
1.0
 40
1.0
 40
1.0
 40
2.0
 40
2.0
 40
2.0
 40
3.0
 40
3.0
 40
3.0
 40
4.0
 40
4.0
 40
4.0
 40
5.0
 40
5.0
 40
5.0
 40
6.0
 40
6.0
 40
6.0
 40
7.0
 40
7.0
 40
7.0
 40
8.0
 40
8.0
 40
8.0
 40
9.0
 40
9.0
 40
9.0
 40
10.0
 40
10.0
 40
10.0
 40
11.0
 40
11.0
 40
11.0
 40
12.0
 40
12.0
 40
12.0
 40
13.0
 40
13.0
 40
13.0
 40
14.0
 40
14.0
 40
14.0
 40
15.0
 40
15.0
 40
15.0
 40
16.0
 40
16.0
 40
16.0
 40
17.0
 40
17.0
 40
17.0
 40
18.0
 40
18.0
 40
18.0
 40
19.0
 40
19.0
 40
19.0
 40
20.0
 40
20.0
 40
20.0
 40
21.0
 40
21.0
 40
21.0
 40
22.0
 40
22.0
 40
22.0
 40
23.0
 40
23.0
 40
23.0
 40
24.0
 40
24.0
 40
24.0
 40
25.0
 40
25.0
 40
25.0
 40
26.0
 40
26.0
 40
26.0
 40
27.0
 40
27.0
 40
27.0
 40
28.0
 40
28.0
 40
28.0
 40
29.0
 40
29.0
 40
29.0
 40
30.0
 40
30.0
 40
30.0
 40
31.0
 40
31.0
 40
31.0
 40
32.0
 40
32.0
 40
32.0
 40
33.0
 40
33.0
 40
33.0
 40
34.0
 40
34.0
 40
34.0
 40
35.0
 40
35.0
 40
35.0
 40
36.0
 40
36.0
 40
36.0
 40
37.0
 40
37.0
 40
37.0
 40
38.0
 40
38.0
 40
38.0
 40
39.0
 40
39.0
 40
39.0
 40
40.0
 40
40.0
 40
40.0
 40
41.0
 40
41.0
 40
41.0
 40
42.0
 40
42.0
 40
42.0
 40
43.0
 40
43.0
 40
43.0
 40
44.0
 40
44.0
 40
44.0
 40
45.0
 40
45.0
 40
45.0
 40
46.0
 40
46.0
 40
46.0
 40
47.0
 40
47.0
 40
47.0
 40
48.0
 40
48.0
 40
48.0
 40
49.0
 40
49.0
 40
49.0
 40
50.0
 40
50.0
 40
50.0
 40
51.0
 40
51.0
 40
51.0
 40
52.0
 40
52.0
 40
52.0
 40
53.0
 40
53.0
 40
53.0
 40
54.0
 40
54.0
 40
54.0
 40
55.0
 40
55.0
 40
55.0
 40
56.0
 40
56.0
 40
56.0
 40
57.0
 40
57.0
 40
57.0
 40
58.0
 40
58.0
 40
58.0
 40
59.0
 40
59.0
 40
59.0
 40
60.0
 40
60.0
 40
60.0
 40
61.0
 40
61.0
 40
61.0
 40
62.0
 40
62.0
 40
62.0
 40
63.0
 40
63.0
 40
63.0
 40
64.0
 40
64.0
 40
64.0
 40
65.0
 40
65.0
 40
65.0
 40
66.0
 40
66.0
 40
66.0
 40
66.0
 10
74.81300453858842
 20
-138.7174587326818
 30
0.0
 10
74.81300453858842
 20
-138.7174587326818
 30
0.0
 10
74.2542100508809
 20
-138.7174587326818
 30
0.0
 10
74.2542100508809
 20
-138.7174587326818
 30
0.0
 10
74.24387476442514
 20
-138.7619004644415
 30
0.0
 10
74.23526202571202
 20
-138.7935953429058
 30
0.0
 10
74.22251517241659
 20
-138.8318359027921
 30
0.0
 10
74.24800887900744
 20
-138.8318359027921
 30
0.0
 10
74.26282278959403
 20
-138.8339029600832
 30
0.0
 10
74.26902396146747
 20
-138.8339029600832
 30
0.0
 10
74.26902396146747
 20
-138.8339029600832
 30
0.0
 10
74.45747068451064
 20
-138.8339029600832
 30
0.0
 10
74.45747068451064
 20
-138.8339029600832
 30
0.0
 10
74.45747068451064
 20
-138.8339029600832
 30
0.0
 10
74.8319525637573
 20
-138.8339029600832
 30
0.0
 10
74.8319525637573
 20
-138.8339029600832
 30
0.0
 10
74.88259546739046
 20
-138.8339029600832
 30
0.0
 10
75.16612682582652
 20
-138.8211561067878
 30
0.0
 10
75.19782170429083
 20
-138.8211561067878
 30
0.0
 10
75.19575464699967
 20
-138.8487168706698
 30
0.0
 10
75.19368758970853
 20
-138.8676648958387
 30
0.0
 10
75.19368758970853
 20
-138.8972927170118
 30
0.0
 10
75.19162053241737
 20
-138.9289875954761
 30
0.0
 10
75.19162053241737
 20
-139.0643798480464
 30
0.0
 10
75.19162053241737
 20
-139.0919406119284
 30
0.0
 10
75.19162053241737
 20
-139.0919406119284
 30
0.0
 10
75.19162053241737
 20
-139.3375759200267
 30
0.0
 10
75.19162053241737
 20
-139.3375759200267
 30
0.0
 10
75.19162053241737
 20
-139.3820176517864
 30
0.0
 10
75.19575464699967
 20
-139.5787326039942
 30
0.0
 10
75.19988876158197
 20
-139.7310058244423
 30
0.0
 10
75.19988876158197
 20
-139.7310058244423
 30
0.0
 10
74.97354598820107
 20
-139.7310058244423
 30
0.0
 10
74.97354598820107
 20
-139.7310058244423
 30
0.0
 10
74.97354598820107
 20
-139.7310058244423
 30
0.0
 10
74.97561304549221
 20
-139.6972438886868
 30
0.0
 10
74.97561304549221
 20
-139.6972438886868
 30
0.0
 10
74.97561304549221
 20
-139.6972438886868
 30
0.0
 10
74.2735025855983
 20
-139.6972438886868
 30
0.0
 10
74.2735025855983
 20
-139.6972438886868
 30
0.0
 10
74.2735025855983
 20
-139.6972438886868
 30
0.0
 10
74.27556964288945
 20
-139.7310058244423
 30
0.0
 10
74.27556964288945
 20
-139.7310058244423
 30
0.0
 10
74.27556964288945
 20
-139.7310058244423
 30
0.0
 10
74.05749509867313
 20
-139.7310058244423
 30
0.0
 10
74.05749509867313
 20
-139.7310058244423
 30
0.0
 10
74.06197372280396
 20
-139.6758842966782
 30
0.0
 10
74.06197372280396
 20
-139.6631374433828
 30
0.0
 10
74.0681748946774
 20
-139.5491047828211
 30
0.0
 10
74.07024195196855
 20
-139.5215440189391
 30
0.0
 10
74.0723090092597
 20
-139.3882188236599
 30
0.0
 10
74.0723090092597
 20
-139.369270798491
 30
0.0
 10
74.0723090092597
 20
-139.369270798491
 30
0.0
 10
74.0723090092597
 20
-139.1660101648613
 30
0.0
 10
74.0723090092597
 20
-139.1660101648613
 30
0.0
 10
73.93278264210709
 20
-139.4157795875419
 30
0.0
 10
73.76362845378132
 20
-139.5470377255299
 30
0.0
 10
73.65786402238415
 20
-139.6124945397497
 30
0.0
 10
73.65786402238415
 20
-139.6124945397497
 30
0.0
 10
73.48423120992756
 20
-139.472968172597
 30
0.0
 10
73.48423120992756
 20
-139.472968172597
 30
0.0
 10
73.57311467344701
 20
-139.4219807594153
 30
0.0
 10
73.71711966473045
 20
-139.3351643531871
 30
0.0
 10
73.85457897459192
 20
-139.140860967819
 30
0.0
 10
73.94552949540251
 20
-139.0137369444132
 30
0.0
 10
74.01098630962225
 20
-138.8700764626783
 30
0.0
 10
74.04509275492623
 20
-138.7174587326818
 30
0.0
 10
73.81633841470564
 20
-138.7198702995214
 30
0.0
 10
73.6365044303756
 20
-138.7260714713949
 30
0.0
 10
73.5414197949827
 20
-138.728138528686
 30
0.0
 10
73.5414197949827
 20
-138.728138528686
 30
0.0
 10
73.5414197949827
 20
-138.5503716016471
 30
0.0
 10
73.5414197949827
 20
-138.5503716016471
 30
0.0
 10
73.73813474719047
 20
-138.5569172830691
 30
0.0
 10
74.02166610562654
 20
-138.5610513976514
 30
0.0
 10
74.17187226878342
 20
-138.5610513976514
 30
0.0
 10
74.17187226878342
 20
-138.5610513976514
 30
0.0
 10
74.38546818886891
 20
-138.5610513976514
 30
0.0
 10
74.38546818886891
 20
-138.5610513976514
 30
0.0
 10
74.38546818886891
 20
-138.5610513976514
 30
0.0
 10
74.38546818886891
 20
-138.4532199089631
 30
0.0
 10
74.38546818886891
 20
-138.4532199089631
 30
0.0
 10
74.38546818886891
 20
-138.4532199089631
 30
0.0
 10
74.23939614029432
 20
-138.4532199089631
 30
0.0
 10
74.23939614029432
 20
-138.4532199089631
 30
0.0
 10
74.07024195196855
 20
-138.4532199089631
 30
0.0
 10
73.90108776364279
 20
-138.4573540235454
 30
0.0
 10
73.73400063260817
 20
-138.4638997049674
 30
0.0
 10
73.73400063260817
 20
-138.4638997049674
 30
0.0
 10
73.73400063260817
 20
-138.2923339498019
 30
0.0
 10
73.73400063260817
 20
-138.2923339498019
 30
0.0
 10
73.88834091034737
 20
-138.3030137458062
 30
0.0
 10
74.07437606655085
 20
-138.3030137458062
 30
0.0
 10
74.23939614029432
 20
-138.3030137458062
 30
0.0
 10
74.23939614029432
 20
-138.3030137458062
 30
0.0
 10
74.38546818886891
 20
-138.3030137458062
 30
0.0
 10
74.38546818886891
 20
-138.3030137458062
 30
0.0
 10
74.38546818886891
 20
-138.3030137458062
 30
0.0
 10
74.38546818886891
 20
-138.1845024611136
 30
0.0
 10
74.38546818886891
 20
-138.1845024611136
 30
0.0
 10
74.38546818886891
 20
-138.1845024611136
 30
0.0
 10
74.2542100508809
 20
-138.1845024611136
 30
0.0
 10
74.2542100508809
 20
-138.1845024611136
 30
0.0
 10
74.20770126183002
 20
-138.1845024611136
 30
0.0
 10
74.00478513774881
 20
-138.1931151998267
 30
0.0
 10
73.96241046328024
 20
-138.1931151998267
 30
0.0
 10
73.75949433919902
 20
-138.197249314409
 30
0.0
 10
73.68301321942647
 20
-138.1993163717002
 30
0.0
 10
73.6048095519113
 20
-138.2013834289913
 30
0.0
 10
73.6048095519113
 20
-138.2013834289913
 30
0.0
 10
73.6048095519113
 20
-138.017415330079
 30
0.0
 10
73.6048095519113
 20
-138.017415330079
 30
0.0
 10
73.71918672202159
 20
-138.0256835592436
 30
0.0
 10
73.76362845378132
 20
-138.0256835592436
 30
0.0
 10
74.14637856219258
 20
-138.0342962979567
 30
0.0
 10
74.08298880526398
 20
-137.9392116625638
 30
0.0
 10
74.05542804138199
 20
-137.9116508986818
 30
0.0
 10
74.01959904833538
 20
-137.8754773960867
 30
0.0
 10
74.01959904833538
 20
-137.8754773960867
 30
0.0
 10
74.1949544085346
 20
-137.7931396139892
 30
0.0
 10
74.1949544085346
 20
-137.7931396139892
 30
0.0
 10
74.23526202571202
 20
-137.8289686070358
 30
0.0
 10
74.27970375747175
 20
-137.8713432815044
 30
0.0
 10
74.35377331040462
 20
-137.9812418274839
 30
0.0
 10
74.35377331040462
 20
-137.9812418274839
 30
0.0
 10
74.23939614029432
 20
-138.0363633552479
 30
0.0
 10
74.23939614029432
 20
-138.0363633552479
 30
0.0
 10
74.23939614029432
 20
-138.0363633552479
 30
0.0
 10
74.2500759362986
 20
-138.0363633552479
 30
0.0
 10
74.2500759362986
 20
-138.0363633552479
 30
0.0
 10
74.2500759362986
 20
-138.0363633552479
 30
0.0
 10
74.772696921411
 20
-138.0363633552479
 30
0.0
 10
74.772696921411
 20
-138.0363633552479
 30
0.0
 10
74.772696921411
 20
-138.0363633552479
 30
0.0
 10
74.6776122860181
 20
-137.9919216234881
 30
0.0
 10
74.6776122860181
 20
-137.9919216234881
 30
0.0
 10
74.70482854035157
 20
-137.9540255731504
 30
0.0
 10
74.76201712540671
 20
-137.8734103387955
 30
0.0
 10
74.7768310359933
 20
-137.7993407858627
 30
0.0
 10
74.7768310359933
 20
-137.7993407858627
 30
0.0
 10
74.99042695607879
 20
-137.8630750523398
 30
0.0
 10
74.99042695607879
 20
-137.8630750523398
 30
0.0
 10
74.9990396947919
 20
-137.8651421096309
 30
0.0
 10
75.02005477725193
 20
-137.8754773960867
 30
0.0
 10
75.02005477725193
 20
-137.8968369880952
 30
0.0
 10
75.02005477725193
 20
-137.934733038433
 30
0.0
 10
74.95459796303219
 20
-137.934733038433
 30
0.0
 10
74.93564993786332
 20
-137.934733038433
 30
0.0
 10
74.92497014185903
 20
-137.9540255731504
 30
0.0
 10
74.90154349255934
 20
-137.9939886807793
 30
0.0
 10
74.87191567138619
 20
-138.0342962979567
 30
0.0
 10
75.2718912572237
 20
-138.0280951260833
 30
0.0
 10
75.30151907839685
 20
-138.0256835592436
 30
0.0
 10
75.37765568862086
 20
-138.0194823873701
 30
0.0
 10
75.37765568862086
 20
-138.0194823873701
 30
0.0
 10
75.37765568862086
 20
-138.2013834289913
 30
0.0
 10
75.37765568862086
 20
-138.2013834289913
 30
0.0
 10
75.358707663452
 20
-138.2013834289913
 30
0.0
 10
75.33321395686114
 20
-138.1993163717002
 30
0.0
 10
75.1134168649022
 20
-138.1907036329871
 30
0.0
 10
75.0624294517205
 20
-138.1886365756959
 30
0.0
 10
74.84263235976157
 20
-138.1845024611136
 30
0.0
 10
74.79819062800185
 20
-138.1845024611136
 30
0.0
 10
74.79819062800185
 20
-138.1845024611136
 30
0.0
 10
74.58218314107668
 20
-138.1845024611136
 30
0.0
 10
74.58218314107668
 20
-138.1845024611136
 30
0.0
 10
74.58218314107668
 20
-138.1845024611136
 30
0.0
 10
74.58218314107668
 20
-138.3030137458062
 30
0.0
 10
74.58218314107668
 20
-138.3030137458062
 30
0.0
 10
74.58218314107668
 20
-138.3030137458062
 30
0.0
 10
74.75581595353327
 20
-138.3030137458062
 30
0.0
 10
74.75581595353327
 20
-138.3030137458062
 30
0.0
 10
74.91876896998559
 20
-138.3030137458062
 30
0.0
 10
75.10893824077138
 20
-138.3030137458062
 30
0.0
 10
75.26569008535024
 20
-138.2923339498019
 30
0.0
 10
75.26569008535024
 20
-138.2923339498019
 30
0.0
 10
75.26569008535024
 20
-138.4638997049674
 30
0.0
 10
75.26569008535024
 20
-138.4638997049674
 30
0.0
 10
75.05622827984706
 20
-138.4552869662542
 30
0.0
 10
74.85951332763929
 20
-138.4532199089631
 30
0.0
 10
74.75581595353327
 20
-138.4532199089631
 30
0.0
 10
74.75581595353327
 20
-138.4532199089631
 30
0.0
 10
74.58218314107668
 20
-138.4532199089631
 30
0.0
 10
74.58218314107668
 20
-138.4532199089631
 30
0.0
 10
74.58218314107668
 20
-138.4532199089631
 30
0.0
 10
74.58218314107668
 20
-138.5610513976514
 30
0.0
 10
74.58218314107668
 20
-138.5610513976514
 30
0.0
 10
74.58218314107668
 20
-138.5610513976514
 30
0.0
 10
74.81300453858842
 20
-138.5610513976514
 30
0.0
 10
74.81300453858842
 20
-138.5610513976514
 30
0.0
 10
74.94598522431906
 20
-138.5610513976514
 30
0.0
 10
75.23399520688595
 20
-138.5569172830691
 30
0.0
 10
75.44311250284062
 20
-138.5503716016471
 30
0.0
 10
75.44311250284062
 20
-138.5503716016471
 30
0.0
 10
75.44311250284062
 20
-138.728138528686
 30
0.0
 10
75.44311250284062
 20
-138.728138528686
 30
0.0
 10
75.25087617476368
 20
-138.7219373568126
 30
0.0
 10
74.93771699515446
 20
-138.7174587326818
 30
0.0
 10
74.81300453858842
 20
-138.7174587326818
 30
0.0
  0
POLYLINE
  5
103
330
FA
100
AcDbEntity
  8
_U+30EC_U+30A4_U+30E4_U+30FC 1
370
     0
100
AcDb2dPolyline
 66
     1
 10
0.0
 20
0.0
 30
0.0
  0
VERTEX
  5
104
330
103
100
AcDbEntity
  8
_U+30EC_U+30A4_U+30E4_U+30FC 1
370
     0
100
AcDbVertex
100
AcDb2dVertex
 10
74.9780246123319
 20
-138.9734293272358
 30
0.0
  0
VERTEX
  5
105
330
103
100
AcDbEntity
  8
_U+30EC_U+30A4_U+30E4_U+30FC 1
370
     0
100
AcDbVertex
100
AcDb2dVertex
 10
74.27143552830715
 20
-138.9734293272358
 30
0.0
  0
VERTEX
  5
106
330
103
100
AcDbEntity
  8
_U+30EC_U+30A4_U+30E4_U+30FC 1
370
     0
100
AcDbVertex
100
AcDb2dVertex
 10
74.27143552830715
 20
-139.0816053254727
 30
0.0
  0
VERTEX
  5
107
330
103
100
AcDbEntity
  8
_U+30EC_U+30A4_U+30E4_U+30FC 1
370
     0
100
AcDbVertex
100
AcDb2dVertex
 10
74.9780246123319
 20
-139.0816053254727
 30
0.0
  0
VERTEX
  5
108
330
103
100
AcDbEntity
  8
_U+30EC_U+30A4_U+30E4_U+30FC 1
370
     0
100
AcDbVertex
100
AcDb2dVertex
 10
74.9780246123319
 20
-138.9734293272358
 30
0.0
  0
SEQEND
  5
109
330
103
100
AcDbEntity
  8
_U+30EC_U+30A4_U+30E4_U+30FC 1
370
     0
  0
POLYLINE
  5
10A
330
FA
100
AcDbEntity
  8
_U+30EC_U+30A4_U+30E4_U+30FC 1
370
     0
100
AcDb2dPolyline
 66
     1
 10
0.0
 20
0.0
 30
0.0
  0
VERTEX
  5
10B
330
10A
100
AcDbEntity
  8
_U+30EC_U+30A4_U+30E4_U+30FC 1
370
     0
100
AcDbVertex
100
AcDb2dVertex
 10
74.9780246123319
 20
-139.2063177820387
 30
0.0
  0
VERTEX
  5
10C
330
10A
100
AcDbEntity
  8
_U+30EC_U+30A4_U+30E4_U+30FC 1
370
     0
100
AcDbVertex
100
AcDb2dVertex
 10
74.27143552830715
 20
-139.2063177820387
 30
0.0
  0
VERTEX
  5
10D
330
10A
100
AcDbEntity
  8
_U+30EC_U+30A4_U+30E4_U+30FC 1
370
     0
100
AcDbVertex
100
AcDb2dVertex
 10
74.27143552830715
 20
-139.320694952149
 30
0.0
  0
VERTEX
  5
10E
330
10A
100
AcDbEntity
  8
_U+30EC_U+30A4_U+30E4_U+30FC 1
370
     0
100
AcDbVertex
100
AcDb2dVertex
 10
74.9780246123319
 20
-139.320694952149
 30
0.0
  0
VERTEX
  5
10F
330
10A
100
AcDbEntity
  8
_U+30EC_U+30A4_U+30E4_U+30FC 1
370
     0
100
AcDbVertex
100
AcDb2dVertex
 10
74.9780246123319
 20
-139.2063177820387
 30
0.0
  0
SEQEND
  5
110
330
10A
100
AcDbEntity
  8
_U+30EC_U+30A4_U+30E4_U+30FC 1
370
     0
  0
POLYLINE
  5
111
330
FA
100
AcDbEntity
  8
_U+30EC_U+30A4_U+30E4_U+30FC 1
370
     0
100
AcDb2dPolyline
 66
     1
 10
0.0
 20
0.0
 30
0.0
  0
VERTEX
  5
112
330
111
100
AcDbEntity
  8
_U+30EC_U+30A4_U+30E4_U+30FC 1
370
     0
100
AcDbVertex
100
AcDb2dVertex
 10
74.9780246123319
 20
-139.4495415232973
 30
0.0
  0
VERTEX
  5
113
330
111
100
AcDbEntity
  8
_U+30EC_U+30A4_U+30E4_U+30FC 1
370
     0
100
AcDbVertex
100
AcDb2dVertex
 10
74.27143552830715
 20
-139.4495415232973
 30
0.0
  0
VERTEX
  5
114
330
111
100
AcDbEntity
  8
_U+30EC_U+30A4_U+30E4_U+30FC 1
370
     0
100
AcDbVertex
100
AcDb2dVertex
 10
74.27143552830715
 20
-139.5639186934076
 30
0.0
  0
VERTEX
  5
115
330
111
100
AcDbEntity
  8
_U+30EC_U+30A4_U+30E4_U+30FC 1
370
     0
100
AcDbVertex
100
AcDb2dVertex
 10
74.9780246123319
 20
-139.5639186934076
 30
0.0
  0
VERTEX
  5
116
330
111
100
AcDbEntity
  8
_U+30EC_U+30A4_U+30E4_U+30FC 1
370
     0
100
AcDbVertex
100
AcDb2dVertex
 10
74.9780246123319
 20
-139.4495415232973
 30
0.0
  0
SEQEND
  5
117
330
111
100
AcDbEntity
  8
_U+30EC_U+30A4_U+30E4_U+30FC 1
370
     0
  0
HATCH
  5
118
330
FA
100
AcDbEntity
  8
_U+30EC_U+30A4_U+30E4_U+30FC 1
 62
   179
420
  2234388
100
AcDbHatch
 10
0.0
 20
0.0
 30
0.0
210
0.0
220
0.0
230
1.0
  2
SOLID
 70
     1
 71
     0
 91
        4
 92
        1
 93
        1
 72
     4
 94
        3
 73
     0
 74
     1
 95
      203
 96
      199
 40
0.0
 40
0.0
 40
0.0
 40
0.0
 40
1.0
 40
1.0
 40
1.0
 40
2.0
 40
2.0
 40
2.0
 40
3.0
 40
3.0
 40
3.0
 40
4.0
 40
4.0
 40
4.0
 40
5.0
 40
5.0
 40
5.0
 40
6.0
 40
6.0
 40
6.0
 40
7.0
 40
7.0
 40
7.0
 40
8.0
 40
8.0
 40
8.0
 40
9.0
 40
9.0
 40
9.0
 40
10.0
 40
10.0
 40
10.0
 40
11.0
 40
11.0
 40
11.0
 40
12.0
 40
12.0
 40
12.0
 40
13.0
 40
13.0
 40
13.0
 40
14.0
 40
14.0
 40
14.0
 40
15.0
 40
15.0
 40
15.0
 40
16.0
 40
16.0
 40
16.0
 40
17.0
 40
17.0
 40
17.0
 40
18.0
 40
18.0
 40
18.0
 40
19.0
 40
19.0
 40
19.0
 40
20.0
 40
20.0
 40
20.0
 40
21.0
 40
21.0
 40
21.0
 40
22.0
 40
22.0
 40
22.0
 40
23.0
 40
23.0
 40
23.0
 40
24.0
 40
24.0
 40
24.0
 40
25.0
 40
25.0
 40
25.0
 40
26.0
 40
26.0
 40
26.0
 40
27.0
 40
27.0
 40
27.0
 40
28.0
 40
28.0
 40
28.0
 40
29.0
 40
29.0
 40
29.0
 40
30.0
 40
30.0
 40
30.0
 40
31.0
 40
31.0
 40
31.0
 40
32.0
 40
32.0
 40
32.0
 40
33.0
 40
33.0
 40
33.0
 40
34.0
 40
34.0
 40
34.0
 40
35.0
 40
35.0
 40
35.0
 40
36.0
 40
36.0
 40
36.0
 40
37.0
 40
37.0
 40
37.0
 40
38.0
 40
38.0
 40
38.0
 40
39.0
 40
39.0
 40
39.0
 40
40.0
 40
40.0
 40
40.0
 40
41.0
 40
41.0
 40
41.0
 40
42.0
 40
42.0
 40
42.0
 40
43.0
 40
43.0
 40
43.0
 40
44.0
 40
44.0
 40
44.0
 40
45.0
 40
45.0
 40
45.0
 40
46.0
 40
46.0
 40
46.0
 40
47.0
 40
47.0
 40
47.0
 40
48.0
 40
48.0
 40
48.0
 40
49.0
 40
49.0
 40
49.0
 40
50.0
 40
50.0
 40
50.0
 40
51.0
 40
51.0
 40
51.0
 40
52.0
 40
52.0
 40
52.0
 40
53.0
 40
53.0
 40
53.0
 40
54.0
 40
54.0
 40
54.0
 40
55.0
 40
55.0
 40
55.0
 40
56.0
 40
56.0
 40
56.0
 40
57.0
 40
57.0
 40
57.0
 40
58.0
 40
58.0
 40
58.0
 40
59.0
 40
59.0
 40
59.0
 40
60.0
 40
60.0
 40
60.0
 40
61.0
 40
61.0
 40
61.0
 40
62.0
 40
62.0
 40
62.0
 40
63.0
 40
63.0
 40
63.0
 40
64.0
 40
64.0
 40
64.0
 40
65.0
 40
65.0
 40
65.0
 40
66.0
 40
66.0
 40
66.0
 40
66.0
 10
74.81300453858842
 20
-138.7174587326818
 10
74.81300453858842
 20
-138.7174587326818
 10
74.2542100508809
 20
-138.7174587326818
 10
74.2542100508809
 20
-138.7174587326818
 10
74.24387476442514
 20
-138.7619004644415
 10
74.23526202571202
 20
-138.7935953429058
 10
74.22251517241659
 20
-138.8318359027921
 10
74.24800887900744
 20
-138.8318359027921
 10
74.26282278959403
 20
-138.8339029600832
 10
74.26902396146747
 20
-138.8339029600832
 10
74.26902396146747
 20
-138.8339029600832
 10
74.45747068451064
 20
-138.8339029600832
 10
74.45747068451064
 20
-138.8339029600832
 10
74.45747068451064
 20
-138.8339029600832
 10
74.8319525637573
 20
-138.8339029600832
 10
74.8319525637573
 20
-138.8339029600832
 10
74.88259546739046
 20
-138.8339029600832
 10
75.16612682582652
 20
-138.8211561067878
 10
75.19782170429083
 20
-138.8211561067878
 10
75.19575464699967
 20
-138.8487168706698
 10
75.19368758970853
 20
-138.8676648958387
 10
75.19368758970853
 20
-138.8972927170118
 10
75.19162053241737
 20
-138.9289875954761
 10
75.19162053241737
 20
-139.0643798480464
 10
75.19162053241737
 20
-139.0919406119284
 10
75.19162053241737
 20
-139.0919406119284
 10
75.19162053241737
 20
-139.3375759200267
 10
75.19162053241737
 20
-139.3375759200267
 10
75.19162053241737
 20
-139.3820176517864
 10
75.19575464699967
 20
-139.5787326039942
 10
75.19988876158197
 20
-139.7310058244423
 10
75.19988876158197
 20
-139.7310058244423
 10
74.97354598820107
 20
-139.7310058244423
 10
74.97354598820107
 20
-139.7310058244423
 10
74.97354598820107
 20
-139.7310058244423
 10
74.97561304549221
 20
-139.6972438886868
 10
74.97561304549221
 20
-139.6972438886868
 10
74.97561304549221
 20
-139.6972438886868
 10
74.2735025855983
 20
-139.6972438886868
 10
74.2735025855983
 20
-139.6972438886868
 10
74.2735025855983
 20
-139.6972438886868
 10
74.27556964288945
 20
-139.7310058244423
 10
74.27556964288945
 20
-139.7310058244423
 10
74.27556964288945
 20
-139.7310058244423
 10
74.05749509867313
 20
-139.7310058244423
 10
74.05749509867313
 20
-139.7310058244423
 10
74.06197372280396
 20
-139.6758842966782
 10
74.06197372280396
 20
-139.6631374433828
 10
74.0681748946774
 20
-139.5491047828211
 10
74.07024195196855
 20
-139.5215440189391
 10
74.0723090092597
 20
-139.3882188236599
 10
74.0723090092597
 20
-139.369270798491
 10
74.0723090092597
 20
-139.369270798491
 10
74.0723090092597
 20
-139.1660101648613
 10
74.0723090092597
 20
-139.1660101648613
 10
73.93278264210709
 20
-139.4157795875419
 10
73.76362845378132
 20
-139.5470377255299
 10
73.65786402238415
 20
-139.6124945397497
 10
73.65786402238415
 20
-139.6124945397497
 10
73.48423120992756
 20
-139.472968172597
 10
73.48423120992756
 20
-139.472968172597
 10
73.57311467344701
 20
-139.4219807594153
 10
73.71711966473045
 20
-139.3351643531871
 10
73.85457897459192
 20
-139.140860967819
 10
73.94552949540251
 20
-139.0137369444132
 10
74.01098630962225
 20
-138.8700764626783
 10
74.04509275492623
 20
-138.7174587326818
 10
73.81633841470564
 20
-138.7198702995214
 10
73.6365044303756
 20
-138.7260714713949
 10
73.5414197949827
 20
-138.728138528686
 10
73.5414197949827
 20
-138.728138528686
 10
73.5414197949827
 20
-138.5503716016471
 10
73.5414197949827
 20
-138.5503716016471
 10
73.73813474719047
 20
-138.5569172830691
 10
74.02166610562654
 20
-138.5610513976514
 10
74.17187226878342
 20
-138.5610513976514
 10
74.17187226878342
 20
-138.5610513976514
 10
74.38546818886891
 20
-138.5610513976514
 10
74.38546818886891
 20
-138.5610513976514
 10
74.38546818886891
 20
-138.5610513976514
 10
74.38546818886891
 20
-138.4532199089631
 10
74.38546818886891
 20
-138.4532199089631
 10
74.38546818886891
 20
-138.4532199089631
 10
74.23939614029432
 20
-138.4532199089631
 10
74.23939614029432
 20
-138.4532199089631
 10
74.07024195196855
 20
-138.4532199089631
 10
73.90108776364279
 20
-138.4573540235454
 10
73.73400063260817
 20
-138.4638997049674
 10
73.73400063260817
 20
-138.4638997049674
 10
73.73400063260817
 20
-138.2923339498019
 10
73.73400063260817
 20
-138.2923339498019
 10
73.88834091034737
 20
-138.3030137458062
 10
74.07437606655085
 20
-138.3030137458062
 10
74.23939614029432
 20
-138.3030137458062
 10
74.23939614029432
 20
-138.3030137458062
 10
74.38546818886891
 20
-138.3030137458062
 10
74.38546818886891
 20
-138.3030137458062
 10
74.38546818886891
 20
-138.3030137458062
 10
74.38546818886891
 20
-138.1845024611136
 10
74.38546818886891
 20
-138.1845024611136
 10
74.38546818886891
 20
-138.1845024611136
 10
74.2542100508809
 20
-138.1845024611136
 10
74.2542100508809
 20
-138.1845024611136
 10
74.20770126183002
 20
-138.1845024611136
 10
74.00478513774881
 20
-138.1931151998267
 10
73.96241046328024
 20
-138.1931151998267
 10
73.75949433919902
 20
-138.197249314409
 10
73.68301321942647
 20
-138.1993163717002
 10
73.6048095519113
 20
-138.2013834289913
 10
73.6048095519113
 20
-138.2013834289913
 10
73.6048095519113
 20
-138.017415330079
 10
73.6048095519113
 20
-138.017415330079
 10
73.71918672202159
 20
-138.0256835592436
 10
73.76362845378132
 20
-138.0256835592436
 10
74.14637856219258
 20
-138.0342962979567
 10
74.08298880526398
 20
-137.9392116625638
 10
74.05542804138199
 20
-137.9116508986818
 10
74.01959904833538
 20
-137.8754773960867
 10
74.01959904833538
 20
-137.8754773960867
 10
74.1949544085346
 20
-137.7931396139892
 10
74.1949544085346
 20
-137.7931396139892
 10
74.23526202571202
 20
-137.8289686070358
 10
74.27970375747175
 20
-137.8713432815044
 10
74.35377331040462
 20
-137.9812418274839
 10
74.35377331040462
 20
-137.9812418274839
 10
74.23939614029432
 20
-138.0363633552479
 10
74.23939614029432
 20
-138.0363633552479
 10
74.23939614029432
 20
-138.0363633552479
 10
74.2500759362986
 20
-138.0363633552479
 10
74.2500759362986
 20
-138.0363633552479
 10
74.2500759362986
 20
-138.0363633552479
 10
74.772696921411
 20
-138.0363633552479
 10
74.772696921411
 20
-138.0363633552479
 10
74.772696921411
 20
-138.0363633552479
 10
74.6776122860181
 20
-137.9919216234881
 10
74.6776122860181
 20
-137.9919216234881
 10
74.70482854035157
 20
-137.9540255731504
 10
74.76201712540671
 20
-137.8734103387955
 10
74.7768310359933
 20
-137.7993407858627
 10
74.7768310359933
 20
-137.7993407858627
 10
74.99042695607879
 20
-137.8630750523398
 10
74.99042695607879
 20
-137.8630750523398
 10
74.9990396947919
 20
-137.8651421096309
 10
75.02005477725193
 20
-137.8754773960867
 10
75.02005477725193
 20
-137.8968369880952
 10
75.02005477725193
 20
-137.934733038433
 10
74.95459796303219
 20
-137.934733038433
 10
74.93564993786332
 20
-137.934733038433
 10
74.92497014185903
 20
-137.9540255731504
 10
74.90154349255934
 20
-137.9939886807793
 10
74.87191567138619
 20
-138.0342962979567
 10
75.2718912572237
 20
-138.0280951260833
 10
75.30151907839685
 20
-138.0256835592436
 10
75.37765568862086
 20
-138.0194823873701
 10
75.37765568862086
 20
-138.0194823873701
 10
75.37765568862086
 20
-138.2013834289913
 10
75.37765568862086
 20
-138.2013834289913
 10
75.358707663452
 20
-138.2013834289913
 10
75.33321395686114
 20
-138.1993163717002
 10
75.1134168649022
 20
-138.1907036329871
 10
75.0624294517205
 20
-138.1886365756959
 10
74.84263235976157
 20
-138.1845024611136
 10
74.79819062800185
 20
-138.1845024611136
 10
74.79819062800185
 20
-138.1845024611136
 10
74.58218314107668
 20
-138.1845024611136
 10
74.58218314107668
 20
-138.1845024611136
 10
74.58218314107668
 20
-138.1845024611136
 10
74.58218314107668
 20
-138.3030137458062
 10
74.58218314107668
 20
-138.3030137458062
 10
74.58218314107668
 20
-138.3030137458062
 10
74.75581595353327
 20
-138.3030137458062
 10
74.75581595353327
 20
-138.3030137458062
 10
74.91876896998559
 20
-138.3030137458062
 10
75.10893824077138
 20
-138.3030137458062
 10
75.26569008535024
 20
-138.2923339498019
 10
75.26569008535024
 20
-138.2923339498019
 10
75.26569008535024
 20
-138.4638997049674
 10
75.26569008535024
 20
-138.4638997049674
 10
75.05622827984706
 20
-138.4552869662542
 10
74.85951332763929
 20
-138.4532199089631
 10
74.75581595353327
 20
-138.4532199089631
 10
74.75581595353327
 20
-138.4532199089631
 10
74.58218314107668
 20
-138.4532199089631
 10
74.58218314107668
 20
-138.4532199089631
 10
74.58218314107668
 20
-138.4532199089631
 10
74.58218314107668
 20
-138.5610513976514
 10
74.58218314107668
 20
-138.5610513976514
 10
74.58218314107668
 20
-138.5610513976514
 10
74.81300453858842
 20
-138.5610513976514
 10
74.81300453858842
 20
-138.5610513976514
 10
74.94598522431906
 20
-138.5610513976514
 10
75.23399520688595
 20
-138.5569172830691
 10
75.44311250284062
 20
-138.5503716016471
 10
75.44311250284062
 20
-138.5503716016471
 10
75.44311250284062
 20
-138.728138528686
 10
75.44311250284062
 20
-138.728138528686
 10
75.25087617476368
 20
-138.7219373568126
 10
74.93771699515446
 20
-138.7174587326818
 10
74.81300453858842
 20
-138.7174587326818
 97
        0
 97
        0
 92
        1
 93
        4
 72
     1
 10
74.9780246123319
 20
-138.9734293272358
 11
74.27143552830715
 21
-138.9734293272358
 72
     1
 10
74.27143552830715
 20
-138.9734293272358
 11
74.27143552830715
 21
-139.0816053254727
 72
     1
 10
74.27143552830715
 20
-139.0816053254727
 11
74.9780246123319
 21
-139.0816053254727
 72
     1
 10
74.9780246123319
 20
-139.0816053254727
 11
74.9780246123319
 21
-138.9734293272358
 97
        0
 92
        1
 93
        4
 72
     1
 10
74.9780246123319
 20
-139.2063177820387
 11
74.27143552830715
 21
-139.2063177820387
 72
     1
 10
74.27143552830715
 20
-139.2063177820387
 11
74.27143552830715
 21
-139.320694952149
 72
     1
 10
74.27143552830715
 20
-139.320694952149
 11
74.9780246123319
 21
-139.320694952149
 72
     1
 10
74.9780246123319
 20
-139.320694952149
 11
74.9780246123319
 21
-139.2063177820387
 97
        0
 92
        1
 93
        4
 72
     1
 10
74.9780246123319
 20
-139.4495415232973
 11
74.27143552830715
 21
-139.4495415232973
 72
     1
 10
74.27143552830715
 20
-139.4495415232973
 11
74.27143552830715
 21
-139.5639186934076
 72
     1
 10
74.27143552830715
 20
-139.5639186934076
 11
74.9780246123319
 21
-139.5639186934076
 72
     1
 10
74.9780246123319
 20
-139.5639186934076
 11
74.9780246123319
 21
-139.4495415232973
 97
        0
 75
     2
 76
     1
 98
        0
  0
SPLINE
  5
119
330
FA
100
AcDbEntity
  8
_U+30EC_U+30A4_U+30E4_U+30FC 1
370
     0
100
AcDbSpline
210
0.0
220
0.0
230
1.0
 70
    11
 71
     3
 72
    47
 73
    43
 74
     0
 42
0.0000000001
 43
0.0000000001
 12
1.0
 22
0.0
 32
0.0
 13
1.0
 23
0.0
 33
0.0
 40
0.0
 40
0.0
 40
0.0
 40
0.0
 40
1.0
 40
1.0
 40
1.0
 40
2.0
 40
2.0
 40
2.0
 40
3.0
 40
3.0
 40
3.0
 40
4.0
 40
4.0
 40
4.0
 40
5.0
 40
5.0
 40
5.0
 40
6.0
 40
6.0
 40
6.0
 40
7.0
 40
7.0
 40
7.0
 40
8.0
 40
8.0
 40
8.0
 40
9.0
 40
9.0
 40
9.0
 40
10.0
 40
10.0
 40
10.0
 40
11.0
 40
11.0
 40
11.0
 40
12.0
 40
12.0
 40
12.0
 40
13.0
 40
13.0
 40
13.0
 40
14.0
 40
14.0
 40
14.0
 40
14.0
 10
76.78980032802478
 20
-138.6943765929306
 30
0.0
 10
76.78980032802478
 20
-138.6943765929306
 30
0.0
 10
76.6881700112099
 20
-138.6943765929306
 30
0.0
 10
76.6881700112099
 20
-138.6943765929306
 30
0.0
 10
76.6881700112099
 20
-138.7811929991589
 30
0.0
 10
76.66715492874988
 20
-139.1704887889921
 30
0.0
 10
76.47043997654211
 20
-139.390285880951
 30
0.0
 10
76.31782224654555
 20
-139.5594400692768
 30
0.0
 10
76.11077200788203
 20
-139.6293755076274
 30
0.0
 10
76.02602265894488
 20
-139.6569362715094
 30
0.0
 10
76.02602265894488
 20
-139.6569362715094
 30
0.0
 10
75.83137476402827
 20
-139.4898491404748
 30
0.0
 10
75.83137476402827
 20
-139.4898491404748
 30
0.0
 10
75.92887096626085
 20
-139.4771022871793
 30
0.0
 10
76.10422632646006
 20
-139.4536756378797
 30
0.0
 10
76.29267304950322
 20
-139.265573424385
 30
0.0
 10
76.36674260243609
 20
-139.1935709287433
 30
0.0
 10
76.47043997654211
 20
-139.0540445615907
 30
0.0
 10
76.47043997654211
 20
-138.6943765929306
 30
0.0
 10
76.47043997654211
 20
-138.6943765929306
 30
0.0
 10
76.23961857903038
 20
-138.6943765929306
 30
0.0
 10
76.23961857903038
 20
-138.6943765929306
 30
0.0
 10
76.05358342282689
 20
-138.6943765929306
 30
0.0
 10
75.86720375707488
 20
-138.6985107075129
 30
0.0
 10
75.68116860087137
 20
-138.7133246180994
 30
0.0
 10
75.68116860087137
 20
-138.7133246180994
 30
0.0
 10
75.68116860087137
 20
-138.4935275261405
 30
0.0
 10
75.68116860087137
 20
-138.4935275261405
 30
0.0
 10
75.86961532391454
 20
-138.5083414367271
 30
0.0
 10
76.15521373964175
 20
-138.5124755513094
 30
0.0
 10
76.23961857903038
 20
-138.5124755513094
 30
0.0
 10
76.23961857903038
 20
-138.5124755513094
 30
0.0
 10
76.78980032802478
 20
-138.5124755513094
 30
0.0
 10
76.78980032802478
 20
-138.5124755513094
 30
0.0
 10
76.80874835319365
 20
-138.5124755513094
 30
0.0
 10
77.12604164738516
 20
-138.5124755513094
 30
0.0
 10
77.35445147805723
 20
-138.4935275261405
 30
0.0
 10
77.35445147805723
 20
-138.4935275261405
 30
0.0
 10
77.35445147805723
 20
-138.7133246180994
 30
0.0
 10
77.35445147805723
 20
-138.7133246180994
 30
0.0
 10
77.16634926456258
 20
-138.6985107075129
 30
0.0
 10
76.97790254151941
 20
-138.6943765929306
 30
0.0
 10
76.78980032802478
 20
-138.6943765929306
 30
0.0
  0
SPLINE
  5
11A
330
FA
100
AcDbEntity
  8
_U+30EC_U+30A4_U+30E4_U+30FC 1
370
     0
100
AcDbSpline
210
0.0
220
0.0
230
1.0
 70
    11
 71
     3
 72
    29
 73
    25
 74
     0
 42
0.0000000001
 43
0.0000000001
 12
1.0
 22
0.0
 32
0.0
 13
1.0
 23
0.0
 33
0.0
 40
0.0
 40
0.0
 40
0.0
 40
0.0
 40
1.0
 40
1.0
 40
1.0
 40
2.0
 40
2.0
 40
2.0
 40
3.0
 40
3.0
 40
3.0
 40
4.0
 40
4.0
 40
4.0
 40
5.0
 40
5.0
 40
5.0
 40
6.0
 40
6.0
 40
6.0
 40
7.0
 40
7.0
 40
7.0
 40
8.0
 40
8.0
 40
8.0
 40
8.0
 10
76.6881700112099
 20
-138.1655544359447
 30
0.0
 10
76.6881700112099
 20
-138.1655544359447
 30
0.0
 10
76.33470321442327
 20
-138.1655544359447
 30
0.0
 10
76.33470321442327
 20
-138.1655544359447
 30
0.0
 10
76.22273761115265
 20
-138.1655544359447
 30
0.0
 10
76.08321124400004
 20
-138.1717556078182
 30
0.0
 10
75.97537975531172
 20
-138.1845024611136
 30
0.0
 10
75.97537975531172
 20
-138.1845024611136
 30
0.0
 10
75.97537975531172
 20
-137.9495469490196
 30
0.0
 10
75.97537975531172
 20
-137.9495469490196
 30
0.0
 10
76.09354653045578
 20
-137.9643608596061
 30
0.0
 10
76.27785913891665
 20
-137.968839483737
 30
0.0
 10
76.33470321442327
 20
-137.968839483737
 30
0.0
 10
76.33470321442327
 20
-137.968839483737
 30
0.0
 10
76.6881700112099
 20
-137.968839483737
 30
0.0
 10
76.6881700112099
 20
-137.968839483737
 30
0.0
 10
76.70711803637877
 20
-137.968839483737
 30
0.0
 10
76.91037867000853
 20
-137.968839483737
 30
0.0
 10
77.05197209445228
 20
-137.9495469490196
 30
0.0
 10
77.05197209445228
 20
-137.9495469490196
 30
0.0
 10
77.05197209445228
 20
-138.1845024611136
 30
0.0
 10
77.05197209445228
 20
-138.1845024611136
 30
0.0
 10
76.89556475942194
 20
-138.1655544359447
 30
0.0
 10
76.70505097908763
 20
-138.1655544359447
 30
0.0
 10
76.6881700112099
 20
-138.1655544359447
 30
0.0
  0
HATCH
  5
11B
330
FA
100
AcDbEntity
  8
_U+30EC_U+30A4_U+30E4_U+30FC 1
 62
   179
420
  2234388
100
AcDbHatch
 10
0.0
 20
0.0
 30
0.0
210
0.0
220
0.0
230
1.0
  2
SOLID
 70
     1
 71
     0
 91
        2
 92
        1
 93
        1
 72
     4
 94
        3
 73
     0
 74
     1
 95
       47
 96
       43
 40
0.0
 40
0.0
 40
0.0
 40
0.0
 40
1.0
 40
1.0
 40
1.0
 40
2.0
 40
2.0
 40
2.0
 40
3.0
 40
3.0
 40
3.0
 40
4.0
 40
4.0
 40
4.0
 40
5.0
 40
5.0
 40
5.0
 40
6.0
 40
6.0
 40
6.0
 40
7.0
 40
7.0
 40
7.0
 40
8.0
 40
8.0
 40
8.0
 40
9.0
 40
9.0
 40
9.0
 40
10.0
 40
10.0
 40
10.0
 40
11.0
 40
11.0
 40
11.0
 40
12.0
 40
12.0
 40
12.0
 40
13.0
 40
13.0
 40
13.0
 40
14.0
 40
14.0
 40
14.0
 40
14.0
 10
76.78980032802478
 20
-138.6943765929306
 10
76.78980032802478
 20
-138.6943765929306
 10
76.6881700112099
 20
-138.6943765929306
 10
76.6881700112099
 20
-138.6943765929306
 10
76.6881700112099
 20
-138.7811929991589
 10
76.66715492874988
 20
-139.1704887889921
 10
76.47043997654211
 20
-139.390285880951
 10
76.31782224654555
 20
-139.5594400692768
 10
76.11077200788203
 20
-139.6293755076274
 10
76.02602265894488
 20
-139.6569362715094
 10
76.02602265894488
 20
-139.6569362715094
 10
75.83137476402827
 20
-139.4898491404748
 10
75.83137476402827
 20
-139.4898491404748
 10
75.92887096626085
 20
-139.4771022871793
 10
76.10422632646006
 20
-139.4536756378797
 10
76.29267304950322
 20
-139.265573424385
 10
76.36674260243609
 20
-139.1935709287433
 10
76.47043997654211
 20
-139.0540445615907
 10
76.47043997654211
 20
-138.6943765929306
 10
76.47043997654211
 20
-138.6943765929306
 10
76.23961857903038
 20
-138.6943765929306
 10
76.23961857903038
 20
-138.6943765929306
 10
76.05358342282689
 20
-138.6943765929306
 10
75.86720375707488
 20
-138.6985107075129
 10
75.68116860087137
 20
-138.7133246180994
 10
75.68116860087137
 20
-138.7133246180994
 10
75.68116860087137
 20
-138.4935275261405
 10
75.68116860087137
 20
-138.4935275261405
 10
75.86961532391454
 20
-138.5083414367271
 10
76.15521373964175
 20
-138.5124755513094
 10
76.23961857903038
 20
-138.5124755513094
 10
76.23961857903038
 20
-138.5124755513094
 10
76.78980032802478
 20
-138.5124755513094
 10
76.78980032802478
 20
-138.5124755513094
 10
76.80874835319365
 20
-138.5124755513094
 10
77.12604164738516
 20
-138.5124755513094
 10
77.35445147805723
 20
-138.4935275261405
 10
77.35445147805723
 20
-138.4935275261405
 10
77.35445147805723
 20
-138.7133246180994
 10
77.35445147805723
 20
-138.7133246180994
 10
77.16634926456258
 20
-138.6985107075129
 10
76.97790254151941
 20
-138.6943765929306
 10
76.78980032802478
 20
-138.6943765929306
 97
        0
 97
        0
 92
        1
 93
        1
 72
     4
 94
        3
 73
     0
 74
     1
 95
       29
 96
       25
 40
0.0
 40
0.0
 40
0.0
 40
0.0
 40
1.0
 40
1.0
 40
1.0
 40
2.0
 40
2.0
 40
2.0
 40
3.0
 40
3.0
 40
3.0
 40
4.0
 40
4.0
 40
4.0
 40
5.0
 40
5.0
 40
5.0
 40
6.0
 40
6.0
 40
6.0
 40
7.0
 40
7.0
 40
7.0
 40
8.0
 40
8.0
 40
8.0
 40
8.0
 10
76.6881700112099
 20
-138.1655544359447
 10
76.6881700112099
 20
-138.1655544359447
 10
76.33470321442327
 20
-138.1655544359447
 10
76.33470321442327
 20
-138.1655544359447
 10
76.22273761115265
 20
-138.1655544359447
 10
76.08321124400004
 20
-138.1717556078182
 10
75.97537975531172
 20
-138.1845024611136
 10
75.97537975531172
 20
-138.1845024611136
 10
75.97537975531172
 20
-137.9495469490196
 10
75.97537975531172
 20
-137.9495469490196
 10
76.09354653045578
 20
-137.9643608596061
 10
76.27785913891665
 20
-137.968839483737
 10
76.33470321442327
 20
-137.968839483737
 10
76.33470321442327
 20
-137.968839483737
 10
76.6881700112099
 20
-137.968839483737
 10
76.6881700112099
 20
-137.968839483737
 10
76.70711803637877
 20
-137.968839483737
 10
76.91037867000853
 20
-137.968839483737
 10
77.05197209445228
 20
-137.9495469490196
 10
77.05197209445228
 20
-137.9495469490196
 10
77.05197209445228
 20
-138.1845024611136
 10
77.05197209445228
 20
-138.1845024611136
 10
76.89556475942194
 20
-138.1655544359447
 10
76.70505097908763
 20
-138.1655544359447
 10
76.6881700112099
 20
-138.1655544359447
 97
        0
 97
        0
 75
     2
 76
     1
 98
        0
  0
SPLINE
  5
11C
330
FA
100
AcDbEntity
  8
_U+30EC_U+30A4_U+30E4_U+30FC 1
370
     0
100
AcDbSpline
210
0.0
220
0.0
230
1.0
 70
    11
 71
     3
 72
    29
 73
    25
 74
     0
 42
0.0000000001
 43
0.0000000001
 12
1.0
 22
0.0
 32
0.0
 13
1.0
 23
0.0
 33
0.0
 40
0.0
 40
0.0
 40
0.0
 40
0.0
 40
1.0
 40
1.0
 40
1.0
 40
2.0
 40
2.0
 40
2.0
 40
3.0
 40
3.0
 40
3.0
 40
4.0
 40
4.0
 40
4.0
 40
5.0
 40
5.0
 40
5.0
 40
6.0
 40
6.0
 40
6.0
 40
7.0
 40
7.0
 40
7.0
 40
8.0
 40
8.0
 40
8.0
 40
8.0
 10
78.63568248902163
 20
-138.8573296093829
 30
0.0
 10
78.63568248902163
 20
-138.8573296093829
 30
0.0
 10
78.15130206379551
 20
-138.8573296093829
 30
0.0
 10
78.15130206379551
 20
-138.8573296093829
 30
0.0
 10
78.12374129991352
 20
-138.8573296093829
 30
0.0
 10
77.806448005722
 20
-138.8573296093829
 30
0.0
 10
77.59491914292767
 20
-138.8824788064252
 30
0.0
 10
77.59491914292767
 20
-138.8824788064252
 30
0.0
 10
77.59491914292767
 20
-138.652001918462
 30
0.0
 10
77.59491914292767
 20
-138.652001918462
 30
0.0
 10
77.75339353524916
 20
-138.6754285677617
 30
0.0
 10
77.94390731558347
 20
-138.6774956250528
 30
0.0
 10
78.15130206379551
 20
-138.6774956250528
 30
0.0
 10
78.15130206379551
 20
-138.6774956250528
 30
0.0
 10
78.63568248902163
 20
-138.6774956250528
 30
0.0
 10
78.63568248902163
 20
-138.6774956250528
 30
0.0
 10
78.82171764522514
 20
-138.6774956250528
 30
0.0
 10
79.00809731097715
 20
-138.6754285677617
 30
0.0
 10
79.1920654098895
 20
-138.652001918462
 30
0.0
 10
79.1920654098895
 20
-138.652001918462
 30
0.0
 10
79.1920654098895
 20
-138.8824788064252
 30
0.0
 10
79.1920654098895
 20
-138.8824788064252
 30
0.0
 10
79.00809731097715
 20
-138.8593966666741
 30
0.0
 10
78.76039494558768
 20
-138.8573296093829
 30
0.0
 10
78.63568248902163
 20
-138.8573296093829
 30
0.0
  0
HATCH
  5
11D
330
FA
100
AcDbEntity
  8
_U+30EC_U+30A4_U+30E4_U+30FC 1
 62
   179
420
  2234388
100
AcDbHatch
 10
0.0
 20
0.0
 30
0.0
210
0.0
220
0.0
230
1.0
  2
SOLID
 70
     1
 71
     0
 91
        1
 92
        1
 93
        1
 72
     4
 94
        3
 73
     0
 74
     1
 95
       29
 96
       25
 40
0.0
 40
0.0
 40
0.0
 40
0.0
 40
1.0
 40
1.0
 40
1.0
 40
2.0
 40
2.0
 40
2.0
 40
3.0
 40
3.0
 40
3.0
 40
4.0
 40
4.0
 40
4.0
 40
5.0
 40
5.0
 40
5.0
 40
6.0
 40
6.0
 40
6.0
 40
7.0
 40
7.0
 40
7.0
 40
8.0
 40
8.0
 40
8.0
 40
8.0
 10
78.63568248902163
 20
-138.8573296093829
 10
78.63568248902163
 20
-138.8573296093829
 10
78.15130206379551
 20
-138.8573296093829
 10
78.15130206379551
 20
-138.8573296093829
 10
78.12374129991352
 20
-138.8573296093829
 10
77.806448005722
 20
-138.8573296093829
 10
77.59491914292767
 20
-138.8824788064252
 10
77.59491914292767
 20
-138.8824788064252
 10
77.59491914292767
 20
-138.652001918462
 10
77.59491914292767
 20
-138.652001918462
 10
77.75339353524916
 20
-138.6754285677617
 10
77.94390731558347
 20
-138.6774956250528
 10
78.15130206379551
 20
-138.6774956250528
 10
78.15130206379551
 20
-138.6774956250528
 10
78.63568248902163
 20
-138.6774956250528
 10
78.63568248902163
 20
-138.6774956250528
 10
78.82171764522514
 20
-138.6774956250528
 10
79.00809731097715
 20
-138.6754285677617
 10
79.1920654098895
 20
-138.652001918462
 10
79.1920654098895
 20
-138.652001918462
 10
79.1920654098895
 20
-138.8824788064252
 10
79.1920654098895
 20
-138.8824788064252
 10
79.00809731097715
 20
-138.8593966666741
 10
78.76039494558768
 20
-138.8573296093829
 10
78.63568248902163
 20
-138.8573296093829
 97
        0
 97
        0
 75
     2
 76
     1
 98
        0
  0
SPLINE
  5
11E
330
FA
100
AcDbEntity
  8
_U+30EC_U+30A4_U+30E4_U+30FC 1
370
     0
100
AcDbSpline
210
0.0
220
0.0
230
1.0
 70
    11
 71
     3
 72
    44
 73
    40
 74
     0
 42
0.0000000001
 43
0.0000000001
 12
1.0
 22
0.0
 32
0.0
 13
1.0
 23
0.0
 33
0.0
 40
0.0
 40
0.0
 40
0.0
 40
0.0
 40
1.0
 40
1.0
 40
1.0
 40
2.0
 40
2.0
 40
2.0
 40
3.0
 40
3.0
 40
3.0
 40
4.0
 40
4.0
 40
4.0
 40
5.0
 40
5.0
 40
5.0
 40
6.0
 40
6.0
 40
6.0
 40
7.0
 40
7.0
 40
7.0
 40
8.0
 40
8.0
 40
8.0
 40
9.0
 40
9.0
 40
9.0
 40
10.0
 40
10.0
 40
10.0
 40
11.0
 40
11.0
 40
11.0
 40
12.0
 40
12.0
 40
12.0
 40
13.0
 40
13.0
 40
13.0
 40
13.0
 10
80.8470892810035
 20
-138.4194579732076
 30
0.0
 10
80.73512367773289
 20
-138.7873941710323
 30
0.0
 10
80.68448077409971
 20
-138.9462130729023
 30
0.0
 10
80.48776582189195
 20
-139.1956379860344
 30
0.0
 10
80.30345321343108
 20
-139.4264593835462
 30
0.0
 10
80.06677515359442
 20
-139.6124945397497
 30
0.0
 10
79.78737790974066
 20
-139.7055121178514
 30
0.0
 10
79.78737790974066
 20
-139.7055121178514
 30
0.0
 10
79.5947970721152
 20
-139.5256781335214
 30
0.0
 10
79.5947970721152
 20
-139.5256781335214
 30
0.0
 10
80.23592934192018
 20
-139.3734049130733
 30
0.0
 10
80.56596948940712
 20
-138.8170219922055
 30
0.0
 10
80.62935924633572
 20
-138.3770832987391
 30
0.0
 10
80.62935924633572
 20
-138.3770832987391
 30
0.0
 10
79.86351451996468
 20
-138.3770832987391
 30
0.0
 10
79.86351451996468
 20
-138.3770832987391
 30
0.0
 10
79.77049694186293
 20
-138.3770832987391
 30
0.0
 10
79.5865288429506
 20
-138.3812174133214
 30
0.0
 10
79.42977699837172
 20
-138.4001654384902
 30
0.0
 10
79.42977699837172
 20
-138.4001654384902
 30
0.0
 10
79.42977699837172
 20
-138.1803683465313
 30
0.0
 10
79.42977699837172
 20
-138.1803683465313
 30
0.0
 10
79.51659340460002
 20
-138.2013834289913
 30
0.0
 10
79.76842988457179
 20
-138.2013834289913
 30
0.0
 10
79.86764863454698
 20
-138.2013834289913
 30
0.0
 10
79.86764863454698
 20
-138.2013834289913
 30
0.0
 10
80.29931909884878
 20
-138.2013834289913
 30
0.0
 10
80.29931909884878
 20
-138.2013834289913
 30
0.0
 10
80.34169377331736
 20
-138.2013834289913
 30
0.0
 10
80.57630477586287
 20
-138.1993163717002
 30
0.0
 10
80.61454533574914
 20
-138.1931151998267
 30
0.0
 10
80.65692001021772
 20
-138.1865695184048
 30
0.0
 10
80.65898706750887
 20
-138.1845024611136
 30
0.0
 10
80.72030976714632
 20
-138.1441948439362
 30
0.0
 10
80.72030976714632
 20
-138.1441948439362
 30
0.0
 10
80.90841198064096
 20
-138.2988796312239
 30
0.0
 10
80.90841198064096
 20
-138.2988796312239
 30
0.0
 10
80.87912866901634
 20
-138.328507452397
 30
0.0
 10
80.86431475842976
 20
-138.3602023308613
 30
0.0
 10
80.8470892810035
 20
-138.4194579732076
 30
0.0
  0
SPLINE
  5
11F
330
FA
100
AcDbEntity
  8
_U+30EC_U+30A4_U+30E4_U+30FC 1
370
     0
100
AcDbSpline
210
0.0
220
0.0
230
1.0
 70
    11
 71
     3
 72
    17
 73
    13
 74
     0
 42
0.0000000001
 43
0.0000000001
 12
1.0
 22
0.0
 32
0.0
 13
1.0
 23
0.0
 33
0.0
 40
0.0
 40
0.0
 40
0.0
 40
0.0
 40
1.0
 40
1.0
 40
1.0
 40
2.0
 40
2.0
 40
2.0
 40
3.0
 40
3.0
 40
3.0
 40
4.0
 40
4.0
 40
4.0
 40
4.0
 10
81.0565510865067
 20
-138.2203314541602
 30
0.0
 10
80.9297715726495
 20
-138.2203314541602
 30
0.0
 10
80.82814125583464
 20
-138.1190456468939
 30
0.0
 10
80.82814125583464
 20
-137.9919216234881
 30
0.0
 10
80.82814125583464
 20
-137.8651421096309
 30
0.0
 10
80.9297715726495
 20
-137.7614447355249
 30
0.0
 10
81.0565510865067
 20
-137.7614447355249
 30
0.0
 10
81.18367510991241
 20
-137.7614447355249
 30
0.0
 10
81.28737248401843
 20
-137.8651421096309
 30
0.0
 10
81.28737248401843
 20
-137.9919216234881
 30
0.0
 10
81.28737248401843
 20
-138.1190456468939
 30
0.0
 10
81.18367510991241
 20
-138.2203314541602
 30
0.0
 10
81.0565510865067
 20
-138.2203314541602
 30
0.0
  0
SPLINE
  5
120
330
FA
100
AcDbEntity
  8
_U+30EC_U+30A4_U+30E4_U+30FC 1
370
     0
100
AcDbSpline
210
0.0
220
0.0
230
1.0
 70
    11
 71
     3
 72
    17
 73
    13
 74
     0
 42
0.0000000001
 43
0.0000000001
 12
1.0
 22
0.0
 32
0.0
 13
1.0
 23
0.0
 33
0.0
 40
0.0
 40
0.0
 40
0.0
 40
0.0
 40
1.0
 40
1.0
 40
1.0
 40
2.0
 40
2.0
 40
2.0
 40
3.0
 40
3.0
 40
3.0
 40
4.0
 40
4.0
 40
4.0
 40
4.0
 10
81.05448402921554
 20
-137.8902913066733
 30
0.0
 10
80.99970701100008
 20
-137.8902913066733
 30
0.0
 10
80.95526527924035
 20
-137.934733038433
 30
0.0
 10
80.95526527924035
 20
-137.989854566197
 30
0.0
 10
80.95526527924035
 20
-138.0470431512521
 30
0.0
 10
80.99970701100008
 20
-138.0956189975942
 30
0.0
 10
81.05861814379784
 20
-138.0956189975942
 30
0.0
 10
81.11787378614414
 20
-138.0956189975942
 30
0.0
 10
81.15818140332156
 20
-138.044976093961
 30
0.0
 10
81.15818140332156
 20
-137.9919216234881
 30
0.0
 10
81.15818140332156
 20
-137.934733038433
 30
0.0
 10
81.1116726142707
 20
-137.8902913066733
 30
0.0
 10
81.05448402921554
 20
-137.8902913066733
 30
0.0
  0
HATCH
  5
121
330
FA
100
AcDbEntity
  8
_U+30EC_U+30A4_U+30E4_U+30FC 1
 62
   179
420
  2234388
100
AcDbHatch
 10
0.0
 20
0.0
 30
0.0
210
0.0
220
0.0
230
1.0
  2
SOLID
 70
     1
 71
     0
 91
        3
 92
        1
 93
        1
 72
     4
 94
        3
 73
     0
 74
     1
 95
       44
 96
       40
 40
0.0
 40
0.0
 40
0.0
 40
0.0
 40
1.0
 40
1.0
 40
1.0
 40
2.0
 40
2.0
 40
2.0
 40
3.0
 40
3.0
 40
3.0
 40
4.0
 40
4.0
 40
4.0
 40
5.0
 40
5.0
 40
5.0
 40
6.0
 40
6.0
 40
6.0
 40
7.0
 40
7.0
 40
7.0
 40
8.0
 40
8.0
 40
8.0
 40
9.0
 40
9.0
 40
9.0
 40
10.0
 40
10.0
 40
10.0
 40
11.0
 40
11.0
 40
11.0
 40
12.0
 40
12.0
 40
12.0
 40
13.0
 40
13.0
 40
13.0
 40
13.0
 10
80.8470892810035
 20
-138.4194579732076
 10
80.73512367773289
 20
-138.7873941710323
 10
80.68448077409971
 20
-138.9462130729023
 10
80.48776582189195
 20
-139.1956379860344
 10
80.30345321343108
 20
-139.4264593835462
 10
80.06677515359442
 20
-139.6124945397497
 10
79.78737790974066
 20
-139.7055121178514
 10
79.78737790974066
 20
-139.7055121178514
 10
79.5947970721152
 20
-139.5256781335214
 10
79.5947970721152
 20
-139.5256781335214
 10
80.23592934192018
 20
-139.3734049130733
 10
80.56596948940712
 20
-138.8170219922055
 10
80.62935924633572
 20
-138.3770832987391
 10
80.62935924633572
 20
-138.3770832987391
 10
79.86351451996468
 20
-138.3770832987391
 10
79.86351451996468
 20
-138.3770832987391
 10
79.77049694186293
 20
-138.3770832987391
 10
79.5865288429506
 20
-138.3812174133214
 10
79.42977699837172
 20
-138.4001654384902
 10
79.42977699837172
 20
-138.4001654384902
 10
79.42977699837172
 20
-138.1803683465313
 10
79.42977699837172
 20
-138.1803683465313
 10
79.51659340460002
 20
-138.2013834289913
 10
79.76842988457179
 20
-138.2013834289913
 10
79.86764863454698
 20
-138.2013834289913
 10
79.86764863454698
 20
-138.2013834289913
 10
80.29931909884878
 20
-138.2013834289913
 10
80.29931909884878
 20
-138.2013834289913
 10
80.34169377331736
 20
-138.2013834289913
 10
80.57630477586287
 20
-138.1993163717002
 10
80.61454533574914
 20
-138.1931151998267
 10
80.65692001021772
 20
-138.1865695184048
 10
80.65898706750887
 20
-138.1845024611136
 10
80.72030976714632
 20
-138.1441948439362
 10
80.72030976714632
 20
-138.1441948439362
 10
80.90841198064096
 20
-138.2988796312239
 10
80.90841198064096
 20
-138.2988796312239
 10
80.87912866901634
 20
-138.328507452397
 10
80.86431475842976
 20
-138.3602023308613
 10
80.8470892810035
 20
-138.4194579732076
 97
        0
 97
        0
 92
        1
 93
        1
 72
     4
 94
        3
 73
     0
 74
     1
 95
       17
 96
       13
 40
0.0
 40
0.0
 40
0.0
 40
0.0
 40
1.0
 40
1.0
 40
1.0
 40
2.0
 40
2.0
 40
2.0
 40
3.0
 40
3.0
 40
3.0
 40
4.0
 40
4.0
 40
4.0
 40
4.0
 10
81.0565510865067
 20
-138.2203314541602
 10
80.9297715726495
 20
-138.2203314541602
 10
80.82814125583464
 20
-138.1190456468939
 10
80.82814125583464
 20
-137.9919216234881
 10
80.82814125583464
 20
-137.8651421096309
 10
80.9297715726495
 20
-137.7614447355249
 10
81.0565510865067
 20
-137.7614447355249
 10
81.18367510991241
 20
-137.7614447355249
 10
81.28737248401843
 20
-137.8651421096309
 10
81.28737248401843
 20
-137.9919216234881
 10
81.28737248401843
 20
-138.1190456468939
 10
81.18367510991241
 20
-138.2203314541602
 10
81.0565510865067
 20
-138.2203314541602
 97
        0
 97
        0
 92
        1
 93
        1
 72
     4
 94
        3
 73
     0
 74
     1
 95
       17
 96
       13
 40
0.0
 40
0.0
 40
0.0
 40
0.0
 40
1.0
 40
1.0
 40
1.0
 40
2.0
 40
2.0
 40
2.0
 40
3.0
 40
3.0
 40
3.0
 40
4.0
 40
4.0
 40
4.0
 40
4.0
 10
81.05448402921554
 20
-137.8902913066733
 10
80.99970701100008
 20
-137.8902913066733
 10
80.95526527924035
 20
-137.934733038433
 10
80.95526527924035
 20
-137.989854566197
 10
80.95526527924035
 20
-138.0470431512521
 10
80.99970701100008
 20
-138.0956189975942
 10
81.05861814379784
 20
-138.0956189975942
 10
81.11787378614414
 20
-138.0956189975942
 10
81.15818140332156
 20
-138.044976093961
 10
81.15818140332156
 20
-137.9919216234881
 10
81.15818140332156
 20
-137.934733038433
 10
81.1116726142707
 20
-137.8902913066733
 10
81.05448402921554
 20
-137.8902913066733
 97
        0
 97
        0
 75
     2
 76
     1
 98
        0
  0
ENDBLK
  5
FD
330
FA
100
AcDbEntity
  8
0
100
AcDbBlockEnd
  0
ENDSEC
  0
SECTION
  2
ENTITIES
  0
INSERT
  5
42
330
1F
100
AcDbEntity
  8
_U+30EC_U+30A4_U+30E4_U+30FC 1
100
AcDbBlockReference
  2
block 2
 10
0.0
 20
0.0
 30
0.0
  0
SPLINE
  5
75
330
1F
100
AcDbEntity
  8
_U+30EC_U+30A4_U+30E4_U+30FC 1
 62
   179
420
  2234388
370
     9
100
AcDbSpline
210
0.0
220
0.0
230
1.0
 70
    11
 71
     3
 72
    17
 73
    13
 74
     0
 42
0.0000000001
 43
0.0000000001
 12
1.0
 22
0.0
 32
0.0
 13
1.0
 23
0.0
 33
0.0
 40
0.0
 40
0.0
 40
0.0
 40
0.0
 40
1.0
 40
1.0
 40
1.0
 40
2.0
 40
2.0
 40
2.0
 40
3.0
 40
3.0
 40
3.0
 40
4.0
 40
4.0
 40
4.0
 40
4.0
 10
109.7169905342197
 20
-122.2495649694376
 30
0.0
 10
109.7169905342197
 20
-122.1944258027849
 30
0.0
 10
109.672187757585
 20
-122.149658302796
 30
0.0
 10
109.6170838701019
 20
-122.149658302796
 30
0.0
 10
109.5619447048419
 20
-122.149658302796
 30
0.0
 10
109.517177205984
 20
-122.1944258027849
 30
0.0
 10
109.517177205984
 20
-122.2495649694376
 30
0.0
 10
109.517177205984
 20
-122.3053744138681
 30
0.0
 10
109.5619447048419
 20
-122.3494716360793
 30
0.0
 10
109.6170838701019
 20
-122.3494716360793
 30
0.0
 10
109.672187757585
 20
-122.3494716360793
 30
0.0
 10
109.7169905342197
 20
-122.3053744138681
 30
0.0
 10
109.7169905342197
 20
-122.2495649694376
 30
0.0
  0
SPLINE
  5
76
330
1F
100
AcDbEntity
  8
_U+30EC_U+30A4_U+30E4_U+30FC 1
 62
   179
420
  2234388
370
     9
100
AcDbSpline
210
0.0
220
0.0
230
1.0
 70
    11
 71
     3
 72
    17
 73
    13
 74
     0
 42
0.0000000001
 43
0.0000000001
 12
1.0
 22
0.0
 32
0.0
 13
1.0
 23
0.0
 33
0.0
 40
0.0
 40
0.0
 40
0.0
 40
0.0
 40
1.0
 40
1.0
 40
1.0
 40
2.0
 40
2.0
 40
2.0
 40
3.0
 40
3.0
 40
3.0
 40
4.0
 40
4.0
 40
4.0
 40
4.0
 10
109.7169905342197
 20
-123.0495238581266
 30
0.0
 10
109.7169905342197
 20
-122.9943846914735
 30
0.0
 10
109.672187757585
 20
-122.9496171914849
 30
0.0
 10
109.6170838701019
 20
-122.9496171914849
 30
0.0
 10
109.5619447048419
 20
-122.9496171914849
 30
0.0
 10
109.517177205984
 20
-122.9943846914735
 30
0.0
 10
109.517177205984
 20
-123.0495238581266
 30
0.0
 10
109.517177205984
 20
-123.105333302557
 30
0.0
 10
109.5619447048419
 20
-123.1501008025459
 30
0.0
 10
109.6170838701019
 20
-123.1501008025459
 30
0.0
 10
109.672187757585
 20
-123.1501008025459
 30
0.0
 10
109.7169905342197
 20
-123.105333302557
 30
0.0
 10
109.7169905342197
 20
-123.0495238581266
 30
0.0
  0
SPLINE
  5
77
330
1F
100
AcDbEntity
  8
_U+30EC_U+30A4_U+30E4_U+30FC 1
 62
   179
420
  2234388
370
     9
100
AcDbSpline
210
0.0
220
0.0
230
1.0
 70
    11
 71
     3
 72
    17
 73
    13
 74
     0
 42
0.0000000001
 43
0.0000000001
 12
1.0
 22
0.0
 32
0.0
 13
1.0
 23
0.0
 33
0.0
 40
0.0
 40
0.0
 40
0.0
 40
0.0
 40
1.0
 40
1.0
 40
1.0
 40
2.0
 40
2.0
 40
2.0
 40
3.0
 40
3.0
 40
3.0
 40
4.0
 40
4.0
 40
4.0
 40
4.0
 10
105.7172314695954
 20
-118.2498058037708
 30
0.0
 10
105.7172314695954
 20
-118.194666637118
 30
0.0
 10
105.6724286929606
 20
-118.1498991371291
 30
0.0
 10
105.61661924994
 20
-118.1498991371291
 30
0.0
 10
105.5615153624569
 20
-118.1498991371291
 30
0.0
 10
105.5167125858222
 20
-118.194666637118
 30
0.0
 10
105.5167125858222
 20
-118.2498058037708
 30
0.0
 10
105.5167125858222
 20
-118.304909692646
 30
0.0
 10
105.5615153624569
 20
-118.3497124704127
 30
0.0
 10
105.61661924994
 20
-118.3497124704127
 30
0.0
 10
105.6724286929606
 20
-118.3497124704127
 30
0.0
 10
105.7172314695954
 20
-118.304909692646
 30
0.0
 10
105.7172314695954
 20
-118.2498058037708
 30
0.0
  0
SPLINE
  5
78
330
1F
100
AcDbEntity
  8
_U+30EC_U+30A4_U+30E4_U+30FC 1
 62
   179
420
  2234388
370
     9
100
AcDbSpline
210
0.0
220
0.0
230
1.0
 70
    11
 71
     3
 72
    17
 73
    13
 74
     0
 42
0.0000000001
 43
0.0000000001
 12
1.0
 22
0.0
 32
0.0
 13
1.0
 23
0.0
 33
0.0
 40
0.0
 40
0.0
 40
0.0
 40
0.0
 40
1.0
 40
1.0
 40
1.0
 40
2.0
 40
2.0
 40
2.0
 40
3.0
 40
3.0
 40
3.0
 40
4.0
 40
4.0
 40
4.0
 40
4.0
 10
90.71729713005338
 20
-143.0506832975705
 30
0.0
 10
90.71729713005338
 20
-142.9948738531401
 30
0.0
 10
90.67249435341861
 20
-142.9501063531515
 30
0.0
 10
90.61668491039799
 20
-142.9501063531515
 30
0.0
 10
90.56158331069295
 20
-142.9501063531515
 30
0.0
 10
90.51678053292623
 20
-142.9948738531401
 30
0.0
 10
90.51678053292623
 20
-143.0506832975705
 30
0.0
 10
90.51678053292623
 20
-143.1058224642236
 30
0.0
 10
90.56158331069295
 20
-143.1506252419903
 30
0.0
 10
90.61668491039799
 20
-143.1506252419903
 30
0.0
 10
90.67249435341861
 20
-143.1506252419903
 30
0.0
 10
90.71729713005338
 20
-143.1058224642236
 30
0.0
 10
90.71729713005338
 20
-143.0506832975705
 30
0.0
  0
SPLINE
  5
79
330
1F
100
AcDbEntity
  8
_U+30EC_U+30A4_U+30E4_U+30FC 1
 62
   179
420
  2234388
370
     9
100
AcDbSpline
210
0.0
220
0.0
230
1.0
 70
    11
 71
     3
 72
    17
 73
    13
 74
     0
 42
0.0000000001
 43
0.0000000001
 12
1.0
 22
0.0
 32
0.0
 13
1.0
 23
0.0
 33
0.0
 40
0.0
 40
0.0
 40
0.0
 40
0.0
 40
1.0
 40
1.0
 40
1.0
 40
2.0
 40
2.0
 40
2.0
 40
3.0
 40
3.0
 40
3.0
 40
4.0
 40
4.0
 40
4.0
 40
4.0
 10
84.71732339423657
 20
-143.0506832975705
 30
0.0
 10
84.71732339423657
 20
-142.9948738531401
 30
0.0
 10
84.6725206176018
 20
-142.9501063531515
 30
0.0
 10
84.61671117458118
 20
-142.9501063531515
 30
0.0
 10
84.56157200932124
 20
-142.9501063531515
 30
0.0
 10
84.51680451046334
 20
-142.9948738531401
 30
0.0
 10
84.51680451046334
 20
-143.0506832975705
 30
0.0
 10
84.51680451046334
 20
-143.1058224642236
 30
0.0
 10
84.56157200932124
 20
-143.1506252419903
 30
0.0
 10
84.61671117458118
 20
-143.1506252419903
 30
0.0
 10
84.6725206176018
 20
-143.1506252419903
 30
0.0
 10
84.71732339423657
 20
-143.1058224642236
 30
0.0
 10
84.71732339423657
 20
-143.0506832975705
 30
0.0
  0
SPLINE
  5
7A
330
1F
100
AcDbEntity
  8
_U+30EC_U+30A4_U+30E4_U+30FC 1
 62
   179
420
  2234388
370
     9
100
AcDbSpline
210
0.0
220
0.0
230
1.0
 70
    11
 71
     3
 72
    17
 73
    13
 74
     0
 42
0.0000000001
 43
0.0000000001
 12
1.0
 22
0.0
 32
0.0
 13
1.0
 23
0.0
 33
0.0
 40
0.0
 40
0.0
 40
0.0
 40
0.0
 40
1.0
 40
1.0
 40
1.0
 40
2.0
 40
2.0
 40
2.0
 40
3.0
 40
3.0
 40
3.0
 40
4.0
 40
4.0
 40
4.0
 40
4.0
 10
84.71732339423657
 20
-118.2498058037708
 30
0.0
 10
84.71732339423657
 20
-118.194666637118
 30
0.0
 10
84.6725206176018
 20
-118.1498991371291
 30
0.0
 10
84.61671117458118
 20
-118.1498991371291
 30
0.0
 10
84.56157200932124
 20
-118.1498991371291
 30
0.0
 10
84.51680451046334
 20
-118.194666637118
 30
0.0
 10
84.51680451046334
 20
-118.2498058037708
 30
0.0
 10
84.51680451046334
 20
-118.304909692646
 30
0.0
 10
84.56157200932124
 20
-118.3497124704127
 30
0.0
 10
84.61671117458118
 20
-118.3497124704127
 30
0.0
 10
84.6725206176018
 20
-118.3497124704127
 30
0.0
 10
84.71732339423657
 20
-118.304909692646
 30
0.0
 10
84.71732339423657
 20
-118.2498058037708
 30
0.0
  0
SPLINE
  5
7B
330
1F
100
AcDbEntity
  8
_U+30EC_U+30A4_U+30E4_U+30FC 1
 62
   179
420
  2234388
370
     9
100
AcDbSpline
210
0.0
220
0.0
230
1.0
 70
    11
 71
     3
 72
    17
 73
    13
 74
     0
 42
0.0000000001
 43
0.0000000001
 12
1.0
 22
0.0
 32
0.0
 13
1.0
 23
0.0
 33
0.0
 40
0.0
 40
0.0
 40
0.0
 40
0.0
 40
1.0
 40
1.0
 40
1.0
 40
2.0
 40
2.0
 40
2.0
 40
3.0
 40
3.0
 40
3.0
 40
4.0
 40
4.0
 40
4.0
 40
4.0
 10
109.7169905342197
 20
-139.0499010763485
 30
0.0
 10
109.7169905342197
 20
-138.9947971874736
 30
0.0
 10
109.672187757585
 20
-138.9499944097069
 30
0.0
 10
109.6170838701019
 20
-138.9499944097069
 30
0.0
 10
109.5619447048419
 20
-138.9499944097069
 30
0.0
 10
109.517177205984
 20
-138.9947971874736
 30
0.0
 10
109.517177205984
 20
-139.0499010763485
 30
0.0
 10
109.517177205984
 20
-139.1050402430016
 30
0.0
 10
109.5619447048419
 20
-139.1498077429902
 30
0.0
 10
109.6170838701019
 20
-139.1498077429902
 30
0.0
 10
109.672187757585
 20
-139.1498077429902
 30
0.0
 10
109.7169905342197
 20
-139.1050402430016
 30
0.0
 10
109.7169905342197
 20
-139.0499010763485
 30
0.0
  0
SPLINE
  5
7C
330
1F
100
AcDbEntity
  8
_U+30EC_U+30A4_U+30E4_U+30FC 1
 62
   179
420
  2234388
370
     9
100
AcDbSpline
210
0.0
220
0.0
230
1.0
 70
    11
 71
     3
 72
    17
 73
    13
 74
     0
 42
0.0000000001
 43
0.0000000001
 12
1.0
 22
0.0
 32
0.0
 13
1.0
 23
0.0
 33
0.0
 40
0.0
 40
0.0
 40
0.0
 40
0.0
 40
1.0
 40
1.0
 40
1.0
 40
2.0
 40
2.0
 40
2.0
 40
3.0
 40
3.0
 40
3.0
 40
4.0
 40
4.0
 40
4.0
 40
4.0
 10
109.7169905342197
 20
-136.0499141326542
 30
0.0
 10
109.7169905342197
 20
-135.9948102437793
 30
0.0
 10
109.672187757585
 20
-135.9500074660126
 30
0.0
 10
109.6170838701019
 20
-135.9500074660126
 30
0.0
 10
109.5619447048419
 20
-135.9500074660126
 30
0.0
 10
109.517177205984
 20
-135.9948102437793
 30
0.0
 10
109.517177205984
 20
-136.0499141326542
 30
0.0
 10
109.517177205984
 20
-136.1050532993073
 30
0.0
 10
109.5619447048419
 20
-136.1498207992958
 30
0.0
 10
109.6170838701019
 20
-136.1498207992958
 30
0.0
 10
109.672187757585
 20
-136.1498207992958
 30
0.0
 10
109.7169905342197
 20
-136.1050532993073
 30
0.0
 10
109.7169905342197
 20
-136.0499141326542
 30
0.0
  0
POLYLINE
  5
7D
330
1F
100
AcDbEntity
  8
_U+30EC_U+30A4_U+30E4_U+30FC 1
 62
   179
420
  2234388
370
     9
100
AcDb2dPolyline
 66
     1
 10
0.0
 20
0.0
 30
0.0
  0
VERTEX
  5
7E
330
7D
100
AcDbEntity
  8
_U+30EC_U+30A4_U+30E4_U+30FC 1
 62
   179
420
  2234388
370
     9
100
AcDbVertex
100
AcDb2dVertex
 10
109.6170838701019
 20
-122.2495649694376
 30
0.0
  0
VERTEX
  5
7F
330
7D
100
AcDbEntity
  8
_U+30EC_U+30A4_U+30E4_U+30FC 1
 62
   179
420
  2234388
370
     9
100
AcDbVertex
100
AcDb2dVertex
 10
109.6170838701019
 20
-116.9920119151965
 30
0.0
  0
SEQEND
  5
80
330
7D
100
AcDbEntity
  8
_U+30EC_U+30A4_U+30E4_U+30FC 1
 62
   179
420
  2234388
370
     9
  0
POLYLINE
  5
81
330
1F
100
AcDbEntity
  8
_U+30EC_U+30A4_U+30E4_U+30FC 1
 62
   179
420
  2234388
370
     9
100
AcDb2dPolyline
 66
     1
 10
0.0
 20
0.0
 30
0.0
  0
VERTEX
  5
82
330
81
100
AcDbEntity
  8
_U+30EC_U+30A4_U+30E4_U+30FC 1
 62
   179
420
  2234388
370
     9
100
AcDbVertex
100
AcDb2dVertex
 10
109.6170838701019
 20
-122.2495649694376
 30
0.0
  0
VERTEX
  5
83
330
81
100
AcDbEntity
  8
_U+30EC_U+30A4_U+30E4_U+30FC 1
 62
   179
420
  2234388
370
     9
100
AcDbVertex
100
AcDb2dVertex
 10
109.6170838701019
 20
-123.0495238581266
 30
0.0
  0
SEQEND
  5
84
330
81
100
AcDbEntity
  8
_U+30EC_U+30A4_U+30E4_U+30FC 1
 62
   179
420
  2234388
370
     9
  0
POLYLINE
  5
85
330
1F
100
AcDbEntity
  8
_U+30EC_U+30A4_U+30E4_U+30FC 1
 62
   179
420
  2234388
370
     9
100
AcDb2dPolyline
 66
     1
 10
0.0
 20
0.0
 30
0.0
  0
VERTEX
  5
86
330
85
100
AcDbEntity
  8
_U+30EC_U+30A4_U+30E4_U+30FC 1
 62
   179
420
  2234388
370
     9
100
AcDbVertex
100
AcDb2dVertex
 10
108.1570425184617
 20
-122.2495649694376
 30
0.0
  0
VERTEX
  5
87
330
85
100
AcDbEntity
  8
_U+30EC_U+30A4_U+30E4_U+30FC 1
 62
   179
420
  2234388
370
     9
100
AcDbVertex
100
AcDb2dVertex
 10
110.6168560668178
 20
-122.2495649694376
 30
0.0
  0
SEQEND
  5
88
330
85
100
AcDbEntity
  8
_U+30EC_U+30A4_U+30E4_U+30FC 1
 62
   179
420
  2234388
370
     9
  0
POLYLINE
  5
89
330
1F
100
AcDbEntity
  8
_U+30EC_U+30A4_U+30E4_U+30FC 1
 62
   179
420
  2234388
370
     9
100
AcDb2dPolyline
 66
     1
 10
0.0
 20
0.0
 30
0.0
  0
VERTEX
  5
8A
330
89
100
AcDbEntity
  8
_U+30EC_U+30A4_U+30E4_U+30FC 1
 62
   179
420
  2234388
370
     9
100
AcDbVertex
100
AcDb2dVertex
 10
108.1570425184617
 20
-123.0495238581266
 30
0.0
  0
VERTEX
  5
8B
330
89
100
AcDbEntity
  8
_U+30EC_U+30A4_U+30E4_U+30FC 1
 62
   179
420
  2234388
370
     9
100
AcDbVertex
100
AcDb2dVertex
 10
110.6168560668178
 20
-123.0495238581266
 30
0.0
  0
SEQEND
  5
8C
330
89
100
AcDbEntity
  8
_U+30EC_U+30A4_U+30E4_U+30FC 1
 62
   179
420
  2234388
370
     9
  0
INSERT
  5
8E
330
1F
100
AcDbEntity
  8
_U+30EC_U+30A4_U+30E4_U+30FC 1
100
AcDbBlockReference
  2
block 3
 10
0.0
 20
0.0
 30
0.0
  0
POLYLINE
  5
A0
330
1F
100
AcDbEntity
  8
_U+30EC_U+30A4_U+30E4_U+30FC 1
 62
   179
420
  2234388
370
     9
100
AcDb2dPolyline
 66
     1
 10
0.0
 20
0.0
 30
0.0
  0
VERTEX
  5
A1
330
A0
100
AcDbEntity
  8
_U+30EC_U+30A4_U+30E4_U+30FC 1
 62
   179
420
  2234388
370
     9
100
AcDbVertex
100
AcDb2dVertex
 10
109.6170838701019
 20
-136.0499141326542
 30
0.0
  0
VERTEX
  5
A2
330
A0
100
AcDbEntity
  8
_U+30EC_U+30A4_U+30E4_U+30FC 1
 62
   179
420
  2234388
370
     9
100
AcDbVertex
100
AcDb2dVertex
 10
109.6170838701019
 20
-139.0499010763485
 30
0.0
  0
SEQEND
  5
A3
330
A0
100
AcDbEntity
  8
_U+30EC_U+30A4_U+30E4_U+30FC 1
 62
   179
420
  2234388
370
     9
  0
POLYLINE
  5
A4
330
1F
100
AcDbEntity
  8
_U+30EC_U+30A4_U+30E4_U+30FC 1
 62
   179
420
  2234388
370
     9
100
AcDb2dPolyline
 66
     1
 10
0.0
 20
0.0
 30
0.0
  0
VERTEX
  5
A5
330
A4
100
AcDbEntity
  8
_U+30EC_U+30A4_U+30E4_U+30FC 1
 62
   179
420
  2234388
370
     9
100
AcDbVertex
100
AcDb2dVertex
 10
93.15710817891973
 20
-139.0499010763485
 30
0.0
  0
VERTEX
  5
A6
330
A4
100
AcDbEntity
  8
_U+30EC_U+30A4_U+30E4_U+30FC 1
 62
   179
420
  2234388
370
     9
100
AcDbVertex
100
AcDb2dVertex
 10
110.6168560668178
 20
-139.0499010763485
 30
0.0
  0
SEQEND
  5
A7
330
A4
100
AcDbEntity
  8
_U+30EC_U+30A4_U+30E4_U+30FC 1
 62
   179
420
  2234388
370
     9
  0
INSERT
  5
A9
330
1F
100
AcDbEntity
  8
_U+30EC_U+30A4_U+30E4_U+30FC 1
100
AcDbBlockReference
  2
block 4
 10
0.0
 20
0.0
 30
0.0
  0
POLYLINE
  5
AE
330
1F
100
AcDbEntity
  8
_U+30EC_U+30A4_U+30E4_U+30FC 1
 62
   179
420
  2234388
370
     9
100
AcDb2dPolyline
 66
     1
 10
0.0
 20
0.0
 30
0.0
  0
VERTEX
  5
AF
330
AE
100
AcDbEntity
  8
_U+30EC_U+30A4_U+30E4_U+30FC 1
 62
   179
420
  2234388
370
     9
100
AcDbVertex
100
AcDb2dVertex
 10
84.61671117458118
 20
-118.2498058037708
 30
0.0
  0
VERTEX
  5
B0
330
AE
100
AcDbEntity
  8
_U+30EC_U+30A4_U+30E4_U+30FC 1
 62
   179
420
  2234388
370
     9
100
AcDbVertex
100
AcDb2dVertex
 10
105.61661924994
 20
-118.2498058037708
 30
0.0
  0
SEQEND
  5
B1
330
AE
100
AcDbEntity
  8
_U+30EC_U+30A4_U+30E4_U+30FC 1
 62
   179
420
  2234388
370
     9
  0
POLYLINE
  5
B2
330
1F
100
AcDbEntity
  8
_U+30EC_U+30A4_U+30E4_U+30FC 1
 62
   179
420
  2234388
370
     9
100
AcDb2dPolyline
 66
     1
 10
0.0
 20
0.0
 30
0.0
  0
VERTEX
  5
B3
330
B2
100
AcDbEntity
  8
_U+30EC_U+30A4_U+30E4_U+30FC 1
 62
   179
420
  2234388
370
     9
100
AcDbVertex
100
AcDb2dVertex
 10
84.61671117458118
 20
-119.7098471922948
 30
0.0
  0
VERTEX
  5
B4
330
B2
100
AcDbEntity
  8
_U+30EC_U+30A4_U+30E4_U+30FC 1
 62
   179
420
  2234388
370
     9
100
AcDbVertex
100
AcDb2dVertex
 10
84.61671117458118
 20
-117.2500335817985
 30
0.0
  0
SEQEND
  5
B5
330
B2
100
AcDbEntity
  8
_U+30EC_U+30A4_U+30E4_U+30FC 1
 62
   179
420
  2234388
370
     9
  0
POLYLINE
  5
B6
330
1F
100
AcDbEntity
  8
_U+30EC_U+30A4_U+30E4_U+30FC 1
 62
   179
420
  2234388
370
     9
100
AcDb2dPolyline
 66
     1
 10
0.0
 20
0.0
 30
0.0
  0
VERTEX
  5
B7
330
B6
100
AcDbEntity
  8
_U+30EC_U+30A4_U+30E4_U+30FC 1
 62
   179
420
  2234388
370
     9
100
AcDbVertex
100
AcDb2dVertex
 10
105.61661924994
 20
-119.7098471922948
 30
0.0
  0
VERTEX
  5
B8
330
B6
100
AcDbEntity
  8
_U+30EC_U+30A4_U+30E4_U+30FC 1
 62
   179
420
  2234388
370
     9
100
AcDbVertex
100
AcDb2dVertex
 10
105.61661924994
 20
-117.2500335817985
 30
0.0
  0
SEQEND
  5
B9
330
B6
100
AcDbEntity
  8
_U+30EC_U+30A4_U+30E4_U+30FC 1
 62
   179
420
  2234388
370
     9
  0
INSERT
  5
BB
330
1F
100
AcDbEntity
  8
_U+30EC_U+30A4_U+30E4_U+30FC 1
100
AcDbBlockReference
  2
block 5
 10
0.0
 20
0.0
 30
0.0
  0
POLYLINE
  5
C2
330
1F
100
AcDbEntity
  8
_U+30EC_U+30A4_U+30E4_U+30FC 1
 62
   179
420
  2234388
370
     9
100
AcDb2dPolyline
 66
     1
 10
0.0
 20
0.0
 30
0.0
  0
VERTEX
  5
C3
330
C2
100
AcDbEntity
  8
_U+30EC_U+30A4_U+30E4_U+30FC 1
 62
   179
420
  2234388
370
     9
100
AcDbVertex
100
AcDb2dVertex
 10
84.61671117458118
 20
-143.0506832975705
 30
0.0
  0
VERTEX
  5
C4
330
C2
100
AcDbEntity
  8
_U+30EC_U+30A4_U+30E4_U+30FC 1
 62
   179
420
  2234388
370
     9
100
AcDbVertex
100
AcDb2dVertex
 10
90.61668491039799
 20
-143.0506832975705
 30
0.0
  0
SEQEND
  5
C5
330
C2
100
AcDbEntity
  8
_U+30EC_U+30A4_U+30E4_U+30FC 1
 62
   179
420
  2234388
370
     9
  0
POLYLINE
  5
C6
330
1F
100
AcDbEntity
  8
_U+30EC_U+30A4_U+30E4_U+30FC 1
 62
   179
420
  2234388
370
     9
100
AcDb2dPolyline
 66
     1
 10
0.0
 20
0.0
 30
0.0
  0
VERTEX
  5
C7
330
C6
100
AcDbEntity
  8
_U+30EC_U+30A4_U+30E4_U+30FC 1
 62
   179
420
  2234388
370
     9
100
AcDbVertex
100
AcDb2dVertex
 10
84.61671117458118
 20
-141.5903244090466
 30
0.0
  0
VERTEX
  5
C8
330
C6
100
AcDbEntity
  8
_U+30EC_U+30A4_U+30E4_U+30FC 1
 62
   179
420
  2234388
370
     9
100
AcDbVertex
100
AcDb2dVertex
 10
84.61671117458118
 20
-144.0504555195431
 30
0.0
  0
SEQEND
  5
C9
330
C6
100
AcDbEntity
  8
_U+30EC_U+30A4_U+30E4_U+30FC 1
 62
   179
420
  2234388
370
     9
  0
POLYLINE
  5
CA
330
1F
100
AcDbEntity
  8
_U+30EC_U+30A4_U+30E4_U+30FC 1
 62
   179
420
  2234388
370
     9
100
AcDb2dPolyline
 66
     1
 10
0.0
 20
0.0
 30
0.0
  0
VERTEX
  5
CB
330
CA
100
AcDbEntity
  8
_U+30EC_U+30A4_U+30E4_U+30FC 1
 62
   179
420
  2234388
370
     9
100
AcDbVertex
100
AcDb2dVertex
 10
90.61668491039799
 20
-141.5903244090466
 30
0.0
  0
VERTEX
  5
CC
330
CA
100
AcDbEntity
  8
_U+30EC_U+30A4_U+30E4_U+30FC 1
 62
   179
420
  2234388
370
     9
100
AcDbVertex
100
AcDb2dVertex
 10
90.61668491039799
 20
-144.0504555195431
 30
0.0
  0
SEQEND
  5
CD
330
CA
100
AcDbEntity
  8
_U+30EC_U+30A4_U+30E4_U+30FC 1
 62
   179
420
  2234388
370
     9
  0
INSERT
  5
CF
330
1F
100
AcDbEntity
  8
_U+30EC_U+30A4_U+30E4_U+30FC 1
100
AcDbBlockReference
  2
block 6
 10
0.0
 20
0.0
 30
0.0
  0
POLYLINE
  5
D5
330
1F
100
AcDbEntity
  8
_U+30EC_U+30A4_U+30E4_U+30FC 1
 62
   179
420
  2234388
370
     9
100
AcDb2dPolyline
 66
     1
 10
0.0
 20
0.0
 30
0.0
  0
VERTEX
  5
D6
330
D5
100
AcDbEntity
  8
_U+30EC_U+30A4_U+30E4_U+30FC 1
 62
   179
420
  2234388
370
     9
100
AcDbVertex
100
AcDb2dVertex
 10
109.6170838701019
 20
-123.0495238581266
 30
0.0
  0
VERTEX
  5
D7
330
D5
100
AcDbEntity
  8
_U+30EC_U+30A4_U+30E4_U+30FC 1
 62
   179
420
  2234388
370
     9
100
AcDbVertex
100
AcDb2dVertex
 10
109.6170838701019
 20
-136.0499141326542
 30
0.0
  0
SEQEND
  5
D8
330
D5
100
AcDbEntity
  8
_U+30EC_U+30A4_U+30E4_U+30FC 1
 62
   179
420
  2234388
370
     9
  0
POLYLINE
  5
D9
330
1F
100
AcDbEntity
  8
_U+30EC_U+30A4_U+30E4_U+30FC 1
 62
   179
420
  2234388
370
     9
100
AcDb2dPolyline
 66
     1
 10
0.0
 20
0.0
 30
0.0
  0
VERTEX
  5
DA
330
D9
100
AcDbEntity
  8
_U+30EC_U+30A4_U+30E4_U+30FC 1
 62
   179
420
  2234388
370
     9
100
AcDbVertex
100
AcDb2dVertex
 10
108.1570425184617
 20
-123.0495238581266
 30
0.0
  0
VERTEX
  5
DB
330
D9
100
AcDbEntity
  8
_U+30EC_U+30A4_U+30E4_U+30FC 1
 62
   179
420
  2234388
370
     9
100
AcDbVertex
100
AcDb2dVertex
 10
110.6168560668178
 20
-123.0495238581266
 30
0.0
  0
SEQEND
  5
DC
330
D9
100
AcDbEntity
  8
_U+30EC_U+30A4_U+30E4_U+30FC 1
 62
   179
420
  2234388
370
     9
  0
POLYLINE
  5
DD
330
1F
100
AcDbEntity
  8
_U+30EC_U+30A4_U+30E4_U+30FC 1
 62
   179
420
  2234388
370
     9
100
AcDb2dPolyline
 66
     1
 10
0.0
 20
0.0
 30
0.0
  0
VERTEX
  5
DE
330
DD
100
AcDbEntity
  8
_U+30EC_U+30A4_U+30E4_U+30FC 1
 62
   179
420
  2234388
370
     9
100
AcDbVertex
100
AcDb2dVertex
 10
93.15710817891973
 20
-136.0499141326542
 30
0.0
  0
VERTEX
  5
DF
330
DD
100
AcDbEntity
  8
_U+30EC_U+30A4_U+30E4_U+30FC 1
 62
   179
420
  2234388
370
     9
100
AcDbVertex
100
AcDb2dVertex
 10
110.6168560668178
 20
-136.0499141326542
 30
0.0
  0
SEQEND
  5
E0
330
DD
100
AcDbEntity
  8
_U+30EC_U+30A4_U+30E4_U+30FC 1
 62
   179
420
  2234388
370
     9
  0
INSERT
  5
E2
330
1F
100
AcDbEntity
  8
_U+30EC_U+30A4_U+30E4_U+30FC 1
100
AcDbBlockReference
  2
block 7
 10
0.0
 20
0.0
 30
0.0
  0
POLYLINE
  5
E9
330
1F
100
AcDbEntity
  8
_U+30EC_U+30A4_U+30E4_U+30FC 1
  6
AI-Linetype-1
 62
   154
420
    23468
370
    25
100
AcDb2dPolyline
 66
     1
 10
0.0
 20
0.0
 30
0.0
  0
VERTEX
  5
EA
330
E9
100
AcDbEntity
  8
_U+30EC_U+30A4_U+30E4_U+30FC 1
  6
AI-Linetype-1
 62
   154
420
    23468
370
    25
100
AcDbVertex
100
AcDb2dVertex
 10
84.00143146805605
 20
-122.3301746916398
 30
0.0
  0
VERTEX
  5
EB
330
E9
100
AcDbEntity
  8
_U+30EC_U+30A4_U+30E4_U+30FC 1
  6
AI-Linetype-1
 62
   154
420
    23468
370
    25
100
AcDbVertex
100
AcDb2dVertex
 10
84.00143146805605
 20
-130.3296930229732
 30
0.0
  0
SEQEND
  5
ED
330
E9
100
AcDbEntity
  8
_U+30EC_U+30A4_U+30E4_U+30FC 1
  6
AI-Linetype-1
 62
   154
420
    23468
370
    25
  0
POLYLINE
  5
EE
330
1F
100
AcDbEntity
  8
_U+30EC_U+30A4_U+30E4_U+30FC 1
 62
   179
420
  2234388
370
     9
100
AcDb2dPolyline
 66
     1
 10
0.0
 20
0.0
 30
0.0
  0
VERTEX
  5
EF
330
EE
100
AcDbEntity
  8
_U+30EC_U+30A4_U+30E4_U+30FC 1
 62
   179
420
  2234388
370
     9
100
AcDbVertex
100
AcDb2dVertex
 10
83.82225563929387
 20
-130.3923816340687
 30
0.0
  0
VERTEX
  5
F0
330
EE
100
AcDbEntity
  8
_U+30EC_U+30A4_U+30E4_U+30FC 1
 62
   179
420
  2234388
370
     9
100
AcDbVertex
100
AcDb2dVertex
 10
82.9561862169447
 20
-130.8926205228324
 30
0.0
  0
SEQEND
  5
F1
330
EE
100
AcDbEntity
  8
_U+30EC_U+30A4_U+30E4_U+30FC 1
 62
   179
420
  2234388
370
     9
  0
POLYLINE
  5
F2
330
1F
100
AcDbEntity
  8
_U+30EC_U+30A4_U+30E4_U+30FC 1
 62
   179
420
  2234388
370
     9
100
AcDb2dPolyline
 66
     1
 10
0.0
 20
0.0
 30
0.0
  0
VERTEX
  5
F3
330
F2
100
AcDbEntity
  8
_U+30EC_U+30A4_U+30E4_U+30FC 1
 62
   179
420
  2234388
370
     9
100
AcDbVertex
100
AcDb2dVertex
 10
83.82225563929387
 20
-130.3923816340687
 30
0.0
  0
VERTEX
  5
F4
330
F2
100
AcDbEntity
  8
_U+30EC_U+30A4_U+30E4_U+30FC 1
 62
   179
420
  2234388
370
     9
100
AcDbVertex
100
AcDb2dVertex
 10
76.75156609745997
 20
-137.4637769100783
 30
0.0
  0
SEQEND
  5
F5
330
F2
100
AcDbEntity
  8
_U+30EC_U+30A4_U+30E4_U+30FC 1
 62
   179
420
  2234388
370
     9
  0
POLYLINE
  5
F6
330
1F
100
AcDbEntity
  8
_U+30EC_U+30A4_U+30E4_U+30FC 1
 62
   179
420
  2234388
370
     9
100
AcDb2dPolyline
 66
     1
 10
0.0
 20
0.0
 30
0.0
  0
VERTEX
  5
F7
330
F6
100
AcDbEntity
  8
_U+30EC_U+30A4_U+30E4_U+30FC 1
 62
   179
420
  2234388
370
     9
100
AcDbVertex
100
AcDb2dVertex
 10
83.82225563929387
 20
-130.3923816340687
 30
0.0
  0
VERTEX
  5
F8
330
F6
100
AcDbEntity
  8
_U+30EC_U+30A4_U+30E4_U+30FC 1
 62
   179
420
  2234388
370
     9
100
AcDbVertex
100
AcDb2dVertex
 10
83.32205204094403
 20
-131.2584863560741
 30
0.0
  0
SEQEND
  5
F9
330
F6
100
AcDbEntity
  8
_U+30EC_U+30A4_U+30E4_U+30FC 1
 62
   179
420
  2234388
370
     9
  0
INSERT
  5
FB
330
1F
100
AcDbEntity
  8
_U+30EC_U+30A4_U+30E4_U+30FC 1
100
AcDbBlockReference
  2
block 8
 10
0.0
 20
0.0
 30
0.0
  0
ENDSEC
  0
SECTION
  2
OBJECTS
  0
DICTIONARY
  5
C
330
0
100
AcDbDictionary
281
     1
  3
ACAD_GROUP
350
D
  3
ACAD_LAYOUT
350
1A
  3
ACAD_MATERIAL
350
3B
  3
ACAD_MLEADERSTYLE
350
123
  3
ACAD_MLINESTYLE
350
17
  3
ACAD_PLOTSETTINGS
350
19
  3
ACAD_PLOTSTYLENAME
350
E
  3
ACAD_TABLESTYLE
350
122
  3
ACAD_VISUALSTYLE
350
2A
  0
SUN
  5
3F
330
29
100
AcDbSun
 90
        1
290
     0
 63
     7
421
 16777215
 40
1.0
291
     1
 91
  2455826
 92
 54000000
292
     0
 70
     2
 71
   256
280
     1
  0
DICTIONARY
  5
D
102
{ACAD_REACTORS
330
C
102
}
330
C
100
AcDbDictionary
281
     1
  0
DICTIONARY
  5
1A
102
{ACAD_REACTORS
330
C
102
}
330
C
100
AcDbDictionary
281
     1
  3
Layout1
350
1E
  3
Layout2
350
26
  3
Model
350
22
  0
DICTIONARY
  5
3B
102
{ACAD_REACTORS
330
C
102
}
330
C
100
AcDbDictionary
281
     1
  3
ByBlock
350
3D
  3
ByLayer
350
3C
  3
Global
350
3E
  0
DICTIONARY
  5
123
102
{ACAD_REACTORS
330
C
102
}
330
C
100
AcDbDictionary
281
     1
  0
DICTIONARY
  5
17
102
{ACAD_REACTORS
330
C
102
}
330
C
100
AcDbDictionary
281
     1
  3
Standard
350
18
  0
DICTIONARY
  5
19
102
{ACAD_REACTORS
330
C
102
}
330
C
100
AcDbDictionary
281
     1
  0
ACDBDICTIONARYWDFLT
  5
E
102
{ACAD_REACTORS
330
C
102
}
330
C
100
AcDbDictionary
281
     1
  3
Normal
350
F
100
AcDbDictionaryWithDefault
340
F
  0
DICTIONARY
  5
122
102
{ACAD_REACTORS
330
C
102
}
330
C
100
AcDbDictionary
281
     1
  0
DICTIONARY
  5
2A
102
{ACAD_REACTORS
330
C
102
}
330
C
100
AcDbDictionary
281
     1
  3
2dWireframe
350
2F
  3
3D Hidden
350
31
  3
3dWireframe
350
30
  3
Basic
350
32
  3
Brighten
350
36
  3
ColorChange
350
3A
  3
Conceptual
350
34
  3
Dim
350
35
  3
Facepattern
350
39
  3
Flat
350
2B
  3
FlatWithEdges
350
2C
  3
Gouraud
350
2D
  3
GouraudWithEdges
350
2E
  3
Linepattern
350
38
  3
Realistic
350
33
  3
Thicken
350
37
  0
LAYOUT
  5
1E
102
{ACAD_REACTORS
330
1A
102
}
330
1A
100
AcDbPlotSettings
  1

  2
none_device
  4

  6

 40
0.0
 41
0.0
 42
0.0
 43
0.0
 44
0.0
 45
0.0
 46
0.0
 47
0.0
 48
0.0
 49
0.0
140
0.0
141
0.0
142
1.0
143
1.0
 70
   688
 72
     0
 73
     0
 74
     5
  7

 75
    16
 76
     0
 77
     2
 78
   300
147
1.0
148
0.0
149
0.0
100
AcDbLayout
  1
Layout1
 70
     1
 71
     1
 10
0.0
 20
0.0
 11
12.0
 21
9.0
 12
0.0
 22
0.0
 32
0.0
 14
1.000000000000000E+20
 24
1.000000000000000E+20
 34
1.000000000000000E+20
 15
-1.000000000000000E+20
 25
-1.000000000000000E+20
 35
-1.000000000000000E+20
146
0.0
 13
0.0
 23
0.0
 33
0.0
 16
1.0
 26
0.0
 36
0.0
 17
0.0
 27
1.0
 37
0.0
 76
     0
330
1B
  0
LAYOUT
  5
26
102
{ACAD_REACTORS
330
1A
102
}
330
1A
100
AcDbPlotSettings
  1

  2
none_device
  4

  6

 40
0.0
 41
0.0
 42
0.0
 43
0.0
 44
0.0
 45
0.0
 46
0.0
 47
0.0
 48
0.0
 49
0.0
140
0.0
141
0.0
142
1.0
143
1.0
 70
   688
 72
     0
 73
     0
 74
     5
  7

 75
    16
 76
     0
 77
     2
 78
   300
147
1.0
148
0.0
149
0.0
100
AcDbLayout
  1
Layout2
 70
     1
 71
     2
 10
0.0
 20
0.0
 11
0.0
 21
0.0
 12
0.0
 22
0.0
 32
0.0
 14
0.0
 24
0.0
 34
0.0
 15
0.0
 25
0.0
 35
0.0
146
0.0
 13
0.0
 23
0.0
 33
0.0
 16
1.0
 26
0.0
 36
0.0
 17
0.0
 27
1.0
 37
0.0
 76
     0
330
23
  0
LAYOUT
  5
22
102
{ACAD_REACTORS
330
1A
102
}
330
1A
100
AcDbPlotSettings
  1

  2
none_device
  4

  6

 40
0.0
 41
0.0
 42
0.0
 43
0.0
 44
0.0
 45
0.0
 46
0.0
 47
0.0
 48
0.0
 49
0.0
140
0.0
141
0.0
142
1.0
143
1.0
 70
  1712
 72
     0
 73
     0
 74
     0
  7

 75
     0
 76
     0
 77
     2
 78
   300
147
1.0
148
0.0
149
0.0
100
AcDbLayout
  1
Model
 70
     1
 71
     0
 10
0.0
 20
0.0
 11
12.0
 21
9.0
 12
0.0
 22
0.0
 32
0.0
 14
1.000000000000000E+20
 24
1.000000000000000E+20
 34
1.000000000000000E+20
 15
-1.000000000000000E+20
 25
-1.000000000000000E+20
 35
-1.000000000000000E+20
146
0.0
 13
0.0
 23
0.0
 33
0.0
 16
1.0
 26
0.0
 36
0.0
 17
0.0
 27
1.0
 37
0.0
 76
     0
330
1F
331
29
  0
MATERIAL
  5
3D
102
{ACAD_REACTORS
330
3B
102
}
330
3B
100
AcDbMaterial
  1
ByBlock
 72
     1
 94
      127
  0
MATERIAL
  5
3C
102
{ACAD_REACTORS
330
3B
102
}
330
3B
100
AcDbMaterial
  1
ByLayer
 72
     1
 94
      127
  0
MATERIAL
  5
3E
102
{ACAD_REACTORS
330
3B
102
}
330
3B
100
AcDbMaterial
  1
Global
 72
     1
 94
      127
  0
MLINESTYLE
  5
18
102
{ACAD_REACTORS
330
17
102
}
330
17
100
AcDbMlineStyle
  2
Standard
 70
     0
  3

 62
   256
 51
90.0
 52
90.0
 71
     2
 49
0.5
 62
   256
  6
BYLAYER
 49
-0.5
 62
   256
  6
BYLAYER
  0
ACDBPLACEHOLDER
  5
F
102
{ACAD_REACTORS
330
E
102
}
330
E
  0
VISUALSTYLE
  5
2F
102
{ACAD_REACTORS
330
2A
102
}
330
2A
100
AcDbVisualStyle
  2
2dWireframe
 70
     4
177
     2
291
     0
 71
     0
176
     1
 72
     2
176
     1
 73
     0
176
     1
 90
        0
176
     1
 40
-0.6
176
     1
 41
-30.0
176
     1
 62
     5
 63
     7
421
 16777215
176
     1
 74
     1
176
     1
 91
        4
176
     1
 64
     7
176
     1
 65
   257
176
     1
 75
     1
176
     1
175
     1
176
     1
 42
1.0
176
     1
 92
        0
176
     1
 66
   257
176
     1
 43
1.0
176
     1
 76
     1
176
     1
 77
     6
176
     1
 78
     2
176
     1
 67
     7
176
     1
 79
     5
176
     1
170
     0
176
     1
171
     0
176
     1
290
     0
176
     1
 93
        1
176
     1
 44
0.0
176
     1
173
     0
176
     1
  0
VISUALSTYLE
  5
31
102
{ACAD_REACTORS
330
2A
102
}
330
2A
100
AcDbVisualStyle
  2
3D Hidden
 70
     6
177
     2
291
     0
 71
     1
176
     1
 72
     2
176
     1
 73
     2
176
     1
 90
        0
176
     1
 40
-0.6
176
     1
 41
-30.0
176
     1
 62
     5
 63
     7
421
 16777215
176
     1
 74
     2
176
     1
 91
        2
176
     1
 64
     7
176
     1
 65
   257
176
     1
 75
     2
176
     1
175
     1
176
     1
 42
40.0
176
     1
 92
        0
176
     1
 66
   257
176
     1
 43
1.0
176
     1
 76
     1
176
     1
 77
     6
176
     1
 78
     2
176
     1
 67
     7
176
     1
 79
     3
176
     1
170
     0
176
     1
171
     0
176
     1
290
     0
176
     1
 93
        1
176
     1
 44
0.0
176
     1
173
     0
176
     1
  0
VISUALSTYLE
  5
30
102
{ACAD_REACTORS
330
2A
102
}
330
2A
100
AcDbVisualStyle
  2
3dWireframe
 70
     5
177
     2
291
     0
 71
     0
176
     1
 72
     2
176
     1
 73
     0
176
     1
 90
        0
176
     1
 40
-0.6
176
     1
 41
-30.0
176
     1
 62
     5
 63
     7
421
 16777215
176
     1
 74
     1
176
     1
 91
        4
176
     1
 64
     7
176
     1
 65
   257
176
     1
 75
     1
176
     1
175
     1
176
     1
 42
1.0
176
     1
 92
        0
176
     1
 66
   257
176
     1
 43
1.0
176
     1
 76
     1
176
     1
 77
     6
176
     1
 78
     2
176
     1
 67
     7
176
     1
 79
     5
176
     1
170
     0
176
     1
171
     0
176
     1
290
     0
176
     1
 93
        1
176
     1
 44
0.0
176
     1
173
     0
176
     1
  0
VISUALSTYLE
  5
32
102
{ACAD_REACTORS
330
2A
102
}
330
2A
100
AcDbVisualStyle
  2
Basic
 70
     7
177
     2
291
     1
 71
     1
176
     1
 72
     0
176
     1
 73
     1
176
     1
 90
        0
176
     1
 40
-0.6
176
     1
 41
-30.0
176
     1
 62
     5
 63
     7
421
 16777215
176
     1
 74
     0
176
     1
 91
        4
176
     1
 64
     7
176
     1
 65
   257
176
     1
 75
     1
176
     1
175
     1
176
     1
 42
1.0
176
     1
 92
        8
176
     1
 66
     7
176
     1
 43
1.0
176
     1
 76
     1
176
     1
 77
     6
176
     1
 78
     2
176
     1
 67
     7
176
     1
 79
     5
176
     1
170
     0
176
     1
171
     0
176
     1
290
     0
176
     1
 93
        1
176
     1
 44
0.0
176
     1
173
     0
176
     1
  0
VISUALSTYLE
  5
36
102
{ACAD_REACTORS
330
2A
102
}
330
2A
100
AcDbVisualStyle
  2
Brighten
 70
    12
177
     2
291
     1
 71
     2
176
     1
 72
     2
176
     1
 73
     0
176
     1
 90
        0
176
     1
 40
-0.6
176
     1
 41
-30.0
176
     1
 62
     5
 63
     7
421
 16777215
176
     1
 74
     1
176
     1
 91
        4
176
     1
 64
     7
176
     1
 65
   257
176
     1
 75
     1
176
     1
175
     1
176
     1
 42
1.0
176
     1
 92
        8
176
     1
 66
     7
176
     1
 43
1.0
176
     1
 76
     1
176
     1
 77
     6
176
     1
 78
     2
176
     1
 67
     7
176
     1
 79
     5
176
     1
170
     0
176
     1
171
     0
176
     1
290
     0
176
     1
 93
        1
176
     1
 44
50.0
176
     1
173
     0
176
     1
  0
VISUALSTYLE
  5
3A
102
{ACAD_REACTORS
330
2A
102
}
330
2A
100
AcDbVisualStyle
  2
ColorChange
 70
    16
177
     2
291
     1
 71
     2
176
     1
 72
     2
176
     1
 73
     3
176
     1
 90
        0
176
     1
 40
-0.6
176
     1
 41
-30.0
176
     1
 62
     5
 63
     8
421
  8421504
176
     1
 74
     1
176
     1
 91
        4
176
     1
 64
     7
176
     1
 65
   257
176
     1
 75
     1
176
     1
175
     1
176
     1
 42
1.0
176
     1
 92
        8
176
     1
 66
     8
424
  8421504
176
     1
 43
1.0
176
     1
 76
     1
176
     1
 77
     6
176
     1
 78
     2
176
     1
 67
     7
176
     1
 79
     5
176
     1
170
     0
176
     1
171
     0
176
     1
290
     0
176
     1
 93
        1
176
     1
 44
0.0
176
     1
173
     0
176
     1
  0
VISUALSTYLE
  5
34
102
{ACAD_REACTORS
330
2A
102
}
330
2A
100
AcDbVisualStyle
  2
Conceptual
 70
     9
177
     2
291
     0
 71
     3
176
     1
 72
     2
176
     1
 73
     0
176
     1
 90
        0
176
     1
 40
-0.6
176
     1
 41
-30.0
176
     1
 62
     5
 63
     7
421
 16777215
176
     1
 74
     2
176
     1
 91
        2
176
     1
 64
     7
176
     1
 65
   257
176
     1
 75
     1
176
     1
175
     1
176
     1
 42
40.0
176
     1
 92
        8
176
     1
 66
     7
176
     1
 43
1.0
176
     1
 76
     1
176
     1
 77
     6
176
     1
 78
     2
176
     1
 67
     7
176
     1
 79
     3
176
     1
170
     0
176
     1
171
     0
176
     1
290
     0
176
     1
 93
        1
176
     1
 44
0.0
176
     1
173
     0
176
     1
  0
VISUALSTYLE
  5
35
102
{ACAD_REACTORS
330
2A
102
}
330
2A
100
AcDbVisualStyle
  2
Dim
 70
    11
177
     2
291
     1
 71
     2
176
     1
 72
     2
176
     1
 73
     0
176
     1
 90
        0
176
     1
 40
-0.6
176
     1
 41
-30.0
176
     1
 62
     5
 63
     7
421
 16777215
176
     1
 74
     1
176
     1
 91
        4
176
     1
 64
     7
176
     1
 65
   257
176
     1
 75
     1
176
     1
175
     1
176
     1
 42
1.0
176
     1
 92
        8
176
     1
 66
     7
176
     1
 43
1.0
176
     1
 76
     1
176
     1
 77
     6
176
     1
 78
     2
176
     1
 67
     7
176
     1
 79
     5
176
     1
170
     0
176
     1
171
     0
176
     1
290
     0
176
     1
 93
        1
176
     1
 44
-50.0
176
     1
173
     0
176
     1
  0
VISUALSTYLE
  5
39
102
{ACAD_REACTORS
330
2A
102
}
330
2A
100
AcDbVisualStyle
  2
Facepattern
 70
    15
177
     2
291
     1
 71
     2
176
     1
 72
     2
176
     1
 73
     0
176
     1
 90
        0
176
     1
 40
-0.6
176
     1
 41
-30.0
176
     1
 62
     5
 63
     7
421
 16777215
176
     1
 74
     1
176
     1
 91
        4
176
     1
 64
     7
176
     1
 65
   257
176
     1
 75
     1
176
     1
175
     1
176
     1
 42
1.0
176
     1
 92
        8
176
     1
 66
     7
176
     1
 43
1.0
176
     1
 76
     1
176
     1
 77
     6
176
     1
 78
     2
176
     1
 67
     7
176
     1
 79
     5
176
     1
170
     0
176
     1
171
     0
176
     1
290
     0
176
     1
 93
        1
176
     1
 44
0.0
176
     1
173
     0
176
     1
  0
VISUALSTYLE
  5
2B
102
{ACAD_REACTORS
330
2A
102
}
330
2A
100
AcDbVisualStyle
  2
Flat
 70
     0
177
     2
291
     1
 71
     2
176
     1
 72
     1
176
     1
 73
     1
176
     1
 90
        2
176
     1
 40
-0.6
176
     1
 41
30.0
176
     1
 62
     5
 63
     7
421
 16777215
176
     1
 74
     0
176
     1
 91
        4
176
     1
 64
     7
176
     1
 65
   257
176
     1
 75
     1
176
     1
175
     1
176
     1
 42
1.0
176
     1
 92
        8
176
     1
 66
     7
176
     1
 43
1.0
176
     1
 76
     1
176
     1
 77
     6
176
     1
 78
     2
176
     1
 67
     7
176
     1
 79
     5
176
     1
170
     0
176
     1
171
     0
176
     1
290
     0
176
     1
 93
       13
176
     1
 44
0.0
176
     1
173
     0
176
     1
  0
VISUALSTYLE
  5
2C
102
{ACAD_REACTORS
330
2A
102
}
330
2A
100
AcDbVisualStyle
  2
FlatWithEdges
 70
     1
177
     2
291
     1
 71
     2
176
     1
 72
     1
176
     1
 73
     1
176
     1
 90
        2
176
     1
 40
-0.6
176
     1
 41
30.0
176
     1
 62
     5
 63
     7
421
 16777215
176
     1
 74
     1
176
     1
 91
        4
176
     1
 64
     7
176
     1
 65
   257
176
     1
 75
     1
176
     1
175
     1
176
     1
 42
1.0
176
     1
 92
        0
176
     1
 66
   257
176
     1
 43
1.0
176
     1
 76
     1
176
     1
 77
     6
176
     1
 78
     2
176
     1
 67
     7
176
     1
 79
     5
176
     1
170
     0
176
     1
171
     0
176
     1
290
     0
176
     1
 93
       13
176
     1
 44
0.0
176
     1
173
     0
176
     1
  0
VISUALSTYLE
  5
2D
102
{ACAD_REACTORS
330
2A
102
}
330
2A
100
AcDbVisualStyle
  2
Gouraud
 70
     2
177
     2
291
     1
 71
     2
176
     1
 72
     2
176
     1
 73
     1
176
     1
 90
        2
176
     1
 40
-0.6
176
     1
 41
30.0
176
     1
 62
     5
 63
     7
421
 16777215
176
     1
 74
     0
176
     1
 91
        4
176
     1
 64
     7
176
     1
 65
   257
176
     1
 75
     1
176
     1
175
     1
176
     1
 42
1.0
176
     1
 92
        0
176
     1
 66
     7
176
     1
 43
1.0
176
     1
 76
     1
176
     1
 77
     6
176
     1
 78
     2
176
     1
 67
     7
176
     1
 79
     5
176
     1
170
     0
176
     1
171
     0
176
     1
290
     0
176
     1
 93
       13
176
     1
 44
0.0
176
     1
173
     0
176
     1
  0
VISUALSTYLE
  5
2E
102
{ACAD_REACTORS
330
2A
102
}
330
2A
100
AcDbVisualStyle
  2
GouraudWithEdges
 70
     3
177
     2
291
     1
 71
     2
176
     1
 72
     2
176
     1
 73
     1
176
     1
 90
        2
176
     1
 40
-0.6
176
     1
 41
30.0
176
     1
 62
     5
 63
     7
421
 16777215
176
     1
 74
     1
176
     1
 91
        4
176
     1
 64
     7
176
     1
 65
   257
176
     1
 75
     1
176
     1
175
     1
176
     1
 42
1.0
176
     1
 92
        0
176
     1
 66
   257
176
     1
 43
1.0
176
     1
 76
     1
176
     1
 77
     6
176
     1
 78
     2
176
     1
 67
     7
176
     1
 79
     5
176
     1
170
     0
176
     1
171
     0
176
     1
290
     0
176
     1
 93
       13
176
     1
 44
0.0
176
     1
173
     0
176
     1
  0
VISUALSTYLE
  5
38
102
{ACAD_REACTORS
330
2A
102
}
330
2A
100
AcDbVisualStyle
  2
Linepattern
 70
    14
177
     2
291
     1
 71
     2
176
     1
 72
     2
176
     1
 73
     0
176
     1
 90
        0
176
     1
 40
-0.6
176
     1
 41
-30.0
176
     1
 62
     5
 63
     7
421
 16777215
176
     1
 74
     1
176
     1
 91
        4
176
     1
 64
     7
176
     1
 65
   257
176
     1
 75
     7
176
     1
175
     7
176
     1
 42
1.0
176
     1
 92
        8
176
     1
 66
     7
176
     1
 43
1.0
176
     1
 76
     1
176
     1
 77
     6
176
     1
 78
     2
176
     1
 67
     7
176
     1
 79
     5
176
     1
170
     0
176
     1
171
     0
176
     1
290
     0
176
     1
 93
        1
176
     1
 44
0.0
176
     1
173
     0
176
     1
  0
VISUALSTYLE
  5
33
102
{ACAD_REACTORS
330
2A
102
}
330
2A
100
AcDbVisualStyle
  2
Realistic
 70
     8
177
     2
291
     0
 71
     2
176
     1
 72
     2
176
     1
 73
     0
176
     1
 90
        0
176
     1
 40
-0.6
176
     1
 41
-30.0
176
     1
 62
     5
 63
     7
421
 16777215
176
     1
 74
     1
176
     1
 91
        0
176
     1
 64
     7
176
     1
 65
   257
176
     1
 75
     1
176
     1
175
     1
176
     1
 42
1.0
176
     1
 92
        8
176
     1
 66
     8
424
  7895160
176
     1
 43
1.0
176
     1
 76
     1
176
     1
 77
     6
176
     1
 78
     2
176
     1
 67
     7
176
     1
 79
     5
176
     1
170
     0
176
     1
171
     0
176
     1
290
     0
176
     1
 93
       13
176
     1
 44
0.0
176
     1
173
     0
176
     1
  0
VISUALSTYLE
  5
37
102
{ACAD_REACTORS
330
2A
102
}
330
2A
100
AcDbVisualStyle
  2
Thicken
 70
    13
177
     2
291
     1
 71
     2
176
     1
 72
     2
176
     1
 73
     0
176
     1
 90
        0
176
     1
 40
-0.6
176
     1
 41
-30.0
176
     1
 62
     5
 63
     7
421
 16777215
176
     1
 74
     1
176
     1
 91
        4
176
     1
 64
     7
176
     1
 65
   257
176
     1
 75
     1
176
     1
175
     1
176
     1
 42
1.0
176
     1
 92
       12
176
     1
 66
     7
176
     1
 43
1.0
176
     1
 76
     1
176
     1
 77
     6
176
     1
 78
     2
176
     1
 67
     7
176
     1
 79
     5
176
     1
170
     0
176
     1
171
     0
176
     1
290
     0
176
     1
 93
        1
176
     1
 44
0.0
176
     1
173
     0
176
     1
  0
ENDSEC
  0
EOF
