  0
SECTION
  2
HEADER
  9
$ACADVER
  1
AC1024
  9
$ACADMAINTVER
 70
     6
  9
$DWGCODEPAGE
  3
UNDEFINED
  9
$INSBASE
 10
0.0
 20
0.0
 30
0.0
  9
$EXTMIN
 10
1.000000000000000E+20
 20
1.000000000000000E+20
 30
1.000000000000000E+20
  9
$EXTMAX
 10
-1.000000000000000E+20
 20
-1.000000000000000E+20
 30
-1.000000000000000E+20
  9
$LIMMIN
 10
0.0
 20
0.0
  9
$LIMMAX
 10
12.0
 20
9.0
  9
$ORTHOMODE
 70
     0
  9
$REGENMODE
 70
     1
  9
$FILLMODE
 70
     1
  9
$QTEXTMODE
 70
     0
  9
$MIRRTEXT
 70
     1
  9
$LTSCALE
 40
1.0
  9
$ATTMODE
 70
     1
  9
$TEXTSIZE
 40
0.2
  9
$TRACEWID
 40
0.05
  9
$TEXTSTYLE
  7
Standard
  9
$CLAYER
  8
0
  9
$CELTYPE
  6
ByLayer
  9
$CECOLOR
 62
   256
  9
$CELTSCALE
 40
1.0
  9
$DISPSILH
 70
     0
  9
$DIMSCALE
 40
1.0
  9
$DIMASZ
 40
0.18
  9
$DIMEXO
 40
0.0625
  9
$DIMDLI
 40
0.38
  9
$DIMRND
 40
0.0
  9
$DIMDLE
 40
0.0
  9
$DIMEXE
 40
0.18
  9
$DIMTP
 40
0.0
  9
$DIMTM
 40
0.0
  9
$DIMTXT
 40
0.18
  9
$DIMCEN
 40
0.09
  9
$DIMTSZ
 40
0.0
  9
$DIMTOL
 70
     0
  9
$DIMLIM
 70
     0
  9
$DIMTIH
 70
     1
  9
$DIMTOH
 70
     1
  9
$DIMSE1
 70
     0
  9
$DIMSE2
 70
     0
  9
$DIMTAD
 70
     0
  9
$DIMZIN
 70
     0
  9
$DIMBLK
  1

  9
$DIMASO
 70
     1
  9
$DIMSHO
 70
     1
  9
$DIMPOST
  1

  9
$DIMAPOST
  1

  9
$DIMALT
 70
     0
  9
$DIMALTD
 70
     2
  9
$DIMALTF
 40
25.4
  9
$DIMLFAC
 40
1.0
  9
$DIMTOFL
 70
     0
  9
$DIMTVP
 40
0.0
  9
$DIMTIX
 70
     0
  9
$DIMSOXD
 70
     0
  9
$DIMSAH
 70
     0
  9
$DIMBLK1
  1

  9
$DIMBLK2
  1

  9
$DIMSTYLE
  2
Standard
  9
$DIMCLRD
 70
     0
  9
$DIMCLRE
 70
     0
  9
$DIMCLRT
 70
     0
  9
$DIMTFAC
 40
1.0
  9
$DIMGAP
 40
0.09
  9
$DIMJUST
 70
     0
  9
$DIMSD1
 70
     0
  9
$DIMSD2
 70
     0
  9
$DIMTOLJ
 70
     1
  9
$DIMTZIN
 70
     0
  9
$DIMALTZ
 70
     0
  9
$DIMALTTZ
 70
     0
  9
$DIMUPT
 70
     0
  9
$DIMDEC
 70
     4
  9
$DIMTDEC
 70
     4
  9
$DIMALTU
 70
     2
  9
$DIMALTTD
 70
     2
  9
$DIMTXSTY
  7
Standard
  9
$DIMAUNIT
 70
     0
  9
$DIMADEC
 70
     0
  9
$DIMALTRND
 40
0.0
  9
$DIMAZIN
 70
     0
  9
$DIMDSEP
 70
    46
  9
$DIMATFIT
 70
     3
  9
$DIMFRAC
 70
     0
  9
$DIMLDRBLK
  1

  9
$DIMLUNIT
 70
     2
  9
$DIMLWD
 70
    -2
  9
$DIMLWE
 70
    -2
  9
$DIMTMOVE
 70
     0
  9
$DIMFXL
 40
1.0
  9
$DIMFXLON
 70
     0
  9
$DIMJOGANG
 40
0.7853981633974483
  9
$DIMTFILL
 70
     0
  9
$DIMTFILLCLR
 70
     0
  9
$DIMARCSYM
 70
     0
  9
$DIMLTYPE
  6

  9
$DIMLTEX1
  6

  9
$DIMLTEX2
  6

  9
$DIMTXTDIRECTION
 70
     0
  9
$LUNITS
 70
     2
  9
$LUPREC
 70
     4
  9
$SKETCHINC
 40
0.1
  9
$FILLETRAD
 40
0.5
  9
$AUNITS
 70
     0
  9
$AUPREC
 70
     0
  9
$MENU
  1
.
  9
$ELEVATION
 40
0.0
  9
$PELEVATION
 40
0.0
  9
$THICKNESS
 40
0.0
  9
$LIMCHECK
 70
     0
  9
$CHAMFERA
 40
0.5
  9
$CHAMFERB
 40
0.5
  9
$CHAMFERC
 40
1.0
  9
$CHAMFERD
 40
0.0
  9
$SKPOLY
 70
     0
  9
$TDCREATE
 40
2457917.589629618
  9
$TDUCREATE
 40
2457917.21462963
  9
$TDUPDATE
 40
2457917.589629618
  9
$TDUUPDATE
 40
2457917.21462963
  9
$TDINDWG
 40
0.0000000116
  9
$TDUSRTIMER
 40
0.0000000116
  9
$USRTIMER
 70
     1
  9
$ANGBASE
 50
0.0
  9
$ANGDIR
 70
     0
  9
$PDMODE
 70
     0
  9
$PDSIZE
 40
0.0
  9
$PLINEWID
 40
0.0
  9
$SPLFRAME
 70
     0
  9
$SPLINETYPE
 70
     6
  9
$SPLINESEGS
 70
     8
  9
$HANDSEED
  5
127
  9
$SURFTAB1
 70
     6
  9
$SURFTAB2
 70
     6
  9
$SURFTYPE
 70
     6
  9
$SURFU
 70
     6
  9
$SURFV
 70
     6
  9
$UCSBASE
  2

  9
$UCSNAME
  2

  9
$UCSORG
 10
0.0
 20
0.0
 30
0.0
  9
$UCSXDIR
 10
1.0
 20
0.0
 30
0.0
  9
$UCSYDIR
 10
0.0
 20
1.0
 30
0.0
  9
$UCSORTHOREF
  2

  9
$UCSORTHOVIEW
 70
     0
  9
$UCSORGTOP
 10
0.0
 20
0.0
 30
0.0
  9
$UCSORGBOTTOM
 10
0.0
 20
0.0
 30
0.0
  9
$UCSORGLEFT
 10
0.0
 20
0.0
 30
0.0
  9
$UCSORGRIGHT
 10
0.0
 20
0.0
 30
0.0
  9
$UCSORGFRONT
 10
0.0
 20
0.0
 30
0.0
  9
$UCSORGBACK
 10
0.0
 20
0.0
 30
0.0
  9
$PUCSBASE
  2

  9
$PUCSNAME
  2

  9
$PUCSORG
 10
0.0
 20
0.0
 30
0.0
  9
$PUCSXDIR
 10
1.0
 20
0.0
 30
0.0
  9
$PUCSYDIR
 10
0.0
 20
1.0
 30
0.0
  9
$PUCSORTHOREF
  2

  9
$PUCSORTHOVIEW
 70
     0
  9
$PUCSORGTOP
 10
0.0
 20
0.0
 30
0.0
  9
$PUCSORGBOTTOM
 10
0.0
 20
0.0
 30
0.0
  9
$PUCSORGLEFT
 10
0.0
 20
0.0
 30
0.0
  9
$PUCSORGRIGHT
 10
0.0
 20
0.0
 30
0.0
  9
$PUCSORGFRONT
 10
0.0
 20
0.0
 30
0.0
  9
$PUCSORGBACK
 10
0.0
 20
0.0
 30
0.0
  9
$USERI1
 70
     0
  9
$USERI2
 70
     0
  9
$USERI3
 70
     0
  9
$USERI4
 70
     0
  9
$USERI5
 70
     0
  9
$USERR1
 40
0.0
  9
$USERR2
 40
0.0
  9
$USERR3
 40
0.0
  9
$USERR4
 40
0.0
  9
$USERR5
 40
0.0
  9
$WORLDVIEW
 70
     1
  9
$SHADEDGE
 70
     3
  9
$SHADEDIF
 70
    70
  9
$TILEMODE
 70
     1
  9
$MAXACTVP
 70
    64
  9
$PINSBASE
 10
0.0
 20
0.0
 30
0.0
  9
$PLIMCHECK
 70
     0
  9
$PEXTMIN
 10
1.000000000000000E+20
 20
1.000000000000000E+20
 30
1.000000000000000E+20
  9
$PEXTMAX
 10
-1.000000000000000E+20
 20
-1.000000000000000E+20
 30
-1.000000000000000E+20
  9
$PLIMMIN
 10
0.0
 20
0.0
  9
$PLIMMAX
 10
12.0
 20
9.0
  9
$UNITMODE
 70
     0
  9
$VISRETAIN
 70
     1
  9
$PLINEGEN
 70
     0
  9
$PSLTSCALE
 70
     1
  9
$TREEDEPTH
 70
  3020
  9
$CMLSTYLE
  2
Standard
  9
$CMLJUST
 70
     0
  9
$CMLSCALE
 40
1.0
  9
$PROXYGRAPHICS
 70
     1
  9
$MEASUREMENT
 70
     0
  9
$CELWEIGHT
370
    -1
  9
$ENDCAPS
280
     0
  9
$JOINSTYLE
280
     0
  9
$LWDISPLAY
290
     1
  9
$INSUNITS
 70
     1
  9
$HYPERLINKBASE
  1

  9
$STYLESHEET
  1

  9
$XEDIT
290
     1
  9
$CEPSNTYPE
380
     0
  9
$PSTYLEMODE
290
     1
  9
$FINGERPRINTGUID
  2
{A372C6A0-755E-AC4E-3C9D-DA2E1CB13674}
  9
$VERSIONGUID
  2
{FAEB1C32-E019-11D5-929B-00C0DF256EC4}
  9
$EXTNAMES
290
     1
  9
$PSVPSCALE
 40
0.0
  9
$OLESTARTUP
290
     0
  9
$SORTENTS
280
   127
  9
$INDEXCTL
280
     0
  9
$HIDETEXT
280
     1
  9
$XCLIPFRAME
280
     2
  9
$HALOGAP
280
     0
  9
$OBSCOLOR
 70
   257
  9
$OBSLTYPE
280
     0
  9
$INTERSECTIONDISPLAY
280
     0
  9
$INTERSECTIONCOLOR
 70
   257
  9
$DIMASSOC
280
     2
  9
$PROJECTNAME
  1

  9
$CAMERADISPLAY
290
     0
  9
$LENSLENGTH
 40
50.0
  9
$CAMERAHEIGHT
 40
0.0
  9
$STEPSPERSEC
 40
2.0
  9
$STEPSIZE
 40
6.0
  9
$3DDWFPREC
 40
2.0
  9
$PSOLWIDTH
 40
0.25
  9
$PSOLHEIGHT
 40
4.0
  9
$LOFTANG1
 40
1.570796326794897
  9
$LOFTANG2
 40
1.570796326794897
  9
$LOFTMAG1
 40
0.0
  9
$LOFTMAG2
 40
0.0
  9
$LOFTPARAM
 70
     7
  9
$LOFTNORMALS
280
     1
  9
$LATITUDE
 40
37.795
  9
$LONGITUDE
 40
-122.394
  9
$NORTHDIRECTION
 40
0.0
  9
$TIMEZONE
 70
 -8000
  9
$LIGHTGLYPHDISPLAY
280
     1
  9
$TILEMODELIGHTSYNCH
280
     1
  9
$CMATERIAL
347
3C
  9
$SOLIDHIST
280
     1
  9
$SHOWHIST
280
     1
  9
$DWFFRAME
280
     2
  9
$DGNFRAME
280
     2
  9
$REALWORLDSCALE
290
     1
  9
$INTERFERECOLOR
 62
   256
  9
$CSHADOW
280
     0
  9
$SHADOWPLANELOCATION
 40
0.0
  0
ENDSEC
  0
SECTION
  2
CLASSES
  0
CLASS
  1
ACDBDICTIONARYWDFLT
  2
AcDbDictionaryWithDefault
  3
ObjectDBX Classes
 90
        0
 91
        4
280
     0
281
     0
  0
CLASS
  1
VISUALSTYLE
  2
AcDbVisualStyle
  3
ObjectDBX Classes
 90
     4095
 91
        4
280
     0
281
     0
  0
CLASS
  1
MATERIAL
  2
AcDbMaterial
  3
ObjectDBX Classes
 90
     1153
 91
        4
280
     0
281
     0
  0
CLASS
  1
SUN
  2
AcDbSun
  3
SCENEOE
 90
     1024
 91
        4
280
     0
281
     0
  0
ENDSEC
  0
SECTION
  2
TABLES
  0
TABLE
  2
VPORT
  5
8
330
0
100
AcDbSymbolTable
 70
     1
  0
VPORT
  5
29
330
8
100
AcDbSymbolTableRecord
100
AcDbViewportTableRecord
  2
*Active
 70
     0
 10
0.0
 20
0.0
 11
1.0
 21
1.0
 12
0.0
 22
0.0
 13
0.0
 23
0.0
 14
0.5
 24
0.5
 15
0.5
 25
0.5
 16
0.0
 26
0.0
 36
1.0
 17
91.00082462281999
 27
-128.4993055234307
 37
0.0
 40
256.9986110468615
 41
0.7081814508812795
 42
50.0
 43
0.0
 44
0.0
 50
0.0
 51
0.0
 71
     0
 72
   100
 73
     1
 74
     3
 75
     0
 76
     0
 77
     0
 78
     0
281
     0
 65
     1
110
0.0
120
0.0
130
0.0
111
1.0
121
0.0
131
0.0
112
0.0
122
1.0
132
0.0
 79
     0
146
0.0
 60
     3
 61
     5
292
     1
282
     1
141
0.0
142
0.0
 63
   250
361
3F
  0
ENDTAB
  0
TABLE
  2
LTYPE
  5
5
330
0
100
AcDbSymbolTable
 70
     2
  0
LTYPE
  5
14
330
5
100
AcDbSymbolTableRecord
100
AcDbLinetypeTableRecord
  2
ByBlock
 70
     0
  3

 72
    65
 73
     0
 40
0.0
  0
LTYPE
  5
15
330
5
100
AcDbSymbolTableRecord
100
AcDbLinetypeTableRecord
  2
ByLayer
 70
     0
  3

 72
    65
 73
     0
 40
0.0
  0
LTYPE
  5
16
330
5
100
AcDbSymbolTableRecord
100
AcDbLinetypeTableRecord
  2
Continuous
 70
     0
  3
Solid line
 72
    65
 73
     0
 40
0.0
  0
LTYPE
  5
EF
330
5
100
AcDbSymbolTableRecord
100
AcDbLinetypeTableRecord
  2
AI-Linetype-1
 70
     0
  3
Adobe Illustrator Linetype No. 1
 72
    65
 73
     2
 40
1.411111110758333
 49
0.7055555553791667
 74
     0
 49
-0.7055555553791667
 74
     0
  0
ENDTAB
  0
TABLE
  2
LAYER
  5
2
330
0
100
AcDbSymbolTable
 70
     2
  0
LAYER
  5
10
330
2
100
AcDbSymbolTableRecord
100
AcDbLayerTableRecord
  2
0
 70
     0
 62
     7
  6
Continuous
370
    -3
390
F
347
3E
  0
LAYER
  5
40
330
2
100
AcDbSymbolTableRecord
100
AcDbLayerTableRecord
  2
_U+30EC_U+30A4_U+30E4_U+30FC 1
 70
     0
 62
     7
  6
Continuous
370
    -3
390
F
347
3E
  0
ENDTAB
  0
TABLE
  2
STYLE
  5
3
330
0
100
AcDbSymbolTable
 70
     1
  0
STYLE
  5
11
330
3
100
AcDbSymbolTableRecord
100
AcDbTextStyleTableRecord
  2
Standard
 70
     0
 40
0.0
 41
1.0
 50
0.0
 71
     0
 42
0.2
  3
txt
  4

  0
ENDTAB
  0
TABLE
  2
VIEW
  5
6
330
0
100
AcDbSymbolTable
 70
     0
  0
ENDTAB
  0
TABLE
  2
UCS
  5
7
330
0
100
AcDbSymbolTable
 70
     0
  0
ENDTAB
  0
TABLE
  2
APPID
  5
9
330
0
100
AcDbSymbolTable
 70
     1
  0
APPID
  5
12
330
9
100
AcDbSymbolTableRecord
100
AcDbRegAppTableRecord
  2
ACAD
 70
     0
  0
ENDTAB
  0
TABLE
  2
DIMSTYLE
  5
A
330
0
100
AcDbSymbolTable
 70
     1
100
AcDbDimStyleTable
  0
DIMSTYLE
105
27
330
A
100
AcDbSymbolTableRecord
100
AcDbDimStyleTableRecord
  2
Standard
 70
     0
178
     0
340
11
  0
ENDTAB
  0
TABLE
  2
BLOCK_RECORD
  5
1
330
0
100
AcDbSymbolTable
 70
     7
  0
BLOCK_RECORD
  5
1F
330
1
100
AcDbSymbolTableRecord
100
AcDbBlockTableRecord
  2
*Model_Space
340
22
 70
     0
280
     1
281
     0
  0
BLOCK_RECORD
  5
1B
330
1
100
AcDbSymbolTableRecord
100
AcDbBlockTableRecord
  2
*Paper_Space
340
1E
 70
     0
280
     1
281
     0
  0
BLOCK_RECORD
  5
23
330
1
100
AcDbSymbolTableRecord
100
AcDbBlockTableRecord
  2
*Paper_Space0
340
26
 70
     0
280
     1
281
     0
  0
BLOCK_RECORD
  5
41
330
1
100
AcDbSymbolTableRecord
100
AcDbBlockTableRecord
  2
block 2
340
0
102
{BLKREFS
331
42
102
}
 70
     0
280
     1
281
     0
  0
BLOCK_RECORD
  5
54
330
1
100
AcDbSymbolTableRecord
100
AcDbBlockTableRecord
  2
block 3
340
0
102
{BLKREFS
331
55
102
}
 70
     0
280
     1
281
     0
  0
BLOCK_RECORD
  5
65
330
1
100
AcDbSymbolTableRecord
100
AcDbBlockTableRecord
  2
block 4
340
0
102
{BLKREFS
331
66
102
}
 70
     0
280
     1
281
     0
  0
BLOCK_RECORD
  5
6B
330
1
100
AcDbSymbolTableRecord
100
AcDbBlockTableRecord
  2
block 5
340
0
102
{BLKREFS
331
6C
102
}
 70
     0
280
     1
281
     0
  0
BLOCK_RECORD
  5
74
330
1
100
AcDbSymbolTableRecord
100
AcDbBlockTableRecord
  2
block 6
340
0
102
{BLKREFS
331
75
102
}
 70
     0
280
     1
281
     0
  0
BLOCK_RECORD
  5
FD
330
1
100
AcDbSymbolTableRecord
100
AcDbBlockTableRecord
  2
block 7
340
0
102
{BLKREFS
331
FE
102
}
 70
     0
280
     1
281
     0
  0
ENDTAB
  0
ENDSEC
  0
SECTION
  2
BLOCKS
  0
BLOCK
  5
20
330
1F
100
AcDbEntity
  8
0
100
AcDbBlockBegin
  2
*Model_Space
 70
     0
 10
0.0
 20
0.0
 30
0.0
  3
*Model_Space
  1

  0
ENDBLK
  5
21
330
1F
100
AcDbEntity
  8
0
100
AcDbBlockEnd
  0
BLOCK
  5
1C
330
1B
100
AcDbEntity
 67
     1
  8
0
100
AcDbBlockBegin
  2
*Paper_Space
 70
     0
 10
0.0
 20
0.0
 30
0.0
  3
*Paper_Space
  1

  0
ENDBLK
  5
1D
330
1B
100
AcDbEntity
 67
     1
  8
0
100
AcDbBlockEnd
  0
BLOCK
  5
24
330
23
100
AcDbEntity
  8
0
100
AcDbBlockBegin
  2
*Paper_Space0
 70
     0
 10
0.0
 20
0.0
 30
0.0
  3
*Paper_Space0
  1

  0
ENDBLK
  5
25
330
23
100
AcDbEntity
  8
0
100
AcDbBlockEnd
  0
BLOCK
  5
43
330
41
100
AcDbEntity
  8
0
100
AcDbBlockBegin
  2
block 2
 70
     0
 10
0.0
 20
0.0
 30
0.0
  3
block 2
  1

  0
SPLINE
  5
45
330
41
100
AcDbEntity
  8
_U+30EC_U+30A4_U+30E4_U+30FC 1
370
     0
100
AcDbSpline
210
0.0
220
0.0
230
1.0
 70
    11
 71
     3
 72
    29
 73
    25
 74
     0
 42
0.0000000001
 43
0.0000000001
 12
1.0
 22
0.0
 32
0.0
 13
1.0
 23
0.0
 33
0.0
 40
0.0
 40
0.0
 40
0.0
 40
0.0
 40
1.0
 40
1.0
 40
1.0
 40
2.0
 40
2.0
 40
2.0
 40
3.0
 40
3.0
 40
3.0
 40
4.0
 40
4.0
 40
4.0
 40
5.0
 40
5.0
 40
5.0
 40
6.0
 40
6.0
 40
6.0
 40
7.0
 40
7.0
 40
7.0
 40
8.0
 40
8.0
 40
8.0
 40
8.0
 10
113.4855793987119
 20
-123.0784477773901
 30
0.0
 10
113.6950412042151
 20
-123.193858476146
 30
0.0
 10
113.713989229384
 20
-123.3792046132524
 30
0.0
 10
113.713989229384
 20
-123.5035725602699
 30
0.0
 10
113.713989229384
 20
-123.6751383154354
 30
0.0
 10
113.6674804403331
 20
-123.8267225167864
 30
0.0
 10
113.4855793987119
 20
-123.9283528336013
 30
0.0
 10
113.2909315037953
 20
-124.0392849082263
 30
0.0
 10
113.0542534439587
 20
-124.0596109715893
 30
0.0
 10
112.8913004275064
 20
-124.0596109715893
 30
0.0
 10
112.7472954362229
 20
-124.0596109715893
 30
0.0
 10
112.4954589562511
 20
-124.0413519655174
 30
0.0
 10
112.2966769467522
 20
-123.9283528336013
 30
0.0
 10
112.093760822671
 20
-123.8132866443939
 30
0.0
 10
112.0703341733713
 20
-123.6413763796799
 30
0.0
 10
112.0703341733713
 20
-123.5035725602699
 30
0.0
 10
112.0703341733713
 20
-123.3337293528471
 30
0.0
 10
112.114775905131
 20
-123.180078094205
 30
0.0
 10
112.2966769467522
 20
-123.0784477773901
 30
0.0
 10
112.4892577843777
 20
-122.9719943268959
 30
0.0
 10
112.7176676150497
 20
-122.9471896394021
 30
0.0
 10
112.8913004275064
 20
-122.9471896394021
 30
0.0
 10
113.0625216731233
 20
-122.9471896394021
 30
0.0
 10
113.2929985610865
 20
-122.9699272696048
 30
0.0
 10
113.4855793987119
 20
-123.0784477773901
 30
0.0
  0
SPLINE
  5
46
330
41
100
AcDbEntity
  8
_U+30EC_U+30A4_U+30E4_U+30FC 1
370
     0
100
AcDbSpline
210
0.0
220
0.0
230
1.0
 70
    11
 71
     3
 72
    17
 73
    13
 74
     0
 42
0.0000000001
 43
0.0000000001
 12
1.0
 22
0.0
 32
0.0
 13
1.0
 23
0.0
 33
0.0
 40
0.0
 40
0.0
 40
0.0
 40
0.0
 40
1.0
 40
1.0
 40
1.0
 40
2.0
 40
2.0
 40
2.0
 40
3.0
 40
3.0
 40
3.0
 40
4.0
 40
4.0
 40
4.0
 40
4.0
 10
112.2629150109968
 20
-123.5035725602699
 30
0.0
 10
112.2629150109968
 20
-123.7702229508283
 30
0.0
 10
112.5464463694328
 20
-123.8198323258159
 30
0.0
 10
112.8913004275064
 20
-123.8198323258159
 30
0.0
 10
113.210660778989
 20
-123.8198323258159
 30
0.0
 10
113.5193413344674
 20
-123.7815917659296
 30
0.0
 10
113.5193413344674
 20
-123.5035725602699
 30
0.0
 10
113.5193413344674
 20
-123.2389892270028
 30
0.0
 10
113.238221542871
 20
-123.1869682851755
 30
0.0
 10
112.8913004275064
 20
-123.1869682851755
 30
0.0
 10
112.5715955664752
 20
-123.1869682851755
 30
0.0
 10
112.2629150109968
 20
-123.2276204119014
 30
0.0
 10
112.2629150109968
 20
-123.5035725602699
 30
0.0
  0
HATCH
  5
47
330
41
100
AcDbEntity
  8
_U+30EC_U+30A4_U+30E4_U+30FC 1
 62
   179
420
  2234388
100
AcDbHatch
 10
0.0
 20
0.0
 30
0.0
210
0.0
220
0.0
230
1.0
  2
SOLID
 70
     1
 71
     0
 91
        2
 92
        1
 93
        1
 72
     4
 94
        3
 73
     0
 74
     1
 95
       29
 96
       25
 40
0.0
 40
0.0
 40
0.0
 40
0.0
 40
1.0
 40
1.0
 40
1.0
 40
2.0
 40
2.0
 40
2.0
 40
3.0
 40
3.0
 40
3.0
 40
4.0
 40
4.0
 40
4.0
 40
5.0
 40
5.0
 40
5.0
 40
6.0
 40
6.0
 40
6.0
 40
7.0
 40
7.0
 40
7.0
 40
8.0
 40
8.0
 40
8.0
 40
8.0
 10
113.4855793987119
 20
-123.0784477773901
 10
113.6950412042151
 20
-123.193858476146
 10
113.713989229384
 20
-123.3792046132524
 10
113.713989229384
 20
-123.5035725602699
 10
113.713989229384
 20
-123.6751383154354
 10
113.6674804403331
 20
-123.8267225167864
 10
113.4855793987119
 20
-123.9283528336013
 10
113.2909315037953
 20
-124.0392849082263
 10
113.0542534439587
 20
-124.0596109715893
 10
112.8913004275064
 20
-124.0596109715893
 10
112.7472954362229
 20
-124.0596109715893
 10
112.4954589562511
 20
-124.0413519655174
 10
112.2966769467522
 20
-123.9283528336013
 10
112.093760822671
 20
-123.8132866443939
 10
112.0703341733713
 20
-123.6413763796799
 10
112.0703341733713
 20
-123.5035725602699
 10
112.0703341733713
 20
-123.3337293528471
 10
112.114775905131
 20
-123.180078094205
 10
112.2966769467522
 20
-123.0784477773901
 10
112.4892577843777
 20
-122.9719943268959
 10
112.7176676150497
 20
-122.9471896394021
 10
112.8913004275064
 20
-122.9471896394021
 10
113.0625216731233
 20
-122.9471896394021
 10
113.2929985610865
 20
-122.9699272696048
 10
113.4855793987119
 20
-123.0784477773901
 97
        0
 97
        0
 92
        1
 93
        1
 72
     4
 94
        3
 73
     0
 74
     1
 95
       17
 96
       13
 40
0.0
 40
0.0
 40
0.0
 40
0.0
 40
1.0
 40
1.0
 40
1.0
 40
2.0
 40
2.0
 40
2.0
 40
3.0
 40
3.0
 40
3.0
 40
4.0
 40
4.0
 40
4.0
 40
4.0
 10
112.2629150109968
 20
-123.5035725602699
 10
112.2629150109968
 20
-123.7702229508283
 10
112.5464463694328
 20
-123.8198323258159
 10
112.8913004275064
 20
-123.8198323258159
 10
113.210660778989
 20
-123.8198323258159
 10
113.5193413344674
 20
-123.7815917659296
 10
113.5193413344674
 20
-123.5035725602699
 10
113.5193413344674
 20
-123.2389892270028
 10
113.238221542871
 20
-123.1869682851755
 10
112.8913004275064
 20
-123.1869682851755
 10
112.5715955664752
 20
-123.1869682851755
 10
112.2629150109968
 20
-123.2276204119014
 10
112.2629150109968
 20
-123.5035725602699
 97
        0
 97
        0
 75
     2
 76
     1
 98
        0
  0
POLYLINE
  5
48
330
41
100
AcDbEntity
  8
_U+30EC_U+30A4_U+30E4_U+30FC 1
370
     0
100
AcDb2dPolyline
 66
     1
 10
0.0
 20
0.0
 30
0.0
  0
VERTEX
  5
49
330
48
100
AcDbEntity
  8
_U+30EC_U+30A4_U+30E4_U+30FC 1
370
     0
100
AcDbVertex
100
AcDb2dVertex
 10
113.6633463257508
 20
-122.7160237323418
 30
0.0
  0
VERTEX
  5
4A
330
48
100
AcDbEntity
  8
_U+30EC_U+30A4_U+30E4_U+30FC 1
370
     0
100
AcDbVertex
100
AcDb2dVertex
 10
113.4115098457791
 20
-122.7160237323418
 30
0.0
  0
VERTEX
  5
4B
330
48
100
AcDbEntity
  8
_U+30EC_U+30A4_U+30E4_U+30FC 1
370
     0
100
AcDbVertex
100
AcDb2dVertex
 10
113.4115098457791
 20
-122.4469617749438
 30
0.0
  0
VERTEX
  5
4C
330
48
100
AcDbEntity
  8
_U+30EC_U+30A4_U+30E4_U+30FC 1
370
     0
100
AcDbVertex
100
AcDb2dVertex
 10
113.6633463257508
 20
-122.4469617749438
 30
0.0
  0
VERTEX
  5
4D
330
48
100
AcDbEntity
  8
_U+30EC_U+30A4_U+30E4_U+30FC 1
370
     0
100
AcDbVertex
100
AcDb2dVertex
 10
113.6633463257508
 20
-122.7160237323418
 30
0.0
  0
SEQEND
  5
4E
330
48
100
AcDbEntity
  8
_U+30EC_U+30A4_U+30E4_U+30FC 1
370
     0
  0
HATCH
  5
4F
330
41
100
AcDbEntity
  8
_U+30EC_U+30A4_U+30E4_U+30FC 1
 62
   179
420
  2234388
100
AcDbHatch
 10
0.0
 20
0.0
 30
0.0
210
0.0
220
0.0
230
1.0
  2
SOLID
 70
     1
 71
     0
 91
        1
 92
        1
 93
        4
 72
     1
 10
113.6633463257508
 20
-122.7160237323418
 11
113.4115098457791
 21
-122.7160237323418
 72
     1
 10
113.4115098457791
 20
-122.7160237323418
 11
113.4115098457791
 21
-122.4469617749438
 72
     1
 10
113.4115098457791
 20
-122.4469617749438
 11
113.6633463257508
 21
-122.4469617749438
 72
     1
 10
113.6633463257508
 20
-122.4469617749438
 11
113.6633463257508
 21
-122.7160237323418
 97
        0
 75
     2
 76
     1
 98
        0
  0
SPLINE
  5
50
330
41
100
AcDbEntity
  8
_U+30EC_U+30A4_U+30E4_U+30FC 1
370
     0
100
AcDbSpline
210
0.0
220
0.0
230
1.0
 70
    11
 71
     3
 72
    29
 73
    25
 74
     0
 42
0.0000000001
 43
0.0000000001
 12
1.0
 22
0.0
 32
0.0
 13
1.0
 23
0.0
 33
0.0
 40
0.0
 40
0.0
 40
0.0
 40
0.0
 40
1.0
 40
1.0
 40
1.0
 40
2.0
 40
2.0
 40
2.0
 40
3.0
 40
3.0
 40
3.0
 40
4.0
 40
4.0
 40
4.0
 40
5.0
 40
5.0
 40
5.0
 40
6.0
 40
6.0
 40
6.0
 40
7.0
 40
7.0
 40
7.0
 40
8.0
 40
8.0
 40
8.0
 40
8.0
 10
113.713989229384
 20
-121.6597574565642
 30
0.0
 10
113.713989229384
 20
-121.9446668531944
 30
0.0
 10
113.5765299195225
 20
-122.2157958678836
 30
0.0
 10
113.2275417468667
 20
-122.2157958678836
 30
0.0
 10
112.9715711523127
 20
-122.2157958678836
 30
0.0
 10
112.8764865169198
 20
-122.0642116665326
 30
0.0
 10
112.8151638172823
 20
-121.9512125346164
 30
0.0
 10
112.755908174936
 20
-122.0845377298955
 30
0.0
 10
112.6415310048257
 20
-122.166186492896
 30
0.0
 10
112.4806450456646
 20
-122.166186492896
 30
0.0
 10
112.2057264259416
 20
-122.166186492896
 30
0.0
 10
112.0703341733713
 20
-121.953624101456
 30
0.0
 10
112.0703341733713
 20
-121.6597574565642
 30
0.0
 10
112.0703341733713
 20
-121.3565890538623
 30
0.0
 10
112.2143391646548
 20
-121.1533284202325
 30
0.0
 10
112.4806450456646
 20
-121.1533284202325
 30
0.0
 10
112.6415310048257
 20
-121.1533284202325
 30
0.0
 10
112.755908174936
 20
-121.2366997309756
 30
0.0
 10
112.8151638172823
 20
-121.3703694358032
 30
0.0
 10
112.8658067209155
 20
-121.2752848004103
 30
0.0
 10
112.9608913563084
 20
-121.1057861025361
 30
0.0
 10
113.2234076322844
 20
-121.1057861025361
 30
0.0
 10
113.5978895115311
 20
-121.1057861025361
 30
0.0
 10
113.713989229384
 20
-121.4041313715587
 30
0.0
 10
113.713989229384
 20
-121.6597574565642
 30
0.0
  0
SPLINE
  5
51
330
41
100
AcDbEntity
  8
_U+30EC_U+30A4_U+30E4_U+30FC 1
370
     0
100
AcDbSpline
210
0.0
220
0.0
230
1.0
 70
    11
 71
     3
 72
    17
 73
    13
 74
     0
 42
0.0000000001
 43
0.0000000001
 12
1.0
 22
0.0
 32
0.0
 13
1.0
 23
0.0
 33
0.0
 40
0.0
 40
0.0
 40
0.0
 40
0.0
 40
1.0
 40
1.0
 40
1.0
 40
2.0
 40
2.0
 40
2.0
 40
3.0
 40
3.0
 40
3.0
 40
4.0
 40
4.0
 40
4.0
 40
4.0
 10
112.2629150109968
 20
-121.6597574565642
 30
0.0
 10
112.2629150109968
 20
-121.8358018358605
 30
0.0
 10
112.3579996463897
 20
-121.9264078471226
 30
0.0
 10
112.49339189896
 20
-121.9264078471226
 30
0.0
 10
112.6160372982349
 20
-121.9264078471226
 30
0.0
 10
112.7345485829275
 20
-121.8495822178015
 30
0.0
 10
112.7345485829275
 20
-121.6597574565642
 30
0.0
 10
112.7345485829275
 20
-121.4695881857784
 30
0.0
 10
112.6160372982349
 20
-121.3927625564574
 30
0.0
 10
112.49339189896
 20
-121.3927625564574
 30
0.0
 10
112.3579996463897
 20
-121.3927625564574
 30
0.0
 10
112.2629150109968
 20
-121.4854356250106
 30
0.0
 10
112.2629150109968
 20
-121.6597574565642
 30
0.0
  0
SPLINE
  5
52
330
41
100
AcDbEntity
  8
_U+30EC_U+30A4_U+30E4_U+30FC 1
370
     0
100
AcDbSpline
210
0.0
220
0.0
230
1.0
 70
    11
 71
     3
 72
    17
 73
    13
 74
     0
 42
0.0000000001
 43
0.0000000001
 12
1.0
 22
0.0
 32
0.0
 13
1.0
 23
0.0
 33
0.0
 40
0.0
 40
0.0
 40
0.0
 40
0.0
 40
1.0
 40
1.0
 40
1.0
 40
2.0
 40
2.0
 40
2.0
 40
3.0
 40
3.0
 40
3.0
 40
4.0
 40
4.0
 40
4.0
 40
4.0
 10
112.9229953059706
 20
-121.6597574565642
 30
0.0
 10
112.9229953059706
 20
-121.8134087152064
 30
0.0
 10
113.0098117121989
 20
-121.9760172221102
 30
0.0
 10
113.2127278362802
 20
-121.9760172221102
 30
0.0
 10
113.418055527201
 20
-121.9760172221102
 30
0.0
 10
113.5193413344674
 20
-121.8406249695398
 30
0.0
 10
113.5193413344674
 20
-121.6597574565642
 30
0.0
 10
113.5193413344674
 20
-121.4606309375168
 30
0.0
 10
113.3966959351925
 20
-121.3431531814698
 30
0.0
 10
113.2189290081536
 20
-121.3431531814698
 30
0.0
 10
112.9970648589035
 20
-121.3431531814698
 30
0.0
 10
112.9229953059706
 20
-121.5171305034749
 30
0.0
 10
112.9229953059706
 20
-121.6597574565642
 30
0.0
  0
HATCH
  5
53
330
41
100
AcDbEntity
  8
_U+30EC_U+30A4_U+30E4_U+30FC 1
 62
   179
420
  2234388
100
AcDbHatch
 10
0.0
 20
0.0
 30
0.0
210
0.0
220
0.0
230
1.0
  2
SOLID
 70
     1
 71
     0
 91
        3
 92
        1
 93
        1
 72
     4
 94
        3
 73
     0
 74
     1
 95
       29
 96
       25
 40
0.0
 40
0.0
 40
0.0
 40
0.0
 40
1.0
 40
1.0
 40
1.0
 40
2.0
 40
2.0
 40
2.0
 40
3.0
 40
3.0
 40
3.0
 40
4.0
 40
4.0
 40
4.0
 40
5.0
 40
5.0
 40
5.0
 40
6.0
 40
6.0
 40
6.0
 40
7.0
 40
7.0
 40
7.0
 40
8.0
 40
8.0
 40
8.0
 40
8.0
 10
113.713989229384
 20
-121.6597574565642
 10
113.713989229384
 20
-121.9446668531944
 10
113.5765299195225
 20
-122.2157958678836
 10
113.2275417468667
 20
-122.2157958678836
 10
112.9715711523127
 20
-122.2157958678836
 10
112.8764865169198
 20
-122.0642116665326
 10
112.8151638172823
 20
-121.9512125346164
 10
112.755908174936
 20
-122.0845377298955
 10
112.6415310048257
 20
-122.166186492896
 10
112.4806450456646
 20
-122.166186492896
 10
112.2057264259416
 20
-122.166186492896
 10
112.0703341733713
 20
-121.953624101456
 10
112.0703341733713
 20
-121.6597574565642
 10
112.0703341733713
 20
-121.3565890538623
 10
112.2143391646548
 20
-121.1533284202325
 10
112.4806450456646
 20
-121.1533284202325
 10
112.6415310048257
 20
-121.1533284202325
 10
112.755908174936
 20
-121.2366997309756
 10
112.8151638172823
 20
-121.3703694358032
 10
112.8658067209155
 20
-121.2752848004103
 10
112.9608913563084
 20
-121.1057861025361
 10
113.2234076322844
 20
-121.1057861025361
 10
113.5978895115311
 20
-121.1057861025361
 10
113.713989229384
 20
-121.4041313715587
 10
113.713989229384
 20
-121.6597574565642
 97
        0
 97
        0
 92
        1
 93
        1
 72
     4
 94
        3
 73
     0
 74
     1
 95
       17
 96
       13
 40
0.0
 40
0.0
 40
0.0
 40
0.0
 40
1.0
 40
1.0
 40
1.0
 40
2.0
 40
2.0
 40
2.0
 40
3.0
 40
3.0
 40
3.0
 40
4.0
 40
4.0
 40
4.0
 40
4.0
 10
112.2629150109968
 20
-121.6597574565642
 10
112.2629150109968
 20
-121.8358018358605
 10
112.3579996463897
 20
-121.9264078471226
 10
112.49339189896
 20
-121.9264078471226
 10
112.6160372982349
 20
-121.9264078471226
 10
112.7345485829275
 20
-121.8495822178015
 10
112.7345485829275
 20
-121.6597574565642
 10
112.7345485829275
 20
-121.4695881857784
 10
112.6160372982349
 20
-121.3927625564574
 10
112.49339189896
 20
-121.3927625564574
 10
112.3579996463897
 20
-121.3927625564574
 10
112.2629150109968
 20
-121.4854356250106
 10
112.2629150109968
 20
-121.6597574565642
 97
        0
 97
        0
 92
        1
 93
        1
 72
     4
 94
        3
 73
     0
 74
     1
 95
       17
 96
       13
 40
0.0
 40
0.0
 40
0.0
 40
0.0
 40
1.0
 40
1.0
 40
1.0
 40
2.0
 40
2.0
 40
2.0
 40
3.0
 40
3.0
 40
3.0
 40
4.0
 40
4.0
 40
4.0
 40
4.0
 10
112.9229953059706
 20
-121.6597574565642
 10
112.9229953059706
 20
-121.8134087152064
 10
113.0098117121989
 20
-121.9760172221102
 10
113.2127278362802
 20
-121.9760172221102
 10
113.418055527201
 20
-121.9760172221102
 10
113.5193413344674
 20
-121.8406249695398
 10
113.5193413344674
 20
-121.6597574565642
 10
113.5193413344674
 20
-121.4606309375168
 10
113.3966959351925
 20
-121.3431531814698
 10
113.2189290081536
 20
-121.3431531814698
 10
112.9970648589035
 20
-121.3431531814698
 10
112.9229953059706
 20
-121.5171305034749
 10
112.9229953059706
 20
-121.6597574565642
 97
        0
 97
        0
 75
     2
 76
     1
 98
        0
  0
ENDBLK
  5
44
330
41
100
AcDbEntity
  8
0
100
AcDbBlockEnd
  0
BLOCK
  5
56
330
54
100
AcDbEntity
  8
0
100
AcDbBlockBegin
  2
block 3
 70
     0
 10
0.0
 20
0.0
 30
0.0
  3
block 3
  1

  0
SPLINE
  5
58
330
54
100
AcDbEntity
  8
_U+30EC_U+30A4_U+30E4_U+30FC 1
370
     0
100
AcDbSpline
210
0.0
220
0.0
230
1.0
 70
    11
 71
     3
 72
    32
 73
    28
 74
     0
 42
0.0000000001
 43
0.0000000001
 12
1.0
 22
0.0
 32
0.0
 13
1.0
 23
0.0
 33
0.0
 40
0.0
 40
0.0
 40
0.0
 40
0.0
 40
1.0
 40
1.0
 40
1.0
 40
2.0
 40
2.0
 40
2.0
 40
3.0
 40
3.0
 40
3.0
 40
4.0
 40
4.0
 40
4.0
 40
5.0
 40
5.0
 40
5.0
 40
6.0
 40
6.0
 40
6.0
 40
7.0
 40
7.0
 40
7.0
 40
8.0
 40
8.0
 40
8.0
 40
9.0
 40
9.0
 40
9.0
 40
9.0
 10
113.596511473337
 20
-130.1818901584268
 30
0.0
 10
113.596511473337
 20
-130.7337944551638
 30
0.0
 10
113.0425401193088
 20
-130.7427517034254
 30
0.0
 10
112.8285996896748
 20
-130.7427517034254
 30
0.0
 10
112.5981228017116
 20
-130.7427517034254
 30
0.0
 10
111.9507893600331
 20
-130.7224256400625
 30
0.0
 10
111.9507893600331
 20
-130.1412380317008
 30
0.0
 10
111.9507893600331
 20
-129.9558918945944
 30
0.0
 10
112.0207247983837
 20
-129.6937201281669
 30
0.0
 10
112.3528320031618
 20
-129.6530680014409
 30
0.0
 10
112.3528320031618
 20
-129.6530680014409
 30
0.0
 10
112.3528320031618
 20
-129.881477832113
 30
0.0
 10
112.3528320031618
 20
-129.881477832113
 30
0.0
 10
112.2956434181066
 20
-129.8925021376658
 30
0.0
 10
112.1475043122409
 20
-129.9266085829697
 30
0.0
 10
112.1475043122409
 20
-130.1436495985405
 30
0.0
 10
112.1475043122409
 20
-130.4557752495041
 30
0.0
 10
112.4754774024367
 20
-130.4984944335212
 30
0.0
 10
112.6804605838091
 20
-130.5122748154622
 30
0.0
 10
112.6022569162939
 20
-130.4127115559385
 30
0.0
 10
112.5430012739476
 20
-130.3403645507483
 30
0.0
 10
112.5430012739476
 20
-130.1460611653802
 30
0.0
 10
112.5430012739476
 20
-129.9538248373032
 30
0.0
 10
112.6511772721844
 20
-129.6303303712382
 30
0.0
 10
113.0573540298954
 20
-129.6303303712382
 30
0.0
 10
113.3767143813781
 20
-129.6303303712382
 30
0.0
 10
113.596511473337
 20
-129.8428927626782
 30
0.0
 10
113.596511473337
 20
-130.1818901584268
 30
0.0
  0
SPLINE
  5
59
330
54
100
AcDbEntity
  8
_U+30EC_U+30A4_U+30E4_U+30FC 1
370
     0
100
AcDbSpline
210
0.0
220
0.0
230
1.0
 70
    11
 71
     3
 72
    17
 73
    13
 74
     0
 42
0.0000000001
 43
0.0000000001
 12
1.0
 22
0.0
 32
0.0
 13
1.0
 23
0.0
 33
0.0
 40
0.0
 40
0.0
 40
0.0
 40
0.0
 40
1.0
 40
1.0
 40
1.0
 40
2.0
 40
2.0
 40
2.0
 40
3.0
 40
3.0
 40
3.0
 40
4.0
 40
4.0
 40
4.0
 40
4.0
 10
112.7376491688642
 20
-130.1639756619035
 30
0.0
 10
112.7376491688642
 20
-130.4444064344028
 30
0.0
 10
112.9491780316585
 20
-130.4850585611287
 30
0.0
 10
113.06562225906
 20
-130.4850585611287
 30
0.0
 10
113.2413221288077
 20
-130.4850585611287
 30
0.0
 10
113.40427514526
 20
-130.3834282443139
 30
0.0
 10
113.40427514526
 20
-130.1867132921061
 30
0.0
 10
113.40427514526
 20
-130.0578667209577
 30
0.0
 10
113.3450195029137
 20
-129.8701090170117
 30
0.0
 10
113.0594210871865
 20
-129.8701090170117
 30
0.0
 10
112.8351453710968
 20
-129.8701090170117
 30
0.0
 10
112.7376491688642
 20
-130.019281651523
 30
0.0
 10
112.7376491688642
 20
-130.1639756619035
 30
0.0
  0
HATCH
  5
5A
330
54
100
AcDbEntity
  8
_U+30EC_U+30A4_U+30E4_U+30FC 1
 62
   179
420
  2234388
100
AcDbHatch
 10
0.0
 20
0.0
 30
0.0
210
0.0
220
0.0
230
1.0
  2
SOLID
 70
     1
 71
     0
 91
        2
 92
        1
 93
        1
 72
     4
 94
        3
 73
     0
 74
     1
 95
       32
 96
       28
 40
0.0
 40
0.0
 40
0.0
 40
0.0
 40
1.0
 40
1.0
 40
1.0
 40
2.0
 40
2.0
 40
2.0
 40
3.0
 40
3.0
 40
3.0
 40
4.0
 40
4.0
 40
4.0
 40
5.0
 40
5.0
 40
5.0
 40
6.0
 40
6.0
 40
6.0
 40
7.0
 40
7.0
 40
7.0
 40
8.0
 40
8.0
 40
8.0
 40
9.0
 40
9.0
 40
9.0
 40
9.0
 10
113.596511473337
 20
-130.1818901584268
 10
113.596511473337
 20
-130.7337944551638
 10
113.0425401193088
 20
-130.7427517034254
 10
112.8285996896748
 20
-130.7427517034254
 10
112.5981228017116
 20
-130.7427517034254
 10
111.9507893600331
 20
-130.7224256400625
 10
111.9507893600331
 20
-130.1412380317008
 10
111.9507893600331
 20
-129.9558918945944
 10
112.0207247983837
 20
-129.6937201281669
 10
112.3528320031618
 20
-129.6530680014409
 10
112.3528320031618
 20
-129.6530680014409
 10
112.3528320031618
 20
-129.881477832113
 10
112.3528320031618
 20
-129.881477832113
 10
112.2956434181066
 20
-129.8925021376658
 10
112.1475043122409
 20
-129.9266085829697
 10
112.1475043122409
 20
-130.1436495985405
 10
112.1475043122409
 20
-130.4557752495041
 10
112.4754774024367
 20
-130.4984944335212
 10
112.6804605838091
 20
-130.5122748154622
 10
112.6022569162939
 20
-130.4127115559385
 10
112.5430012739476
 20
-130.3403645507483
 10
112.5430012739476
 20
-130.1460611653802
 10
112.5430012739476
 20
-129.9538248373032
 10
112.6511772721844
 20
-129.6303303712382
 10
113.0573540298954
 20
-129.6303303712382
 10
113.3767143813781
 20
-129.6303303712382
 10
113.596511473337
 20
-129.8428927626782
 10
113.596511473337
 20
-130.1818901584268
 97
        0
 97
        0
 92
        1
 93
        1
 72
     4
 94
        3
 73
     0
 74
     1
 95
       17
 96
       13
 40
0.0
 40
0.0
 40
0.0
 40
0.0
 40
1.0
 40
1.0
 40
1.0
 40
2.0
 40
2.0
 40
2.0
 40
3.0
 40
3.0
 40
3.0
 40
4.0
 40
4.0
 40
4.0
 40
4.0
 10
112.7376491688642
 20
-130.1639756619035
 10
112.7376491688642
 20
-130.4444064344028
 10
112.9491780316585
 20
-130.4850585611287
 10
113.06562225906
 20
-130.4850585611287
 10
113.2413221288077
 20
-130.4850585611287
 10
113.40427514526
 20
-130.3834282443139
 10
113.40427514526
 20
-130.1867132921061
 10
113.40427514526
 20
-130.0578667209577
 10
113.3450195029137
 20
-129.8701090170117
 10
113.0594210871865
 20
-129.8701090170117
 10
112.8351453710968
 20
-129.8701090170117
 10
112.7376491688642
 20
-130.019281651523
 10
112.7376491688642
 20
-130.1639756619035
 97
        0
 97
        0
 75
     2
 76
     1
 98
        0
  0
POLYLINE
  5
5B
330
54
100
AcDbEntity
  8
_U+30EC_U+30A4_U+30E4_U+30FC 1
370
     0
100
AcDb2dPolyline
 66
     1
 10
0.0
 20
0.0
 30
0.0
  0
VERTEX
  5
5C
330
5B
100
AcDbEntity
  8
_U+30EC_U+30A4_U+30E4_U+30FC 1
370
     0
100
AcDbVertex
100
AcDb2dVertex
 10
113.5458685697038
 20
-129.399164464178
 30
0.0
  0
VERTEX
  5
5D
330
5B
100
AcDbEntity
  8
_U+30EC_U+30A4_U+30E4_U+30FC 1
370
     0
100
AcDbVertex
100
AcDb2dVertex
 10
113.2940320897321
 20
-129.399164464178
 30
0.0
  0
VERTEX
  5
5E
330
5B
100
AcDbEntity
  8
_U+30EC_U+30A4_U+30E4_U+30FC 1
370
     0
100
AcDbVertex
100
AcDb2dVertex
 10
113.2940320897321
 20
-129.13010250678
 30
0.0
  0
VERTEX
  5
5F
330
5B
100
AcDbEntity
  8
_U+30EC_U+30A4_U+30E4_U+30FC 1
370
     0
100
AcDbVertex
100
AcDb2dVertex
 10
113.5458685697038
 20
-129.13010250678
 30
0.0
  0
VERTEX
  5
60
330
5B
100
AcDbEntity
  8
_U+30EC_U+30A4_U+30E4_U+30FC 1
370
     0
100
AcDbVertex
100
AcDb2dVertex
 10
113.5458685697038
 20
-129.399164464178
 30
0.0
  0
SEQEND
  5
61
330
5B
100
AcDbEntity
  8
_U+30EC_U+30A4_U+30E4_U+30FC 1
370
     0
  0
HATCH
  5
62
330
54
100
AcDbEntity
  8
_U+30EC_U+30A4_U+30E4_U+30FC 1
 62
   179
420
  2234388
100
AcDbHatch
 10
0.0
 20
0.0
 30
0.0
210
0.0
220
0.0
230
1.0
  2
SOLID
 70
     1
 71
     0
 91
        1
 92
        1
 93
        4
 72
     1
 10
113.5458685697038
 20
-129.399164464178
 11
113.2940320897321
 21
-129.399164464178
 72
     1
 10
113.2940320897321
 20
-129.399164464178
 11
113.2940320897321
 21
-129.13010250678
 72
     1
 10
113.2940320897321
 20
-129.13010250678
 11
113.5458685697038
 21
-129.13010250678
 72
     1
 10
113.5458685697038
 20
-129.13010250678
 11
113.5458685697038
 21
-129.399164464178
 97
        0
 75
     2
 76
     1
 98
        0
  0
SPLINE
  5
63
330
54
100
AcDbEntity
  8
_U+30EC_U+30A4_U+30E4_U+30FC 1
370
     0
100
AcDbSpline
210
0.0
220
0.0
230
1.0
 70
    11
 71
     3
 72
    53
 73
    49
 74
     0
 42
0.0000000001
 43
0.0000000001
 12
1.0
 22
0.0
 32
0.0
 13
1.0
 23
0.0
 33
0.0
 40
0.0
 40
0.0
 40
0.0
 40
0.0
 40
1.0
 40
1.0
 40
1.0
 40
2.0
 40
2.0
 40
2.0
 40
3.0
 40
3.0
 40
3.0
 40
4.0
 40
4.0
 40
4.0
 40
5.0
 40
5.0
 40
5.0
 40
6.0
 40
6.0
 40
6.0
 40
7.0
 40
7.0
 40
7.0
 40
8.0
 40
8.0
 40
8.0
 40
9.0
 40
9.0
 40
9.0
 40
10.0
 40
10.0
 40
10.0
 40
11.0
 40
11.0
 40
11.0
 40
12.0
 40
12.0
 40
12.0
 40
13.0
 40
13.0
 40
13.0
 40
14.0
 40
14.0
 40
14.0
 40
15.0
 40
15.0
 40
15.0
 40
16.0
 40
16.0
 40
16.0
 40
16.0
 10
113.596511473337
 20
-128.3632242517634
 30
0.0
 10
113.596511473337
 20
-128.4469400720549
 30
0.0
 10
113.5796305054593
 20
-128.5551160702918
 30
0.0
 10
113.5162407485307
 20
-128.6639810876257
 30
0.0
 10
113.4063422025512
 20
-128.8493272247321
 30
0.0
 10
113.2750840645632
 20
-128.8717203453863
 30
0.0
 10
113.1672525758749
 20
-128.8920464087492
 30
0.0
 10
113.1672525758749
 20
-128.8920464087492
 30
0.0
 10
113.1672525758749
 20
-128.6546793298155
 30
0.0
 10
113.1672525758749
 20
-128.6546793298155
 30
0.0
 10
113.3660345853738
 20
-128.5961127065663
 30
0.0
 10
113.3956624065469
 20
-128.4603759444474
 30
0.0
 10
113.3956624065469
 20
-128.3608126849237
 30
0.0
 10
113.3956624065469
 20
-128.2116400504124
 30
0.0
 10
113.2960991470232
 20
-128.0486870339601
 30
0.0
 10
113.0635552017688
 20
-128.0486870339601
 30
0.0
 10
112.8075846072148
 20
-128.0486870339601
 30
0.0
 10
112.7376491688642
 20
-128.240923362037
 30
0.0
 10
112.7376491688642
 20
-128.3697699331854
 30
0.0
 10
112.7376491688642
 20
-128.4038763784893
 30
0.0
 10
112.7376491688642
 20
-128.5551160702918
 30
0.0
 10
112.8668402495611
 20
-128.6502007056847
 30
0.0
 10
112.8668402495611
 20
-128.6502007056847
 30
0.0
 10
112.8478922243922
 20
-128.8379584096308
 30
0.0
 10
112.8478922243922
 20
-128.8379584096308
 30
0.0
 10
112.8478922243922
 20
-128.8379584096308
 30
0.0
 10
112.0014322636663
 20
-128.7091118384824
 30
0.0
 10
112.0014322636663
 20
-128.7091118384824
 30
0.0
 10
112.0014322636663
 20
-128.7091118384824
 30
0.0
 10
112.0014322636663
 20
-127.8771212787946
 30
0.0
 10
112.0014322636663
 20
-127.8771212787946
 30
0.0
 10
112.0014322636663
 20
-127.8771212787946
 30
0.0
 10
112.1960801585829
 20
-127.8771212787946
 30
0.0
 10
112.1960801585829
 20
-127.8771212787946
 30
0.0
 10
112.1960801585829
 20
-127.8771212787946
 30
0.0
 10
112.1960801585829
 20
-128.5347900069288
 30
0.0
 10
112.1960801585829
 20
-128.5347900069288
 30
0.0
 10
112.1960801585829
 20
-128.5347900069288
 30
0.0
 10
112.6191378841716
 20
-128.6050699548279
 30
0.0
 10
112.6191378841716
 20
-128.6050699548279
 30
0.0
 10
112.5853759484162
 20
-128.5396131406082
 30
0.0
 10
112.5450683312387
 20
-128.4514186961858
 30
0.0
 10
112.5450683312387
 20
-128.3246391823286
 30
0.0
 10
112.5450683312387
 20
-128.0535101676394
 30
0.0
 10
112.7314479969908
 20
-127.8002956494735
 30
0.0
 10
113.0446071766
 20
-127.8002956494735
 30
0.0
 10
113.3619004707915
 20
-127.8002956494735
 30
0.0
 10
113.596511473337
 20
-128.0397297856984
 30
0.0
 10
113.596511473337
 20
-128.3632242517634
 30
0.0
  0
HATCH
  5
64
330
54
100
AcDbEntity
  8
_U+30EC_U+30A4_U+30E4_U+30FC 1
 62
   179
420
  2234388
100
AcDbHatch
 10
0.0
 20
0.0
 30
0.0
210
0.0
220
0.0
230
1.0
  2
SOLID
 70
     1
 71
     0
 91
        1
 92
        1
 93
        1
 72
     4
 94
        3
 73
     0
 74
     1
 95
       53
 96
       49
 40
0.0
 40
0.0
 40
0.0
 40
0.0
 40
1.0
 40
1.0
 40
1.0
 40
2.0
 40
2.0
 40
2.0
 40
3.0
 40
3.0
 40
3.0
 40
4.0
 40
4.0
 40
4.0
 40
5.0
 40
5.0
 40
5.0
 40
6.0
 40
6.0
 40
6.0
 40
7.0
 40
7.0
 40
7.0
 40
8.0
 40
8.0
 40
8.0
 40
9.0
 40
9.0
 40
9.0
 40
10.0
 40
10.0
 40
10.0
 40
11.0
 40
11.0
 40
11.0
 40
12.0
 40
12.0
 40
12.0
 40
13.0
 40
13.0
 40
13.0
 40
14.0
 40
14.0
 40
14.0
 40
15.0
 40
15.0
 40
15.0
 40
16.0
 40
16.0
 40
16.0
 40
16.0
 10
113.596511473337
 20
-128.3632242517634
 10
113.596511473337
 20
-128.4469400720549
 10
113.5796305054593
 20
-128.5551160702918
 10
113.5162407485307
 20
-128.6639810876257
 10
113.4063422025512
 20
-128.8493272247321
 10
113.2750840645632
 20
-128.8717203453863
 10
113.1672525758749
 20
-128.8920464087492
 10
113.1672525758749
 20
-128.8920464087492
 10
113.1672525758749
 20
-128.6546793298155
 10
113.1672525758749
 20
-128.6546793298155
 10
113.3660345853738
 20
-128.5961127065663
 10
113.3956624065469
 20
-128.4603759444474
 10
113.3956624065469
 20
-128.3608126849237
 10
113.3956624065469
 20
-128.2116400504124
 10
113.2960991470232
 20
-128.0486870339601
 10
113.0635552017688
 20
-128.0486870339601
 10
112.8075846072148
 20
-128.0486870339601
 10
112.7376491688642
 20
-128.240923362037
 10
112.7376491688642
 20
-128.3697699331854
 10
112.7376491688642
 20
-128.4038763784893
 10
112.7376491688642
 20
-128.5551160702918
 10
112.8668402495611
 20
-128.6502007056847
 10
112.8668402495611
 20
-128.6502007056847
 10
112.8478922243922
 20
-128.8379584096308
 10
112.8478922243922
 20
-128.8379584096308
 10
112.8478922243922
 20
-128.8379584096308
 10
112.0014322636663
 20
-128.7091118384824
 10
112.0014322636663
 20
-128.7091118384824
 10
112.0014322636663
 20
-128.7091118384824
 10
112.0014322636663
 20
-127.8771212787946
 10
112.0014322636663
 20
-127.8771212787946
 10
112.0014322636663
 20
-127.8771212787946
 10
112.1960801585829
 20
-127.8771212787946
 10
112.1960801585829
 20
-127.8771212787946
 10
112.1960801585829
 20
-127.8771212787946
 10
112.1960801585829
 20
-128.5347900069288
 10
112.1960801585829
 20
-128.5347900069288
 10
112.1960801585829
 20
-128.5347900069288
 10
112.6191378841716
 20
-128.6050699548279
 10
112.6191378841716
 20
-128.6050699548279
 10
112.5853759484162
 20
-128.5396131406082
 10
112.5450683312387
 20
-128.4514186961858
 10
112.5450683312387
 20
-128.3246391823286
 10
112.5450683312387
 20
-128.0535101676394
 10
112.7314479969908
 20
-127.8002956494735
 10
113.0446071766
 20
-127.8002956494735
 10
113.3619004707915
 20
-127.8002956494735
 10
113.596511473337
 20
-128.0397297856984
 10
113.596511473337
 20
-128.3632242517634
 97
        0
 97
        0
 75
     2
 76
     1
 98
        0
  0
ENDBLK
  5
57
330
54
100
AcDbEntity
  8
0
100
AcDbBlockEnd
  0
BLOCK
  5
67
330
65
100
AcDbEntity
  8
0
100
AcDbBlockBegin
  2
block 4
 70
     0
 10
0.0
 20
0.0
 30
0.0
  3
block 4
  1

  0
SPLINE
  5
69
330
65
100
AcDbEntity
  8
_U+30EC_U+30A4_U+30E4_U+30FC 1
370
     0
100
AcDbSpline
210
0.0
220
0.0
230
1.0
 70
    11
 71
     3
 72
    62
 73
    58
 74
     0
 42
0.0000000001
 43
0.0000000001
 12
1.0
 22
0.0
 32
0.0
 13
1.0
 23
0.0
 33
0.0
 40
0.0
 40
0.0
 40
0.0
 40
0.0
 40
1.0
 40
1.0
 40
1.0
 40
2.0
 40
2.0
 40
2.0
 40
3.0
 40
3.0
 40
3.0
 40
4.0
 40
4.0
 40
4.0
 40
5.0
 40
5.0
 40
5.0
 40
6.0
 40
6.0
 40
6.0
 40
7.0
 40
7.0
 40
7.0
 40
8.0
 40
8.0
 40
8.0
 40
9.0
 40
9.0
 40
9.0
 40
10.0
 40
10.0
 40
10.0
 40
11.0
 40
11.0
 40
11.0
 40
12.0
 40
12.0
 40
12.0
 40
13.0
 40
13.0
 40
13.0
 40
14.0
 40
14.0
 40
14.0
 40
15.0
 40
15.0
 40
15.0
 40
16.0
 40
16.0
 40
16.0
 40
17.0
 40
17.0
 40
17.0
 40
18.0
 40
18.0
 40
18.0
 40
19.0
 40
19.0
 40
19.0
 40
19.0
 10
113.713989229384
 20
-133.8915689769438
 30
0.0
 10
113.713989229384
 20
-133.9931992937587
 30
0.0
 10
113.692974146924
 20
-134.2260877485616
 30
0.0
 10
113.5069389907205
 20
-134.3594129438407
 30
0.0
 10
113.3946288779014
 20
-134.4386501400014
 30
0.0
 10
113.2954101279261
 20
-134.4431287641323
 30
0.0
 10
113.210660778989
 20
-134.4476073882631
 30
0.0
 10
113.210660778989
 20
-134.4476073882631
 30
0.0
 10
113.210660778989
 20
-134.2126518761691
 30
0.0
 10
113.210660778989
 20
-134.2126518761691
 30
0.0
 10
113.2847303319219
 20
-134.2102403093294
 30
0.0
 10
113.5193413344674
 20
-134.1988714942281
 30
0.0
 10
113.5193413344674
 20
-133.8960476010746
 30
0.0
 10
113.5193413344674
 20
-133.7489420238544
 30
0.0
 10
113.4497504056653
 20
-133.5863335169506
 30
0.0
 10
113.2213405749933
 20
-133.5863335169506
 30
0.0
 10
113.1048963475918
 20
-133.5863335169506
 30
0.0
 10
113.0563205012498
 20
-133.6269856436766
 30
0.0
 10
113.0246256227855
 20
-133.660747579432
 30
0.0
 10
112.9505560698526
 20
-133.7399847755928
 30
0.0
 10
112.9378092165572
 20
-133.8643527226103
 30
0.0
 10
112.9378092165572
 20
-133.9232638554081
 30
0.0
 10
112.9378092165572
 20
-133.943589918771
 30
0.0
 10
112.9398762738484
 20
-133.9818304786573
 30
0.0
 10
112.9440103884307
 20
-134.0114582998305
 30
0.0
 10
112.9440103884307
 20
-134.0114582998305
 30
0.0
 10
112.7493624935141
 20
-134.0114582998305
 30
0.0
 10
112.7493624935141
 20
-134.0114582998305
 30
0.0
 10
112.755908174936
 20
-133.9708061731045
 30
0.0
 10
112.7579752322272
 20
-133.9253309126992
 30
0.0
 10
112.7579752322272
 20
-133.9187852312772
 30
0.0
 10
112.7579752322272
 20
-133.8485052833782
 30
0.0
 10
112.7366156402186
 20
-133.6359428919382
 30
0.0
 10
112.499937580382
 20
-133.6359428919382
 30
0.0
 10
112.3221706533431
 20
-133.6359428919382
 30
0.0
 10
112.2670491255791
 20
-133.7761582781879
 30
0.0
 10
112.2670491255791
 20
-133.8936360342349
 30
0.0
 10
112.2670491255791
 20
-134.1764783735739
 30
0.0
 10
112.499937580382
 20
-134.1854356218356
 30
0.0
 10
112.5715955664752
 20
-134.1899142459664
 30
0.0
 10
112.5715955664752
 20
-134.1899142459664
 30
0.0
 10
112.5715955664752
 20
-134.4069552615371
 30
0.0
 10
112.5715955664752
 20
-134.4069552615371
 30
0.0
 10
112.4468831099091
 20
-134.3979980132755
 30
0.0
 10
112.0703341733713
 20
-134.3687147016509
 30
0.0
 10
112.0703341733713
 20
-133.8802001618425
 30
0.0
 10
112.0703341733713
 20
-133.6404215160691
 30
0.0
 10
112.197458196777
 20
-133.3827283737724
 30
0.0
 10
112.49339189896
 20
-133.3827283737724
 30
0.0
 10
112.679771564712
 20
-133.3827283737724
 30
0.0
 10
112.7621093468095
 20
-133.4847032001358
 30
0.0
 10
112.8234320464469
 20
-133.5908121410815
 30
0.0
 10
112.8509928103289
 20
-133.5253553268617
 30
0.0
 10
112.9312635351352
 20
-133.3307074319451
 30
0.0
 10
113.2085937216979
 20
-133.3307074319451
 30
0.0
 10
113.5469020983494
 20
-133.3307074319451
 30
0.0
 10
113.713989229384
 20
-133.5952907652123
 30
0.0
 10
113.713989229384
 20
-133.8915689769438
 30
0.0
  0
HATCH
  5
6A
330
65
100
AcDbEntity
  8
_U+30EC_U+30A4_U+30E4_U+30FC 1
 62
   179
420
  2234388
100
AcDbHatch
 10
0.0
 20
0.0
 30
0.0
210
0.0
220
0.0
230
1.0
  2
SOLID
 70
     1
 71
     0
 91
        1
 92
        1
 93
        1
 72
     4
 94
        3
 73
     0
 74
     1
 95
       62
 96
       58
 40
0.0
 40
0.0
 40
0.0
 40
0.0
 40
1.0
 40
1.0
 40
1.0
 40
2.0
 40
2.0
 40
2.0
 40
3.0
 40
3.0
 40
3.0
 40
4.0
 40
4.0
 40
4.0
 40
5.0
 40
5.0
 40
5.0
 40
6.0
 40
6.0
 40
6.0
 40
7.0
 40
7.0
 40
7.0
 40
8.0
 40
8.0
 40
8.0
 40
9.0
 40
9.0
 40
9.0
 40
10.0
 40
10.0
 40
10.0
 40
11.0
 40
11.0
 40
11.0
 40
12.0
 40
12.0
 40
12.0
 40
13.0
 40
13.0
 40
13.0
 40
14.0
 40
14.0
 40
14.0
 40
15.0
 40
15.0
 40
15.0
 40
16.0
 40
16.0
 40
16.0
 40
17.0
 40
17.0
 40
17.0
 40
18.0
 40
18.0
 40
18.0
 40
19.0
 40
19.0
 40
19.0
 40
19.0
 10
113.713989229384
 20
-133.8915689769438
 10
113.713989229384
 20
-133.9931992937587
 10
113.692974146924
 20
-134.2260877485616
 10
113.5069389907205
 20
-134.3594129438407
 10
113.3946288779014
 20
-134.4386501400014
 10
113.2954101279261
 20
-134.4431287641323
 10
113.210660778989
 20
-134.4476073882631
 10
113.210660778989
 20
-134.4476073882631
 10
113.210660778989
 20
-134.2126518761691
 10
113.210660778989
 20
-134.2126518761691
 10
113.2847303319219
 20
-134.2102403093294
 10
113.5193413344674
 20
-134.1988714942281
 10
113.5193413344674
 20
-133.8960476010746
 10
113.5193413344674
 20
-133.7489420238544
 10
113.4497504056653
 20
-133.5863335169506
 10
113.2213405749933
 20
-133.5863335169506
 10
113.1048963475918
 20
-133.5863335169506
 10
113.0563205012498
 20
-133.6269856436766
 10
113.0246256227855
 20
-133.660747579432
 10
112.9505560698526
 20
-133.7399847755928
 10
112.9378092165572
 20
-133.8643527226103
 10
112.9378092165572
 20
-133.9232638554081
 10
112.9378092165572
 20
-133.943589918771
 10
112.9398762738484
 20
-133.9818304786573
 10
112.9440103884307
 20
-134.0114582998305
 10
112.9440103884307
 20
-134.0114582998305
 10
112.7493624935141
 20
-134.0114582998305
 10
112.7493624935141
 20
-134.0114582998305
 10
112.755908174936
 20
-133.9708061731045
 10
112.7579752322272
 20
-133.9253309126992
 10
112.7579752322272
 20
-133.9187852312772
 10
112.7579752322272
 20
-133.8485052833782
 10
112.7366156402186
 20
-133.6359428919382
 10
112.499937580382
 20
-133.6359428919382
 10
112.3221706533431
 20
-133.6359428919382
 10
112.2670491255791
 20
-133.7761582781879
 10
112.2670491255791
 20
-133.8936360342349
 10
112.2670491255791
 20
-134.1764783735739
 10
112.499937580382
 20
-134.1854356218356
 10
112.5715955664752
 20
-134.1899142459664
 10
112.5715955664752
 20
-134.1899142459664
 10
112.5715955664752
 20
-134.4069552615371
 10
112.5715955664752
 20
-134.4069552615371
 10
112.4468831099091
 20
-134.3979980132755
 10
112.0703341733713
 20
-134.3687147016509
 10
112.0703341733713
 20
-133.8802001618425
 10
112.0703341733713
 20
-133.6404215160691
 10
112.197458196777
 20
-133.3827283737724
 10
112.49339189896
 20
-133.3827283737724
 10
112.679771564712
 20
-133.3827283737724
 10
112.7621093468095
 20
-133.4847032001358
 10
112.8234320464469
 20
-133.5908121410815
 10
112.8509928103289
 20
-133.5253553268617
 10
112.9312635351352
 20
-133.3307074319451
 10
113.2085937216979
 20
-133.3307074319451
 10
113.5469020983494
 20
-133.3307074319451
 10
113.713989229384
 20
-133.5952907652123
 10
113.713989229384
 20
-133.8915689769438
 97
        0
 97
        0
 75
     2
 76
     1
 98
        0
  0
ENDBLK
  5
68
330
65
100
AcDbEntity
  8
0
100
AcDbBlockEnd
  0
BLOCK
  5
6D
330
6B
100
AcDbEntity
  8
0
100
AcDbBlockBegin
  2
block 5
 70
     0
 10
0.0
 20
0.0
 30
0.0
  3
block 5
  1

  0
SPLINE
  5
6F
330
6B
100
AcDbEntity
  8
_U+30EC_U+30A4_U+30E4_U+30FC 1
370
     0
100
AcDbSpline
210
0.0
220
0.0
230
1.0
 70
    11
 71
     3
 72
    26
 73
    22
 74
     0
 42
0.0000000001
 43
0.0000000001
 12
1.0
 22
0.0
 32
0.0
 13
1.0
 23
0.0
 33
0.0
 40
0.0
 40
0.0
 40
0.0
 40
0.0
 40
1.0
 40
1.0
 40
1.0
 40
2.0
 40
2.0
 40
2.0
 40
3.0
 40
3.0
 40
3.0
 40
4.0
 40
4.0
 40
4.0
 40
5.0
 40
5.0
 40
5.0
 40
6.0
 40
6.0
 40
6.0
 40
7.0
 40
7.0
 40
7.0
 40
7.0
 10
91.86347111418691
 20
-138.031884731117
 30
0.0
 10
91.86347111418691
 20
-138.031884731117
 30
0.0
 10
91.86347111418691
 20
-136.9277316280944
 30
0.0
 10
91.86347111418691
 20
-136.9277316280944
 30
0.0
 10
91.86347111418691
 20
-136.9277316280944
 30
0.0
 10
91.51069333649733
 20
-136.9277316280944
 30
0.0
 10
91.51069333649733
 20
-136.9277316280944
 30
0.0
 10
91.51069333649733
 20
-136.9277316280944
 30
0.0
 10
91.51069333649733
 20
-136.7795925222287
 30
0.0
 10
91.51069333649733
 20
-136.7795925222287
 30
0.0
 10
91.86553817147806
 20
-136.7647786116422
 30
0.0
 10
91.91549205601419
 20
-136.6018255951898
 30
0.0
 10
91.94684242492995
 20
-136.4874484250795
 30
0.0
 10
91.94684242492995
 20
-136.4874484250795
 30
0.0
 10
92.10290525041178
 20
-136.4874484250795
 30
0.0
 10
92.10290525041178
 20
-136.4874484250795
 30
0.0
 10
92.10290525041178
 20
-136.4874484250795
 30
0.0
 10
92.10290525041178
 20
-138.031884731117
 30
0.0
 10
92.10290525041178
 20
-138.031884731117
 30
0.0
 10
92.10290525041178
 20
-138.031884731117
 30
0.0
 10
91.86347111418691
 20
-138.031884731117
 30
0.0
 10
91.86347111418691
 20
-138.031884731117
 30
0.0
  0
HATCH
  5
70
330
6B
100
AcDbEntity
  8
_U+30EC_U+30A4_U+30E4_U+30FC 1
 62
   179
420
  2234388
100
AcDbHatch
 10
0.0
 20
0.0
 30
0.0
210
0.0
220
0.0
230
1.0
  2
SOLID
 70
     1
 71
     0
 91
        1
 92
        1
 93
        1
 72
     4
 94
        3
 73
     0
 74
     1
 95
       26
 96
       22
 40
0.0
 40
0.0
 40
0.0
 40
0.0
 40
1.0
 40
1.0
 40
1.0
 40
2.0
 40
2.0
 40
2.0
 40
3.0
 40
3.0
 40
3.0
 40
4.0
 40
4.0
 40
4.0
 40
5.0
 40
5.0
 40
5.0
 40
6.0
 40
6.0
 40
6.0
 40
7.0
 40
7.0
 40
7.0
 40
7.0
 10
91.86347111418691
 20
-138.031884731117
 10
91.86347111418691
 20
-138.031884731117
 10
91.86347111418691
 20
-136.9277316280944
 10
91.86347111418691
 20
-136.9277316280944
 10
91.86347111418691
 20
-136.9277316280944
 10
91.51069333649733
 20
-136.9277316280944
 10
91.51069333649733
 20
-136.9277316280944
 10
91.51069333649733
 20
-136.9277316280944
 10
91.51069333649733
 20
-136.7795925222287
 10
91.51069333649733
 20
-136.7795925222287
 10
91.86553817147806
 20
-136.7647786116422
 10
91.91549205601419
 20
-136.6018255951898
 10
91.94684242492995
 20
-136.4874484250795
 10
91.94684242492995
 20
-136.4874484250795
 10
92.10290525041178
 20
-136.4874484250795
 10
92.10290525041178
 20
-136.4874484250795
 10
92.10290525041178
 20
-136.4874484250795
 10
92.10290525041178
 20
-138.031884731117
 10
92.10290525041178
 20
-138.031884731117
 10
92.10290525041178
 20
-138.031884731117
 10
91.86347111418691
 20
-138.031884731117
 10
91.86347111418691
 20
-138.031884731117
 97
        0
 97
        0
 75
     2
 76
     1
 98
        0
  0
SPLINE
  5
71
330
6B
100
AcDbEntity
  8
_U+30EC_U+30A4_U+30E4_U+30FC 1
370
     0
100
AcDbSpline
210
0.0
220
0.0
230
1.0
 70
    11
 71
     3
 72
    29
 73
    25
 74
     0
 42
0.0000000001
 43
0.0000000001
 12
1.0
 22
0.0
 32
0.0
 13
1.0
 23
0.0
 33
0.0
 40
0.0
 40
0.0
 40
0.0
 40
0.0
 40
1.0
 40
1.0
 40
1.0
 40
2.0
 40
2.0
 40
2.0
 40
3.0
 40
3.0
 40
3.0
 40
4.0
 40
4.0
 40
4.0
 40
5.0
 40
5.0
 40
5.0
 40
6.0
 40
6.0
 40
6.0
 40
7.0
 40
7.0
 40
7.0
 40
8.0
 40
8.0
 40
8.0
 40
8.0
 10
93.5980766910102
 20
-137.8541178040782
 30
0.0
 10
93.48301050180287
 20
-138.0635796095813
 30
0.0
 10
93.29766436469642
 20
-138.0825276347502
 30
0.0
 10
93.1732964176789
 20
-138.0825276347502
 30
0.0
 10
93.00138615296494
 20
-138.0825276347502
 30
0.0
 10
92.84980195161394
 20
-138.0360188456993
 30
0.0
 10
92.74817163479908
 20
-137.8541178040782
 30
0.0
 10
92.63723956017402
 20
-137.6594699091615
 30
0.0
 10
92.61691349681105
 20
-137.4224473397763
 30
0.0
 10
92.61691349681105
 20
-137.2598388328726
 30
0.0
 10
92.61691349681105
 20
-137.1158338415891
 30
0.0
 10
92.63517250288288
 20
-136.8639973616174
 30
0.0
 10
92.74817163479908
 20
-136.6652153521184
 30
0.0
 10
92.86358233355494
 20
-136.4622992280372
 30
0.0
 10
93.03514808872039
 20
-136.4388725787375
 30
0.0
 10
93.1732964176789
 20
-136.4388725787375
 30
0.0
 10
93.3427951155532
 20
-136.4388725787375
 30
0.0
 10
93.49644637419534
 20
-136.4833143104972
 30
0.0
 10
93.5980766910102
 20
-136.6652153521184
 30
0.0
 10
93.70453014150442
 20
-136.8577961897439
 30
0.0
 10
93.72933482899822
 20
-137.0862060204159
 30
0.0
 10
93.72933482899822
 20
-137.2598388328726
 30
0.0
 10
93.72933482899822
 20
-137.4310600784895
 30
0.0
 10
93.70659719879558
 20
-137.6615369664527
 30
0.0
 10
93.5980766910102
 20
-137.8541178040782
 30
0.0
  0
SPLINE
  5
72
330
6B
100
AcDbEntity
  8
_U+30EC_U+30A4_U+30E4_U+30FC 1
370
     0
100
AcDbSpline
210
0.0
220
0.0
230
1.0
 70
    11
 71
     3
 72
    17
 73
    13
 74
     0
 42
0.0000000001
 43
0.0000000001
 12
1.0
 22
0.0
 32
0.0
 13
1.0
 23
0.0
 33
0.0
 40
0.0
 40
0.0
 40
0.0
 40
0.0
 40
1.0
 40
1.0
 40
1.0
 40
2.0
 40
2.0
 40
2.0
 40
3.0
 40
3.0
 40
3.0
 40
4.0
 40
4.0
 40
4.0
 40
4.0
 10
93.1732964176789
 20
-136.631453416363
 30
0.0
 10
92.90630151757205
 20
-136.631453416363
 30
0.0
 10
92.85669214258444
 20
-136.9149847747991
 30
0.0
 10
92.85669214258444
 20
-137.2598388328726
 30
0.0
 10
92.85669214258444
 20
-137.5791991843552
 30
0.0
 10
92.89493270247071
 20
-137.8878797398336
 30
0.0
 10
93.1732964176789
 20
-137.8878797398336
 30
0.0
 10
93.43753524139757
 20
-137.8878797398336
 30
0.0
 10
93.48955618322483
 20
-137.6067599482372
 30
0.0
 10
93.48955618322483
 20
-137.2598388328726
 30
0.0
 10
93.48955618322483
 20
-136.9401339718414
 30
0.0
 10
93.44890405649889
 20
-136.631453416363
 30
0.0
 10
93.1732964176789
 20
-136.631453416363
 30
0.0
  0
HATCH
  5
73
330
6B
100
AcDbEntity
  8
_U+30EC_U+30A4_U+30E4_U+30FC 1
 62
   179
420
  2234388
100
AcDbHatch
 10
0.0
 20
0.0
 30
0.0
210
0.0
220
0.0
230
1.0
  2
SOLID
 70
     1
 71
     0
 91
        2
 92
        1
 93
        1
 72
     4
 94
        3
 73
     0
 74
     1
 95
       29
 96
       25
 40
0.0
 40
0.0
 40
0.0
 40
0.0
 40
1.0
 40
1.0
 40
1.0
 40
2.0
 40
2.0
 40
2.0
 40
3.0
 40
3.0
 40
3.0
 40
4.0
 40
4.0
 40
4.0
 40
5.0
 40
5.0
 40
5.0
 40
6.0
 40
6.0
 40
6.0
 40
7.0
 40
7.0
 40
7.0
 40
8.0
 40
8.0
 40
8.0
 40
8.0
 10
93.5980766910102
 20
-137.8541178040782
 10
93.48301050180287
 20
-138.0635796095813
 10
93.29766436469642
 20
-138.0825276347502
 10
93.1732964176789
 20
-138.0825276347502
 10
93.00138615296494
 20
-138.0825276347502
 10
92.84980195161394
 20
-138.0360188456993
 10
92.74817163479908
 20
-137.8541178040782
 10
92.63723956017402
 20
-137.6594699091615
 10
92.61691349681105
 20
-137.4224473397763
 10
92.61691349681105
 20
-137.2598388328726
 10
92.61691349681105
 20
-137.1158338415891
 10
92.63517250288288
 20
-136.8639973616174
 10
92.74817163479908
 20
-136.6652153521184
 10
92.86358233355494
 20
-136.4622992280372
 10
93.03514808872039
 20
-136.4388725787375
 10
93.1732964176789
 20
-136.4388725787375
 10
93.3427951155532
 20
-136.4388725787375
 10
93.49644637419534
 20
-136.4833143104972
 10
93.5980766910102
 20
-136.6652153521184
 10
93.70453014150442
 20
-136.8577961897439
 10
93.72933482899822
 20
-137.0862060204159
 10
93.72933482899822
 20
-137.2598388328726
 10
93.72933482899822
 20
-137.4310600784895
 10
93.70659719879558
 20
-137.6615369664527
 10
93.5980766910102
 20
-137.8541178040782
 97
        0
 97
        0
 92
        1
 93
        1
 72
     4
 94
        3
 73
     0
 74
     1
 95
       17
 96
       13
 40
0.0
 40
0.0
 40
0.0
 40
0.0
 40
1.0
 40
1.0
 40
1.0
 40
2.0
 40
2.0
 40
2.0
 40
3.0
 40
3.0
 40
3.0
 40
4.0
 40
4.0
 40
4.0
 40
4.0
 10
93.1732964176789
 20
-136.631453416363
 10
92.90630151757205
 20
-136.631453416363
 10
92.85669214258444
 20
-136.9149847747991
 10
92.85669214258444
 20
-137.2598388328726
 10
92.85669214258444
 20
-137.5791991843552
 10
92.89493270247071
 20
-137.8878797398336
 10
93.1732964176789
 20
-137.8878797398336
 10
93.43753524139757
 20
-137.8878797398336
 10
93.48955618322483
 20
-137.6067599482372
 10
93.48955618322483
 20
-137.2598388328726
 10
93.48955618322483
 20
-136.9401339718414
 10
93.44890405649889
 20
-136.631453416363
 10
93.1732964176789
 20
-136.631453416363
 97
        0
 97
        0
 75
     2
 76
     1
 98
        0
  0
ENDBLK
  5
6E
330
6B
100
AcDbEntity
  8
0
100
AcDbBlockEnd
  0
BLOCK
  5
76
330
74
100
AcDbEntity
  8
0
100
AcDbBlockBegin
  2
block 6
 70
     0
 10
0.0
 20
0.0
 30
0.0
  3
block 6
  1

  0
SPLINE
  5
78
330
74
100
AcDbEntity
  8
_U+30EC_U+30A4_U+30E4_U+30FC 1
370
     0
100
AcDbSpline
210
0.0
220
0.0
230
1.0
 70
    11
 71
     3
 72
    44
 73
    40
 74
     0
 42
0.0000000001
 43
0.0000000001
 12
1.0
 22
0.0
 32
0.0
 13
1.0
 23
0.0
 33
0.0
 40
0.0
 40
0.0
 40
0.0
 40
0.0
 40
1.0
 40
1.0
 40
1.0
 40
2.0
 40
2.0
 40
2.0
 40
3.0
 40
3.0
 40
3.0
 40
4.0
 40
4.0
 40
4.0
 40
5.0
 40
5.0
 40
5.0
 40
6.0
 40
6.0
 40
6.0
 40
7.0
 40
7.0
 40
7.0
 40
8.0
 40
8.0
 40
8.0
 40
9.0
 40
9.0
 40
9.0
 40
10.0
 40
10.0
 40
10.0
 40
11.0
 40
11.0
 40
11.0
 40
12.0
 40
12.0
 40
12.0
 40
13.0
 40
13.0
 40
13.0
 40
13.0
 10
98.98482799174685
 20
-119.6483384575011
 30
0.0
 10
98.75193953694396
 20
-119.8069851045969
 30
0.0
 10
98.65237627742025
 20
-119.8810546575297
 30
0.0
 10
98.60035533559297
 20
-120.0248873940389
 30
0.0
 10
98.60035533559297
 20
-120.0248873940389
 30
0.0
 10
99.43269040482933
 20
-120.0248873940389
 30
0.0
 10
99.43269040482933
 20
-120.0248873940389
 30
0.0
 10
99.43269040482933
 20
-120.0248873940389
 30
0.0
 10
99.43269040482933
 20
-120.2300428301856
 30
0.0
 10
99.43269040482933
 20
-120.2300428301856
 30
0.0
 10
99.43269040482933
 20
-120.2300428301856
 30
0.0
 10
98.33370494503464
 20
-120.2300428301856
 30
0.0
 10
98.33370494503464
 20
-120.2300428301856
 30
0.0
 10
98.3678113903386
 20
-119.8724419188166
 30
0.0
 10
98.43774682868919
 20
-119.7942382513015
 30
0.0
 10
98.84909122962802
 20
-119.4958929822788
 30
0.0
 10
99.12263181115685
 20
-119.2971109727799
 30
0.0
 10
99.19291175905595
 20
-119.2294148464947
 30
0.0
 10
99.19291175905595
 20
-119.0919555366333
 30
0.0
 10
99.19291175905595
 20
-118.9734442519407
 30
0.0
 10
99.11608612973487
 20
-118.8423583687269
 30
0.0
 10
98.90559079558611
 20
-118.8423583687269
 30
0.0
 10
98.62757158992645
 20
-118.8423583687269
 30
0.0
 10
98.6186143416648
 20
-119.0728352566901
 30
0.0
 10
98.61413571753397
 20
-119.1892794840916
 30
0.0
 10
98.61413571753397
 20
-119.1892794840916
 30
0.0
 10
98.37435707176058
 20
-119.1892794840916
 30
0.0
 10
98.37435707176058
 20
-119.1892794840916
 30
0.0
 10
98.38331432002224
 20
-119.0623277154601
 30
0.0
 10
98.39468313512356
 20
-118.9501898574152
 30
0.0
 10
98.4808105222548
 20
-118.8316785727226
 30
0.0
 10
98.59828827830182
 20
-118.6709648683357
 30
0.0
 10
98.79707028780074
 20
-118.637030677806
 30
0.0
 10
98.92143823481825
 20
-118.637030677806
 30
0.0
 10
99.21771644654974
 20
-118.637030677806
 30
0.0
 10
99.43923608625131
 20
-118.8211710314926
 30
0.0
 10
99.43923608625131
 20
-119.0940225939244
 30
0.0
 10
99.43923608625131
 20
-119.3224324245965
 30
0.0
 10
99.31486813923378
 20
-119.4219956841202
 30
0.0
 10
98.98482799174685
 20
-119.6483384575011
 30
0.0
  0
HATCH
  5
79
330
74
100
AcDbEntity
  8
_U+30EC_U+30A4_U+30E4_U+30FC 1
 62
   179
420
  2234388
100
AcDbHatch
 10
0.0
 20
0.0
 30
0.0
210
0.0
220
0.0
230
1.0
  2
SOLID
 70
     1
 71
     0
 91
        1
 92
        1
 93
        1
 72
     4
 94
        3
 73
     0
 74
     1
 95
       44
 96
       40
 40
0.0
 40
0.0
 40
0.0
 40
0.0
 40
1.0
 40
1.0
 40
1.0
 40
2.0
 40
2.0
 40
2.0
 40
3.0
 40
3.0
 40
3.0
 40
4.0
 40
4.0
 40
4.0
 40
5.0
 40
5.0
 40
5.0
 40
6.0
 40
6.0
 40
6.0
 40
7.0
 40
7.0
 40
7.0
 40
8.0
 40
8.0
 40
8.0
 40
9.0
 40
9.0
 40
9.0
 40
10.0
 40
10.0
 40
10.0
 40
11.0
 40
11.0
 40
11.0
 40
12.0
 40
12.0
 40
12.0
 40
13.0
 40
13.0
 40
13.0
 40
13.0
 10
98.98482799174685
 20
-119.6483384575011
 10
98.75193953694396
 20
-119.8069851045969
 10
98.65237627742025
 20
-119.8810546575297
 10
98.60035533559297
 20
-120.0248873940389
 10
98.60035533559297
 20
-120.0248873940389
 10
99.43269040482933
 20
-120.0248873940389
 10
99.43269040482933
 20
-120.0248873940389
 10
99.43269040482933
 20
-120.0248873940389
 10
99.43269040482933
 20
-120.2300428301856
 10
99.43269040482933
 20
-120.2300428301856
 10
99.43269040482933
 20
-120.2300428301856
 10
98.33370494503464
 20
-120.2300428301856
 10
98.33370494503464
 20
-120.2300428301856
 10
98.3678113903386
 20
-119.8724419188166
 10
98.43774682868919
 20
-119.7942382513015
 10
98.84909122962802
 20
-119.4958929822788
 10
99.12263181115685
 20
-119.2971109727799
 10
99.19291175905595
 20
-119.2294148464947
 10
99.19291175905595
 20
-119.0919555366333
 10
99.19291175905595
 20
-118.9734442519407
 10
99.11608612973487
 20
-118.8423583687269
 10
98.90559079558611
 20
-118.8423583687269
 10
98.62757158992645
 20
-118.8423583687269
 10
98.6186143416648
 20
-119.0728352566901
 10
98.61413571753397
 20
-119.1892794840916
 10
98.61413571753397
 20
-119.1892794840916
 10
98.37435707176058
 20
-119.1892794840916
 10
98.37435707176058
 20
-119.1892794840916
 10
98.38331432002224
 20
-119.0623277154601
 10
98.39468313512356
 20
-118.9501898574152
 10
98.4808105222548
 20
-118.8316785727226
 10
98.59828827830182
 20
-118.6709648683357
 10
98.79707028780074
 20
-118.637030677806
 10
98.92143823481825
 20
-118.637030677806
 10
99.21771644654974
 20
-118.637030677806
 10
99.43923608625131
 20
-118.8211710314926
 10
99.43923608625131
 20
-119.0940225939244
 10
99.43923608625131
 20
-119.3224324245965
 10
99.31486813923378
 20
-119.4219956841202
 10
98.98482799174685
 20
-119.6483384575011
 97
        0
 97
        0
 75
     2
 76
     1
 98
        0
  0
SPLINE
  5
7A
330
74
100
AcDbEntity
  8
_U+30EC_U+30A4_U+30E4_U+30FC 1
370
     0
100
AcDbSpline
210
0.0
220
0.0
230
1.0
 70
    11
 71
     3
 72
    62
 73
    58
 74
     0
 42
0.0000000001
 43
0.0000000001
 12
1.0
 22
0.0
 32
0.0
 13
1.0
 23
0.0
 33
0.0
 40
0.0
 40
0.0
 40
0.0
 40
0.0
 40
1.0
 40
1.0
 40
1.0
 40
2.0
 40
2.0
 40
2.0
 40
3.0
 40
3.0
 40
3.0
 40
4.0
 40
4.0
 40
4.0
 40
5.0
 40
5.0
 40
5.0
 40
6.0
 40
6.0
 40
6.0
 40
7.0
 40
7.0
 40
7.0
 40
8.0
 40
8.0
 40
8.0
 40
9.0
 40
9.0
 40
9.0
 40
10.0
 40
10.0
 40
10.0
 40
11.0
 40
11.0
 40
11.0
 40
12.0
 40
12.0
 40
12.0
 40
13.0
 40
13.0
 40
13.0
 40
14.0
 40
14.0
 40
14.0
 40
15.0
 40
15.0
 40
15.0
 40
16.0
 40
16.0
 40
16.0
 40
17.0
 40
17.0
 40
17.0
 40
18.0
 40
18.0
 40
18.0
 40
19.0
 40
19.0
 40
19.0
 40
19.0
 10
100.1341118456262
 20
-120.280857988593
 30
0.0
 10
100.0324815288113
 20
-120.280857988593
 30
0.0
 10
99.79959307400844
 20
-120.2596706513587
 30
0.0
 10
99.66626787872927
 20
-120.0734632403809
 30
0.0
 10
99.58703068256852
 20
-119.9613253823361
 30
0.0
 10
99.5825520584377
 20
-119.8619343775866
 30
0.0
 10
99.57807343430687
 20
-119.7773572834237
 30
0.0
 10
99.57807343430687
 20
-119.7773572834237
 30
0.0
 10
99.81302894640092
 20
-119.7773572834237
 30
0.0
 10
99.81302894640092
 20
-119.7773572834237
 30
0.0
 10
99.81544051324059
 20
-119.8514268363566
 30
0.0
 10
99.82680932834191
 20
-120.0862100936764
 30
0.0
 10
100.1296332214954
 20
-120.0862100936764
 30
0.0
 10
100.2767387987155
 20
-120.0862100936764
 30
0.0
 10
100.4393473056193
 20
-120.0164469101001
 30
0.0
 10
100.4393473056193
 20
-119.7878648246537
 30
0.0
 10
100.4393473056193
 20
-119.6715928520265
 30
0.0
 10
100.3986951788934
 20
-119.6228447509103
 30
0.0
 10
100.3649332431379
 20
-119.591149872446
 30
0.0
 10
100.2856960469772
 20
-119.5170803195131
 30
0.0
 10
100.1613280999597
 20
-119.5045057209919
 30
0.0
 10
100.1024169671619
 20
-119.5045057209919
 30
0.0
 10
100.0820909037989
 20
-119.5045057209919
 30
0.0
 10
100.0438503439127
 20
-119.5065727782831
 30
0.0
 10
100.0142225227395
 20
-119.5107068928654
 30
0.0
 10
100.0142225227395
 20
-119.5107068928654
 30
0.0
 10
100.0142225227395
 20
-119.3160589979488
 30
0.0
 10
100.0142225227395
 20
-119.3160589979488
 30
0.0
 10
100.0548746494654
 20
-119.3224324245965
 30
0.0
 10
100.1003499098707
 20
-119.3246717366619
 30
0.0
 10
100.1068955912927
 20
-119.3246717366619
 30
0.0
 10
100.1771755391918
 20
-119.3246717366619
 30
0.0
 10
100.3897379306317
 20
-119.3034843994276
 30
0.0
 10
100.3897379306317
 20
-119.0664618300424
 30
0.0
 10
100.3897379306317
 20
-118.8888671577778
 30
0.0
 10
100.2495225443821
 20
-118.8337456300138
 30
0.0
 10
100.1320447883351
 20
-118.8337456300138
 30
0.0
 10
99.84920244899604
 20
-118.8337456300138
 30
0.0
 10
99.84024520073439
 20
-119.0664618300424
 30
0.0
 10
99.83576657660356
 20
-119.1384643256841
 30
0.0
 10
99.83576657660356
 20
-119.1384643256841
 30
0.0
 10
99.61872556103282
 20
-119.1384643256841
 30
0.0
 10
99.61872556103282
 20
-119.1384643256841
 30
0.0
 10
99.62768280929447
 20
-119.0135796143438
 30
0.0
 10
99.6569661209191
 20
-118.637030677806
 30
0.0
 10
100.1454806607275
 20
-118.637030677806
 30
0.0
 10
100.3852593065009
 20
-118.637030677806
 30
0.0
 10
100.6429524487976
 20
-118.7639824464375
 30
0.0
 10
100.6429524487976
 20
-119.0600884033947
 30
0.0
 10
100.6429524487976
 20
-119.2462958143725
 30
0.0
 10
100.5409776224342
 20
-119.3288058512442
 30
0.0
 10
100.4348686814885
 20
-119.3901285508816
 30
0.0
 10
100.5003254957083
 20
-119.4176893147636
 30
0.0
 10
100.6949733906249
 20
-119.4981322943442
 30
0.0
 10
100.6949733906249
 20
-119.7752902261326
 30
0.0
 10
100.6949733906249
 20
-120.1137708575584
 30
0.0
 10
100.4303900573577
 20
-120.280857988593
 30
0.0
 10
100.1341118456262
 20
-120.280857988593
 30
0.0
  0
HATCH
  5
7B
330
74
100
AcDbEntity
  8
_U+30EC_U+30A4_U+30E4_U+30FC 1
 62
   179
420
  2234388
100
AcDbHatch
 10
0.0
 20
0.0
 30
0.0
210
0.0
220
0.0
230
1.0
  2
SOLID
 70
     1
 71
     0
 91
        1
 92
        1
 93
        1
 72
     4
 94
        3
 73
     0
 74
     1
 95
       62
 96
       58
 40
0.0
 40
0.0
 40
0.0
 40
0.0
 40
1.0
 40
1.0
 40
1.0
 40
2.0
 40
2.0
 40
2.0
 40
3.0
 40
3.0
 40
3.0
 40
4.0
 40
4.0
 40
4.0
 40
5.0
 40
5.0
 40
5.0
 40
6.0
 40
6.0
 40
6.0
 40
7.0
 40
7.0
 40
7.0
 40
8.0
 40
8.0
 40
8.0
 40
9.0
 40
9.0
 40
9.0
 40
10.0
 40
10.0
 40
10.0
 40
11.0
 40
11.0
 40
11.0
 40
12.0
 40
12.0
 40
12.0
 40
13.0
 40
13.0
 40
13.0
 40
14.0
 40
14.0
 40
14.0
 40
15.0
 40
15.0
 40
15.0
 40
16.0
 40
16.0
 40
16.0
 40
17.0
 40
17.0
 40
17.0
 40
18.0
 40
18.0
 40
18.0
 40
19.0
 40
19.0
 40
19.0
 40
19.0
 10
100.1341118456262
 20
-120.280857988593
 10
100.0324815288113
 20
-120.280857988593
 10
99.79959307400844
 20
-120.2596706513587
 10
99.66626787872927
 20
-120.0734632403809
 10
99.58703068256852
 20
-119.9613253823361
 10
99.5825520584377
 20
-119.8619343775866
 10
99.57807343430687
 20
-119.7773572834237
 10
99.57807343430687
 20
-119.7773572834237
 10
99.81302894640092
 20
-119.7773572834237
 10
99.81302894640092
 20
-119.7773572834237
 10
99.81544051324059
 20
-119.8514268363566
 10
99.82680932834191
 20
-120.0862100936764
 10
100.1296332214954
 20
-120.0862100936764
 10
100.2767387987155
 20
-120.0862100936764
 10
100.4393473056193
 20
-120.0164469101001
 10
100.4393473056193
 20
-119.7878648246537
 10
100.4393473056193
 20
-119.6715928520265
 10
100.3986951788934
 20
-119.6228447509103
 10
100.3649332431379
 20
-119.591149872446
 10
100.2856960469772
 20
-119.5170803195131
 10
100.1613280999597
 20
-119.5045057209919
 10
100.1024169671619
 20
-119.5045057209919
 10
100.0820909037989
 20
-119.5045057209919
 10
100.0438503439127
 20
-119.5065727782831
 10
100.0142225227395
 20
-119.5107068928654
 10
100.0142225227395
 20
-119.5107068928654
 10
100.0142225227395
 20
-119.3160589979488
 10
100.0142225227395
 20
-119.3160589979488
 10
100.0548746494654
 20
-119.3224324245965
 10
100.1003499098707
 20
-119.3246717366619
 10
100.1068955912927
 20
-119.3246717366619
 10
100.1771755391918
 20
-119.3246717366619
 10
100.3897379306317
 20
-119.3034843994276
 10
100.3897379306317
 20
-119.0664618300424
 10
100.3897379306317
 20
-118.8888671577778
 10
100.2495225443821
 20
-118.8337456300138
 10
100.1320447883351
 20
-118.8337456300138
 10
99.84920244899604
 20
-118.8337456300138
 10
99.84024520073439
 20
-119.0664618300424
 10
99.83576657660356
 20
-119.1384643256841
 10
99.83576657660356
 20
-119.1384643256841
 10
99.61872556103282
 20
-119.1384643256841
 10
99.61872556103282
 20
-119.1384643256841
 10
99.62768280929447
 20
-119.0135796143438
 10
99.6569661209191
 20
-118.637030677806
 10
100.1454806607275
 20
-118.637030677806
 10
100.3852593065009
 20
-118.637030677806
 10
100.6429524487976
 20
-118.7639824464375
 10
100.6429524487976
 20
-119.0600884033947
 10
100.6429524487976
 20
-119.2462958143725
 10
100.5409776224342
 20
-119.3288058512442
 10
100.4348686814885
 20
-119.3901285508816
 10
100.5003254957083
 20
-119.4176893147636
 10
100.6949733906249
 20
-119.4981322943442
 10
100.6949733906249
 20
-119.7752902261326
 10
100.6949733906249
 20
-120.1137708575584
 10
100.4303900573577
 20
-120.280857988593
 10
100.1341118456262
 20
-120.280857988593
 97
        0
 97
        0
 75
     2
 76
     1
 98
        0
  0
ENDBLK
  5
77
330
74
100
AcDbEntity
  8
0
100
AcDbBlockEnd
  0
BLOCK
  5
FF
330
FD
100
AcDbEntity
  8
0
100
AcDbBlockBegin
  2
block 7
 70
     0
 10
0.0
 20
0.0
 30
0.0
  3
block 7
  1

  0
SPLINE
  5
101
330
FD
100
AcDbEntity
  8
_U+30EC_U+30A4_U+30E4_U+30FC 1
370
     0
100
AcDbSpline
210
0.0
220
0.0
230
1.0
 70
    11
 71
     3
 72
   242
 73
   238
 74
     0
 42
0.0000000001
 43
0.0000000001
 12
1.0
 22
0.0
 32
0.0
 13
1.0
 23
0.0
 33
0.0
 40
0.0
 40
0.0
 40
0.0
 40
0.0
 40
1.0
 40
1.0
 40
1.0
 40
2.0
 40
2.0
 40
2.0
 40
3.0
 40
3.0
 40
3.0
 40
4.0
 40
4.0
 40
4.0
 40
5.0
 40
5.0
 40
5.0
 40
6.0
 40
6.0
 40
6.0
 40
7.0
 40
7.0
 40
7.0
 40
8.0
 40
8.0
 40
8.0
 40
9.0
 40
9.0
 40
9.0
 40
10.0
 40
10.0
 40
10.0
 40
11.0
 40
11.0
 40
11.0
 40
12.0
 40
12.0
 40
12.0
 40
13.0
 40
13.0
 40
13.0
 40
14.0
 40
14.0
 40
14.0
 40
15.0
 40
15.0
 40
15.0
 40
16.0
 40
16.0
 40
16.0
 40
17.0
 40
17.0
 40
17.0
 40
18.0
 40
18.0
 40
18.0
 40
19.0
 40
19.0
 40
19.0
 40
20.0
 40
20.0
 40
20.0
 40
21.0
 40
21.0
 40
21.0
 40
22.0
 40
22.0
 40
22.0
 40
23.0
 40
23.0
 40
23.0
 40
24.0
 40
24.0
 40
24.0
 40
25.0
 40
25.0
 40
25.0
 40
26.0
 40
26.0
 40
26.0
 40
27.0
 40
27.0
 40
27.0
 40
28.0
 40
28.0
 40
28.0
 40
29.0
 40
29.0
 40
29.0
 40
30.0
 40
30.0
 40
30.0
 40
31.0
 40
31.0
 40
31.0
 40
32.0
 40
32.0
 40
32.0
 40
33.0
 40
33.0
 40
33.0
 40
34.0
 40
34.0
 40
34.0
 40
35.0
 40
35.0
 40
35.0
 40
36.0
 40
36.0
 40
36.0
 40
37.0
 40
37.0
 40
37.0
 40
38.0
 40
38.0
 40
38.0
 40
39.0
 40
39.0
 40
39.0
 40
40.0
 40
40.0
 40
40.0
 40
41.0
 40
41.0
 40
41.0
 40
42.0
 40
42.0
 40
42.0
 40
43.0
 40
43.0
 40
43.0
 40
44.0
 40
44.0
 40
44.0
 40
45.0
 40
45.0
 40
45.0
 40
46.0
 40
46.0
 40
46.0
 40
47.0
 40
47.0
 40
47.0
 40
48.0
 40
48.0
 40
48.0
 40
49.0
 40
49.0
 40
49.0
 40
50.0
 40
50.0
 40
50.0
 40
51.0
 40
51.0
 40
51.0
 40
52.0
 40
52.0
 40
52.0
 40
53.0
 40
53.0
 40
53.0
 40
54.0
 40
54.0
 40
54.0
 40
55.0
 40
55.0
 40
55.0
 40
56.0
 40
56.0
 40
56.0
 40
57.0
 40
57.0
 40
57.0
 40
58.0
 40
58.0
 40
58.0
 40
59.0
 40
59.0
 40
59.0
 40
60.0
 40
60.0
 40
60.0
 40
61.0
 40
61.0
 40
61.0
 40
62.0
 40
62.0
 40
62.0
 40
63.0
 40
63.0
 40
63.0
 40
64.0
 40
64.0
 40
64.0
 40
65.0
 40
65.0
 40
65.0
 40
66.0
 40
66.0
 40
66.0
 40
67.0
 40
67.0
 40
67.0
 40
68.0
 40
68.0
 40
68.0
 40
69.0
 40
69.0
 40
69.0
 40
70.0
 40
70.0
 40
70.0
 40
71.0
 40
71.0
 40
71.0
 40
72.0
 40
72.0
 40
72.0
 40
73.0
 40
73.0
 40
73.0
 40
74.0
 40
74.0
 40
74.0
 40
75.0
 40
75.0
 40
75.0
 40
76.0
 40
76.0
 40
76.0
 40
77.0
 40
77.0
 40
77.0
 40
78.0
 40
78.0
 40
78.0
 40
79.0
 40
79.0
 40
79.0
 40
79.0
 10
68.39048528021141
 20
-135.6637260945563
 30
0.0
 10
68.39048528021141
 20
-135.6637260945563
 30
0.0
 10
68.1365817429485
 20
-135.6637260945563
 30
0.0
 10
68.1365817429485
 20
-135.6637260945563
 30
0.0
 10
68.1365817429485
 20
-135.6637260945563
 30
0.0
 10
67.85959606593441
 20
-135.6637260945563
 30
0.0
 10
67.85959606593441
 20
-135.6637260945563
 30
0.0
 10
67.85959606593441
 20
-135.6637260945563
 30
0.0
 10
67.9863755797916
 20
-135.7057562594763
 30
0.0
 10
67.9863755797916
 20
-135.7057562594763
 30
0.0
 10
67.99705537579588
 20
-135.7102348836072
 30
0.0
 10
68.0098022290913
 20
-135.7164360554806
 30
0.0
 10
68.0098022290913
 20
-135.729182908776
 30
0.0
 10
68.0098022290913
 20
-135.7505425007846
 30
0.0
 10
67.97776284107847
 20
-135.756743672658
 30
0.0
 10
67.95674775861845
 20
-135.7608777872403
 30
0.0
 10
67.94606796261418
 20
-135.7843044365401
 30
0.0
 10
67.91644014144103
 20
-135.8497612507598
 30
0.0
 10
67.89749211627216
 20
-135.8942029825195
 30
0.0
 10
67.89749211627216
 20
-135.8942029825195
 30
0.0
 10
68.1682766214128
 20
-135.8942029825195
 30
0.0
 10
68.1682766214128
 20
-135.8942029825195
 30
0.0
 10
68.2592271422234
 20
-135.8942029825195
 30
0.0
 10
68.45594209443115
 20
-135.8897243583887
 30
0.0
 10
68.59788002842345
 20
-135.8814561292241
 30
0.0
 10
68.59788002842345
 20
-135.8814561292241
 30
0.0
 10
68.59788002842345
 20
-136.059223056263
 30
0.0
 10
68.59788002842345
 20
-136.059223056263
 30
0.0
 10
68.51519773677745
 20
-136.0550889416807
 30
0.0
 10
68.49418265431743
 20
-136.0550889416807
 30
0.0
 10
68.31434866998738
 20
-136.0509548270984
 30
0.0
 10
68.28265379152309
 20
-136.2052951048376
 30
0.0
 10
68.23821205976337
 20
-136.2855658296439
 30
0.0
 10
68.19377032800364
 20
-136.3555012679945
 30
0.0
 10
68.31434866998738
 20
-136.4147569103408
 30
0.0
 10
68.42011310138456
 20
-136.4822807818517
 30
0.0
 10
68.52381047549058
 20
-136.5649630734977
 30
0.0
 10
68.52381047549058
 20
-136.5649630734977
 30
0.0
 10
68.40529919079799
 20
-136.7317056949838
 30
0.0
 10
68.40529919079799
 20
-136.7317056949838
 30
0.0
 10
68.38187254149828
 20
-136.7131021793634
 30
0.0
 10
68.36912568820286
 20
-136.7044894406503
 30
0.0
 10
68.25716008493224
 20
-136.6197400917131
 30
0.0
 10
68.20858423859022
 20
-136.5814995318269
 30
0.0
 10
68.14932859624392
 20
-136.5456705387803
 30
0.0
 10
68.06871336188908
 20
-136.5015733165691
 30
0.0
 10
67.85718449909473
 20
-136.6876084727726
 30
0.0
 10
67.65220131772237
 20
-136.7110351220722
 30
0.0
 10
67.36212427786434
 20
-136.7406629432454
 30
0.0
 10
67.36212427786434
 20
-136.7406629432454
 30
0.0
 10
67.25877141330683
 20
-136.5608289589154
 30
0.0
 10
67.25877141330683
 20
-136.5608289589154
 30
0.0
 10
67.57606470749835
 20
-136.5563503347845
 30
0.0
 10
67.75142006769757
 20
-136.5312011377422
 30
0.0
 10
67.9036932881456
 20
-136.4209580822142
 30
0.0
 10
67.78552651300154
 20
-136.3699706690325
 30
0.0
 10
67.69664304948209
 20
-136.342754414699
 30
0.0
 10
67.66046954688697
 20
-136.3300075614036
 30
0.0
 10
67.64152152171809
 20
-136.3575683252856
 30
0.0
 10
67.62670761113152
 20
-136.3765163504545
 30
0.0
 10
67.59914684724953
 20
-136.4106227957585
 30
0.0
 10
67.59914684724953
 20
-136.4106227957585
 30
0.0
 10
67.40243189504176
 20
-136.3279405041125
 30
0.0
 10
67.40243189504176
 20
-136.3279405041125
 30
0.0
 10
67.48511418668775
 20
-136.2473252697576
 30
0.0
 10
67.5464368863252
 20
-136.1522406343647
 30
0.0
 10
67.60328096183183
 20
-136.0509548270984
 30
0.0
 10
67.41311169104603
 20
-136.0550889416807
 30
0.0
 10
67.39175209903748
 20
-136.0550889416807
 30
0.0
 10
67.30941431694
 20
-136.059223056263
 30
0.0
 10
67.30941431694
 20
-136.059223056263
 30
0.0
 10
67.30941431694
 20
-135.8814561292241
 30
0.0
 10
67.30941431694
 20
-135.8814561292241
 30
0.0
 10
67.44894068409263
 20
-135.8876573010975
 30
0.0
 10
67.65840248959582
 20
-135.8921359252284
 30
0.0
 10
67.68389619618667
 20
-135.8921359252284
 30
0.0
 10
67.70077716406439
 20
-135.8580294799244
 30
0.0
 10
67.75589869182839
 20
-135.7374511379406
 30
0.0
 10
67.77484671699726
 20
-135.6637260945563
 30
0.0
 10
67.75589869182839
 20
-135.6637260945563
 30
0.0
 10
67.5781317647895
 20
-135.6699272664297
 30
0.0
 10
67.38348386987288
 20
-135.6826741197252
 30
0.0
 10
67.38348386987288
 20
-135.6826741197252
 30
0.0
 10
67.38348386987288
 20
-135.8159993150043
 30
0.0
 10
67.38348386987288
 20
-135.8159993150043
 30
0.0
 10
67.33490802353086
 20
-135.8414930215952
 30
0.0
 10
67.27565238118456
 20
-135.8731879000595
 30
0.0
 10
67.14232718590539
 20
-135.9386447142792
 30
0.0
 10
67.14232718590539
 20
-135.9386447142792
 30
0.0
 10
67.14232718590539
 20
-136.0847167628538
 30
0.0
 10
67.14232718590539
 20
-136.0847167628538
 30
0.0
 10
67.14232718590539
 20
-136.0847167628538
 30
0.0
 10
67.14232718590539
 20
-136.5522162202022
 30
0.0
 10
67.14232718590539
 20
-136.5522162202022
 30
0.0
 10
67.14232718590539
 20
-136.6789957340594
 30
0.0
 10
67.10615368331027
 20
-136.7382513764057
 30
0.0
 10
66.82296683442273
 20
-136.7296386376926
 30
0.0
 10
66.82296683442273
 20
-136.7296386376926
 30
0.0
 10
66.71926946031671
 20
-136.5225883990291
 30
0.0
 10
66.71926946031671
 20
-136.5225883990291
 30
0.0
 10
66.78265921724531
 20
-136.5353352523245
 30
0.0
 10
66.83123506358733
 20
-136.5394693669068
 30
0.0
 10
66.87154268076476
 20
-136.5394693669068
 30
0.0
 10
66.94767929098877
 20
-136.5394693669068
 30
0.0
 10
66.95835908699306
 20
-136.5160427176071
 30
0.0
 10
66.95835908699306
 20
-136.4505859033873
 30
0.0
 10
66.95835908699306
 20
-136.4505859033873
 30
0.0
 10
66.95835908699306
 20
-136.0213270059252
 30
0.0
 10
66.95835908699306
 20
-136.0213270059252
 30
0.0
 10
66.86086288476048
 20
-136.0612901135541
 30
0.0
 10
66.84398191688275
 20
-136.0674912854276
 30
0.0
 10
66.79747312783188
 20
-136.086783820145
 30
0.0
 10
66.79333901324958
 20
-136.107798902605
 30
0.0
 10
66.78886038911877
 20
-136.1374267237782
 30
0.0
 10
66.76991236394989
 20
-136.1374267237782
 30
0.0
 10
66.76164413478529
 20
-136.1374267237782
 30
0.0
 10
66.75096433878102
 20
-136.1332926091958
 30
0.0
 10
66.74441865735903
 20
-136.1102104694447
 30
0.0
 10
66.74441865735903
 20
-136.1102104694447
 30
0.0
 10
66.69170869643472
 20
-135.9172851222707
 30
0.0
 10
66.69170869643472
 20
-135.9172851222707
 30
0.0
 10
66.83778074500931
 20
-135.8711208427683
 30
0.0
 10
66.90323755922905
 20
-135.8476941934686
 30
0.0
 10
66.95835908699306
 20
-135.8263346014601
 30
0.0
 10
66.95835908699306
 20
-135.8263346014601
 30
0.0
 10
66.95835908699306
 20
-135.4139566718757
 30
0.0
 10
66.95835908699306
 20
-135.4139566718757
 30
0.0
 10
66.95835908699306
 20
-135.4139566718757
 30
0.0
 10
66.9053046165202
 20
-135.4139566718757
 30
0.0
 10
66.9053046165202
 20
-135.4139566718757
 30
0.0
 10
66.9053046165202
 20
-135.4139566718757
 30
0.0
 10
66.82710094900503
 20
-135.4139566718757
 30
0.0
 10
66.82710094900503
 20
-135.4139566718757
 30
0.0
 10
66.75923256794562
 20
-135.4139566718757
 30
0.0
 10
66.75096433878102
 20
-135.4139566718757
 30
0.0
 10
66.71479083618588
 20
-135.4205023532976
 30
0.0
 10
66.71479083618588
 20
-135.4205023532976
 30
0.0
 10
66.71479083618588
 20
-135.2255099488325
 30
0.0
 10
66.71479083618588
 20
-135.2255099488325
 30
0.0
 10
66.74235160006789
 20
-135.2320556302545
 30
0.0
 10
66.75096433878102
 20
-135.2320556302545
 30
0.0
 10
66.82055526758306
 20
-135.2320556302545
 30
0.0
 10
66.82055526758306
 20
-135.2320556302545
 30
0.0
 10
66.95388046286223
 20
-135.2320556302545
 30
0.0
 10
66.95388046286223
 20
-135.2320556302545
 30
0.0
 10
66.95388046286223
 20
-135.1621201919039
 30
0.0
 10
66.95388046286223
 20
-135.0797824098065
 30
0.0
 10
66.95181340557107
 20
-135.0753037856756
 30
0.0
 10
66.94354517640647
 20
-134.8954698013456
 30
0.0
 10
66.94354517640647
 20
-134.8768662857252
 30
0.0
 10
66.9411336095668
 20
-134.8300129871258
 30
0.0
 10
66.9411336095668
 20
-134.8300129871258
 30
0.0
 10
67.15714109649197
 20
-134.838625725839
 30
0.0
 10
67.15714109649197
 20
-134.838625725839
 30
0.0
 10
67.16782089249624
 20
-134.838625725839
 30
0.0
 10
67.18883597495626
 20
-134.8406927831301
 30
0.0
 10
67.18883597495626
 20
-134.8575737510078
 30
0.0
 10
67.18883597495626
 20
-134.8768662857252
 30
0.0
 10
67.1740220643697
 20
-134.887201572181
 30
0.0
 10
67.14852835777884
 20
-134.9064941068984
 30
0.0
 10
67.14852835777884
 20
-134.956792500983
 30
0.0
 10
67.14232718590539
 20
-135.1855468412036
 30
0.0
 10
67.14439424319654
 20
-135.2320556302545
 30
0.0
 10
67.27358532389341
 20
-135.2320556302545
 30
0.0
 10
67.28598766764031
 20
-135.2320556302545
 30
0.0
 10
67.38348386987288
 20
-135.2234428915414
 30
0.0
 10
67.38348386987288
 20
-135.2234428915414
 30
0.0
 10
67.38348386987288
 20
-135.4184352960065
 30
0.0
 10
67.38348386987288
 20
-135.4184352960065
 30
0.0
 10
67.34524330998661
 20
-135.4160237291668
 30
0.0
 10
67.27771943847571
 20
-135.4118896145845
 30
0.0
 10
67.14232718590539
 20
-135.4139566718757
 30
0.0
 10
67.14232718590539
 20
-135.4139566718757
 30
0.0
 10
67.14232718590539
 20
-135.7526095580757
 30
0.0
 10
67.14232718590539
 20
-135.7526095580757
 30
0.0
 10
67.19744871366939
 20
-135.729182908776
 30
0.0
 10
67.26290552788913
 20
-135.701622144894
 30
0.0
 10
67.31148137423116
 20
-135.6781954955943
 30
0.0
 10
67.31148137423116
 20
-135.6781954955943
 30
0.0
 10
67.31148137423116
 20
-135.500773078104
 30
0.0
 10
67.31148137423116
 20
-135.500773078104
 30
0.0
 10
67.42585854434145
 20
-135.5135199313994
 30
0.0
 10
67.54436982903405
 20
-135.5135199313994
 30
0.0
 10
67.66046954688697
 20
-135.5135199313994
 30
0.0
 10
67.63738740713579
 20
-135.4184352960065
 30
0.0
 10
67.6098266432538
 20
-135.3357530043605
 30
0.0
 10
67.5464368863252
 20
-135.2024278090813
 30
0.0
 10
67.50199515456548
 20
-135.2044948663725
 30
0.0
 10
67.41931286291948
 20
-135.2089734905033
 30
0.0
 10
67.38141681258173
 20
-135.2110405477945
 30
0.0
 10
67.38141681258173
 20
-135.2110405477945
 30
0.0
 10
67.38141681258173
 20
-135.0312065634644
 30
0.0
 10
67.38141681258173
 20
-135.0312065634644
 30
0.0
 10
67.50612926914778
 20
-135.039474792629
 30
0.0
 10
67.67976208160437
 20
-135.0436089072113
 30
0.0
 10
67.76209986370183
 20
-135.0436089072113
 30
0.0
 10
67.76209986370183
 20
-135.0436089072113
 30
0.0
 10
67.84478215534783
 20
-135.0436089072113
 30
0.0
 10
67.84478215534783
 20
-135.0436089072113
 30
0.0
 10
67.84478215534783
 20
-134.8810004003075
 30
0.0
 10
67.84478215534783
 20
-134.8703206043033
 30
0.0
 10
67.84237058850816
 20
-134.8155435860878
 30
0.0
 10
67.84237058850816
 20
-134.8155435860878
 30
0.0
 10
68.06664630459792
 20
-134.8406927831301
 30
0.0
 10
68.06664630459792
 20
-134.8406927831301
 30
0.0
 10
68.07112492872875
 20
-134.8406927831301
 30
0.0
 10
68.09214001118877
 20
-134.8427598404213
 30
0.0
 10
68.09214001118877
 20
-134.859640808299
 30
0.0
 10
68.09214001118877
 20
-134.8744547188856
 30
0.0
 10
68.08146021518449
 20
-134.8830674575987
 30
0.0
 10
68.0538994513025
 20
-134.8978813681853
 30
0.0
 10
68.04769827942906
 20
-134.963338182405
 30
0.0
 10
68.0456312221379
 20
-134.984353264865
 30
0.0
 10
68.0456312221379
 20
-135.0436089072113
 30
0.0
 10
68.0456312221379
 20
-135.0436089072113
 30
0.0
 10
68.1407158575308
 20
-135.0436089072113
 30
0.0
 10
68.1407158575308
 20
-135.0436089072113
 30
0.0
 10
68.22339814917679
 20
-135.0436089072113
 30
0.0
 10
68.39668645208486
 20
-135.039474792629
 30
0.0
 10
68.52174341819943
 20
-135.0312065634644
 30
0.0
 10
68.52174341819943
 20
-135.0312065634644
 30
0.0
 10
68.52174341819943
 20
-135.2110405477945
 30
0.0
 10
68.52174341819943
 20
-135.2110405477945
 30
0.0
 10
68.49211559702628
 20
-135.2089734905033
 30
0.0
 10
68.37360431233368
 20
-135.2044948663725
 30
0.0
 10
68.33329669515626
 20
-135.2024278090813
 30
0.0
 10
68.31848278456968
 20
-135.2530707127145
 30
0.0
 10
68.28472084881425
 20
-135.3653808255337
 30
0.0
 10
68.21891952504596
 20
-135.5049071926863
 30
0.0
 10
68.26129419951454
 20
-135.5049071926863
 30
0.0
 10
68.53862438607715
 20
-135.4859591675174
 30
0.0
 10
68.5999470857146
 20
-135.4838921102263
 30
0.0
 10
68.5999470857146
 20
-135.4838921102263
 30
0.0
 10
68.5999470857146
 20
-135.6678602091386
 30
0.0
 10
68.5999470857146
 20
-135.6678602091386
 30
0.0
 10
68.57031926454145
 20
-135.6678602091386
 30
0.0
 10
68.55343829666373
 20
-135.6637260945563
 30
0.0
 10
68.39048528021141
 20
-135.6637260945563
 30
0.0
  0
SPLINE
  5
102
330
FD
100
AcDbEntity
  8
_U+30EC_U+30A4_U+30E4_U+30FC 1
370
     0
100
AcDbSpline
210
0.0
220
0.0
230
1.0
 70
    11
 71
     3
 72
    20
 73
    16
 74
     0
 42
0.0000000001
 43
0.0000000001
 12
1.0
 22
0.0
 32
0.0
 13
1.0
 23
0.0
 33
0.0
 40
0.0
 40
0.0
 40
0.0
 40
0.0
 40
1.0
 40
1.0
 40
1.0
 40
2.0
 40
2.0
 40
2.0
 40
3.0
 40
3.0
 40
3.0
 40
4.0
 40
4.0
 40
4.0
 40
5.0
 40
5.0
 40
5.0
 40
5.0
 10
67.76209986370183
 20
-135.1982936944991
 30
0.0
 10
67.76209986370183
 20
-135.1982936944991
 30
0.0
 10
67.73040498523754
 20
-135.1982936944991
 30
0.0
 10
67.73040498523754
 20
-135.1982936944991
 30
0.0
 10
67.77691377428842
 20
-135.2978569540228
 30
0.0
 10
67.80860865275271
 20
-135.3777831692805
 30
0.0
 10
67.84237058850816
 20
-135.5049071926863
 30
0.0
 10
67.84237058850816
 20
-135.5049071926863
 30
0.0
 10
68.0497653367202
 20
-135.5049071926863
 30
0.0
 10
68.0497653367202
 20
-135.5049071926863
 30
0.0
 10
68.08146021518449
 20
-135.4118896145845
 30
0.0
 10
68.1048868644842
 20
-135.3274847751959
 30
0.0
 10
68.12796900423537
 20
-135.1982936944991
 30
0.0
 10
68.12796900423537
 20
-135.1982936944991
 30
0.0
 10
67.76209986370183
 20
-135.1982936944991
 30
0.0
 10
67.76209986370183
 20
-135.1982936944991
 30
0.0
  0
SPLINE
  5
103
330
FD
100
AcDbEntity
  8
_U+30EC_U+30A4_U+30E4_U+30FC 1
370
     0
100
AcDbSpline
210
0.0
220
0.0
230
1.0
 70
    11
 71
     3
 72
    17
 73
    13
 74
     0
 42
0.0000000001
 43
0.0000000001
 12
1.0
 22
0.0
 32
0.0
 13
1.0
 23
0.0
 33
0.0
 40
0.0
 40
0.0
 40
0.0
 40
0.0
 40
1.0
 40
1.0
 40
1.0
 40
2.0
 40
2.0
 40
2.0
 40
3.0
 40
3.0
 40
3.0
 40
4.0
 40
4.0
 40
4.0
 40
4.0
 10
67.82548962063044
 20
-136.0488877698072
 30
0.0
 10
67.80860865275271
 20
-136.0781710814319
 30
0.0
 10
67.75796574911953
 20
-136.1715331690821
 30
0.0
 10
67.74728595311527
 20
-136.1901366847025
 30
0.0
 10
67.93779973344958
 20
-136.2493923270488
 30
0.0
 10
67.9588148159096
 20
-136.2559380084707
 30
0.0
 10
68.03081731155133
 20
-136.2834987723527
 30
0.0
 10
68.08593883931532
 20
-136.1966823661244
 30
0.0
 10
68.1090209790665
 20
-136.1226128131916
 30
0.0
 10
68.12383488965307
 20
-136.0488877698072
 30
0.0
 10
68.12383488965307
 20
-136.0488877698072
 30
0.0
 10
67.82548962063044
 20
-136.0488877698072
 30
0.0
 10
67.82548962063044
 20
-136.0488877698072
 30
0.0
  0
HATCH
  5
104
330
FD
100
AcDbEntity
  8
_U+30EC_U+30A4_U+30E4_U+30FC 1
 62
   179
420
  2234388
100
AcDbHatch
 10
0.0
 20
0.0
 30
0.0
210
0.0
220
0.0
230
1.0
  2
SOLID
 70
     1
 71
     0
 91
        3
 92
        1
 93
        1
 72
     4
 94
        3
 73
     0
 74
     1
 95
      242
 96
      238
 40
0.0
 40
0.0
 40
0.0
 40
0.0
 40
1.0
 40
1.0
 40
1.0
 40
2.0
 40
2.0
 40
2.0
 40
3.0
 40
3.0
 40
3.0
 40
4.0
 40
4.0
 40
4.0
 40
5.0
 40
5.0
 40
5.0
 40
6.0
 40
6.0
 40
6.0
 40
7.0
 40
7.0
 40
7.0
 40
8.0
 40
8.0
 40
8.0
 40
9.0
 40
9.0
 40
9.0
 40
10.0
 40
10.0
 40
10.0
 40
11.0
 40
11.0
 40
11.0
 40
12.0
 40
12.0
 40
12.0
 40
13.0
 40
13.0
 40
13.0
 40
14.0
 40
14.0
 40
14.0
 40
15.0
 40
15.0
 40
15.0
 40
16.0
 40
16.0
 40
16.0
 40
17.0
 40
17.0
 40
17.0
 40
18.0
 40
18.0
 40
18.0
 40
19.0
 40
19.0
 40
19.0
 40
20.0
 40
20.0
 40
20.0
 40
21.0
 40
21.0
 40
21.0
 40
22.0
 40
22.0
 40
22.0
 40
23.0
 40
23.0
 40
23.0
 40
24.0
 40
24.0
 40
24.0
 40
25.0
 40
25.0
 40
25.0
 40
26.0
 40
26.0
 40
26.0
 40
27.0
 40
27.0
 40
27.0
 40
28.0
 40
28.0
 40
28.0
 40
29.0
 40
29.0
 40
29.0
 40
30.0
 40
30.0
 40
30.0
 40
31.0
 40
31.0
 40
31.0
 40
32.0
 40
32.0
 40
32.0
 40
33.0
 40
33.0
 40
33.0
 40
34.0
 40
34.0
 40
34.0
 40
35.0
 40
35.0
 40
35.0
 40
36.0
 40
36.0
 40
36.0
 40
37.0
 40
37.0
 40
37.0
 40
38.0
 40
38.0
 40
38.0
 40
39.0
 40
39.0
 40
39.0
 40
40.0
 40
40.0
 40
40.0
 40
41.0
 40
41.0
 40
41.0
 40
42.0
 40
42.0
 40
42.0
 40
43.0
 40
43.0
 40
43.0
 40
44.0
 40
44.0
 40
44.0
 40
45.0
 40
45.0
 40
45.0
 40
46.0
 40
46.0
 40
46.0
 40
47.0
 40
47.0
 40
47.0
 40
48.0
 40
48.0
 40
48.0
 40
49.0
 40
49.0
 40
49.0
 40
50.0
 40
50.0
 40
50.0
 40
51.0
 40
51.0
 40
51.0
 40
52.0
 40
52.0
 40
52.0
 40
53.0
 40
53.0
 40
53.0
 40
54.0
 40
54.0
 40
54.0
 40
55.0
 40
55.0
 40
55.0
 40
56.0
 40
56.0
 40
56.0
 40
57.0
 40
57.0
 40
57.0
 40
58.0
 40
58.0
 40
58.0
 40
59.0
 40
59.0
 40
59.0
 40
60.0
 40
60.0
 40
60.0
 40
61.0
 40
61.0
 40
61.0
 40
62.0
 40
62.0
 40
62.0
 40
63.0
 40
63.0
 40
63.0
 40
64.0
 40
64.0
 40
64.0
 40
65.0
 40
65.0
 40
65.0
 40
66.0
 40
66.0
 40
66.0
 40
67.0
 40
67.0
 40
67.0
 40
68.0
 40
68.0
 40
68.0
 40
69.0
 40
69.0
 40
69.0
 40
70.0
 40
70.0
 40
70.0
 40
71.0
 40
71.0
 40
71.0
 40
72.0
 40
72.0
 40
72.0
 40
73.0
 40
73.0
 40
73.0
 40
74.0
 40
74.0
 40
74.0
 40
75.0
 40
75.0
 40
75.0
 40
76.0
 40
76.0
 40
76.0
 40
77.0
 40
77.0
 40
77.0
 40
78.0
 40
78.0
 40
78.0
 40
79.0
 40
79.0
 40
79.0
 40
79.0
 10
68.39048528021141
 20
-135.6637260945563
 10
68.39048528021141
 20
-135.6637260945563
 10
68.1365817429485
 20
-135.6637260945563
 10
68.1365817429485
 20
-135.6637260945563
 10
68.1365817429485
 20
-135.6637260945563
 10
67.85959606593441
 20
-135.6637260945563
 10
67.85959606593441
 20
-135.6637260945563
 10
67.85959606593441
 20
-135.6637260945563
 10
67.9863755797916
 20
-135.7057562594763
 10
67.9863755797916
 20
-135.7057562594763
 10
67.99705537579588
 20
-135.7102348836072
 10
68.0098022290913
 20
-135.7164360554806
 10
68.0098022290913
 20
-135.729182908776
 10
68.0098022290913
 20
-135.7505425007846
 10
67.97776284107847
 20
-135.756743672658
 10
67.95674775861845
 20
-135.7608777872403
 10
67.94606796261418
 20
-135.7843044365401
 10
67.91644014144103
 20
-135.8497612507598
 10
67.89749211627216
 20
-135.8942029825195
 10
67.89749211627216
 20
-135.8942029825195
 10
68.1682766214128
 20
-135.8942029825195
 10
68.1682766214128
 20
-135.8942029825195
 10
68.2592271422234
 20
-135.8942029825195
 10
68.45594209443115
 20
-135.8897243583887
 10
68.59788002842345
 20
-135.8814561292241
 10
68.59788002842345
 20
-135.8814561292241
 10
68.59788002842345
 20
-136.059223056263
 10
68.59788002842345
 20
-136.059223056263
 10
68.51519773677745
 20
-136.0550889416807
 10
68.49418265431743
 20
-136.0550889416807
 10
68.31434866998738
 20
-136.0509548270984
 10
68.28265379152309
 20
-136.2052951048376
 10
68.23821205976337
 20
-136.2855658296439
 10
68.19377032800364
 20
-136.3555012679945
 10
68.31434866998738
 20
-136.4147569103408
 10
68.42011310138456
 20
-136.4822807818517
 10
68.52381047549058
 20
-136.5649630734977
 10
68.52381047549058
 20
-136.5649630734977
 10
68.40529919079799
 20
-136.7317056949838
 10
68.40529919079799
 20
-136.7317056949838
 10
68.38187254149828
 20
-136.7131021793634
 10
68.36912568820286
 20
-136.7044894406503
 10
68.25716008493224
 20
-136.6197400917131
 10
68.20858423859022
 20
-136.5814995318269
 10
68.14932859624392
 20
-136.5456705387803
 10
68.06871336188908
 20
-136.5015733165691
 10
67.85718449909473
 20
-136.6876084727726
 10
67.65220131772237
 20
-136.7110351220722
 10
67.36212427786434
 20
-136.7406629432454
 10
67.36212427786434
 20
-136.7406629432454
 10
67.25877141330683
 20
-136.5608289589154
 10
67.25877141330683
 20
-136.5608289589154
 10
67.57606470749835
 20
-136.5563503347845
 10
67.75142006769757
 20
-136.5312011377422
 10
67.9036932881456
 20
-136.4209580822142
 10
67.78552651300154
 20
-136.3699706690325
 10
67.69664304948209
 20
-136.342754414699
 10
67.66046954688697
 20
-136.3300075614036
 10
67.64152152171809
 20
-136.3575683252856
 10
67.62670761113152
 20
-136.3765163504545
 10
67.59914684724953
 20
-136.4106227957585
 10
67.59914684724953
 20
-136.4106227957585
 10
67.40243189504176
 20
-136.3279405041125
 10
67.40243189504176
 20
-136.3279405041125
 10
67.48511418668775
 20
-136.2473252697576
 10
67.5464368863252
 20
-136.1522406343647
 10
67.60328096183183
 20
-136.0509548270984
 10
67.41311169104603
 20
-136.0550889416807
 10
67.39175209903748
 20
-136.0550889416807
 10
67.30941431694
 20
-136.059223056263
 10
67.30941431694
 20
-136.059223056263
 10
67.30941431694
 20
-135.8814561292241
 10
67.30941431694
 20
-135.8814561292241
 10
67.44894068409263
 20
-135.8876573010975
 10
67.65840248959582
 20
-135.8921359252284
 10
67.68389619618667
 20
-135.8921359252284
 10
67.70077716406439
 20
-135.8580294799244
 10
67.75589869182839
 20
-135.7374511379406
 10
67.77484671699726
 20
-135.6637260945563
 10
67.75589869182839
 20
-135.6637260945563
 10
67.5781317647895
 20
-135.6699272664297
 10
67.38348386987288
 20
-135.6826741197252
 10
67.38348386987288
 20
-135.6826741197252
 10
67.38348386987288
 20
-135.8159993150043
 10
67.38348386987288
 20
-135.8159993150043
 10
67.33490802353086
 20
-135.8414930215952
 10
67.27565238118456
 20
-135.8731879000595
 10
67.14232718590539
 20
-135.9386447142792
 10
67.14232718590539
 20
-135.9386447142792
 10
67.14232718590539
 20
-136.0847167628538
 10
67.14232718590539
 20
-136.0847167628538
 10
67.14232718590539
 20
-136.0847167628538
 10
67.14232718590539
 20
-136.5522162202022
 10
67.14232718590539
 20
-136.5522162202022
 10
67.14232718590539
 20
-136.6789957340594
 10
67.10615368331027
 20
-136.7382513764057
 10
66.82296683442273
 20
-136.7296386376926
 10
66.82296683442273
 20
-136.7296386376926
 10
66.71926946031671
 20
-136.5225883990291
 10
66.71926946031671
 20
-136.5225883990291
 10
66.78265921724531
 20
-136.5353352523245
 10
66.83123506358733
 20
-136.5394693669068
 10
66.87154268076476
 20
-136.5394693669068
 10
66.94767929098877
 20
-136.5394693669068
 10
66.95835908699306
 20
-136.5160427176071
 10
66.95835908699306
 20
-136.4505859033873
 10
66.95835908699306
 20
-136.4505859033873
 10
66.95835908699306
 20
-136.0213270059252
 10
66.95835908699306
 20
-136.0213270059252
 10
66.86086288476048
 20
-136.0612901135541
 10
66.84398191688275
 20
-136.0674912854276
 10
66.79747312783188
 20
-136.086783820145
 10
66.79333901324958
 20
-136.107798902605
 10
66.78886038911877
 20
-136.1374267237782
 10
66.76991236394989
 20
-136.1374267237782
 10
66.76164413478529
 20
-136.1374267237782
 10
66.75096433878102
 20
-136.1332926091958
 10
66.74441865735903
 20
-136.1102104694447
 10
66.74441865735903
 20
-136.1102104694447
 10
66.69170869643472
 20
-135.9172851222707
 10
66.69170869643472
 20
-135.9172851222707
 10
66.83778074500931
 20
-135.8711208427683
 10
66.90323755922905
 20
-135.8476941934686
 10
66.95835908699306
 20
-135.8263346014601
 10
66.95835908699306
 20
-135.8263346014601
 10
66.95835908699306
 20
-135.4139566718757
 10
66.95835908699306
 20
-135.4139566718757
 10
66.95835908699306
 20
-135.4139566718757
 10
66.9053046165202
 20
-135.4139566718757
 10
66.9053046165202
 20
-135.4139566718757
 10
66.9053046165202
 20
-135.4139566718757
 10
66.82710094900503
 20
-135.4139566718757
 10
66.82710094900503
 20
-135.4139566718757
 10
66.75923256794562
 20
-135.4139566718757
 10
66.75096433878102
 20
-135.4139566718757
 10
66.71479083618588
 20
-135.4205023532976
 10
66.71479083618588
 20
-135.4205023532976
 10
66.71479083618588
 20
-135.2255099488325
 10
66.71479083618588
 20
-135.2255099488325
 10
66.74235160006789
 20
-135.2320556302545
 10
66.75096433878102
 20
-135.2320556302545
 10
66.82055526758306
 20
-135.2320556302545
 10
66.82055526758306
 20
-135.2320556302545
 10
66.95388046286223
 20
-135.2320556302545
 10
66.95388046286223
 20
-135.2320556302545
 10
66.95388046286223
 20
-135.1621201919039
 10
66.95388046286223
 20
-135.0797824098065
 10
66.95181340557107
 20
-135.0753037856756
 10
66.94354517640647
 20
-134.8954698013456
 10
66.94354517640647
 20
-134.8768662857252
 10
66.9411336095668
 20
-134.8300129871258
 10
66.9411336095668
 20
-134.8300129871258
 10
67.15714109649197
 20
-134.838625725839
 10
67.15714109649197
 20
-134.838625725839
 10
67.16782089249624
 20
-134.838625725839
 10
67.18883597495626
 20
-134.8406927831301
 10
67.18883597495626
 20
-134.8575737510078
 10
67.18883597495626
 20
-134.8768662857252
 10
67.1740220643697
 20
-134.887201572181
 10
67.14852835777884
 20
-134.9064941068984
 10
67.14852835777884
 20
-134.956792500983
 10
67.14232718590539
 20
-135.1855468412036
 10
67.14439424319654
 20
-135.2320556302545
 10
67.27358532389341
 20
-135.2320556302545
 10
67.28598766764031
 20
-135.2320556302545
 10
67.38348386987288
 20
-135.2234428915414
 10
67.38348386987288
 20
-135.2234428915414
 10
67.38348386987288
 20
-135.4184352960065
 10
67.38348386987288
 20
-135.4184352960065
 10
67.34524330998661
 20
-135.4160237291668
 10
67.27771943847571
 20
-135.4118896145845
 10
67.14232718590539
 20
-135.4139566718757
 10
67.14232718590539
 20
-135.4139566718757
 10
67.14232718590539
 20
-135.7526095580757
 10
67.14232718590539
 20
-135.7526095580757
 10
67.19744871366939
 20
-135.729182908776
 10
67.26290552788913
 20
-135.701622144894
 10
67.31148137423116
 20
-135.6781954955943
 10
67.31148137423116
 20
-135.6781954955943
 10
67.31148137423116
 20
-135.500773078104
 10
67.31148137423116
 20
-135.500773078104
 10
67.42585854434145
 20
-135.5135199313994
 10
67.54436982903405
 20
-135.5135199313994
 10
67.66046954688697
 20
-135.5135199313994
 10
67.63738740713579
 20
-135.4184352960065
 10
67.6098266432538
 20
-135.3357530043605
 10
67.5464368863252
 20
-135.2024278090813
 10
67.50199515456548
 20
-135.2044948663725
 10
67.41931286291948
 20
-135.2089734905033
 10
67.38141681258173
 20
-135.2110405477945
 10
67.38141681258173
 20
-135.2110405477945
 10
67.38141681258173
 20
-135.0312065634644
 10
67.38141681258173
 20
-135.0312065634644
 10
67.50612926914778
 20
-135.039474792629
 10
67.67976208160437
 20
-135.0436089072113
 10
67.76209986370183
 20
-135.0436089072113
 10
67.76209986370183
 20
-135.0436089072113
 10
67.84478215534783
 20
-135.0436089072113
 10
67.84478215534783
 20
-135.0436089072113
 10
67.84478215534783
 20
-134.8810004003075
 10
67.84478215534783
 20
-134.8703206043033
 10
67.84237058850816
 20
-134.8155435860878
 10
67.84237058850816
 20
-134.8155435860878
 10
68.06664630459792
 20
-134.8406927831301
 10
68.06664630459792
 20
-134.8406927831301
 10
68.07112492872875
 20
-134.8406927831301
 10
68.09214001118877
 20
-134.8427598404213
 10
68.09214001118877
 20
-134.859640808299
 10
68.09214001118877
 20
-134.8744547188856
 10
68.08146021518449
 20
-134.8830674575987
 10
68.0538994513025
 20
-134.8978813681853
 10
68.04769827942906
 20
-134.963338182405
 10
68.0456312221379
 20
-134.984353264865
 10
68.0456312221379
 20
-135.0436089072113
 10
68.0456312221379
 20
-135.0436089072113
 10
68.1407158575308
 20
-135.0436089072113
 10
68.1407158575308
 20
-135.0436089072113
 10
68.22339814917679
 20
-135.0436089072113
 10
68.39668645208486
 20
-135.039474792629
 10
68.52174341819943
 20
-135.0312065634644
 10
68.52174341819943
 20
-135.0312065634644
 10
68.52174341819943
 20
-135.2110405477945
 10
68.52174341819943
 20
-135.2110405477945
 10
68.49211559702628
 20
-135.2089734905033
 10
68.37360431233368
 20
-135.2044948663725
 10
68.33329669515626
 20
-135.2024278090813
 10
68.31848278456968
 20
-135.2530707127145
 10
68.28472084881425
 20
-135.3653808255337
 10
68.21891952504596
 20
-135.5049071926863
 10
68.26129419951454
 20
-135.5049071926863
 10
68.53862438607715
 20
-135.4859591675174
 10
68.5999470857146
 20
-135.4838921102263
 10
68.5999470857146
 20
-135.4838921102263
 10
68.5999470857146
 20
-135.6678602091386
 10
68.5999470857146
 20
-135.6678602091386
 10
68.57031926454145
 20
-135.6678602091386
 10
68.55343829666373
 20
-135.6637260945563
 10
68.39048528021141
 20
-135.6637260945563
 97
        0
 97
        0
 92
        1
 93
        1
 72
     4
 94
        3
 73
     0
 74
     1
 95
       20
 96
       16
 40
0.0
 40
0.0
 40
0.0
 40
0.0
 40
1.0
 40
1.0
 40
1.0
 40
2.0
 40
2.0
 40
2.0
 40
3.0
 40
3.0
 40
3.0
 40
4.0
 40
4.0
 40
4.0
 40
5.0
 40
5.0
 40
5.0
 40
5.0
 10
67.76209986370183
 20
-135.1982936944991
 10
67.76209986370183
 20
-135.1982936944991
 10
67.73040498523754
 20
-135.1982936944991
 10
67.73040498523754
 20
-135.1982936944991
 10
67.77691377428842
 20
-135.2978569540228
 10
67.80860865275271
 20
-135.3777831692805
 10
67.84237058850816
 20
-135.5049071926863
 10
67.84237058850816
 20
-135.5049071926863
 10
68.0497653367202
 20
-135.5049071926863
 10
68.0497653367202
 20
-135.5049071926863
 10
68.08146021518449
 20
-135.4118896145845
 10
68.1048868644842
 20
-135.3274847751959
 10
68.12796900423537
 20
-135.1982936944991
 10
68.12796900423537
 20
-135.1982936944991
 10
67.76209986370183
 20
-135.1982936944991
 10
67.76209986370183
 20
-135.1982936944991
 97
        0
 97
        0
 92
        1
 93
        1
 72
     4
 94
        3
 73
     0
 74
     1
 95
       17
 96
       13
 40
0.0
 40
0.0
 40
0.0
 40
0.0
 40
1.0
 40
1.0
 40
1.0
 40
2.0
 40
2.0
 40
2.0
 40
3.0
 40
3.0
 40
3.0
 40
4.0
 40
4.0
 40
4.0
 40
4.0
 10
67.82548962063044
 20
-136.0488877698072
 10
67.80860865275271
 20
-136.0781710814319
 10
67.75796574911953
 20
-136.1715331690821
 10
67.74728595311527
 20
-136.1901366847025
 10
67.93779973344958
 20
-136.2493923270488
 10
67.9588148159096
 20
-136.2559380084707
 10
68.03081731155133
 20
-136.2834987723527
 10
68.08593883931532
 20
-136.1966823661244
 10
68.1090209790665
 20
-136.1226128131916
 10
68.12383488965307
 20
-136.0488877698072
 10
68.12383488965307
 20
-136.0488877698072
 10
67.82548962063044
 20
-136.0488877698072
 10
67.82548962063044
 20
-136.0488877698072
 97
        0
 97
        0
 75
     2
 76
     1
 98
        0
  0
SPLINE
  5
105
330
FD
100
AcDbEntity
  8
_U+30EC_U+30A4_U+30E4_U+30FC 1
370
     0
100
AcDbSpline
210
0.0
220
0.0
230
1.0
 70
    11
 71
     3
 72
   203
 73
   199
 74
     0
 42
0.0000000001
 43
0.0000000001
 12
1.0
 22
0.0
 32
0.0
 13
1.0
 23
0.0
 33
0.0
 40
0.0
 40
0.0
 40
0.0
 40
0.0
 40
1.0
 40
1.0
 40
1.0
 40
2.0
 40
2.0
 40
2.0
 40
3.0
 40
3.0
 40
3.0
 40
4.0
 40
4.0
 40
4.0
 40
5.0
 40
5.0
 40
5.0
 40
6.0
 40
6.0
 40
6.0
 40
7.0
 40
7.0
 40
7.0
 40
8.0
 40
8.0
 40
8.0
 40
9.0
 40
9.0
 40
9.0
 40
10.0
 40
10.0
 40
10.0
 40
11.0
 40
11.0
 40
11.0
 40
12.0
 40
12.0
 40
12.0
 40
13.0
 40
13.0
 40
13.0
 40
14.0
 40
14.0
 40
14.0
 40
15.0
 40
15.0
 40
15.0
 40
16.0
 40
16.0
 40
16.0
 40
17.0
 40
17.0
 40
17.0
 40
18.0
 40
18.0
 40
18.0
 40
19.0
 40
19.0
 40
19.0
 40
20.0
 40
20.0
 40
20.0
 40
21.0
 40
21.0
 40
21.0
 40
22.0
 40
22.0
 40
22.0
 40
23.0
 40
23.0
 40
23.0
 40
24.0
 40
24.0
 40
24.0
 40
25.0
 40
25.0
 40
25.0
 40
26.0
 40
26.0
 40
26.0
 40
27.0
 40
27.0
 40
27.0
 40
28.0
 40
28.0
 40
28.0
 40
29.0
 40
29.0
 40
29.0
 40
30.0
 40
30.0
 40
30.0
 40
31.0
 40
31.0
 40
31.0
 40
32.0
 40
32.0
 40
32.0
 40
33.0
 40
33.0
 40
33.0
 40
34.0
 40
34.0
 40
34.0
 40
35.0
 40
35.0
 40
35.0
 40
36.0
 40
36.0
 40
36.0
 40
37.0
 40
37.0
 40
37.0
 40
38.0
 40
38.0
 40
38.0
 40
39.0
 40
39.0
 40
39.0
 40
40.0
 40
40.0
 40
40.0
 40
41.0
 40
41.0
 40
41.0
 40
42.0
 40
42.0
 40
42.0
 40
43.0
 40
43.0
 40
43.0
 40
44.0
 40
44.0
 40
44.0
 40
45.0
 40
45.0
 40
45.0
 40
46.0
 40
46.0
 40
46.0
 40
47.0
 40
47.0
 40
47.0
 40
48.0
 40
48.0
 40
48.0
 40
49.0
 40
49.0
 40
49.0
 40
50.0
 40
50.0
 40
50.0
 40
51.0
 40
51.0
 40
51.0
 40
52.0
 40
52.0
 40
52.0
 40
53.0
 40
53.0
 40
53.0
 40
54.0
 40
54.0
 40
54.0
 40
55.0
 40
55.0
 40
55.0
 40
56.0
 40
56.0
 40
56.0
 40
57.0
 40
57.0
 40
57.0
 40
58.0
 40
58.0
 40
58.0
 40
59.0
 40
59.0
 40
59.0
 40
60.0
 40
60.0
 40
60.0
 40
61.0
 40
61.0
 40
61.0
 40
62.0
 40
62.0
 40
62.0
 40
63.0
 40
63.0
 40
63.0
 40
64.0
 40
64.0
 40
64.0
 40
65.0
 40
65.0
 40
65.0
 40
66.0
 40
66.0
 40
66.0
 40
66.0
 10
70.08202716346908
 20
-135.7312499660672
 30
0.0
 10
70.08202716346908
 20
-135.7312499660672
 30
0.0
 10
69.52323267576156
 20
-135.7312499660672
 30
0.0
 10
69.52323267576156
 20
-135.7312499660672
 30
0.0
 10
69.5128973893058
 20
-135.7756916978269
 30
0.0
 10
69.50428465059268
 20
-135.8073865762912
 30
0.0
 10
69.49153779729725
 20
-135.8456271361775
 30
0.0
 10
69.5170315038881
 20
-135.8456271361775
 30
0.0
 10
69.53184541447467
 20
-135.8476941934686
 30
0.0
 10
69.53804658634813
 20
-135.8476941934686
 30
0.0
 10
69.53804658634813
 20
-135.8476941934686
 30
0.0
 10
69.7264933093913
 20
-135.8476941934686
 30
0.0
 10
69.7264933093913
 20
-135.8476941934686
 30
0.0
 10
69.7264933093913
 20
-135.8476941934686
 30
0.0
 10
70.10097518863796
 20
-135.8476941934686
 30
0.0
 10
70.10097518863796
 20
-135.8476941934686
 30
0.0
 10
70.15161809227112
 20
-135.8476941934686
 30
0.0
 10
70.43514945070719
 20
-135.8349473401732
 30
0.0
 10
70.4668443291715
 20
-135.8349473401732
 30
0.0
 10
70.46477727188034
 20
-135.8625081040552
 30
0.0
 10
70.46271021458918
 20
-135.8814561292241
 30
0.0
 10
70.46271021458918
 20
-135.9110839503972
 30
0.0
 10
70.46064315729804
 20
-135.9427788288615
 30
0.0
 10
70.46064315729804
 20
-136.0781710814319
 30
0.0
 10
70.46064315729804
 20
-136.1057318453138
 30
0.0
 10
70.46064315729804
 20
-136.1057318453138
 30
0.0
 10
70.46064315729804
 20
-136.3513671534122
 30
0.0
 10
70.46064315729804
 20
-136.3513671534122
 30
0.0
 10
70.46064315729804
 20
-136.3954643756234
 30
0.0
 10
70.46477727188034
 20
-136.5925238373796
 30
0.0
 10
70.46891138646264
 20
-136.7447970578277
 30
0.0
 10
70.46891138646264
 20
-136.7447970578277
 30
0.0
 10
70.24256861308172
 20
-136.7447970578277
 30
0.0
 10
70.24256861308172
 20
-136.7447970578277
 30
0.0
 10
70.24256861308172
 20
-136.7447970578277
 30
0.0
 10
70.24463567037287
 20
-136.7110351220722
 30
0.0
 10
70.24463567037287
 20
-136.7110351220722
 30
0.0
 10
70.24463567037287
 20
-136.7110351220722
 30
0.0
 10
69.54252521047896
 20
-136.7110351220722
 30
0.0
 10
69.54252521047896
 20
-136.7110351220722
 30
0.0
 10
69.54252521047896
 20
-136.7110351220722
 30
0.0
 10
69.5445922677701
 20
-136.7447970578277
 30
0.0
 10
69.5445922677701
 20
-136.7447970578277
 30
0.0
 10
69.5445922677701
 20
-136.7447970578277
 30
0.0
 10
69.32651772355379
 20
-136.7447970578277
 30
0.0
 10
69.32651772355379
 20
-136.7447970578277
 30
0.0
 10
69.33099634768462
 20
-136.6896755300637
 30
0.0
 10
69.33099634768462
 20
-136.6769286767683
 30
0.0
 10
69.33719751955806
 20
-136.5628960162065
 30
0.0
 10
69.33926457684922
 20
-136.5353352523245
 30
0.0
 10
69.34133163414036
 20
-136.4020100570453
 30
0.0
 10
69.34133163414036
 20
-136.3830620318764
 30
0.0
 10
69.34133163414036
 20
-136.3830620318764
 30
0.0
 10
69.34133163414036
 20
-136.1798013982467
 30
0.0
 10
69.34133163414036
 20
-136.1798013982467
 30
0.0
 10
69.20180526698775
 20
-136.4292263113788
 30
0.0
 10
69.03265107866198
 20
-136.5608289589154
 30
0.0
 10
68.92688664726481
 20
-136.6262857731351
 30
0.0
 10
68.92688664726481
 20
-136.6262857731351
 30
0.0
 10
68.75325383480822
 20
-136.486414896434
 30
0.0
 10
68.75325383480822
 20
-136.486414896434
 30
0.0
 10
68.84213729832766
 20
-136.4357719928008
 30
0.0
 10
68.98614228961111
 20
-136.3489555865725
 30
0.0
 10
69.12360159947258
 20
-136.1543076916559
 30
0.0
 10
69.21455212028317
 20
-136.0275281777987
 30
0.0
 10
69.28000893450292
 20
-135.8835231865152
 30
0.0
 10
69.31411537980689
 20
-135.7312499660672
 30
0.0
 10
69.0853610395863
 20
-135.7333170233584
 30
0.0
 10
68.90552705525626
 20
-135.7398627047803
 30
0.0
 10
68.81044241986336
 20
-135.7419297620715
 30
0.0
 10
68.81044241986336
 20
-135.7419297620715
 30
0.0
 10
68.81044241986336
 20
-135.5641628350326
 30
0.0
 10
68.81044241986336
 20
-135.5641628350326
 30
0.0
 10
69.00715737207113
 20
-135.5707085164545
 30
0.0
 10
69.2906887305072
 20
-135.5748426310369
 30
0.0
 10
69.44089489366408
 20
-135.5748426310369
 30
0.0
 10
69.44089489366408
 20
-135.5748426310369
 30
0.0
 10
69.65449081374958
 20
-135.5748426310369
 30
0.0
 10
69.65449081374958
 20
-135.5748426310369
 30
0.0
 10
69.65449081374958
 20
-135.5748426310369
 30
0.0
 10
69.65449081374958
 20
-135.4666666328
 30
0.0
 10
69.65449081374958
 20
-135.4666666328
 30
0.0
 10
69.65449081374958
 20
-135.4666666328
 30
0.0
 10
69.50841876517498
 20
-135.4666666328
 30
0.0
 10
69.50841876517498
 20
-135.4666666328
 30
0.0
 10
69.33926457684922
 20
-135.4666666328
 30
0.0
 10
69.17011038852345
 20
-135.4711452569308
 30
0.0
 10
69.00302325748883
 20
-135.4776909383528
 30
0.0
 10
69.00302325748883
 20
-135.4776909383528
 30
0.0
 10
69.00302325748883
 20
-135.3061251831874
 30
0.0
 10
69.00302325748883
 20
-135.3061251831874
 30
0.0
 10
69.15736353522803
 20
-135.3164604696431
 30
0.0
 10
69.34339869143152
 20
-135.3164604696431
 30
0.0
 10
69.50841876517498
 20
-135.3164604696431
 30
0.0
 10
69.50841876517498
 20
-135.3164604696431
 30
0.0
 10
69.65449081374958
 20
-135.3164604696431
 30
0.0
 10
69.65449081374958
 20
-135.3164604696431
 30
0.0
 10
69.65449081374958
 20
-135.3164604696431
 30
0.0
 10
69.65449081374958
 20
-135.1982936944991
 30
0.0
 10
69.65449081374958
 20
-135.1982936944991
 30
0.0
 10
69.65449081374958
 20
-135.1982936944991
 30
0.0
 10
69.52323267576156
 20
-135.1982936944991
 30
0.0
 10
69.52323267576156
 20
-135.1982936944991
 30
0.0
 10
69.47672388671069
 20
-135.1982936944991
 30
0.0
 10
69.27380776262947
 20
-135.2069064332122
 30
0.0
 10
69.2314330881609
 20
-135.2069064332122
 30
0.0
 10
69.02851696407969
 20
-135.2110405477945
 30
0.0
 10
68.95203584430713
 20
-135.2131076050856
 30
0.0
 10
68.87383217679196
 20
-135.2151746623768
 30
0.0
 10
68.87383217679196
 20
-135.2151746623768
 30
0.0
 10
68.87383217679196
 20
-135.0312065634644
 30
0.0
 10
68.87383217679196
 20
-135.0312065634644
 30
0.0
 10
68.98820934690225
 20
-135.039474792629
 30
0.0
 10
69.03265107866198
 20
-135.039474792629
 30
0.0
 10
69.41540118707324
 20
-135.0480875313422
 30
0.0
 10
69.35201143014464
 20
-134.9526583864007
 30
0.0
 10
69.32445066626263
 20
-134.9250976225187
 30
0.0
 10
69.28862167321604
 20
-134.8892686294721
 30
0.0
 10
69.28862167321604
 20
-134.8892686294721
 30
0.0
 10
69.46397703341526
 20
-134.8065863378261
 30
0.0
 10
69.46397703341526
 20
-134.8065863378261
 30
0.0
 10
69.50428465059268
 20
-134.8427598404213
 30
0.0
 10
69.5487263823524
 20
-134.8851345148898
 30
0.0
 10
69.62279593528528
 20
-134.9950330608693
 30
0.0
 10
69.62279593528528
 20
-134.9950330608693
 30
0.0
 10
69.50841876517498
 20
-135.0501545886333
 30
0.0
 10
69.50841876517498
 20
-135.0501545886333
 30
0.0
 10
69.50841876517498
 20
-135.0501545886333
 30
0.0
 10
69.51909856117926
 20
-135.0501545886333
 30
0.0
 10
69.51909856117926
 20
-135.0501545886333
 30
0.0
 10
69.51909856117926
 20
-135.0501545886333
 30
0.0
 10
70.04171954629166
 20
-135.0501545886333
 30
0.0
 10
70.04171954629166
 20
-135.0501545886333
 30
0.0
 10
70.04171954629166
 20
-135.0501545886333
 30
0.0
 10
69.94663491089877
 20
-135.0057128568736
 30
0.0
 10
69.94663491089877
 20
-135.0057128568736
 30
0.0
 10
69.97385116523223
 20
-134.9678168065358
 30
0.0
 10
70.03103975028738
 20
-134.887201572181
 30
0.0
 10
70.04585366087396
 20
-134.8131320192481
 30
0.0
 10
70.04585366087396
 20
-134.8131320192481
 30
0.0
 10
70.25944958095944
 20
-134.8768662857252
 30
0.0
 10
70.25944958095944
 20
-134.8768662857252
 30
0.0
 10
70.26806231967257
 20
-134.8789333430164
 30
0.0
 10
70.28907740213259
 20
-134.8892686294721
 30
0.0
 10
70.28907740213259
 20
-134.9106282214807
 30
0.0
 10
70.28907740213259
 20
-134.9485242718184
 30
0.0
 10
70.22362058791285
 20
-134.9485242718184
 30
0.0
 10
70.20467256274398
 20
-134.9485242718184
 30
0.0
 10
70.1939927667397
 20
-134.9678168065358
 30
0.0
 10
70.17056611744
 20
-135.0077799141647
 30
0.0
 10
70.14093829626685
 20
-135.0480875313422
 30
0.0
 10
70.54091388210436
 20
-135.0415418499202
 30
0.0
 10
70.57054170327751
 20
-135.039474792629
 30
0.0
 10
70.64667831350152
 20
-135.0332736207556
 30
0.0
 10
70.64667831350152
 20
-135.0332736207556
 30
0.0
 10
70.64667831350152
 20
-135.2151746623768
 30
0.0
 10
70.64667831350152
 20
-135.2151746623768
 30
0.0
 10
70.62773028833266
 20
-135.2151746623768
 30
0.0
 10
70.6022365817418
 20
-135.2131076050856
 30
0.0
 10
70.38243948978287
 20
-135.2044948663725
 30
0.0
 10
70.33145207660117
 20
-135.2024278090813
 30
0.0
 10
70.11165498464223
 20
-135.1982936944991
 30
0.0
 10
70.06721325288251
 20
-135.1982936944991
 30
0.0
 10
70.06721325288251
 20
-135.1982936944991
 30
0.0
 10
69.85120576595735
 20
-135.1982936944991
 30
0.0
 10
69.85120576595735
 20
-135.1982936944991
 30
0.0
 10
69.85120576595735
 20
-135.1982936944991
 30
0.0
 10
69.85120576595735
 20
-135.3164604696431
 30
0.0
 10
69.85120576595735
 20
-135.3164604696431
 30
0.0
 10
69.85120576595735
 20
-135.3164604696431
 30
0.0
 10
70.02483857841393
 20
-135.3164604696431
 30
0.0
 10
70.02483857841393
 20
-135.3164604696431
 30
0.0
 10
70.18779159486625
 20
-135.3164604696431
 30
0.0
 10
70.37796086565204
 20
-135.3164604696431
 30
0.0
 10
70.5347127102309
 20
-135.3061251831874
 30
0.0
 10
70.5347127102309
 20
-135.3061251831874
 30
0.0
 10
70.5347127102309
 20
-135.4776909383528
 30
0.0
 10
70.5347127102309
 20
-135.4776909383528
 30
0.0
 10
70.32525090472772
 20
-135.4690781996397
 30
0.0
 10
70.12853595251995
 20
-135.4666666328
 30
0.0
 10
70.02483857841393
 20
-135.4666666328
 30
0.0
 10
70.02483857841393
 20
-135.4666666328
 30
0.0
 10
69.85120576595735
 20
-135.4666666328
 30
0.0
 10
69.85120576595735
 20
-135.4666666328
 30
0.0
 10
69.85120576595735
 20
-135.4666666328
 30
0.0
 10
69.85120576595735
 20
-135.5748426310369
 30
0.0
 10
69.85120576595735
 20
-135.5748426310369
 30
0.0
 10
69.85120576595735
 20
-135.5748426310369
 30
0.0
 10
70.08202716346908
 20
-135.5748426310369
 30
0.0
 10
70.08202716346908
 20
-135.5748426310369
 30
0.0
 10
70.21500784919972
 20
-135.5748426310369
 30
0.0
 10
70.50301783176661
 20
-135.5707085164545
 30
0.0
 10
70.71213512772127
 20
-135.5641628350326
 30
0.0
 10
70.71213512772127
 20
-135.5641628350326
 30
0.0
 10
70.71213512772127
 20
-135.7419297620715
 30
0.0
 10
70.71213512772127
 20
-135.7419297620715
 30
0.0
 10
70.51989879964434
 20
-135.7353840806495
 30
0.0
 10
70.20673962003512
 20
-135.7312499660672
 30
0.0
 10
70.08202716346908
 20
-135.7312499660672
 30
0.0
  0
POLYLINE
  5
106
330
FD
100
AcDbEntity
  8
_U+30EC_U+30A4_U+30E4_U+30FC 1
370
     0
100
AcDb2dPolyline
 66
     1
 10
0.0
 20
0.0
 30
0.0
  0
VERTEX
  5
107
330
106
100
AcDbEntity
  8
_U+30EC_U+30A4_U+30E4_U+30FC 1
370
     0
100
AcDbVertex
100
AcDb2dVertex
 10
70.24704723721254
 20
-135.9872205606213
 30
0.0
  0
VERTEX
  5
108
330
106
100
AcDbEntity
  8
_U+30EC_U+30A4_U+30E4_U+30FC 1
370
     0
100
AcDbVertex
100
AcDb2dVertex
 10
69.5404581531878
 20
-135.9872205606213
 30
0.0
  0
VERTEX
  5
109
330
106
100
AcDbEntity
  8
_U+30EC_U+30A4_U+30E4_U+30FC 1
370
     0
100
AcDbVertex
100
AcDb2dVertex
 10
69.5404581531878
 20
-136.0950520493096
 30
0.0
  0
VERTEX
  5
10A
330
106
100
AcDbEntity
  8
_U+30EC_U+30A4_U+30E4_U+30FC 1
370
     0
100
AcDbVertex
100
AcDb2dVertex
 10
70.24704723721254
 20
-136.0950520493096
 30
0.0
  0
VERTEX
  5
10B
330
106
100
AcDbEntity
  8
_U+30EC_U+30A4_U+30E4_U+30FC 1
370
     0
100
AcDbVertex
100
AcDb2dVertex
 10
70.24704723721254
 20
-135.9872205606213
 30
0.0
  0
SEQEND
  5
10C
330
106
100
AcDbEntity
  8
_U+30EC_U+30A4_U+30E4_U+30FC 1
370
     0
  0
POLYLINE
  5
10D
330
FD
100
AcDbEntity
  8
_U+30EC_U+30A4_U+30E4_U+30FC 1
370
     0
100
AcDb2dPolyline
 66
     1
 10
0.0
 20
0.0
 30
0.0
  0
VERTEX
  5
10E
330
10D
100
AcDbEntity
  8
_U+30EC_U+30A4_U+30E4_U+30FC 1
370
     0
100
AcDbVertex
100
AcDb2dVertex
 10
70.24704723721254
 20
-136.2197645058756
 30
0.0
  0
VERTEX
  5
10F
330
10D
100
AcDbEntity
  8
_U+30EC_U+30A4_U+30E4_U+30FC 1
370
     0
100
AcDbVertex
100
AcDb2dVertex
 10
69.5404581531878
 20
-136.2197645058756
 30
0.0
  0
VERTEX
  5
110
330
10D
100
AcDbEntity
  8
_U+30EC_U+30A4_U+30E4_U+30FC 1
370
     0
100
AcDbVertex
100
AcDb2dVertex
 10
69.5404581531878
 20
-136.3341416759859
 30
0.0
  0
VERTEX
  5
111
330
10D
100
AcDbEntity
  8
_U+30EC_U+30A4_U+30E4_U+30FC 1
370
     0
100
AcDbVertex
100
AcDb2dVertex
 10
70.24704723721254
 20
-136.3341416759859
 30
0.0
  0
VERTEX
  5
112
330
10D
100
AcDbEntity
  8
_U+30EC_U+30A4_U+30E4_U+30FC 1
370
     0
100
AcDbVertex
100
AcDb2dVertex
 10
70.24704723721254
 20
-136.2197645058756
 30
0.0
  0
SEQEND
  5
113
330
10D
100
AcDbEntity
  8
_U+30EC_U+30A4_U+30E4_U+30FC 1
370
     0
  0
POLYLINE
  5
114
330
FD
100
AcDbEntity
  8
_U+30EC_U+30A4_U+30E4_U+30FC 1
370
     0
100
AcDb2dPolyline
 66
     1
 10
0.0
 20
0.0
 30
0.0
  0
VERTEX
  5
115
330
114
100
AcDbEntity
  8
_U+30EC_U+30A4_U+30E4_U+30FC 1
370
     0
100
AcDbVertex
100
AcDb2dVertex
 10
70.24704723721254
 20
-136.4633327566828
 30
0.0
  0
VERTEX
  5
116
330
114
100
AcDbEntity
  8
_U+30EC_U+30A4_U+30E4_U+30FC 1
370
     0
100
AcDbVertex
100
AcDb2dVertex
 10
69.5404581531878
 20
-136.4633327566828
 30
0.0
  0
VERTEX
  5
117
330
114
100
AcDbEntity
  8
_U+30EC_U+30A4_U+30E4_U+30FC 1
370
     0
100
AcDbVertex
100
AcDb2dVertex
 10
69.5404581531878
 20
-136.5773654172446
 30
0.0
  0
VERTEX
  5
118
330
114
100
AcDbEntity
  8
_U+30EC_U+30A4_U+30E4_U+30FC 1
370
     0
100
AcDbVertex
100
AcDb2dVertex
 10
70.24704723721254
 20
-136.5773654172446
 30
0.0
  0
VERTEX
  5
119
330
114
100
AcDbEntity
  8
_U+30EC_U+30A4_U+30E4_U+30FC 1
370
     0
100
AcDbVertex
100
AcDb2dVertex
 10
70.24704723721254
 20
-136.4633327566828
 30
0.0
  0
SEQEND
  5
11A
330
114
100
AcDbEntity
  8
_U+30EC_U+30A4_U+30E4_U+30FC 1
370
     0
  0
HATCH
  5
11B
330
FD
100
AcDbEntity
  8
_U+30EC_U+30A4_U+30E4_U+30FC 1
 62
   179
420
  2234388
100
AcDbHatch
 10
0.0
 20
0.0
 30
0.0
210
0.0
220
0.0
230
1.0
  2
SOLID
 70
     1
 71
     0
 91
        4
 92
        1
 93
        1
 72
     4
 94
        3
 73
     0
 74
     1
 95
      203
 96
      199
 40
0.0
 40
0.0
 40
0.0
 40
0.0
 40
1.0
 40
1.0
 40
1.0
 40
2.0
 40
2.0
 40
2.0
 40
3.0
 40
3.0
 40
3.0
 40
4.0
 40
4.0
 40
4.0
 40
5.0
 40
5.0
 40
5.0
 40
6.0
 40
6.0
 40
6.0
 40
7.0
 40
7.0
 40
7.0
 40
8.0
 40
8.0
 40
8.0
 40
9.0
 40
9.0
 40
9.0
 40
10.0
 40
10.0
 40
10.0
 40
11.0
 40
11.0
 40
11.0
 40
12.0
 40
12.0
 40
12.0
 40
13.0
 40
13.0
 40
13.0
 40
14.0
 40
14.0
 40
14.0
 40
15.0
 40
15.0
 40
15.0
 40
16.0
 40
16.0
 40
16.0
 40
17.0
 40
17.0
 40
17.0
 40
18.0
 40
18.0
 40
18.0
 40
19.0
 40
19.0
 40
19.0
 40
20.0
 40
20.0
 40
20.0
 40
21.0
 40
21.0
 40
21.0
 40
22.0
 40
22.0
 40
22.0
 40
23.0
 40
23.0
 40
23.0
 40
24.0
 40
24.0
 40
24.0
 40
25.0
 40
25.0
 40
25.0
 40
26.0
 40
26.0
 40
26.0
 40
27.0
 40
27.0
 40
27.0
 40
28.0
 40
28.0
 40
28.0
 40
29.0
 40
29.0
 40
29.0
 40
30.0
 40
30.0
 40
30.0
 40
31.0
 40
31.0
 40
31.0
 40
32.0
 40
32.0
 40
32.0
 40
33.0
 40
33.0
 40
33.0
 40
34.0
 40
34.0
 40
34.0
 40
35.0
 40
35.0
 40
35.0
 40
36.0
 40
36.0
 40
36.0
 40
37.0
 40
37.0
 40
37.0
 40
38.0
 40
38.0
 40
38.0
 40
39.0
 40
39.0
 40
39.0
 40
40.0
 40
40.0
 40
40.0
 40
41.0
 40
41.0
 40
41.0
 40
42.0
 40
42.0
 40
42.0
 40
43.0
 40
43.0
 40
43.0
 40
44.0
 40
44.0
 40
44.0
 40
45.0
 40
45.0
 40
45.0
 40
46.0
 40
46.0
 40
46.0
 40
47.0
 40
47.0
 40
47.0
 40
48.0
 40
48.0
 40
48.0
 40
49.0
 40
49.0
 40
49.0
 40
50.0
 40
50.0
 40
50.0
 40
51.0
 40
51.0
 40
51.0
 40
52.0
 40
52.0
 40
52.0
 40
53.0
 40
53.0
 40
53.0
 40
54.0
 40
54.0
 40
54.0
 40
55.0
 40
55.0
 40
55.0
 40
56.0
 40
56.0
 40
56.0
 40
57.0
 40
57.0
 40
57.0
 40
58.0
 40
58.0
 40
58.0
 40
59.0
 40
59.0
 40
59.0
 40
60.0
 40
60.0
 40
60.0
 40
61.0
 40
61.0
 40
61.0
 40
62.0
 40
62.0
 40
62.0
 40
63.0
 40
63.0
 40
63.0
 40
64.0
 40
64.0
 40
64.0
 40
65.0
 40
65.0
 40
65.0
 40
66.0
 40
66.0
 40
66.0
 40
66.0
 10
70.08202716346908
 20
-135.7312499660672
 10
70.08202716346908
 20
-135.7312499660672
 10
69.52323267576156
 20
-135.7312499660672
 10
69.52323267576156
 20
-135.7312499660672
 10
69.5128973893058
 20
-135.7756916978269
 10
69.50428465059268
 20
-135.8073865762912
 10
69.49153779729725
 20
-135.8456271361775
 10
69.5170315038881
 20
-135.8456271361775
 10
69.53184541447467
 20
-135.8476941934686
 10
69.53804658634813
 20
-135.8476941934686
 10
69.53804658634813
 20
-135.8476941934686
 10
69.7264933093913
 20
-135.8476941934686
 10
69.7264933093913
 20
-135.8476941934686
 10
69.7264933093913
 20
-135.8476941934686
 10
70.10097518863796
 20
-135.8476941934686
 10
70.10097518863796
 20
-135.8476941934686
 10
70.15161809227112
 20
-135.8476941934686
 10
70.43514945070719
 20
-135.8349473401732
 10
70.4668443291715
 20
-135.8349473401732
 10
70.46477727188034
 20
-135.8625081040552
 10
70.46271021458918
 20
-135.8814561292241
 10
70.46271021458918
 20
-135.9110839503972
 10
70.46064315729804
 20
-135.9427788288615
 10
70.46064315729804
 20
-136.0781710814319
 10
70.46064315729804
 20
-136.1057318453138
 10
70.46064315729804
 20
-136.1057318453138
 10
70.46064315729804
 20
-136.3513671534122
 10
70.46064315729804
 20
-136.3513671534122
 10
70.46064315729804
 20
-136.3954643756234
 10
70.46477727188034
 20
-136.5925238373796
 10
70.46891138646264
 20
-136.7447970578277
 10
70.46891138646264
 20
-136.7447970578277
 10
70.24256861308172
 20
-136.7447970578277
 10
70.24256861308172
 20
-136.7447970578277
 10
70.24256861308172
 20
-136.7447970578277
 10
70.24463567037287
 20
-136.7110351220722
 10
70.24463567037287
 20
-136.7110351220722
 10
70.24463567037287
 20
-136.7110351220722
 10
69.54252521047896
 20
-136.7110351220722
 10
69.54252521047896
 20
-136.7110351220722
 10
69.54252521047896
 20
-136.7110351220722
 10
69.5445922677701
 20
-136.7447970578277
 10
69.5445922677701
 20
-136.7447970578277
 10
69.5445922677701
 20
-136.7447970578277
 10
69.32651772355379
 20
-136.7447970578277
 10
69.32651772355379
 20
-136.7447970578277
 10
69.33099634768462
 20
-136.6896755300637
 10
69.33099634768462
 20
-136.6769286767683
 10
69.33719751955806
 20
-136.5628960162065
 10
69.33926457684922
 20
-136.5353352523245
 10
69.34133163414036
 20
-136.4020100570453
 10
69.34133163414036
 20
-136.3830620318764
 10
69.34133163414036
 20
-136.3830620318764
 10
69.34133163414036
 20
-136.1798013982467
 10
69.34133163414036
 20
-136.1798013982467
 10
69.20180526698775
 20
-136.4292263113788
 10
69.03265107866198
 20
-136.5608289589154
 10
68.92688664726481
 20
-136.6262857731351
 10
68.92688664726481
 20
-136.6262857731351
 10
68.75325383480822
 20
-136.486414896434
 10
68.75325383480822
 20
-136.486414896434
 10
68.84213729832766
 20
-136.4357719928008
 10
68.98614228961111
 20
-136.3489555865725
 10
69.12360159947258
 20
-136.1543076916559
 10
69.21455212028317
 20
-136.0275281777987
 10
69.28000893450292
 20
-135.8835231865152
 10
69.31411537980689
 20
-135.7312499660672
 10
69.0853610395863
 20
-135.7333170233584
 10
68.90552705525626
 20
-135.7398627047803
 10
68.81044241986336
 20
-135.7419297620715
 10
68.81044241986336
 20
-135.7419297620715
 10
68.81044241986336
 20
-135.5641628350326
 10
68.81044241986336
 20
-135.5641628350326
 10
69.00715737207113
 20
-135.5707085164545
 10
69.2906887305072
 20
-135.5748426310369
 10
69.44089489366408
 20
-135.5748426310369
 10
69.44089489366408
 20
-135.5748426310369
 10
69.65449081374958
 20
-135.5748426310369
 10
69.65449081374958
 20
-135.5748426310369
 10
69.65449081374958
 20
-135.5748426310369
 10
69.65449081374958
 20
-135.4666666328
 10
69.65449081374958
 20
-135.4666666328
 10
69.65449081374958
 20
-135.4666666328
 10
69.50841876517498
 20
-135.4666666328
 10
69.50841876517498
 20
-135.4666666328
 10
69.33926457684922
 20
-135.4666666328
 10
69.17011038852345
 20
-135.4711452569308
 10
69.00302325748883
 20
-135.4776909383528
 10
69.00302325748883
 20
-135.4776909383528
 10
69.00302325748883
 20
-135.3061251831874
 10
69.00302325748883
 20
-135.3061251831874
 10
69.15736353522803
 20
-135.3164604696431
 10
69.34339869143152
 20
-135.3164604696431
 10
69.50841876517498
 20
-135.3164604696431
 10
69.50841876517498
 20
-135.3164604696431
 10
69.65449081374958
 20
-135.3164604696431
 10
69.65449081374958
 20
-135.3164604696431
 10
69.65449081374958
 20
-135.3164604696431
 10
69.65449081374958
 20
-135.1982936944991
 10
69.65449081374958
 20
-135.1982936944991
 10
69.65449081374958
 20
-135.1982936944991
 10
69.52323267576156
 20
-135.1982936944991
 10
69.52323267576156
 20
-135.1982936944991
 10
69.47672388671069
 20
-135.1982936944991
 10
69.27380776262947
 20
-135.2069064332122
 10
69.2314330881609
 20
-135.2069064332122
 10
69.02851696407969
 20
-135.2110405477945
 10
68.95203584430713
 20
-135.2131076050856
 10
68.87383217679196
 20
-135.2151746623768
 10
68.87383217679196
 20
-135.2151746623768
 10
68.87383217679196
 20
-135.0312065634644
 10
68.87383217679196
 20
-135.0312065634644
 10
68.98820934690225
 20
-135.039474792629
 10
69.03265107866198
 20
-135.039474792629
 10
69.41540118707324
 20
-135.0480875313422
 10
69.35201143014464
 20
-134.9526583864007
 10
69.32445066626263
 20
-134.9250976225187
 10
69.28862167321604
 20
-134.8892686294721
 10
69.28862167321604
 20
-134.8892686294721
 10
69.46397703341526
 20
-134.8065863378261
 10
69.46397703341526
 20
-134.8065863378261
 10
69.50428465059268
 20
-134.8427598404213
 10
69.5487263823524
 20
-134.8851345148898
 10
69.62279593528528
 20
-134.9950330608693
 10
69.62279593528528
 20
-134.9950330608693
 10
69.50841876517498
 20
-135.0501545886333
 10
69.50841876517498
 20
-135.0501545886333
 10
69.50841876517498
 20
-135.0501545886333
 10
69.51909856117926
 20
-135.0501545886333
 10
69.51909856117926
 20
-135.0501545886333
 10
69.51909856117926
 20
-135.0501545886333
 10
70.04171954629166
 20
-135.0501545886333
 10
70.04171954629166
 20
-135.0501545886333
 10
70.04171954629166
 20
-135.0501545886333
 10
69.94663491089877
 20
-135.0057128568736
 10
69.94663491089877
 20
-135.0057128568736
 10
69.97385116523223
 20
-134.9678168065358
 10
70.03103975028738
 20
-134.887201572181
 10
70.04585366087396
 20
-134.8131320192481
 10
70.04585366087396
 20
-134.8131320192481
 10
70.25944958095944
 20
-134.8768662857252
 10
70.25944958095944
 20
-134.8768662857252
 10
70.26806231967257
 20
-134.8789333430164
 10
70.28907740213259
 20
-134.8892686294721
 10
70.28907740213259
 20
-134.9106282214807
 10
70.28907740213259
 20
-134.9485242718184
 10
70.22362058791285
 20
-134.9485242718184
 10
70.20467256274398
 20
-134.9485242718184
 10
70.1939927667397
 20
-134.9678168065358
 10
70.17056611744
 20
-135.0077799141647
 10
70.14093829626685
 20
-135.0480875313422
 10
70.54091388210436
 20
-135.0415418499202
 10
70.57054170327751
 20
-135.039474792629
 10
70.64667831350152
 20
-135.0332736207556
 10
70.64667831350152
 20
-135.0332736207556
 10
70.64667831350152
 20
-135.2151746623768
 10
70.64667831350152
 20
-135.2151746623768
 10
70.62773028833266
 20
-135.2151746623768
 10
70.6022365817418
 20
-135.2131076050856
 10
70.38243948978287
 20
-135.2044948663725
 10
70.33145207660117
 20
-135.2024278090813
 10
70.11165498464223
 20
-135.1982936944991
 10
70.06721325288251
 20
-135.1982936944991
 10
70.06721325288251
 20
-135.1982936944991
 10
69.85120576595735
 20
-135.1982936944991
 10
69.85120576595735
 20
-135.1982936944991
 10
69.85120576595735
 20
-135.1982936944991
 10
69.85120576595735
 20
-135.3164604696431
 10
69.85120576595735
 20
-135.3164604696431
 10
69.85120576595735
 20
-135.3164604696431
 10
70.02483857841393
 20
-135.3164604696431
 10
70.02483857841393
 20
-135.3164604696431
 10
70.18779159486625
 20
-135.3164604696431
 10
70.37796086565204
 20
-135.3164604696431
 10
70.5347127102309
 20
-135.3061251831874
 10
70.5347127102309
 20
-135.3061251831874
 10
70.5347127102309
 20
-135.4776909383528
 10
70.5347127102309
 20
-135.4776909383528
 10
70.32525090472772
 20
-135.4690781996397
 10
70.12853595251995
 20
-135.4666666328
 10
70.02483857841393
 20
-135.4666666328
 10
70.02483857841393
 20
-135.4666666328
 10
69.85120576595735
 20
-135.4666666328
 10
69.85120576595735
 20
-135.4666666328
 10
69.85120576595735
 20
-135.4666666328
 10
69.85120576595735
 20
-135.5748426310369
 10
69.85120576595735
 20
-135.5748426310369
 10
69.85120576595735
 20
-135.5748426310369
 10
70.08202716346908
 20
-135.5748426310369
 10
70.08202716346908
 20
-135.5748426310369
 10
70.21500784919972
 20
-135.5748426310369
 10
70.50301783176661
 20
-135.5707085164545
 10
70.71213512772127
 20
-135.5641628350326
 10
70.71213512772127
 20
-135.5641628350326
 10
70.71213512772127
 20
-135.7419297620715
 10
70.71213512772127
 20
-135.7419297620715
 10
70.51989879964434
 20
-135.7353840806495
 10
70.20673962003512
 20
-135.7312499660672
 10
70.08202716346908
 20
-135.7312499660672
 97
        0
 97
        0
 92
        1
 93
        4
 72
     1
 10
70.24704723721254
 20
-135.9872205606213
 11
69.5404581531878
 21
-135.9872205606213
 72
     1
 10
69.5404581531878
 20
-135.9872205606213
 11
69.5404581531878
 21
-136.0950520493096
 72
     1
 10
69.5404581531878
 20
-136.0950520493096
 11
70.24704723721254
 21
-136.0950520493096
 72
     1
 10
70.24704723721254
 20
-136.0950520493096
 11
70.24704723721254
 21
-135.9872205606213
 97
        0
 92
        1
 93
        4
 72
     1
 10
70.24704723721254
 20
-136.2197645058756
 11
69.5404581531878
 21
-136.2197645058756
 72
     1
 10
69.5404581531878
 20
-136.2197645058756
 11
69.5404581531878
 21
-136.3341416759859
 72
     1
 10
69.5404581531878
 20
-136.3341416759859
 11
70.24704723721254
 21
-136.3341416759859
 72
     1
 10
70.24704723721254
 20
-136.3341416759859
 11
70.24704723721254
 21
-136.2197645058756
 97
        0
 92
        1
 93
        4
 72
     1
 10
70.24704723721254
 20
-136.4633327566828
 11
69.5404581531878
 21
-136.4633327566828
 72
     1
 10
69.5404581531878
 20
-136.4633327566828
 11
69.5404581531878
 21
-136.5773654172446
 72
     1
 10
69.5404581531878
 20
-136.5773654172446
 11
70.24704723721254
 21
-136.5773654172446
 72
     1
 10
70.24704723721254
 20
-136.5773654172446
 11
70.24704723721254
 21
-136.4633327566828
 97
        0
 75
     2
 76
     1
 98
        0
  0
SPLINE
  5
11C
330
FD
100
AcDbEntity
  8
_U+30EC_U+30A4_U+30E4_U+30FC 1
370
     0
100
AcDbSpline
210
0.0
220
0.0
230
1.0
 70
    11
 71
     3
 72
    47
 73
    43
 74
     0
 42
0.0000000001
 43
0.0000000001
 12
1.0
 22
0.0
 32
0.0
 13
1.0
 23
0.0
 33
0.0
 40
0.0
 40
0.0
 40
0.0
 40
0.0
 40
1.0
 40
1.0
 40
1.0
 40
2.0
 40
2.0
 40
2.0
 40
3.0
 40
3.0
 40
3.0
 40
4.0
 40
4.0
 40
4.0
 40
5.0
 40
5.0
 40
5.0
 40
6.0
 40
6.0
 40
6.0
 40
7.0
 40
7.0
 40
7.0
 40
8.0
 40
8.0
 40
8.0
 40
9.0
 40
9.0
 40
9.0
 40
10.0
 40
10.0
 40
10.0
 40
11.0
 40
11.0
 40
11.0
 40
12.0
 40
12.0
 40
12.0
 40
13.0
 40
13.0
 40
13.0
 40
14.0
 40
14.0
 40
14.0
 40
14.0
 10
72.05882295290543
 20
-135.7078233167675
 30
0.0
 10
72.05882295290543
 20
-135.7078233167675
 30
0.0
 10
71.95719263609057
 20
-135.7078233167675
 30
0.0
 10
71.95719263609057
 20
-135.7078233167675
 30
0.0
 10
71.95719263609057
 20
-135.7946397229958
 30
0.0
 10
71.93617755363054
 20
-136.183935512829
 30
0.0
 10
71.73946260142277
 20
-136.4040771143365
 30
0.0
 10
71.58684487142621
 20
-136.5732313026623
 30
0.0
 10
71.3797946327627
 20
-136.6431667410128
 30
0.0
 10
71.29504528382554
 20
-136.6703829953463
 30
0.0
 10
71.29504528382554
 20
-136.6703829953463
 30
0.0
 10
71.10039738890893
 20
-136.5036403738602
 30
0.0
 10
71.10039738890893
 20
-136.5036403738602
 30
0.0
 10
71.19789359114151
 20
-136.4905490110163
 30
0.0
 10
71.37324895134071
 20
-136.4674668712651
 30
0.0
 10
71.56169567438388
 20
-136.2790201482219
 30
0.0
 10
71.63576522731675
 20
-136.2073621621287
 30
0.0
 10
71.73946260142277
 20
-136.0674912854276
 30
0.0
 10
71.73946260142277
 20
-135.7078233167675
 30
0.0
 10
71.73946260142277
 20
-135.7078233167675
 30
0.0
 10
71.50864120391104
 20
-135.7078233167675
 30
0.0
 10
71.50864120391104
 20
-135.7078233167675
 30
0.0
 10
71.32260604770755
 20
-135.7078233167675
 30
0.0
 10
71.13622638195552
 20
-135.7123019408983
 30
0.0
 10
70.95019122575204
 20
-135.7271158514849
 30
0.0
 10
70.95019122575204
 20
-135.7271158514849
 30
0.0
 10
70.95019122575204
 20
-135.507318759526
 30
0.0
 10
70.95019122575204
 20
-135.507318759526
 30
0.0
 10
71.1386379487952
 20
-135.521788160564
 30
0.0
 10
71.42423636452241
 20
-135.5259222751463
 30
0.0
 10
71.50864120391104
 20
-135.5259222751463
 30
0.0
 10
71.50864120391104
 20
-135.5259222751463
 30
0.0
 10
72.05882295290543
 20
-135.5259222751463
 30
0.0
 10
72.05882295290543
 20
-135.5259222751463
 30
0.0
 10
72.07777097807431
 20
-135.5259222751463
 30
0.0
 10
72.39506427226583
 20
-135.5259222751463
 30
0.0
 10
72.62347410293789
 20
-135.507318759526
 30
0.0
 10
72.62347410293789
 20
-135.507318759526
 30
0.0
 10
72.62347410293789
 20
-135.7271158514849
 30
0.0
 10
72.62347410293789
 20
-135.7271158514849
 30
0.0
 10
72.43537188944325
 20
-135.7123019408983
 30
0.0
 10
72.24692516640008
 20
-135.7078233167675
 30
0.0
 10
72.05882295290543
 20
-135.7078233167675
 30
0.0
  0
SPLINE
  5
11D
330
FD
100
AcDbEntity
  8
_U+30EC_U+30A4_U+30E4_U+30FC 1
370
     0
100
AcDbSpline
210
0.0
220
0.0
230
1.0
 70
    11
 71
     3
 72
    29
 73
    25
 74
     0
 42
0.0000000001
 43
0.0000000001
 12
1.0
 22
0.0
 32
0.0
 13
1.0
 23
0.0
 33
0.0
 40
0.0
 40
0.0
 40
0.0
 40
0.0
 40
1.0
 40
1.0
 40
1.0
 40
2.0
 40
2.0
 40
2.0
 40
3.0
 40
3.0
 40
3.0
 40
4.0
 40
4.0
 40
4.0
 40
5.0
 40
5.0
 40
5.0
 40
6.0
 40
6.0
 40
6.0
 40
7.0
 40
7.0
 40
7.0
 40
8.0
 40
8.0
 40
8.0
 40
8.0
 10
71.95719263609057
 20
-135.1793456693302
 30
0.0
 10
71.95719263609057
 20
-135.1793456693302
 30
0.0
 10
71.60372583930393
 20
-135.1793456693302
 30
0.0
 10
71.60372583930393
 20
-135.1793456693302
 30
0.0
 10
71.49176023603331
 20
-135.1793456693302
 30
0.0
 10
71.35223386888069
 20
-135.1855468412036
 30
0.0
 10
71.24440238019237
 20
-135.1982936944991
 30
0.0
 10
71.24440238019237
 20
-135.1982936944991
 30
0.0
 10
71.24440238019237
 20
-134.963338182405
 30
0.0
 10
71.24440238019237
 20
-134.963338182405
 30
0.0
 10
71.36256915533644
 20
-134.9781520929916
 30
0.0
 10
71.54688176379732
 20
-134.9822862075739
 30
0.0
 10
71.60372583930393
 20
-134.9822862075739
 30
0.0
 10
71.60372583930393
 20
-134.9822862075739
 30
0.0
 10
71.95719263609057
 20
-134.9822862075739
 30
0.0
 10
71.95719263609057
 20
-134.9822862075739
 30
0.0
 10
71.97614066125944
 20
-134.9822862075739
 30
0.0
 10
72.17940129488917
 20
-134.9822862075739
 30
0.0
 10
72.32099471933294
 20
-134.963338182405
 30
0.0
 10
72.32099471933294
 20
-134.963338182405
 30
0.0
 10
72.32099471933294
 20
-135.1982936944991
 30
0.0
 10
72.32099471933294
 20
-135.1982936944991
 30
0.0
 10
72.1645873843026
 20
-135.1793456693302
 30
0.0
 10
71.9740736039683
 20
-135.1793456693302
 30
0.0
 10
71.95719263609057
 20
-135.1793456693302
 30
0.0
  0
HATCH
  5
11E
330
FD
100
AcDbEntity
  8
_U+30EC_U+30A4_U+30E4_U+30FC 1
 62
   179
420
  2234388
100
AcDbHatch
 10
0.0
 20
0.0
 30
0.0
210
0.0
220
0.0
230
1.0
  2
SOLID
 70
     1
 71
     0
 91
        2
 92
        1
 93
        1
 72
     4
 94
        3
 73
     0
 74
     1
 95
       47
 96
       43
 40
0.0
 40
0.0
 40
0.0
 40
0.0
 40
1.0
 40
1.0
 40
1.0
 40
2.0
 40
2.0
 40
2.0
 40
3.0
 40
3.0
 40
3.0
 40
4.0
 40
4.0
 40
4.0
 40
5.0
 40
5.0
 40
5.0
 40
6.0
 40
6.0
 40
6.0
 40
7.0
 40
7.0
 40
7.0
 40
8.0
 40
8.0
 40
8.0
 40
9.0
 40
9.0
 40
9.0
 40
10.0
 40
10.0
 40
10.0
 40
11.0
 40
11.0
 40
11.0
 40
12.0
 40
12.0
 40
12.0
 40
13.0
 40
13.0
 40
13.0
 40
14.0
 40
14.0
 40
14.0
 40
14.0
 10
72.05882295290543
 20
-135.7078233167675
 10
72.05882295290543
 20
-135.7078233167675
 10
71.95719263609057
 20
-135.7078233167675
 10
71.95719263609057
 20
-135.7078233167675
 10
71.95719263609057
 20
-135.7946397229958
 10
71.93617755363054
 20
-136.183935512829
 10
71.73946260142277
 20
-136.4040771143365
 10
71.58684487142621
 20
-136.5732313026623
 10
71.3797946327627
 20
-136.6431667410128
 10
71.29504528382554
 20
-136.6703829953463
 10
71.29504528382554
 20
-136.6703829953463
 10
71.10039738890893
 20
-136.5036403738602
 10
71.10039738890893
 20
-136.5036403738602
 10
71.19789359114151
 20
-136.4905490110163
 10
71.37324895134071
 20
-136.4674668712651
 10
71.56169567438388
 20
-136.2790201482219
 10
71.63576522731675
 20
-136.2073621621287
 10
71.73946260142277
 20
-136.0674912854276
 10
71.73946260142277
 20
-135.7078233167675
 10
71.73946260142277
 20
-135.7078233167675
 10
71.50864120391104
 20
-135.7078233167675
 10
71.50864120391104
 20
-135.7078233167675
 10
71.32260604770755
 20
-135.7078233167675
 10
71.13622638195552
 20
-135.7123019408983
 10
70.95019122575204
 20
-135.7271158514849
 10
70.95019122575204
 20
-135.7271158514849
 10
70.95019122575204
 20
-135.507318759526
 10
70.95019122575204
 20
-135.507318759526
 10
71.1386379487952
 20
-135.521788160564
 10
71.42423636452241
 20
-135.5259222751463
 10
71.50864120391104
 20
-135.5259222751463
 10
71.50864120391104
 20
-135.5259222751463
 10
72.05882295290543
 20
-135.5259222751463
 10
72.05882295290543
 20
-135.5259222751463
 10
72.07777097807431
 20
-135.5259222751463
 10
72.39506427226583
 20
-135.5259222751463
 10
72.62347410293789
 20
-135.507318759526
 10
72.62347410293789
 20
-135.507318759526
 10
72.62347410293789
 20
-135.7271158514849
 10
72.62347410293789
 20
-135.7271158514849
 10
72.43537188944325
 20
-135.7123019408983
 10
72.24692516640008
 20
-135.7078233167675
 10
72.05882295290543
 20
-135.7078233167675
 97
        0
 97
        0
 92
        1
 93
        1
 72
     4
 94
        3
 73
     0
 74
     1
 95
       29
 96
       25
 40
0.0
 40
0.0
 40
0.0
 40
0.0
 40
1.0
 40
1.0
 40
1.0
 40
2.0
 40
2.0
 40
2.0
 40
3.0
 40
3.0
 40
3.0
 40
4.0
 40
4.0
 40
4.0
 40
5.0
 40
5.0
 40
5.0
 40
6.0
 40
6.0
 40
6.0
 40
7.0
 40
7.0
 40
7.0
 40
8.0
 40
8.0
 40
8.0
 40
8.0
 10
71.95719263609057
 20
-135.1793456693302
 10
71.95719263609057
 20
-135.1793456693302
 10
71.60372583930393
 20
-135.1793456693302
 10
71.60372583930393
 20
-135.1793456693302
 10
71.49176023603331
 20
-135.1793456693302
 10
71.35223386888069
 20
-135.1855468412036
 10
71.24440238019237
 20
-135.1982936944991
 10
71.24440238019237
 20
-135.1982936944991
 10
71.24440238019237
 20
-134.963338182405
 10
71.24440238019237
 20
-134.963338182405
 10
71.36256915533644
 20
-134.9781520929916
 10
71.54688176379732
 20
-134.9822862075739
 10
71.60372583930393
 20
-134.9822862075739
 10
71.60372583930393
 20
-134.9822862075739
 10
71.95719263609057
 20
-134.9822862075739
 10
71.95719263609057
 20
-134.9822862075739
 10
71.97614066125944
 20
-134.9822862075739
 10
72.17940129488917
 20
-134.9822862075739
 10
72.32099471933294
 20
-134.963338182405
 10
72.32099471933294
 20
-134.963338182405
 10
72.32099471933294
 20
-135.1982936944991
 10
72.32099471933294
 20
-135.1982936944991
 10
72.1645873843026
 20
-135.1793456693302
 10
71.9740736039683
 20
-135.1793456693302
 10
71.95719263609057
 20
-135.1793456693302
 97
        0
 97
        0
 75
     2
 76
     1
 98
        0
  0
SPLINE
  5
11F
330
FD
100
AcDbEntity
  8
_U+30EC_U+30A4_U+30E4_U+30FC 1
370
     0
100
AcDbSpline
210
0.0
220
0.0
230
1.0
 70
    11
 71
     3
 72
    29
 73
    25
 74
     0
 42
0.0000000001
 43
0.0000000001
 12
1.0
 22
0.0
 32
0.0
 13
1.0
 23
0.0
 33
0.0
 40
0.0
 40
0.0
 40
0.0
 40
0.0
 40
1.0
 40
1.0
 40
1.0
 40
2.0
 40
2.0
 40
2.0
 40
3.0
 40
3.0
 40
3.0
 40
4.0
 40
4.0
 40
4.0
 40
5.0
 40
5.0
 40
5.0
 40
6.0
 40
6.0
 40
6.0
 40
7.0
 40
7.0
 40
7.0
 40
8.0
 40
8.0
 40
8.0
 40
8.0
 10
73.9047051139023
 20
-135.8711208427683
 30
0.0
 10
73.9047051139023
 20
-135.8711208427683
 30
0.0
 10
73.42032468867617
 20
-135.8711208427683
 30
0.0
 10
73.42032468867617
 20
-135.8711208427683
 30
0.0
 10
73.39276392479417
 20
-135.8711208427683
 30
0.0
 10
73.07547063060267
 20
-135.8711208427683
 30
0.0
 10
72.86394176780833
 20
-135.8962700398107
 30
0.0
 10
72.86394176780833
 20
-135.8962700398107
 30
0.0
 10
72.86394176780833
 20
-135.6657931518475
 30
0.0
 10
72.86394176780833
 20
-135.6657931518475
 30
0.0
 10
73.02241616012982
 20
-135.6892198011471
 30
0.0
 10
73.21292994046414
 20
-135.6912868584383
 30
0.0
 10
73.42032468867617
 20
-135.6912868584383
 30
0.0
 10
73.42032468867617
 20
-135.6912868584383
 30
0.0
 10
73.9047051139023
 20
-135.6912868584383
 30
0.0
 10
73.9047051139023
 20
-135.6912868584383
 30
0.0
 10
74.0907402701058
 20
-135.6912868584383
 30
0.0
 10
74.27711993585781
 20
-135.6892198011471
 30
0.0
 10
74.46108803477014
 20
-135.6657931518475
 30
0.0
 10
74.46108803477014
 20
-135.6657931518475
 30
0.0
 10
74.46108803477014
 20
-135.8962700398107
 30
0.0
 10
74.46108803477014
 20
-135.8962700398107
 30
0.0
 10
74.27711993585781
 20
-135.8731879000595
 30
0.0
 10
74.02941757046834
 20
-135.8711208427683
 30
0.0
 10
73.9047051139023
 20
-135.8711208427683
 30
0.0
  0
HATCH
  5
120
330
FD
100
AcDbEntity
  8
_U+30EC_U+30A4_U+30E4_U+30FC 1
 62
   179
420
  2234388
100
AcDbHatch
 10
0.0
 20
0.0
 30
0.0
210
0.0
220
0.0
230
1.0
  2
SOLID
 70
     1
 71
     0
 91
        1
 92
        1
 93
        1
 72
     4
 94
        3
 73
     0
 74
     1
 95
       29
 96
       25
 40
0.0
 40
0.0
 40
0.0
 40
0.0
 40
1.0
 40
1.0
 40
1.0
 40
2.0
 40
2.0
 40
2.0
 40
3.0
 40
3.0
 40
3.0
 40
4.0
 40
4.0
 40
4.0
 40
5.0
 40
5.0
 40
5.0
 40
6.0
 40
6.0
 40
6.0
 40
7.0
 40
7.0
 40
7.0
 40
8.0
 40
8.0
 40
8.0
 40
8.0
 10
73.9047051139023
 20
-135.8711208427683
 10
73.9047051139023
 20
-135.8711208427683
 10
73.42032468867617
 20
-135.8711208427683
 10
73.42032468867617
 20
-135.8711208427683
 10
73.39276392479417
 20
-135.8711208427683
 10
73.07547063060267
 20
-135.8711208427683
 10
72.86394176780833
 20
-135.8962700398107
 10
72.86394176780833
 20
-135.8962700398107
 10
72.86394176780833
 20
-135.6657931518475
 10
72.86394176780833
 20
-135.6657931518475
 10
73.02241616012982
 20
-135.6892198011471
 10
73.21292994046414
 20
-135.6912868584383
 10
73.42032468867617
 20
-135.6912868584383
 10
73.42032468867617
 20
-135.6912868584383
 10
73.9047051139023
 20
-135.6912868584383
 10
73.9047051139023
 20
-135.6912868584383
 10
74.0907402701058
 20
-135.6912868584383
 10
74.27711993585781
 20
-135.6892198011471
 10
74.46108803477014
 20
-135.6657931518475
 10
74.46108803477014
 20
-135.6657931518475
 10
74.46108803477014
 20
-135.8962700398107
 10
74.46108803477014
 20
-135.8962700398107
 10
74.27711993585781
 20
-135.8731879000595
 10
74.02941757046834
 20
-135.8711208427683
 10
73.9047051139023
 20
-135.8711208427683
 97
        0
 97
        0
 75
     2
 76
     1
 98
        0
  0
SPLINE
  5
121
330
FD
100
AcDbEntity
  8
_U+30EC_U+30A4_U+30E4_U+30FC 1
370
     0
100
AcDbSpline
210
0.0
220
0.0
230
1.0
 70
    11
 71
     3
 72
    44
 73
    40
 74
     0
 42
0.0000000001
 43
0.0000000001
 12
1.0
 22
0.0
 32
0.0
 13
1.0
 23
0.0
 33
0.0
 40
0.0
 40
0.0
 40
0.0
 40
0.0
 40
1.0
 40
1.0
 40
1.0
 40
2.0
 40
2.0
 40
2.0
 40
3.0
 40
3.0
 40
3.0
 40
4.0
 40
4.0
 40
4.0
 40
5.0
 40
5.0
 40
5.0
 40
6.0
 40
6.0
 40
6.0
 40
7.0
 40
7.0
 40
7.0
 40
8.0
 40
8.0
 40
8.0
 40
9.0
 40
9.0
 40
9.0
 40
10.0
 40
10.0
 40
10.0
 40
11.0
 40
11.0
 40
11.0
 40
12.0
 40
12.0
 40
12.0
 40
13.0
 40
13.0
 40
13.0
 40
13.0
 10
76.11611190588417
 20
-135.4329046970446
 30
0.0
 10
76.00414630261355
 20
-135.8011854044178
 30
0.0
 10
75.95350339898037
 20
-135.9600043062878
 30
0.0
 10
75.75678844677262
 20
-136.2094292194199
 30
0.0
 10
75.57247583831175
 20
-136.4402506169316
 30
0.0
 10
75.33579777847508
 20
-136.6262857731351
 30
0.0
 10
75.05640053462132
 20
-136.7193033512368
 30
0.0
 10
75.05640053462132
 20
-136.7193033512368
 30
0.0
 10
74.86381969699585
 20
-136.5394693669068
 30
0.0
 10
74.86381969699585
 20
-136.5394693669068
 30
0.0
 10
75.50495196680085
 20
-136.3871961464588
 30
0.0
 10
75.83499211428779
 20
-135.8308132255909
 30
0.0
 10
75.89838187121639
 20
-135.3908745321245
 30
0.0
 10
75.89838187121639
 20
-135.3908745321245
 30
0.0
 10
75.13253714484534
 20
-135.3908745321245
 30
0.0
 10
75.13253714484534
 20
-135.3908745321245
 30
0.0
 10
75.03951956674359
 20
-135.3908745321245
 30
0.0
 10
74.85555146783125
 20
-135.3950086467068
 30
0.0
 10
74.69879962325238
 20
-135.4139566718757
 30
0.0
 10
74.69879962325238
 20
-135.4139566718757
 30
0.0
 10
74.69879962325238
 20
-135.1938150703682
 30
0.0
 10
74.69879962325238
 20
-135.1938150703682
 30
0.0
 10
74.78561602948068
 20
-135.2151746623768
 30
0.0
 10
75.03745250945245
 20
-135.2151746623768
 30
0.0
 10
75.13667125942764
 20
-135.2151746623768
 30
0.0
 10
75.13667125942764
 20
-135.2151746623768
 30
0.0
 10
75.56834172372945
 20
-135.2151746623768
 30
0.0
 10
75.56834172372945
 20
-135.2151746623768
 30
0.0
 10
75.61071639819802
 20
-135.2151746623768
 30
0.0
 10
75.84532740074353
 20
-135.2131076050856
 30
0.0
 10
75.8835679606298
 20
-135.2069064332122
 30
0.0
 10
75.92594263509838
 20
-135.2003607517902
 30
0.0
 10
75.92800969238952
 20
-135.1982936944991
 30
0.0
 10
75.98933239202698
 20
-135.1579860773216
 30
0.0
 10
75.98933239202698
 20
-135.1579860773216
 30
0.0
 10
76.17743460552161
 20
-135.3123263550608
 30
0.0
 10
76.17743460552161
 20
-135.3123263550608
 30
0.0
 10
76.14815129389699
 20
-135.341954176234
 30
0.0
 10
76.13333738331042
 20
-135.3736490546983
 30
0.0
 10
76.11611190588417
 20
-135.4329046970446
 30
0.0
  0
SPLINE
  5
122
330
FD
100
AcDbEntity
  8
_U+30EC_U+30A4_U+30E4_U+30FC 1
370
     0
100
AcDbSpline
210
0.0
220
0.0
230
1.0
 70
    11
 71
     3
 72
    17
 73
    13
 74
     0
 42
0.0000000001
 43
0.0000000001
 12
1.0
 22
0.0
 32
0.0
 13
1.0
 23
0.0
 33
0.0
 40
0.0
 40
0.0
 40
0.0
 40
0.0
 40
1.0
 40
1.0
 40
1.0
 40
2.0
 40
2.0
 40
2.0
 40
3.0
 40
3.0
 40
3.0
 40
4.0
 40
4.0
 40
4.0
 40
4.0
 10
76.32557371138736
 20
-135.2341226875456
 30
0.0
 10
76.19879419753016
 20
-135.2341226875456
 30
0.0
 10
76.0971638807153
 20
-135.1324923707308
 30
0.0
 10
76.0971638807153
 20
-135.0057128568736
 30
0.0
 10
76.0971638807153
 20
-134.8789333430164
 30
0.0
 10
76.19879419753016
 20
-134.7748914593618
 30
0.0
 10
76.32557371138736
 20
-134.7748914593618
 30
0.0
 10
76.45269773479308
 20
-134.7748914593618
 30
0.0
 10
76.5563951088991
 20
-134.8789333430164
 30
0.0
 10
76.5563951088991
 20
-135.0057128568736
 30
0.0
 10
76.5563951088991
 20
-135.1324923707308
 30
0.0
 10
76.45269773479308
 20
-135.2341226875456
 30
0.0
 10
76.32557371138736
 20
-135.2341226875456
 30
0.0
  0
SPLINE
  5
123
330
FD
100
AcDbEntity
  8
_U+30EC_U+30A4_U+30E4_U+30FC 1
370
     0
100
AcDbSpline
210
0.0
220
0.0
230
1.0
 70
    11
 71
     3
 72
    17
 73
    13
 74
     0
 42
0.0000000001
 43
0.0000000001
 12
1.0
 22
0.0
 32
0.0
 13
1.0
 23
0.0
 33
0.0
 40
0.0
 40
0.0
 40
0.0
 40
0.0
 40
1.0
 40
1.0
 40
1.0
 40
2.0
 40
2.0
 40
2.0
 40
3.0
 40
3.0
 40
3.0
 40
4.0
 40
4.0
 40
4.0
 40
4.0
 10
76.3235066540962
 20
-134.9040825400587
 30
0.0
 10
76.26872963588073
 20
-134.9040825400587
 30
0.0
 10
76.22428790412101
 20
-134.9485242718184
 30
0.0
 10
76.22428790412101
 20
-135.0036457995824
 30
0.0
 10
76.22428790412101
 20
-135.0608343846376
 30
0.0
 10
76.26872963588073
 20
-135.1094102309796
 30
0.0
 10
76.3276407686785
 20
-135.1094102309796
 30
0.0
 10
76.38689641102481
 20
-135.1094102309796
 30
0.0
 10
76.42720402820223
 20
-135.0587673273464
 30
0.0
 10
76.42720402820223
 20
-135.0057128568736
 30
0.0
 10
76.42720402820223
 20
-134.9485242718184
 30
0.0
 10
76.38069523915135
 20
-134.9040825400587
 30
0.0
 10
76.3235066540962
 20
-134.9040825400587
 30
0.0
  0
HATCH
  5
124
330
FD
100
AcDbEntity
  8
_U+30EC_U+30A4_U+30E4_U+30FC 1
 62
   179
420
  2234388
100
AcDbHatch
 10
0.0
 20
0.0
 30
0.0
210
0.0
220
0.0
230
1.0
  2
SOLID
 70
     1
 71
     0
 91
        3
 92
        1
 93
        1
 72
     4
 94
        3
 73
     0
 74
     1
 95
       44
 96
       40
 40
0.0
 40
0.0
 40
0.0
 40
0.0
 40
1.0
 40
1.0
 40
1.0
 40
2.0
 40
2.0
 40
2.0
 40
3.0
 40
3.0
 40
3.0
 40
4.0
 40
4.0
 40
4.0
 40
5.0
 40
5.0
 40
5.0
 40
6.0
 40
6.0
 40
6.0
 40
7.0
 40
7.0
 40
7.0
 40
8.0
 40
8.0
 40
8.0
 40
9.0
 40
9.0
 40
9.0
 40
10.0
 40
10.0
 40
10.0
 40
11.0
 40
11.0
 40
11.0
 40
12.0
 40
12.0
 40
12.0
 40
13.0
 40
13.0
 40
13.0
 40
13.0
 10
76.11611190588417
 20
-135.4329046970446
 10
76.00414630261355
 20
-135.8011854044178
 10
75.95350339898037
 20
-135.9600043062878
 10
75.75678844677262
 20
-136.2094292194199
 10
75.57247583831175
 20
-136.4402506169316
 10
75.33579777847508
 20
-136.6262857731351
 10
75.05640053462132
 20
-136.7193033512368
 10
75.05640053462132
 20
-136.7193033512368
 10
74.86381969699585
 20
-136.5394693669068
 10
74.86381969699585
 20
-136.5394693669068
 10
75.50495196680085
 20
-136.3871961464588
 10
75.83499211428779
 20
-135.8308132255909
 10
75.89838187121639
 20
-135.3908745321245
 10
75.89838187121639
 20
-135.3908745321245
 10
75.13253714484534
 20
-135.3908745321245
 10
75.13253714484534
 20
-135.3908745321245
 10
75.03951956674359
 20
-135.3908745321245
 10
74.85555146783125
 20
-135.3950086467068
 10
74.69879962325238
 20
-135.4139566718757
 10
74.69879962325238
 20
-135.4139566718757
 10
74.69879962325238
 20
-135.1938150703682
 10
74.69879962325238
 20
-135.1938150703682
 10
74.78561602948068
 20
-135.2151746623768
 10
75.03745250945245
 20
-135.2151746623768
 10
75.13667125942764
 20
-135.2151746623768
 10
75.13667125942764
 20
-135.2151746623768
 10
75.56834172372945
 20
-135.2151746623768
 10
75.56834172372945
 20
-135.2151746623768
 10
75.61071639819802
 20
-135.2151746623768
 10
75.84532740074353
 20
-135.2131076050856
 10
75.8835679606298
 20
-135.2069064332122
 10
75.92594263509838
 20
-135.2003607517902
 10
75.92800969238952
 20
-135.1982936944991
 10
75.98933239202698
 20
-135.1579860773216
 10
75.98933239202698
 20
-135.1579860773216
 10
76.17743460552161
 20
-135.3123263550608
 10
76.17743460552161
 20
-135.3123263550608
 10
76.14815129389699
 20
-135.341954176234
 10
76.13333738331042
 20
-135.3736490546983
 10
76.11611190588417
 20
-135.4329046970446
 97
        0
 97
        0
 92
        1
 93
        1
 72
     4
 94
        3
 73
     0
 74
     1
 95
       17
 96
       13
 40
0.0
 40
0.0
 40
0.0
 40
0.0
 40
1.0
 40
1.0
 40
1.0
 40
2.0
 40
2.0
 40
2.0
 40
3.0
 40
3.0
 40
3.0
 40
4.0
 40
4.0
 40
4.0
 40
4.0
 10
76.32557371138736
 20
-135.2341226875456
 10
76.19879419753016
 20
-135.2341226875456
 10
76.0971638807153
 20
-135.1324923707308
 10
76.0971638807153
 20
-135.0057128568736
 10
76.0971638807153
 20
-134.8789333430164
 10
76.19879419753016
 20
-134.7748914593618
 10
76.32557371138736
 20
-134.7748914593618
 10
76.45269773479308
 20
-134.7748914593618
 10
76.5563951088991
 20
-134.8789333430164
 10
76.5563951088991
 20
-135.0057128568736
 10
76.5563951088991
 20
-135.1324923707308
 10
76.45269773479308
 20
-135.2341226875456
 10
76.32557371138736
 20
-135.2341226875456
 97
        0
 97
        0
 92
        1
 93
        1
 72
     4
 94
        3
 73
     0
 74
     1
 95
       17
 96
       13
 40
0.0
 40
0.0
 40
0.0
 40
0.0
 40
1.0
 40
1.0
 40
1.0
 40
2.0
 40
2.0
 40
2.0
 40
3.0
 40
3.0
 40
3.0
 40
4.0
 40
4.0
 40
4.0
 40
4.0
 10
76.3235066540962
 20
-134.9040825400587
 10
76.26872963588073
 20
-134.9040825400587
 10
76.22428790412101
 20
-134.9485242718184
 10
76.22428790412101
 20
-135.0036457995824
 10
76.22428790412101
 20
-135.0608343846376
 10
76.26872963588073
 20
-135.1094102309796
 10
76.3276407686785
 20
-135.1094102309796
 10
76.38689641102481
 20
-135.1094102309796
 10
76.42720402820223
 20
-135.0587673273464
 10
76.42720402820223
 20
-135.0057128568736
 10
76.42720402820223
 20
-134.9485242718184
 10
76.38069523915135
 20
-134.9040825400587
 10
76.3235066540962
 20
-134.9040825400587
 97
        0
 97
        0
 75
     2
 76
     1
 98
        0
  0
ENDBLK
  5
100
330
FD
100
AcDbEntity
  8
0
100
AcDbBlockEnd
  0
ENDSEC
  0
SECTION
  2
ENTITIES
  0
INSERT
  5
42
330
1F
100
AcDbEntity
  8
_U+30EC_U+30A4_U+30E4_U+30FC 1
100
AcDbBlockReference
  2
block 2
 10
0.0
 20
0.0
 30
0.0
  0
INSERT
  5
55
330
1F
100
AcDbEntity
  8
_U+30EC_U+30A4_U+30E4_U+30FC 1
100
AcDbBlockReference
  2
block 3
 10
0.0
 20
0.0
 30
0.0
  0
INSERT
  5
66
330
1F
100
AcDbEntity
  8
_U+30EC_U+30A4_U+30E4_U+30FC 1
100
AcDbBlockReference
  2
block 4
 10
0.0
 20
0.0
 30
0.0
  0
INSERT
  5
6C
330
1F
100
AcDbEntity
  8
_U+30EC_U+30A4_U+30E4_U+30FC 1
100
AcDbBlockReference
  2
block 5
 10
0.0
 20
0.0
 30
0.0
  0
INSERT
  5
75
330
1F
100
AcDbEntity
  8
_U+30EC_U+30A4_U+30E4_U+30FC 1
100
AcDbBlockReference
  2
block 6
 10
0.0
 20
0.0
 30
0.0
  0
POLYLINE
  5
7C
330
1F
100
AcDbEntity
  8
_U+30EC_U+30A4_U+30E4_U+30FC 1
 62
   179
420
  2234388
370
    25
100
AcDb2dPolyline
 66
     1
 10
0.0
 20
0.0
 30
0.0
  0
VERTEX
  5
7D
330
7C
100
AcDbEntity
  8
_U+30EC_U+30A4_U+30E4_U+30FC 1
 62
   179
420
  2234388
370
    25
100
AcDbVertex
100
AcDb2dVertex
 10
87.46563860189899
 20
-125.5828563574932
 30
0.0
  0
VERTEX
  5
7E
330
7C
100
AcDbEntity
  8
_U+30EC_U+30A4_U+30E4_U+30FC 1
 62
   179
420
  2234388
370
    25
100
AcDbVertex
100
AcDb2dVertex
 10
110.4662905151035
 20
-125.5828563574932
 30
0.0
  0
SEQEND
  5
7F
330
7C
100
AcDbEntity
  8
_U+30EC_U+30A4_U+30E4_U+30FC 1
 62
   179
420
  2234388
370
    25
  0
POLYLINE
  5
80
330
1F
100
AcDbEntity
  8
_U+30EC_U+30A4_U+30E4_U+30FC 1
 62
   179
420
  2234388
370
    25
100
AcDb2dPolyline
 66
     1
 10
0.0
 20
0.0
 30
0.0
  0
VERTEX
  5
81
330
80
100
AcDbEntity
  8
_U+30EC_U+30A4_U+30E4_U+30FC 1
 62
   179
420
  2234388
370
    25
100
AcDbVertex
100
AcDb2dVertex
 10
88.26559747037923
 20
-126.3828152461821
 30
0.0
  0
VERTEX
  5
82
330
80
100
AcDbEntity
  8
_U+30EC_U+30A4_U+30E4_U+30FC 1
 62
   179
420
  2234388
370
    25
100
AcDbVertex
100
AcDb2dVertex
 10
110.4662905151035
 20
-126.3828152461821
 30
0.0
  0
SEQEND
  5
83
330
80
100
AcDbEntity
  8
_U+30EC_U+30A4_U+30E4_U+30FC 1
 62
   179
420
  2234388
370
    25
  0
POLYLINE
  5
84
330
1F
100
AcDbEntity
  8
_U+30EC_U+30A4_U+30E4_U+30FC 1
 62
   179
420
  2234388
370
    25
100
AcDb2dPolyline
 66
     1
 10
0.0
 20
0.0
 30
0.0
  0
VERTEX
  5
85
330
84
100
AcDbEntity
  8
_U+30EC_U+30A4_U+30E4_U+30FC 1
 62
   179
420
  2234388
370
    25
100
AcDbVertex
100
AcDb2dVertex
 10
110.4662905151035
 20
-125.5828563574932
 30
0.0
  0
VERTEX
  5
86
330
84
100
AcDbEntity
  8
_U+30EC_U+30A4_U+30E4_U+30FC 1
 62
   179
420
  2234388
370
    25
100
AcDbVertex
100
AcDb2dVertex
 10
110.4662905151035
 20
-126.3828152461821
 30
0.0
  0
SEQEND
  5
87
330
84
100
AcDbEntity
  8
_U+30EC_U+30A4_U+30E4_U+30FC 1
 62
   179
420
  2234388
370
    25
  0
POLYLINE
  5
88
330
1F
100
AcDbEntity
  8
_U+30EC_U+30A4_U+30E4_U+30FC 1
 62
   179
420
  2234388
370
    25
100
AcDb2dPolyline
 66
     1
 10
0.0
 20
0.0
 30
0.0
  0
VERTEX
  5
89
330
88
100
AcDbEntity
  8
_U+30EC_U+30A4_U+30E4_U+30FC 1
 62
   179
420
  2234388
370
    25
100
AcDbVertex
100
AcDb2dVertex
 10
93.46543594883141
 20
-132.3839885780148
 30
0.0
  0
VERTEX
  5
8A
330
88
100
AcDbEntity
  8
_U+30EC_U+30A4_U+30E4_U+30FC 1
 62
   179
420
  2234388
370
    25
100
AcDbVertex
100
AcDb2dVertex
 10
97.46519501345571
 20
-132.3839885780148
 30
0.0
  0
SEQEND
  5
8B
330
88
100
AcDbEntity
  8
_U+30EC_U+30A4_U+30E4_U+30FC 1
 62
   179
420
  2234388
370
    25
  0
POLYLINE
  5
8C
330
1F
100
AcDbEntity
  8
_U+30EC_U+30A4_U+30E4_U+30FC 1
 62
   179
420
  2234388
370
    25
100
AcDb2dPolyline
 66
     1
 10
0.0
 20
0.0
 30
0.0
  0
VERTEX
  5
8D
330
8C
100
AcDbEntity
  8
_U+30EC_U+30A4_U+30E4_U+30FC 1
 62
   179
420
  2234388
370
    25
100
AcDbVertex
100
AcDb2dVertex
 10
87.46563860189899
 20
-135.3839755217098
 30
0.0
  0
VERTEX
  5
8E
330
8C
100
AcDbEntity
  8
_U+30EC_U+30A4_U+30E4_U+30FC 1
 62
   179
420
  2234388
370
    25
100
AcDbVertex
100
AcDb2dVertex
 10
97.46519501345571
 20
-135.3839755217098
 30
0.0
  0
SEQEND
  5
8F
330
8C
100
AcDbEntity
  8
_U+30EC_U+30A4_U+30E4_U+30FC 1
 62
   179
420
  2234388
370
    25
  0
POLYLINE
  5
90
330
1F
100
AcDbEntity
  8
_U+30EC_U+30A4_U+30E4_U+30FC 1
 62
   179
420
  2234388
370
    25
100
AcDb2dPolyline
 66
     1
 10
0.0
 20
0.0
 30
0.0
  0
VERTEX
  5
91
330
90
100
AcDbEntity
  8
_U+30EC_U+30A4_U+30E4_U+30FC 1
 62
   179
420
  2234388
370
    25
100
AcDbVertex
100
AcDb2dVertex
 10
97.46519501345571
 20
-132.3839885780148
 30
0.0
  0
VERTEX
  5
92
330
90
100
AcDbEntity
  8
_U+30EC_U+30A4_U+30E4_U+30FC 1
 62
   179
420
  2234388
370
    25
100
AcDbVertex
100
AcDb2dVertex
 10
97.46519501345571
 20
-135.3839755217098
 30
0.0
  0
SEQEND
  5
93
330
90
100
AcDbEntity
  8
_U+30EC_U+30A4_U+30E4_U+30FC 1
 62
   179
420
  2234388
370
    25
  0
POLYLINE
  5
94
330
1F
100
AcDbEntity
  8
_U+30EC_U+30A4_U+30E4_U+30FC 1
 62
   179
420
  2234388
370
    25
100
AcDb2dPolyline
 66
     1
 10
0.0
 20
0.0
 30
0.0
  0
VERTEX
  5
95
330
94
100
AcDbEntity
  8
_U+30EC_U+30A4_U+30E4_U+30FC 1
 62
   179
420
  2234388
370
    25
100
AcDbVertex
100
AcDb2dVertex
 10
93.46543594883141
 20
-132.3839885780148
 30
0.0
  0
VERTEX
  5
96
330
94
100
AcDbEntity
  8
_U+30EC_U+30A4_U+30E4_U+30FC 1
 62
   179
420
  2234388
370
    25
100
AcDbVertex
100
AcDb2dVertex
 10
93.46543594883141
 20
-133.1839474667041
 30
0.0
  0
SEQEND
  5
97
330
94
100
AcDbEntity
  8
_U+30EC_U+30A4_U+30E4_U+30FC 1
 62
   179
420
  2234388
370
    25
  0
POLYLINE
  5
98
330
1F
100
AcDbEntity
  8
_U+30EC_U+30A4_U+30E4_U+30FC 1
 62
   179
420
  2234388
370
    25
100
AcDb2dPolyline
 66
     1
 10
0.0
 20
0.0
 30
0.0
  0
VERTEX
  5
99
330
98
100
AcDbEntity
  8
_U+30EC_U+30A4_U+30E4_U+30FC 1
 62
   179
420
  2234388
370
    25
100
AcDbVertex
100
AcDb2dVertex
 10
88.26559747037923
 20
-134.5840166330205
 30
0.0
  0
VERTEX
  5
9A
330
98
100
AcDbEntity
  8
_U+30EC_U+30A4_U+30E4_U+30FC 1
 62
   179
420
  2234388
370
    25
100
AcDbVertex
100
AcDb2dVertex
 10
96.66523614497548
 20
-134.5840166330205
 30
0.0
  0
SEQEND
  5
9B
330
98
100
AcDbEntity
  8
_U+30EC_U+30A4_U+30E4_U+30FC 1
 62
   179
420
  2234388
370
    25
  0
POLYLINE
  5
9C
330
1F
100
AcDbEntity
  8
_U+30EC_U+30A4_U+30E4_U+30FC 1
 62
   179
420
  2234388
370
    25
100
AcDb2dPolyline
 66
     1
 10
0.0
 20
0.0
 30
0.0
  0
VERTEX
  5
9D
330
9C
100
AcDbEntity
  8
_U+30EC_U+30A4_U+30E4_U+30FC 1
 62
   179
420
  2234388
370
    25
100
AcDbVertex
100
AcDb2dVertex
 10
96.66523614497548
 20
-133.1839474667041
 30
0.0
  0
VERTEX
  5
9E
330
9C
100
AcDbEntity
  8
_U+30EC_U+30A4_U+30E4_U+30FC 1
 62
   179
420
  2234388
370
    25
100
AcDbVertex
100
AcDb2dVertex
 10
96.66523614497548
 20
-134.5840166330205
 30
0.0
  0
SEQEND
  5
9F
330
9C
100
AcDbEntity
  8
_U+30EC_U+30A4_U+30E4_U+30FC 1
 62
   179
420
  2234388
370
    25
  0
POLYLINE
  5
A0
330
1F
100
AcDbEntity
  8
_U+30EC_U+30A4_U+30E4_U+30FC 1
 62
   179
420
  2234388
370
    25
100
AcDb2dPolyline
 66
     1
 10
0.0
 20
0.0
 30
0.0
  0
VERTEX
  5
A1
330
A0
100
AcDbEntity
  8
_U+30EC_U+30A4_U+30E4_U+30FC 1
 62
   179
420
  2234388
370
    25
100
AcDbVertex
100
AcDb2dVertex
 10
93.46543594883141
 20
-133.1839474667041
 30
0.0
  0
VERTEX
  5
A2
330
A0
100
AcDbEntity
  8
_U+30EC_U+30A4_U+30E4_U+30FC 1
 62
   179
420
  2234388
370
    25
100
AcDbVertex
100
AcDb2dVertex
 10
96.66523614497548
 20
-133.1839474667041
 30
0.0
  0
SEQEND
  5
A3
330
A0
100
AcDbEntity
  8
_U+30EC_U+30A4_U+30E4_U+30FC 1
 62
   179
420
  2234388
370
    25
  0
POLYLINE
  5
A4
330
1F
100
AcDbEntity
  8
_U+30EC_U+30A4_U+30E4_U+30FC 1
 62
   179
420
  2234388
370
    25
100
AcDb2dPolyline
 66
     1
 10
0.0
 20
0.0
 30
0.0
  0
VERTEX
  5
A5
330
A4
100
AcDbEntity
  8
_U+30EC_U+30A4_U+30E4_U+30FC 1
 62
   179
420
  2234388
370
    25
100
AcDbVertex
100
AcDb2dVertex
 10
87.46563860189899
 20
-125.5842321908261
 30
0.0
  0
VERTEX
  5
A6
330
A4
100
AcDbEntity
  8
_U+30EC_U+30A4_U+30E4_U+30FC 1
 62
   179
420
  2234388
370
    25
100
AcDbVertex
100
AcDb2dVertex
 10
87.46563860189899
 20
-135.3839755217098
 30
0.0
  0
SEQEND
  5
A7
330
A4
100
AcDbEntity
  8
_U+30EC_U+30A4_U+30E4_U+30FC 1
 62
   179
420
  2234388
370
    25
  0
POLYLINE
  5
A8
330
1F
100
AcDbEntity
  8
_U+30EC_U+30A4_U+30E4_U+30FC 1
 62
   179
420
  2234388
370
    25
100
AcDb2dPolyline
 66
     1
 10
0.0
 20
0.0
 30
0.0
  0
VERTEX
  5
A9
330
A8
100
AcDbEntity
  8
_U+30EC_U+30A4_U+30E4_U+30FC 1
 62
   179
420
  2234388
370
    25
100
AcDbVertex
100
AcDb2dVertex
 10
88.26559747037923
 20
-126.384191079515
 30
0.0
  0
VERTEX
  5
AA
330
A8
100
AcDbEntity
  8
_U+30EC_U+30A4_U+30E4_U+30FC 1
 62
   179
420
  2234388
370
    25
100
AcDbVertex
100
AcDb2dVertex
 10
88.26559747037923
 20
-134.5840166330205
 30
0.0
  0
SEQEND
  5
AB
330
A8
100
AcDbEntity
  8
_U+30EC_U+30A4_U+30E4_U+30FC 1
 62
   179
420
  2234388
370
    25
  0
SPLINE
  5
AC
330
1F
100
AcDbEntity
  8
_U+30EC_U+30A4_U+30E4_U+30FC 1
 62
   179
420
  2234388
370
     9
100
AcDbSpline
210
0.0
220
0.0
230
1.0
 70
    11
 71
     3
 72
    17
 73
    13
 74
     0
 42
0.0000000001
 43
0.0000000001
 12
1.0
 22
0.0
 32
0.0
 13
1.0
 23
0.0
 33
0.0
 40
0.0
 40
0.0
 40
0.0
 40
0.0
 40
1.0
 40
1.0
 40
1.0
 40
2.0
 40
2.0
 40
2.0
 40
3.0
 40
3.0
 40
3.0
 40
4.0
 40
4.0
 40
4.0
 40
4.0
 10
114.5659562438456
 20
-125.5828563574932
 30
0.0
 10
114.5659562438456
 20
-125.5270469130627
 30
0.0
 10
114.5211916380365
 20
-125.4829496908515
 30
0.0
 10
114.4660495797278
 20
-125.4829496908515
 30
0.0
 10
114.4109456922447
 20
-125.4829496908515
 30
0.0
 10
114.36614291561
 20
-125.5270469130627
 30
0.0
 10
114.36614291561
 20
-125.5828563574932
 30
0.0
 10
114.36614291561
 20
-125.6379955241459
 30
0.0
 10
114.4109456922447
 20
-125.6827630241348
 30
0.0
 10
114.4660495797278
 20
-125.6827630241348
 30
0.0
 10
114.5211916380365
 20
-125.6827630241348
 30
0.0
 10
114.5659562438456
 20
-125.6379955241459
 30
0.0
 10
114.5659562438456
 20
-125.5828563574932
 30
0.0
  0
SPLINE
  5
AD
330
1F
100
AcDbEntity
  8
_U+30EC_U+30A4_U+30E4_U+30FC 1
 62
   179
420
  2234388
370
     9
100
AcDbSpline
210
0.0
220
0.0
230
1.0
 70
    11
 71
     3
 72
    17
 73
    13
 74
     0
 42
0.0000000001
 43
0.0000000001
 12
1.0
 22
0.0
 32
0.0
 13
1.0
 23
0.0
 33
0.0
 40
0.0
 40
0.0
 40
0.0
 40
0.0
 40
1.0
 40
1.0
 40
1.0
 40
2.0
 40
2.0
 40
2.0
 40
3.0
 40
3.0
 40
3.0
 40
4.0
 40
4.0
 40
4.0
 40
4.0
 10
114.5659562438456
 20
-126.3828152461821
 30
0.0
 10
114.5659562438456
 20
-126.327676079529
 30
0.0
 10
114.5211916380365
 20
-126.2829085795405
 30
0.0
 10
114.4660495797278
 20
-126.2829085795405
 30
0.0
 10
114.4109456922447
 20
-126.2829085795405
 30
0.0
 10
114.36614291561
 20
-126.327676079529
 30
0.0
 10
114.36614291561
 20
-126.3828152461821
 30
0.0
 10
114.36614291561
 20
-126.437919135057
 30
0.0
 10
114.4109456922447
 20
-126.4827219128237
 30
0.0
 10
114.4660495797278
 20
-126.4827219128237
 30
0.0
 10
114.5211916380365
 20
-126.4827219128237
 30
0.0
 10
114.5659562438456
 20
-126.437919135057
 30
0.0
 10
114.5659562438456
 20
-126.3828152461821
 30
0.0
  0
SPLINE
  5
AE
330
1F
100
AcDbEntity
  8
_U+30EC_U+30A4_U+30E4_U+30FC 1
 62
   179
420
  2234388
370
     9
100
AcDbSpline
210
0.0
220
0.0
230
1.0
 70
    11
 71
     3
 72
    17
 73
    13
 74
     0
 42
0.0000000001
 43
0.0000000001
 12
1.0
 22
0.0
 32
0.0
 13
1.0
 23
0.0
 33
0.0
 40
0.0
 40
0.0
 40
0.0
 40
0.0
 40
1.0
 40
1.0
 40
1.0
 40
2.0
 40
2.0
 40
2.0
 40
3.0
 40
3.0
 40
3.0
 40
4.0
 40
4.0
 40
4.0
 40
4.0
 10
110.5661999723582
 20
-121.5824269140489
 30
0.0
 10
110.5661999723582
 20
-121.5272877473958
 30
0.0
 10
110.5214296803634
 20
-121.4825202474073
 30
0.0
 10
110.4662905151035
 20
-121.4825202474073
 30
0.0
 10
110.4111866276204
 20
-121.4825202474073
 30
0.0
 10
110.3663838509856
 20
-121.5272877473958
 30
0.0
 10
110.3663838509856
 20
-121.5824269140489
 30
0.0
 10
110.3663838509856
 20
-121.6375308029238
 30
0.0
 10
110.4111866276204
 20
-121.6823335806906
 30
0.0
 10
110.4662905151035
 20
-121.6823335806906
 30
0.0
 10
110.5214296803634
 20
-121.6823335806906
 30
0.0
 10
110.5661999723582
 20
-121.6375308029238
 30
0.0
 10
110.5661999723582
 20
-121.5824269140489
 30
0.0
  0
SPLINE
  5
AF
330
1F
100
AcDbEntity
  8
_U+30EC_U+30A4_U+30E4_U+30FC 1
 62
   179
420
  2234388
370
     9
100
AcDbSpline
210
0.0
220
0.0
230
1.0
 70
    11
 71
     3
 72
    17
 73
    13
 74
     0
 42
0.0000000001
 43
0.0000000001
 12
1.0
 22
0.0
 32
0.0
 13
1.0
 23
0.0
 33
0.0
 40
0.0
 40
0.0
 40
0.0
 40
0.0
 40
1.0
 40
1.0
 40
1.0
 40
2.0
 40
2.0
 40
2.0
 40
3.0
 40
3.0
 40
3.0
 40
4.0
 40
4.0
 40
4.0
 40
4.0
 10
97.56580723311112
 20
-139.3844402429316
 30
0.0
 10
97.56580723311112
 20
-139.3286307985011
 30
0.0
 10
97.52100445647635
 20
-139.2838280207344
 30
0.0
 10
97.46519501345571
 20
-139.2838280207344
 30
0.0
 10
97.41005830898068
 20
-139.2838280207344
 30
0.0
 10
97.36528834933789
 20
-139.3286307985011
 30
0.0
 10
97.36528834933789
 20
-139.3844402429316
 30
0.0
 10
97.36528834933789
 20
-139.4395441318065
 30
0.0
 10
97.41005830898068
 20
-139.4843469095732
 30
0.0
 10
97.46519501345571
 20
-139.4843469095732
 30
0.0
 10
97.52100445647635
 20
-139.4843469095732
 30
0.0
 10
97.56580723311112
 20
-139.4395441318065
 30
0.0
 10
97.56580723311112
 20
-139.3844402429316
 30
0.0
  0
SPLINE
  5
B0
330
1F
100
AcDbEntity
  8
_U+30EC_U+30A4_U+30E4_U+30FC 1
 62
   179
420
  2234388
370
     9
100
AcDbSpline
210
0.0
220
0.0
230
1.0
 70
    11
 71
     3
 72
    17
 73
    13
 74
     0
 42
0.0000000001
 43
0.0000000001
 12
1.0
 22
0.0
 32
0.0
 13
1.0
 23
0.0
 33
0.0
 40
0.0
 40
0.0
 40
0.0
 40
0.0
 40
1.0
 40
1.0
 40
1.0
 40
2.0
 40
2.0
 40
2.0
 40
3.0
 40
3.0
 40
3.0
 40
4.0
 40
4.0
 40
4.0
 40
4.0
 10
114.5659562438456
 20
-135.3839755217098
 30
0.0
 10
114.5659562438456
 20
-135.3288716328342
 30
0.0
 10
114.5211916380365
 20
-135.2840688550681
 30
0.0
 10
114.4660495797278
 20
-135.2840688550681
 30
0.0
 10
114.4109456922447
 20
-135.2840688550681
 30
0.0
 10
114.36614291561
 20
-135.3288716328342
 30
0.0
 10
114.36614291561
 20
-135.3839755217098
 30
0.0
 10
114.36614291561
 20
-135.4391146883622
 30
0.0
 10
114.4109456922447
 20
-135.4838821883514
 30
0.0
 10
114.4660495797278
 20
-135.4838821883514
 30
0.0
 10
114.5211916380365
 20
-135.4838821883514
 30
0.0
 10
114.5659562438456
 20
-135.4391146883622
 30
0.0
 10
114.5659562438456
 20
-135.3839755217098
 30
0.0
  0
SPLINE
  5
B1
330
1F
100
AcDbEntity
  8
_U+30EC_U+30A4_U+30E4_U+30FC 1
 62
   179
420
  2234388
370
     9
100
AcDbSpline
210
0.0
220
0.0
230
1.0
 70
    11
 71
     3
 72
    17
 73
    13
 74
     0
 42
0.0000000001
 43
0.0000000001
 12
1.0
 22
0.0
 32
0.0
 13
1.0
 23
0.0
 33
0.0
 40
0.0
 40
0.0
 40
0.0
 40
0.0
 40
1.0
 40
1.0
 40
1.0
 40
2.0
 40
2.0
 40
2.0
 40
3.0
 40
3.0
 40
3.0
 40
4.0
 40
4.0
 40
4.0
 40
4.0
 10
114.5659562438456
 20
-132.3839885780148
 30
0.0
 10
114.5659562438456
 20
-132.3288846891399
 30
0.0
 10
114.5211916380365
 20
-132.2840819113732
 30
0.0
 10
114.4660495797278
 20
-132.2840819113732
 30
0.0
 10
114.4109456922447
 20
-132.2840819113732
 30
0.0
 10
114.36614291561
 20
-132.3288846891399
 30
0.0
 10
114.36614291561
 20
-132.3839885780148
 30
0.0
 10
114.36614291561
 20
-132.4391277446679
 30
0.0
 10
114.4109456922447
 20
-132.4838952446571
 30
0.0
 10
114.4660495797278
 20
-132.4838952446571
 30
0.0
 10
114.5211916380365
 20
-132.4838952446571
 30
0.0
 10
114.5659562438456
 20
-132.4391277446679
 30
0.0
 10
114.5659562438456
 20
-132.3839885780148
 30
0.0
  0
SPLINE
  5
B2
330
1F
100
AcDbEntity
  8
_U+30EC_U+30A4_U+30E4_U+30FC 1
 62
   179
420
  2234388
370
     9
100
AcDbSpline
210
0.0
220
0.0
230
1.0
 70
    11
 71
     3
 72
    17
 73
    13
 74
     0
 42
0.0000000001
 43
0.0000000001
 12
1.0
 22
0.0
 32
0.0
 13
1.0
 23
0.0
 33
0.0
 40
0.0
 40
0.0
 40
0.0
 40
0.0
 40
1.0
 40
1.0
 40
1.0
 40
2.0
 40
2.0
 40
2.0
 40
3.0
 40
3.0
 40
3.0
 40
4.0
 40
4.0
 40
4.0
 40
4.0
 10
87.56554526601683
 20
-121.5824269140489
 30
0.0
 10
87.56554526601683
 20
-121.5272877473958
 30
0.0
 10
87.52074248938206
 20
-121.4825202474073
 30
0.0
 10
87.46563860189899
 20
-121.4825202474073
 30
0.0
 10
87.41049943663904
 20
-121.4825202474073
 30
0.0
 10
87.36573193778115
 20
-121.5272877473958
 30
0.0
 10
87.36573193778115
 20
-121.5824269140489
 30
0.0
 10
87.36573193778115
 20
-121.6375308029238
 30
0.0
 10
87.41049943663904
 20
-121.6823335806906
 30
0.0
 10
87.46563860189899
 20
-121.6823335806906
 30
0.0
 10
87.52074248938206
 20
-121.6823335806906
 30
0.0
 10
87.56554526601683
 20
-121.6375308029238
 30
0.0
 10
87.56554526601683
 20
-121.5824269140489
 30
0.0
  0
SPLINE
  5
B3
330
1F
100
AcDbEntity
  8
_U+30EC_U+30A4_U+30E4_U+30FC 1
 62
   179
420
  2234388
370
     9
100
AcDbSpline
210
0.0
220
0.0
230
1.0
 70
    11
 71
     3
 72
    17
 73
    13
 74
     0
 42
0.0000000001
 43
0.0000000001
 12
1.0
 22
0.0
 32
0.0
 13
1.0
 23
0.0
 33
0.0
 40
0.0
 40
0.0
 40
0.0
 40
0.0
 40
1.0
 40
1.0
 40
1.0
 40
2.0
 40
2.0
 40
2.0
 40
3.0
 40
3.0
 40
3.0
 40
4.0
 40
4.0
 40
4.0
 40
4.0
 10
87.56554526601683
 20
-139.3844402429316
 30
0.0
 10
87.56554526601683
 20
-139.3286307985011
 30
0.0
 10
87.52074248938206
 20
-139.2838280207344
 30
0.0
 10
87.46563860189899
 20
-139.2838280207344
 30
0.0
 10
87.41049943663904
 20
-139.2838280207344
 30
0.0
 10
87.36573193778115
 20
-139.3286307985011
 30
0.0
 10
87.36573193778115
 20
-139.3844402429316
 30
0.0
 10
87.36573193778115
 20
-139.4395441318065
 30
0.0
 10
87.41049943663904
 20
-139.4843469095732
 30
0.0
 10
87.46563860189899
 20
-139.4843469095732
 30
0.0
 10
87.52074248938206
 20
-139.4843469095732
 30
0.0
 10
87.56554526601683
 20
-139.4395441318065
 30
0.0
 10
87.56554526601683
 20
-139.3844402429316
 30
0.0
  0
POLYLINE
  5
B4
330
1F
100
AcDbEntity
  8
_U+30EC_U+30A4_U+30E4_U+30FC 1
 62
   179
420
  2234388
370
     9
100
AcDb2dPolyline
 66
     1
 10
0.0
 20
0.0
 30
0.0
  0
VERTEX
  5
B5
330
B4
100
AcDbEntity
  8
_U+30EC_U+30A4_U+30E4_U+30FC 1
 62
   179
420
  2234388
370
     9
100
AcDbVertex
100
AcDb2dVertex
 10
114.4660495797278
 20
-125.5828563574932
 30
0.0
  0
VERTEX
  5
B6
330
B4
100
AcDbEntity
  8
_U+30EC_U+30A4_U+30E4_U+30FC 1
 62
   179
420
  2234388
370
     9
100
AcDbVertex
100
AcDb2dVertex
 10
114.4660495797278
 20
-120.3249505254743
 30
0.0
  0
SEQEND
  5
B7
330
B4
100
AcDbEntity
  8
_U+30EC_U+30A4_U+30E4_U+30FC 1
 62
   179
420
  2234388
370
     9
  0
POLYLINE
  5
B8
330
1F
100
AcDbEntity
  8
_U+30EC_U+30A4_U+30E4_U+30FC 1
 62
   179
420
  2234388
370
     9
100
AcDb2dPolyline
 66
     1
 10
0.0
 20
0.0
 30
0.0
  0
VERTEX
  5
B9
330
B8
100
AcDbEntity
  8
_U+30EC_U+30A4_U+30E4_U+30FC 1
 62
   179
420
  2234388
370
     9
100
AcDbVertex
100
AcDb2dVertex
 10
114.4660495797278
 20
-125.5828563574932
 30
0.0
  0
VERTEX
  5
BA
330
B8
100
AcDbEntity
  8
_U+30EC_U+30A4_U+30E4_U+30FC 1
 62
   179
420
  2234388
370
     9
100
AcDbVertex
100
AcDb2dVertex
 10
114.4660495797278
 20
-126.3828152461821
 30
0.0
  0
SEQEND
  5
BB
330
B8
100
AcDbEntity
  8
_U+30EC_U+30A4_U+30E4_U+30FC 1
 62
   179
420
  2234388
370
     9
  0
POLYLINE
  5
BC
330
1F
100
AcDbEntity
  8
_U+30EC_U+30A4_U+30E4_U+30FC 1
 62
   179
420
  2234388
370
     9
100
AcDb2dPolyline
 66
     1
 10
0.0
 20
0.0
 30
0.0
  0
VERTEX
  5
BD
330
BC
100
AcDbEntity
  8
_U+30EC_U+30A4_U+30E4_U+30FC 1
 62
   179
420
  2234388
370
     9
100
AcDbVertex
100
AcDb2dVertex
 10
113.0060110828597
 20
-125.5828563574932
 30
0.0
  0
VERTEX
  5
BE
330
BC
100
AcDbEntity
  8
_U+30EC_U+30A4_U+30E4_U+30FC 1
 62
   179
420
  2234388
370
     9
100
AcDbVertex
100
AcDb2dVertex
 10
115.4664920542044
 20
-125.5828563574932
 30
0.0
  0
SEQEND
  5
BF
330
BC
100
AcDbEntity
  8
_U+30EC_U+30A4_U+30E4_U+30FC 1
 62
   179
420
  2234388
370
     9
  0
POLYLINE
  5
C0
330
1F
100
AcDbEntity
  8
_U+30EC_U+30A4_U+30E4_U+30FC 1
 62
   179
420
  2234388
370
     9
100
AcDb2dPolyline
 66
     1
 10
0.0
 20
0.0
 30
0.0
  0
VERTEX
  5
C1
330
C0
100
AcDbEntity
  8
_U+30EC_U+30A4_U+30E4_U+30FC 1
 62
   179
420
  2234388
370
     9
100
AcDbVertex
100
AcDb2dVertex
 10
113.0060110828597
 20
-126.3828152461821
 30
0.0
  0
VERTEX
  5
C2
330
C0
100
AcDbEntity
  8
_U+30EC_U+30A4_U+30E4_U+30FC 1
 62
   179
420
  2234388
370
     9
100
AcDbVertex
100
AcDb2dVertex
 10
115.4664920542044
 20
-126.3828152461821
 30
0.0
  0
SEQEND
  5
C3
330
C0
100
AcDbEntity
  8
_U+30EC_U+30A4_U+30E4_U+30FC 1
 62
   179
420
  2234388
370
     9
  0
POLYLINE
  5
C4
330
1F
100
AcDbEntity
  8
_U+30EC_U+30A4_U+30E4_U+30FC 1
 62
   179
420
  2234388
370
     9
100
AcDb2dPolyline
 66
     1
 10
0.0
 20
0.0
 30
0.0
  0
VERTEX
  5
C5
330
C4
100
AcDbEntity
  8
_U+30EC_U+30A4_U+30E4_U+30FC 1
 62
   179
420
  2234388
370
     9
100
AcDbVertex
100
AcDb2dVertex
 10
114.4660495797278
 20
-132.3839885780148
 30
0.0
  0
VERTEX
  5
C6
330
C4
100
AcDbEntity
  8
_U+30EC_U+30A4_U+30E4_U+30FC 1
 62
   179
420
  2234388
370
     9
100
AcDbVertex
100
AcDb2dVertex
 10
114.4660495797278
 20
-126.384191079515
 30
0.0
  0
SEQEND
  5
C7
330
C4
100
AcDbEntity
  8
_U+30EC_U+30A4_U+30E4_U+30FC 1
 62
   179
420
  2234388
370
     9
  0
POLYLINE
  5
C8
330
1F
100
AcDbEntity
  8
_U+30EC_U+30A4_U+30E4_U+30FC 1
 62
   179
420
  2234388
370
     9
100
AcDb2dPolyline
 66
     1
 10
0.0
 20
0.0
 30
0.0
  0
VERTEX
  5
C9
330
C8
100
AcDbEntity
  8
_U+30EC_U+30A4_U+30E4_U+30FC 1
 62
   179
420
  2234388
370
     9
100
AcDbVertex
100
AcDb2dVertex
 10
100.0056182819775
 20
-132.3839885780148
 30
0.0
  0
VERTEX
  5
CA
330
C8
100
AcDbEntity
  8
_U+30EC_U+30A4_U+30E4_U+30FC 1
 62
   179
420
  2234388
370
     9
100
AcDbVertex
100
AcDb2dVertex
 10
115.4664920542044
 20
-132.3839885780148
 30
0.0
  0
SEQEND
  5
CB
330
C8
100
AcDbEntity
  8
_U+30EC_U+30A4_U+30E4_U+30FC 1
 62
   179
420
  2234388
370
     9
  0
POLYLINE
  5
CC
330
1F
100
AcDbEntity
  8
_U+30EC_U+30A4_U+30E4_U+30FC 1
 62
   179
420
  2234388
370
     9
100
AcDb2dPolyline
 66
     1
 10
0.0
 20
0.0
 30
0.0
  0
VERTEX
  5
CD
330
CC
100
AcDbEntity
  8
_U+30EC_U+30A4_U+30E4_U+30FC 1
 62
   179
420
  2234388
370
     9
100
AcDbVertex
100
AcDb2dVertex
 10
114.4660495797278
 20
-132.3839885780148
 30
0.0
  0
VERTEX
  5
CE
330
CC
100
AcDbEntity
  8
_U+30EC_U+30A4_U+30E4_U+30FC 1
 62
   179
420
  2234388
370
     9
100
AcDbVertex
100
AcDb2dVertex
 10
114.4660495797278
 20
-135.3839755217098
 30
0.0
  0
SEQEND
  5
CF
330
CC
100
AcDbEntity
  8
_U+30EC_U+30A4_U+30E4_U+30FC 1
 62
   179
420
  2234388
370
     9
  0
POLYLINE
  5
D0
330
1F
100
AcDbEntity
  8
_U+30EC_U+30A4_U+30E4_U+30FC 1
 62
   179
420
  2234388
370
     9
100
AcDb2dPolyline
 66
     1
 10
0.0
 20
0.0
 30
0.0
  0
VERTEX
  5
D1
330
D0
100
AcDbEntity
  8
_U+30EC_U+30A4_U+30E4_U+30FC 1
 62
   179
420
  2234388
370
     9
100
AcDbVertex
100
AcDb2dVertex
 10
100.0056182819775
 20
-135.3839755217098
 30
0.0
  0
VERTEX
  5
D2
330
D0
100
AcDbEntity
  8
_U+30EC_U+30A4_U+30E4_U+30FC 1
 62
   179
420
  2234388
370
     9
100
AcDbVertex
100
AcDb2dVertex
 10
115.4664920542044
 20
-135.3839755217098
 30
0.0
  0
SEQEND
  5
D3
330
D0
100
AcDbEntity
  8
_U+30EC_U+30A4_U+30E4_U+30FC 1
 62
   179
420
  2234388
370
     9
  0
POLYLINE
  5
D4
330
1F
100
AcDbEntity
  8
_U+30EC_U+30A4_U+30E4_U+30FC 1
 62
   179
420
  2234388
370
     9
100
AcDb2dPolyline
 66
     1
 10
0.0
 20
0.0
 30
0.0
  0
VERTEX
  5
D5
330
D4
100
AcDbEntity
  8
_U+30EC_U+30A4_U+30E4_U+30FC 1
 62
   179
420
  2234388
370
     9
100
AcDbVertex
100
AcDb2dVertex
 10
87.46563860189899
 20
-139.3844402429316
 30
0.0
  0
VERTEX
  5
D6
330
D4
100
AcDbEntity
  8
_U+30EC_U+30A4_U+30E4_U+30FC 1
 62
   179
420
  2234388
370
     9
100
AcDbVertex
100
AcDb2dVertex
 10
97.46519501345571
 20
-139.3844402429316
 30
0.0
  0
SEQEND
  5
D7
330
D4
100
AcDbEntity
  8
_U+30EC_U+30A4_U+30E4_U+30FC 1
 62
   179
420
  2234388
370
     9
  0
POLYLINE
  5
D8
330
1F
100
AcDbEntity
  8
_U+30EC_U+30A4_U+30E4_U+30FC 1
 62
   179
420
  2234388
370
     9
100
AcDb2dPolyline
 66
     1
 10
0.0
 20
0.0
 30
0.0
  0
VERTEX
  5
D9
330
D8
100
AcDbEntity
  8
_U+30EC_U+30A4_U+30E4_U+30FC 1
 62
   179
420
  2234388
370
     9
100
AcDbVertex
100
AcDb2dVertex
 10
87.46563860189899
 20
-137.9243988544079
 30
0.0
  0
VERTEX
  5
DA
330
D8
100
AcDbEntity
  8
_U+30EC_U+30A4_U+30E4_U+30FC 1
 62
   179
420
  2234388
370
     9
100
AcDbVertex
100
AcDb2dVertex
 10
87.46563860189899
 20
-140.3842124649041
 30
0.0
  0
SEQEND
  5
DB
330
D8
100
AcDbEntity
  8
_U+30EC_U+30A4_U+30E4_U+30FC 1
 62
   179
420
  2234388
370
     9
  0
POLYLINE
  5
DC
330
1F
100
AcDbEntity
  8
_U+30EC_U+30A4_U+30E4_U+30FC 1
 62
   179
420
  2234388
370
     9
100
AcDb2dPolyline
 66
     1
 10
0.0
 20
0.0
 30
0.0
  0
VERTEX
  5
DD
330
DC
100
AcDbEntity
  8
_U+30EC_U+30A4_U+30E4_U+30FC 1
 62
   179
420
  2234388
370
     9
100
AcDbVertex
100
AcDb2dVertex
 10
97.46519501345571
 20
-137.9243988544079
 30
0.0
  0
VERTEX
  5
DE
330
DC
100
AcDbEntity
  8
_U+30EC_U+30A4_U+30E4_U+30FC 1
 62
   179
420
  2234388
370
     9
100
AcDbVertex
100
AcDb2dVertex
 10
97.46519501345571
 20
-140.3842124649041
 30
0.0
  0
SEQEND
  5
DF
330
DC
100
AcDbEntity
  8
_U+30EC_U+30A4_U+30E4_U+30FC 1
 62
   179
420
  2234388
370
     9
  0
POLYLINE
  5
E0
330
1F
100
AcDbEntity
  8
_U+30EC_U+30A4_U+30E4_U+30FC 1
 62
   179
420
  2234388
370
     9
100
AcDb2dPolyline
 66
     1
 10
0.0
 20
0.0
 30
0.0
  0
VERTEX
  5
E1
330
E0
100
AcDbEntity
  8
_U+30EC_U+30A4_U+30E4_U+30FC 1
 62
   179
420
  2234388
370
     9
100
AcDbVertex
100
AcDb2dVertex
 10
87.46563860189899
 20
-121.5824269140489
 30
0.0
  0
VERTEX
  5
E2
330
E0
100
AcDbEntity
  8
_U+30EC_U+30A4_U+30E4_U+30FC 1
 62
   179
420
  2234388
370
     9
100
AcDbVertex
100
AcDb2dVertex
 10
110.4662905151035
 20
-121.5824269140489
 30
0.0
  0
SEQEND
  5
E3
330
E0
100
AcDbEntity
  8
_U+30EC_U+30A4_U+30E4_U+30FC 1
 62
   179
420
  2234388
370
     9
  0
POLYLINE
  5
E4
330
1F
100
AcDbEntity
  8
_U+30EC_U+30A4_U+30E4_U+30FC 1
 62
   179
420
  2234388
370
     9
100
AcDb2dPolyline
 66
     1
 10
0.0
 20
0.0
 30
0.0
  0
VERTEX
  5
E5
330
E4
100
AcDbEntity
  8
_U+30EC_U+30A4_U+30E4_U+30FC 1
 62
   179
420
  2234388
370
     9
100
AcDbVertex
100
AcDb2dVertex
 10
87.46563860189899
 20
-123.0424330247948
 30
0.0
  0
VERTEX
  5
E6
330
E4
100
AcDbEntity
  8
_U+30EC_U+30A4_U+30E4_U+30FC 1
 62
   179
420
  2234388
370
     9
100
AcDbVertex
100
AcDb2dVertex
 10
87.46563860189899
 20
-120.5826546920767
 30
0.0
  0
SEQEND
  5
E7
330
E4
100
AcDbEntity
  8
_U+30EC_U+30A4_U+30E4_U+30FC 1
 62
   179
420
  2234388
370
     9
  0
POLYLINE
  5
E8
330
1F
100
AcDbEntity
  8
_U+30EC_U+30A4_U+30E4_U+30FC 1
 62
   179
420
  2234388
370
     9
100
AcDb2dPolyline
 66
     1
 10
0.0
 20
0.0
 30
0.0
  0
VERTEX
  5
E9
330
E8
100
AcDbEntity
  8
_U+30EC_U+30A4_U+30E4_U+30FC 1
 62
   179
420
  2234388
370
     9
100
AcDbVertex
100
AcDb2dVertex
 10
110.4662905151035
 20
-123.0424330247948
 30
0.0
  0
VERTEX
  5
EA
330
E8
100
AcDbEntity
  8
_U+30EC_U+30A4_U+30E4_U+30FC 1
 62
   179
420
  2234388
370
     9
100
AcDbVertex
100
AcDb2dVertex
 10
110.4662905151035
 20
-120.5826546920767
 30
0.0
  0
SEQEND
  5
EB
330
E8
100
AcDbEntity
  8
_U+30EC_U+30A4_U+30E4_U+30FC 1
 62
   179
420
  2234388
370
     9
  0
POLYLINE
  5
EC
330
1F
100
AcDbEntity
  8
_U+30EC_U+30A4_U+30E4_U+30FC 1
  6
AI-Linetype-1
 62
   154
420
    23468
370
    25
100
AcDb2dPolyline
 66
     1
 10
0.0
 20
0.0
 30
0.0
  0
VERTEX
  5
ED
330
EC
100
AcDbEntity
  8
_U+30EC_U+30A4_U+30E4_U+30FC 1
  6
AI-Linetype-1
 62
   154
420
    23468
370
    25
100
AcDbVertex
100
AcDb2dVertex
 10
86.7631875087089
 20
-125.6159469130403
 30
0.0
  0
VERTEX
  5
EE
330
EC
100
AcDbEntity
  8
_U+30EC_U+30A4_U+30E4_U+30FC 1
  6
AI-Linetype-1
 62
   154
420
    23468
370
    25
100
AcDbVertex
100
AcDb2dVertex
 10
86.7631875087089
 20
-133.6159591332626
 30
0.0
  0
SEQEND
  5
F0
330
EC
100
AcDbEntity
  8
_U+30EC_U+30A4_U+30E4_U+30FC 1
  6
AI-Linetype-1
 62
   154
420
    23468
370
    25
  0
POLYLINE
  5
F1
330
1F
100
AcDbEntity
  8
_U+30EC_U+30A4_U+30E4_U+30FC 1
 62
   179
420
  2234388
370
     9
100
AcDb2dPolyline
 66
     1
 10
0.0
 20
0.0
 30
0.0
  0
VERTEX
  5
F2
330
F1
100
AcDbEntity
  8
_U+30EC_U+30A4_U+30E4_U+30FC 1
 62
   179
420
  2234388
370
     9
100
AcDbVertex
100
AcDb2dVertex
 10
86.65343834484217
 20
-133.6159591332626
 30
0.0
  0
VERTEX
  5
F3
330
F1
100
AcDbEntity
  8
_U+30EC_U+30A4_U+30E4_U+30FC 1
 62
   179
420
  2234388
370
     9
100
AcDbVertex
100
AcDb2dVertex
 10
85.65370142590314
 20
-133.6166646888181
 30
0.0
  0
SEQEND
  5
F4
330
F1
100
AcDbEntity
  8
_U+30EC_U+30A4_U+30E4_U+30FC 1
 62
   179
420
  2234388
370
     9
  0
POLYLINE
  5
F5
330
1F
100
AcDbEntity
  8
_U+30EC_U+30A4_U+30E4_U+30FC 1
 62
   179
420
  2234388
370
     9
100
AcDb2dPolyline
 66
     1
 10
0.0
 20
0.0
 30
0.0
  0
VERTEX
  5
F6
330
F5
100
AcDbEntity
  8
_U+30EC_U+30A4_U+30E4_U+30FC 1
 62
   179
420
  2234388
370
     9
100
AcDbVertex
100
AcDb2dVertex
 10
86.65343834484217
 20
-133.6159591332626
 30
0.0
  0
VERTEX
  5
F7
330
F5
100
AcDbEntity
  8
_U+30EC_U+30A4_U+30E4_U+30FC 1
 62
   179
420
  2234388
370
     9
100
AcDbVertex
100
AcDb2dVertex
 10
76.99445553630709
 20
-136.2046071881711
 30
0.0
  0
SEQEND
  5
F8
330
F5
100
AcDbEntity
  8
_U+30EC_U+30A4_U+30E4_U+30FC 1
 62
   179
420
  2234388
370
     9
  0
POLYLINE
  5
F9
330
1F
100
AcDbEntity
  8
_U+30EC_U+30A4_U+30E4_U+30FC 1
 62
   179
420
  2234388
370
     9
100
AcDb2dPolyline
 66
     1
 10
0.0
 20
0.0
 30
0.0
  0
VERTEX
  5
FA
330
F9
100
AcDbEntity
  8
_U+30EC_U+30A4_U+30E4_U+30FC 1
 62
   179
420
  2234388
370
     9
100
AcDbVertex
100
AcDb2dVertex
 10
86.65343834484217
 20
-133.6159591332626
 30
0.0
  0
VERTEX
  5
FB
330
F9
100
AcDbEntity
  8
_U+30EC_U+30A4_U+30E4_U+30FC 1
 62
   179
420
  2234388
370
     9
100
AcDbVertex
100
AcDb2dVertex
 10
85.78751003360051
 20
-134.1161980220263
 30
0.0
  0
SEQEND
  5
FC
330
F9
100
AcDbEntity
  8
_U+30EC_U+30A4_U+30E4_U+30FC 1
 62
   179
420
  2234388
370
     9
  0
INSERT
  5
FE
330
1F
100
AcDbEntity
  8
_U+30EC_U+30A4_U+30E4_U+30FC 1
100
AcDbBlockReference
  2
block 7
 10
0.0
 20
0.0
 30
0.0
  0
ENDSEC
  0
SECTION
  2
OBJECTS
  0
DICTIONARY
  5
C
330
0
100
AcDbDictionary
281
     1
  3
ACAD_GROUP
350
D
  3
ACAD_LAYOUT
350
1A
  3
ACAD_MATERIAL
350
3B
  3
ACAD_MLEADERSTYLE
350
126
  3
ACAD_MLINESTYLE
350
17
  3
ACAD_PLOTSETTINGS
350
19
  3
ACAD_PLOTSTYLENAME
350
E
  3
ACAD_TABLESTYLE
350
125
  3
ACAD_VISUALSTYLE
350
2A
  0
SUN
  5
3F
330
29
100
AcDbSun
 90
        1
290
     0
 63
     7
421
 16777215
 40
1.0
291
     1
 91
  2455826
 92
 54000000
292
     0
 70
     2
 71
   256
280
     1
  0
DICTIONARY
  5
D
102
{ACAD_REACTORS
330
C
102
}
330
C
100
AcDbDictionary
281
     1
  0
DICTIONARY
  5
1A
102
{ACAD_REACTORS
330
C
102
}
330
C
100
AcDbDictionary
281
     1
  3
Layout1
350
1E
  3
Layout2
350
26
  3
Model
350
22
  0
DICTIONARY
  5
3B
102
{ACAD_REACTORS
330
C
102
}
330
C
100
AcDbDictionary
281
     1
  3
ByBlock
350
3D
  3
ByLayer
350
3C
  3
Global
350
3E
  0
DICTIONARY
  5
126
102
{ACAD_REACTORS
330
C
102
}
330
C
100
AcDbDictionary
281
     1
  0
DICTIONARY
  5
17
102
{ACAD_REACTORS
330
C
102
}
330
C
100
AcDbDictionary
281
     1
  3
Standard
350
18
  0
DICTIONARY
  5
19
102
{ACAD_REACTORS
330
C
102
}
330
C
100
AcDbDictionary
281
     1
  0
ACDBDICTIONARYWDFLT
  5
E
102
{ACAD_REACTORS
330
C
102
}
330
C
100
AcDbDictionary
281
     1
  3
Normal
350
F
100
AcDbDictionaryWithDefault
340
F
  0
DICTIONARY
  5
125
102
{ACAD_REACTORS
330
C
102
}
330
C
100
AcDbDictionary
281
     1
  0
DICTIONARY
  5
2A
102
{ACAD_REACTORS
330
C
102
}
330
C
100
AcDbDictionary
281
     1
  3
2dWireframe
350
2F
  3
3D Hidden
350
31
  3
3dWireframe
350
30
  3
Basic
350
32
  3
Brighten
350
36
  3
ColorChange
350
3A
  3
Conceptual
350
34
  3
Dim
350
35
  3
Facepattern
350
39
  3
Flat
350
2B
  3
FlatWithEdges
350
2C
  3
Gouraud
350
2D
  3
GouraudWithEdges
350
2E
  3
Linepattern
350
38
  3
Realistic
350
33
  3
Thicken
350
37
  0
LAYOUT
  5
1E
102
{ACAD_REACTORS
330
1A
102
}
330
1A
100
AcDbPlotSettings
  1

  2
none_device
  4

  6

 40
0.0
 41
0.0
 42
0.0
 43
0.0
 44
0.0
 45
0.0
 46
0.0
 47
0.0
 48
0.0
 49
0.0
140
0.0
141
0.0
142
1.0
143
1.0
 70
   688
 72
     0
 73
     0
 74
     5
  7

 75
    16
 76
     0
 77
     2
 78
   300
147
1.0
148
0.0
149
0.0
100
AcDbLayout
  1
Layout1
 70
     1
 71
     1
 10
0.0
 20
0.0
 11
12.0
 21
9.0
 12
0.0
 22
0.0
 32
0.0
 14
1.000000000000000E+20
 24
1.000000000000000E+20
 34
1.000000000000000E+20
 15
-1.000000000000000E+20
 25
-1.000000000000000E+20
 35
-1.000000000000000E+20
146
0.0
 13
0.0
 23
0.0
 33
0.0
 16
1.0
 26
0.0
 36
0.0
 17
0.0
 27
1.0
 37
0.0
 76
     0
330
1B
  0
LAYOUT
  5
26
102
{ACAD_REACTORS
330
1A
102
}
330
1A
100
AcDbPlotSettings
  1

  2
none_device
  4

  6

 40
0.0
 41
0.0
 42
0.0
 43
0.0
 44
0.0
 45
0.0
 46
0.0
 47
0.0
 48
0.0
 49
0.0
140
0.0
141
0.0
142
1.0
143
1.0
 70
   688
 72
     0
 73
     0
 74
     5
  7

 75
    16
 76
     0
 77
     2
 78
   300
147
1.0
148
0.0
149
0.0
100
AcDbLayout
  1
Layout2
 70
     1
 71
     2
 10
0.0
 20
0.0
 11
0.0
 21
0.0
 12
0.0
 22
0.0
 32
0.0
 14
0.0
 24
0.0
 34
0.0
 15
0.0
 25
0.0
 35
0.0
146
0.0
 13
0.0
 23
0.0
 33
0.0
 16
1.0
 26
0.0
 36
0.0
 17
0.0
 27
1.0
 37
0.0
 76
     0
330
23
  0
LAYOUT
  5
22
102
{ACAD_REACTORS
330
1A
102
}
330
1A
100
AcDbPlotSettings
  1

  2
none_device
  4

  6

 40
0.0
 41
0.0
 42
0.0
 43
0.0
 44
0.0
 45
0.0
 46
0.0
 47
0.0
 48
0.0
 49
0.0
140
0.0
141
0.0
142
1.0
143
1.0
 70
  1712
 72
     0
 73
     0
 74
     0
  7

 75
     0
 76
     0
 77
     2
 78
   300
147
1.0
148
0.0
149
0.0
100
AcDbLayout
  1
Model
 70
     1
 71
     0
 10
0.0
 20
0.0
 11
12.0
 21
9.0
 12
0.0
 22
0.0
 32
0.0
 14
1.000000000000000E+20
 24
1.000000000000000E+20
 34
1.000000000000000E+20
 15
-1.000000000000000E+20
 25
-1.000000000000000E+20
 35
-1.000000000000000E+20
146
0.0
 13
0.0
 23
0.0
 33
0.0
 16
1.0
 26
0.0
 36
0.0
 17
0.0
 27
1.0
 37
0.0
 76
     0
330
1F
331
29
  0
MATERIAL
  5
3D
102
{ACAD_REACTORS
330
3B
102
}
330
3B
100
AcDbMaterial
  1
ByBlock
 72
     1
 94
      127
  0
MATERIAL
  5
3C
102
{ACAD_REACTORS
330
3B
102
}
330
3B
100
AcDbMaterial
  1
ByLayer
 72
     1
 94
      127
  0
MATERIAL
  5
3E
102
{ACAD_REACTORS
330
3B
102
}
330
3B
100
AcDbMaterial
  1
Global
 72
     1
 94
      127
  0
MLINESTYLE
  5
18
102
{ACAD_REACTORS
330
17
102
}
330
17
100
AcDbMlineStyle
  2
Standard
 70
     0
  3

 62
   256
 51
90.0
 52
90.0
 71
     2
 49
0.5
 62
   256
  6
BYLAYER
 49
-0.5
 62
   256
  6
BYLAYER
  0
ACDBPLACEHOLDER
  5
F
102
{ACAD_REACTORS
330
E
102
}
330
E
  0
VISUALSTYLE
  5
2F
102
{ACAD_REACTORS
330
2A
102
}
330
2A
100
AcDbVisualStyle
  2
2dWireframe
 70
     4
177
     2
291
     0
 71
     0
176
     1
 72
     2
176
     1
 73
     0
176
     1
 90
        0
176
     1
 40
-0.6
176
     1
 41
-30.0
176
     1
 62
     5
 63
     7
421
 16777215
176
     1
 74
     1
176
     1
 91
        4
176
     1
 64
     7
176
     1
 65
   257
176
     1
 75
     1
176
     1
175
     1
176
     1
 42
1.0
176
     1
 92
        0
176
     1
 66
   257
176
     1
 43
1.0
176
     1
 76
     1
176
     1
 77
     6
176
     1
 78
     2
176
     1
 67
     7
176
     1
 79
     5
176
     1
170
     0
176
     1
171
     0
176
     1
290
     0
176
     1
 93
        1
176
     1
 44
0.0
176
     1
173
     0
176
     1
  0
VISUALSTYLE
  5
31
102
{ACAD_REACTORS
330
2A
102
}
330
2A
100
AcDbVisualStyle
  2
3D Hidden
 70
     6
177
     2
291
     0
 71
     1
176
     1
 72
     2
176
     1
 73
     2
176
     1
 90
        0
176
     1
 40
-0.6
176
     1
 41
-30.0
176
     1
 62
     5
 63
     7
421
 16777215
176
     1
 74
     2
176
     1
 91
        2
176
     1
 64
     7
176
     1
 65
   257
176
     1
 75
     2
176
     1
175
     1
176
     1
 42
40.0
176
     1
 92
        0
176
     1
 66
   257
176
     1
 43
1.0
176
     1
 76
     1
176
     1
 77
     6
176
     1
 78
     2
176
     1
 67
     7
176
     1
 79
     3
176
     1
170
     0
176
     1
171
     0
176
     1
290
     0
176
     1
 93
        1
176
     1
 44
0.0
176
     1
173
     0
176
     1
  0
VISUALSTYLE
  5
30
102
{ACAD_REACTORS
330
2A
102
}
330
2A
100
AcDbVisualStyle
  2
3dWireframe
 70
     5
177
     2
291
     0
 71
     0
176
     1
 72
     2
176
     1
 73
     0
176
     1
 90
        0
176
     1
 40
-0.6
176
     1
 41
-30.0
176
     1
 62
     5
 63
     7
421
 16777215
176
     1
 74
     1
176
     1
 91
        4
176
     1
 64
     7
176
     1
 65
   257
176
     1
 75
     1
176
     1
175
     1
176
     1
 42
1.0
176
     1
 92
        0
176
     1
 66
   257
176
     1
 43
1.0
176
     1
 76
     1
176
     1
 77
     6
176
     1
 78
     2
176
     1
 67
     7
176
     1
 79
     5
176
     1
170
     0
176
     1
171
     0
176
     1
290
     0
176
     1
 93
        1
176
     1
 44
0.0
176
     1
173
     0
176
     1
  0
VISUALSTYLE
  5
32
102
{ACAD_REACTORS
330
2A
102
}
330
2A
100
AcDbVisualStyle
  2
Basic
 70
     7
177
     2
291
     1
 71
     1
176
     1
 72
     0
176
     1
 73
     1
176
     1
 90
        0
176
     1
 40
-0.6
176
     1
 41
-30.0
176
     1
 62
     5
 63
     7
421
 16777215
176
     1
 74
     0
176
     1
 91
        4
176
     1
 64
     7
176
     1
 65
   257
176
     1
 75
     1
176
     1
175
     1
176
     1
 42
1.0
176
     1
 92
        8
176
     1
 66
     7
176
     1
 43
1.0
176
     1
 76
     1
176
     1
 77
     6
176
     1
 78
     2
176
     1
 67
     7
176
     1
 79
     5
176
     1
170
     0
176
     1
171
     0
176
     1
290
     0
176
     1
 93
        1
176
     1
 44
0.0
176
     1
173
     0
176
     1
  0
VISUALSTYLE
  5
36
102
{ACAD_REACTORS
330
2A
102
}
330
2A
100
AcDbVisualStyle
  2
Brighten
 70
    12
177
     2
291
     1
 71
     2
176
     1
 72
     2
176
     1
 73
     0
176
     1
 90
        0
176
     1
 40
-0.6
176
     1
 41
-30.0
176
     1
 62
     5
 63
     7
421
 16777215
176
     1
 74
     1
176
     1
 91
        4
176
     1
 64
     7
176
     1
 65
   257
176
     1
 75
     1
176
     1
175
     1
176
     1
 42
1.0
176
     1
 92
        8
176
     1
 66
     7
176
     1
 43
1.0
176
     1
 76
     1
176
     1
 77
     6
176
     1
 78
     2
176
     1
 67
     7
176
     1
 79
     5
176
     1
170
     0
176
     1
171
     0
176
     1
290
     0
176
     1
 93
        1
176
     1
 44
50.0
176
     1
173
     0
176
     1
  0
VISUALSTYLE
  5
3A
102
{ACAD_REACTORS
330
2A
102
}
330
2A
100
AcDbVisualStyle
  2
ColorChange
 70
    16
177
     2
291
     1
 71
     2
176
     1
 72
     2
176
     1
 73
     3
176
     1
 90
        0
176
     1
 40
-0.6
176
     1
 41
-30.0
176
     1
 62
     5
 63
     8
421
  8421504
176
     1
 74
     1
176
     1
 91
        4
176
     1
 64
     7
176
     1
 65
   257
176
     1
 75
     1
176
     1
175
     1
176
     1
 42
1.0
176
     1
 92
        8
176
     1
 66
     8
424
  8421504
176
     1
 43
1.0
176
     1
 76
     1
176
     1
 77
     6
176
     1
 78
     2
176
     1
 67
     7
176
     1
 79
     5
176
     1
170
     0
176
     1
171
     0
176
     1
290
     0
176
     1
 93
        1
176
     1
 44
0.0
176
     1
173
     0
176
     1
  0
VISUALSTYLE
  5
34
102
{ACAD_REACTORS
330
2A
102
}
330
2A
100
AcDbVisualStyle
  2
Conceptual
 70
     9
177
     2
291
     0
 71
     3
176
     1
 72
     2
176
     1
 73
     0
176
     1
 90
        0
176
     1
 40
-0.6
176
     1
 41
-30.0
176
     1
 62
     5
 63
     7
421
 16777215
176
     1
 74
     2
176
     1
 91
        2
176
     1
 64
     7
176
     1
 65
   257
176
     1
 75
     1
176
     1
175
     1
176
     1
 42
40.0
176
     1
 92
        8
176
     1
 66
     7
176
     1
 43
1.0
176
     1
 76
     1
176
     1
 77
     6
176
     1
 78
     2
176
     1
 67
     7
176
     1
 79
     3
176
     1
170
     0
176
     1
171
     0
176
     1
290
     0
176
     1
 93
        1
176
     1
 44
0.0
176
     1
173
     0
176
     1
  0
VISUALSTYLE
  5
35
102
{ACAD_REACTORS
330
2A
102
}
330
2A
100
AcDbVisualStyle
  2
Dim
 70
    11
177
     2
291
     1
 71
     2
176
     1
 72
     2
176
     1
 73
     0
176
     1
 90
        0
176
     1
 40
-0.6
176
     1
 41
-30.0
176
     1
 62
     5
 63
     7
421
 16777215
176
     1
 74
     1
176
     1
 91
        4
176
     1
 64
     7
176
     1
 65
   257
176
     1
 75
     1
176
     1
175
     1
176
     1
 42
1.0
176
     1
 92
        8
176
     1
 66
     7
176
     1
 43
1.0
176
     1
 76
     1
176
     1
 77
     6
176
     1
 78
     2
176
     1
 67
     7
176
     1
 79
     5
176
     1
170
     0
176
     1
171
     0
176
     1
290
     0
176
     1
 93
        1
176
     1
 44
-50.0
176
     1
173
     0
176
     1
  0
VISUALSTYLE
  5
39
102
{ACAD_REACTORS
330
2A
102
}
330
2A
100
AcDbVisualStyle
  2
Facepattern
 70
    15
177
     2
291
     1
 71
     2
176
     1
 72
     2
176
     1
 73
     0
176
     1
 90
        0
176
     1
 40
-0.6
176
     1
 41
-30.0
176
     1
 62
     5
 63
     7
421
 16777215
176
     1
 74
     1
176
     1
 91
        4
176
     1
 64
     7
176
     1
 65
   257
176
     1
 75
     1
176
     1
175
     1
176
     1
 42
1.0
176
     1
 92
        8
176
     1
 66
     7
176
     1
 43
1.0
176
     1
 76
     1
176
     1
 77
     6
176
     1
 78
     2
176
     1
 67
     7
176
     1
 79
     5
176
     1
170
     0
176
     1
171
     0
176
     1
290
     0
176
     1
 93
        1
176
     1
 44
0.0
176
     1
173
     0
176
     1
  0
VISUALSTYLE
  5
2B
102
{ACAD_REACTORS
330
2A
102
}
330
2A
100
AcDbVisualStyle
  2
Flat
 70
     0
177
     2
291
     1
 71
     2
176
     1
 72
     1
176
     1
 73
     1
176
     1
 90
        2
176
     1
 40
-0.6
176
     1
 41
30.0
176
     1
 62
     5
 63
     7
421
 16777215
176
     1
 74
     0
176
     1
 91
        4
176
     1
 64
     7
176
     1
 65
   257
176
     1
 75
     1
176
     1
175
     1
176
     1
 42
1.0
176
     1
 92
        8
176
     1
 66
     7
176
     1
 43
1.0
176
     1
 76
     1
176
     1
 77
     6
176
     1
 78
     2
176
     1
 67
     7
176
     1
 79
     5
176
     1
170
     0
176
     1
171
     0
176
     1
290
     0
176
     1
 93
       13
176
     1
 44
0.0
176
     1
173
     0
176
     1
  0
VISUALSTYLE
  5
2C
102
{ACAD_REACTORS
330
2A
102
}
330
2A
100
AcDbVisualStyle
  2
FlatWithEdges
 70
     1
177
     2
291
     1
 71
     2
176
     1
 72
     1
176
     1
 73
     1
176
     1
 90
        2
176
     1
 40
-0.6
176
     1
 41
30.0
176
     1
 62
     5
 63
     7
421
 16777215
176
     1
 74
     1
176
     1
 91
        4
176
     1
 64
     7
176
     1
 65
   257
176
     1
 75
     1
176
     1
175
     1
176
     1
 42
1.0
176
     1
 92
        0
176
     1
 66
   257
176
     1
 43
1.0
176
     1
 76
     1
176
     1
 77
     6
176
     1
 78
     2
176
     1
 67
     7
176
     1
 79
     5
176
     1
170
     0
176
     1
171
     0
176
     1
290
     0
176
     1
 93
       13
176
     1
 44
0.0
176
     1
173
     0
176
     1
  0
VISUALSTYLE
  5
2D
102
{ACAD_REACTORS
330
2A
102
}
330
2A
100
AcDbVisualStyle
  2
Gouraud
 70
     2
177
     2
291
     1
 71
     2
176
     1
 72
     2
176
     1
 73
     1
176
     1
 90
        2
176
     1
 40
-0.6
176
     1
 41
30.0
176
     1
 62
     5
 63
     7
421
 16777215
176
     1
 74
     0
176
     1
 91
        4
176
     1
 64
     7
176
     1
 65
   257
176
     1
 75
     1
176
     1
175
     1
176
     1
 42
1.0
176
     1
 92
        0
176
     1
 66
     7
176
     1
 43
1.0
176
     1
 76
     1
176
     1
 77
     6
176
     1
 78
     2
176
     1
 67
     7
176
     1
 79
     5
176
     1
170
     0
176
     1
171
     0
176
     1
290
     0
176
     1
 93
       13
176
     1
 44
0.0
176
     1
173
     0
176
     1
  0
VISUALSTYLE
  5
2E
102
{ACAD_REACTORS
330
2A
102
}
330
2A
100
AcDbVisualStyle
  2
GouraudWithEdges
 70
     3
177
     2
291
     1
 71
     2
176
     1
 72
     2
176
     1
 73
     1
176
     1
 90
        2
176
     1
 40
-0.6
176
     1
 41
30.0
176
     1
 62
     5
 63
     7
421
 16777215
176
     1
 74
     1
176
     1
 91
        4
176
     1
 64
     7
176
     1
 65
   257
176
     1
 75
     1
176
     1
175
     1
176
     1
 42
1.0
176
     1
 92
        0
176
     1
 66
   257
176
     1
 43
1.0
176
     1
 76
     1
176
     1
 77
     6
176
     1
 78
     2
176
     1
 67
     7
176
     1
 79
     5
176
     1
170
     0
176
     1
171
     0
176
     1
290
     0
176
     1
 93
       13
176
     1
 44
0.0
176
     1
173
     0
176
     1
  0
VISUALSTYLE
  5
38
102
{ACAD_REACTORS
330
2A
102
}
330
2A
100
AcDbVisualStyle
  2
Linepattern
 70
    14
177
     2
291
     1
 71
     2
176
     1
 72
     2
176
     1
 73
     0
176
     1
 90
        0
176
     1
 40
-0.6
176
     1
 41
-30.0
176
     1
 62
     5
 63
     7
421
 16777215
176
     1
 74
     1
176
     1
 91
        4
176
     1
 64
     7
176
     1
 65
   257
176
     1
 75
     7
176
     1
175
     7
176
     1
 42
1.0
176
     1
 92
        8
176
     1
 66
     7
176
     1
 43
1.0
176
     1
 76
     1
176
     1
 77
     6
176
     1
 78
     2
176
     1
 67
     7
176
     1
 79
     5
176
     1
170
     0
176
     1
171
     0
176
     1
290
     0
176
     1
 93
        1
176
     1
 44
0.0
176
     1
173
     0
176
     1
  0
VISUALSTYLE
  5
33
102
{ACAD_REACTORS
330
2A
102
}
330
2A
100
AcDbVisualStyle
  2
Realistic
 70
     8
177
     2
291
     0
 71
     2
176
     1
 72
     2
176
     1
 73
     0
176
     1
 90
        0
176
     1
 40
-0.6
176
     1
 41
-30.0
176
     1
 62
     5
 63
     7
421
 16777215
176
     1
 74
     1
176
     1
 91
        0
176
     1
 64
     7
176
     1
 65
   257
176
     1
 75
     1
176
     1
175
     1
176
     1
 42
1.0
176
     1
 92
        8
176
     1
 66
     8
424
  7895160
176
     1
 43
1.0
176
     1
 76
     1
176
     1
 77
     6
176
     1
 78
     2
176
     1
 67
     7
176
     1
 79
     5
176
     1
170
     0
176
     1
171
     0
176
     1
290
     0
176
     1
 93
       13
176
     1
 44
0.0
176
     1
173
     0
176
     1
  0
VISUALSTYLE
  5
37
102
{ACAD_REACTORS
330
2A
102
}
330
2A
100
AcDbVisualStyle
  2
Thicken
 70
    13
177
     2
291
     1
 71
     2
176
     1
 72
     2
176
     1
 73
     0
176
     1
 90
        0
176
     1
 40
-0.6
176
     1
 41
-30.0
176
     1
 62
     5
 63
     7
421
 16777215
176
     1
 74
     1
176
     1
 91
        4
176
     1
 64
     7
176
     1
 65
   257
176
     1
 75
     1
176
     1
175
     1
176
     1
 42
1.0
176
     1
 92
       12
176
     1
 66
     7
176
     1
 43
1.0
176
     1
 76
     1
176
     1
 77
     6
176
     1
 78
     2
176
     1
 67
     7
176
     1
 79
     5
176
     1
170
     0
176
     1
171
     0
176
     1
290
     0
176
     1
 93
        1
176
     1
 44
0.0
176
     1
173
     0
176
     1
  0
ENDSEC
  0
EOF
