  0
SECTION
  2
HEADER
  9
$ACADVER
  1
AC1024
  9
$ACADMAINTVER
 70
     6
  9
$DWGCODEPAGE
  3
UNDEFINED
  9
$INSBASE
 10
0.0
 20
0.0
 30
0.0
  9
$EXTMIN
 10
1.000000000000000E+20
 20
1.000000000000000E+20
 30
1.000000000000000E+20
  9
$EXTMAX
 10
-1.000000000000000E+20
 20
-1.000000000000000E+20
 30
-1.000000000000000E+20
  9
$LIMMIN
 10
0.0
 20
0.0
  9
$LIMMAX
 10
12.0
 20
9.0
  9
$ORTHOMODE
 70
     0
  9
$REGENMODE
 70
     1
  9
$FILLMODE
 70
     1
  9
$QTEXTMODE
 70
     0
  9
$MIRRTEXT
 70
     1
  9
$LTSCALE
 40
1.0
  9
$ATTMODE
 70
     1
  9
$TEXTSIZE
 40
0.2
  9
$TRACEWID
 40
0.05
  9
$TEXTSTYLE
  7
Standard
  9
$CLAYER
  8
0
  9
$CELTYPE
  6
ByLayer
  9
$CECOLOR
 62
   256
  9
$CELTSCALE
 40
1.0
  9
$DISPSILH
 70
     0
  9
$DIMSCALE
 40
1.0
  9
$DIMASZ
 40
0.18
  9
$DIMEXO
 40
0.0625
  9
$DIMDLI
 40
0.38
  9
$DIMRND
 40
0.0
  9
$DIMDLE
 40
0.0
  9
$DIMEXE
 40
0.18
  9
$DIMTP
 40
0.0
  9
$DIMTM
 40
0.0
  9
$DIMTXT
 40
0.18
  9
$DIMCEN
 40
0.09
  9
$DIMTSZ
 40
0.0
  9
$DIMTOL
 70
     0
  9
$DIMLIM
 70
     0
  9
$DIMTIH
 70
     1
  9
$DIMTOH
 70
     1
  9
$DIMSE1
 70
     0
  9
$DIMSE2
 70
     0
  9
$DIMTAD
 70
     0
  9
$DIMZIN
 70
     0
  9
$DIMBLK
  1

  9
$DIMASO
 70
     1
  9
$DIMSHO
 70
     1
  9
$DIMPOST
  1

  9
$DIMAPOST
  1

  9
$DIMALT
 70
     0
  9
$DIMALTD
 70
     2
  9
$DIMALTF
 40
25.4
  9
$DIMLFAC
 40
1.0
  9
$DIMTOFL
 70
     0
  9
$DIMTVP
 40
0.0
  9
$DIMTIX
 70
     0
  9
$DIMSOXD
 70
     0
  9
$DIMSAH
 70
     0
  9
$DIMBLK1
  1

  9
$DIMBLK2
  1

  9
$DIMSTYLE
  2
Standard
  9
$DIMCLRD
 70
     0
  9
$DIMCLRE
 70
     0
  9
$DIMCLRT
 70
     0
  9
$DIMTFAC
 40
1.0
  9
$DIMGAP
 40
0.09
  9
$DIMJUST
 70
     0
  9
$DIMSD1
 70
     0
  9
$DIMSD2
 70
     0
  9
$DIMTOLJ
 70
     1
  9
$DIMTZIN
 70
     0
  9
$DIMALTZ
 70
     0
  9
$DIMALTTZ
 70
     0
  9
$DIMUPT
 70
     0
  9
$DIMDEC
 70
     4
  9
$DIMTDEC
 70
     4
  9
$DIMALTU
 70
     2
  9
$DIMALTTD
 70
     2
  9
$DIMTXSTY
  7
Standard
  9
$DIMAUNIT
 70
     0
  9
$DIMADEC
 70
     0
  9
$DIMALTRND
 40
0.0
  9
$DIMAZIN
 70
     0
  9
$DIMDSEP
 70
    46
  9
$DIMATFIT
 70
     3
  9
$DIMFRAC
 70
     0
  9
$DIMLDRBLK
  1

  9
$DIMLUNIT
 70
     2
  9
$DIMLWD
 70
    -2
  9
$DIMLWE
 70
    -2
  9
$DIMTMOVE
 70
     0
  9
$DIMFXL
 40
1.0
  9
$DIMFXLON
 70
     0
  9
$DIMJOGANG
 40
0.7853981633974483
  9
$DIMTFILL
 70
     0
  9
$DIMTFILLCLR
 70
     0
  9
$DIMARCSYM
 70
     0
  9
$DIMLTYPE
  6

  9
$DIMLTEX1
  6

  9
$DIMLTEX2
  6

  9
$DIMTXTDIRECTION
 70
     0
  9
$LUNITS
 70
     2
  9
$LUPREC
 70
     4
  9
$SKETCHINC
 40
0.1
  9
$FILLETRAD
 40
0.5
  9
$AUNITS
 70
     0
  9
$AUPREC
 70
     0
  9
$MENU
  1
.
  9
$ELEVATION
 40
0.0
  9
$PELEVATION
 40
0.0
  9
$THICKNESS
 40
0.0
  9
$LIMCHECK
 70
     0
  9
$CHAMFERA
 40
0.5
  9
$CHAMFERB
 40
0.5
  9
$CHAMFERC
 40
1.0
  9
$CHAMFERD
 40
0.0
  9
$SKPOLY
 70
     0
  9
$TDCREATE
 40
2457917.589131933
  9
$TDUCREATE
 40
2457917.214131944
  9
$TDUPDATE
 40
2457917.589131933
  9
$TDUUPDATE
 40
2457917.214131944
  9
$TDINDWG
 40
0.0000000116
  9
$TDUSRTIMER
 40
0.0000000116
  9
$USRTIMER
 70
     1
  9
$ANGBASE
 50
0.0
  9
$ANGDIR
 70
     0
  9
$PDMODE
 70
     0
  9
$PDSIZE
 40
0.0
  9
$PLINEWID
 40
0.0
  9
$SPLFRAME
 70
     0
  9
$SPLINETYPE
 70
     6
  9
$SPLINESEGS
 70
     8
  9
$HANDSEED
  5
EE
  9
$SURFTAB1
 70
     6
  9
$SURFTAB2
 70
     6
  9
$SURFTYPE
 70
     6
  9
$SURFU
 70
     6
  9
$SURFV
 70
     6
  9
$UCSBASE
  2

  9
$UCSNAME
  2

  9
$UCSORG
 10
0.0
 20
0.0
 30
0.0
  9
$UCSXDIR
 10
1.0
 20
0.0
 30
0.0
  9
$UCSYDIR
 10
0.0
 20
1.0
 30
0.0
  9
$UCSORTHOREF
  2

  9
$UCSORTHOVIEW
 70
     0
  9
$UCSORGTOP
 10
0.0
 20
0.0
 30
0.0
  9
$UCSORGBOTTOM
 10
0.0
 20
0.0
 30
0.0
  9
$UCSORGLEFT
 10
0.0
 20
0.0
 30
0.0
  9
$UCSORGRIGHT
 10
0.0
 20
0.0
 30
0.0
  9
$UCSORGFRONT
 10
0.0
 20
0.0
 30
0.0
  9
$UCSORGBACK
 10
0.0
 20
0.0
 30
0.0
  9
$PUCSBASE
  2

  9
$PUCSNAME
  2

  9
$PUCSORG
 10
0.0
 20
0.0
 30
0.0
  9
$PUCSXDIR
 10
1.0
 20
0.0
 30
0.0
  9
$PUCSYDIR
 10
0.0
 20
1.0
 30
0.0
  9
$PUCSORTHOREF
  2

  9
$PUCSORTHOVIEW
 70
     0
  9
$PUCSORGTOP
 10
0.0
 20
0.0
 30
0.0
  9
$PUCSORGBOTTOM
 10
0.0
 20
0.0
 30
0.0
  9
$PUCSORGLEFT
 10
0.0
 20
0.0
 30
0.0
  9
$PUCSORGRIGHT
 10
0.0
 20
0.0
 30
0.0
  9
$PUCSORGFRONT
 10
0.0
 20
0.0
 30
0.0
  9
$PUCSORGBACK
 10
0.0
 20
0.0
 30
0.0
  9
$USERI1
 70
     0
  9
$USERI2
 70
     0
  9
$USERI3
 70
     0
  9
$USERI4
 70
     0
  9
$USERI5
 70
     0
  9
$USERR1
 40
0.0
  9
$USERR2
 40
0.0
  9
$USERR3
 40
0.0
  9
$USERR4
 40
0.0
  9
$USERR5
 40
0.0
  9
$WORLDVIEW
 70
     1
  9
$SHADEDGE
 70
     3
  9
$SHADEDIF
 70
    70
  9
$TILEMODE
 70
     1
  9
$MAXACTVP
 70
    64
  9
$PINSBASE
 10
0.0
 20
0.0
 30
0.0
  9
$PLIMCHECK
 70
     0
  9
$PEXTMIN
 10
1.000000000000000E+20
 20
1.000000000000000E+20
 30
1.000000000000000E+20
  9
$PEXTMAX
 10
-1.000000000000000E+20
 20
-1.000000000000000E+20
 30
-1.000000000000000E+20
  9
$PLIMMIN
 10
0.0
 20
0.0
  9
$PLIMMAX
 10
12.0
 20
9.0
  9
$UNITMODE
 70
     0
  9
$VISRETAIN
 70
     1
  9
$PLINEGEN
 70
     0
  9
$PSLTSCALE
 70
     1
  9
$TREEDEPTH
 70
  3020
  9
$CMLSTYLE
  2
Standard
  9
$CMLJUST
 70
     0
  9
$CMLSCALE
 40
1.0
  9
$PROXYGRAPHICS
 70
     1
  9
$MEASUREMENT
 70
     0
  9
$CELWEIGHT
370
    -1
  9
$ENDCAPS
280
     0
  9
$JOINSTYLE
280
     0
  9
$LWDISPLAY
290
     1
  9
$INSUNITS
 70
     1
  9
$HYPERLINKBASE
  1

  9
$STYLESHEET
  1

  9
$XEDIT
290
     1
  9
$CEPSNTYPE
380
     0
  9
$PSTYLEMODE
290
     1
  9
$FINGERPRINTGUID
  2
{92DA5E5A-80AE-1851-F49A-19E420CBB2AA}
  9
$VERSIONGUID
  2
{FAEB1C32-E019-11D5-929B-00C0DF256EC4}
  9
$EXTNAMES
290
     1
  9
$PSVPSCALE
 40
0.0
  9
$OLESTARTUP
290
     0
  9
$SORTENTS
280
   127
  9
$INDEXCTL
280
     0
  9
$HIDETEXT
280
     1
  9
$XCLIPFRAME
280
     2
  9
$HALOGAP
280
     0
  9
$OBSCOLOR
 70
   257
  9
$OBSLTYPE
280
     0
  9
$INTERSECTIONDISPLAY
280
     0
  9
$INTERSECTIONCOLOR
 70
   257
  9
$DIMASSOC
280
     2
  9
$PROJECTNAME
  1

  9
$CAMERADISPLAY
290
     0
  9
$LENSLENGTH
 40
50.0
  9
$CAMERAHEIGHT
 40
0.0
  9
$STEPSPERSEC
 40
2.0
  9
$STEPSIZE
 40
6.0
  9
$3DDWFPREC
 40
2.0
  9
$PSOLWIDTH
 40
0.25
  9
$PSOLHEIGHT
 40
4.0
  9
$LOFTANG1
 40
1.570796326794897
  9
$LOFTANG2
 40
1.570796326794897
  9
$LOFTMAG1
 40
0.0
  9
$LOFTMAG2
 40
0.0
  9
$LOFTPARAM
 70
     7
  9
$LOFTNORMALS
280
     1
  9
$LATITUDE
 40
37.795
  9
$LONGITUDE
 40
-122.394
  9
$NORTHDIRECTION
 40
0.0
  9
$TIMEZONE
 70
 -8000
  9
$LIGHTGLYPHDISPLAY
280
     1
  9
$TILEMODELIGHTSYNCH
280
     1
  9
$CMATERIAL
347
3C
  9
$SOLIDHIST
280
     1
  9
$SHOWHIST
280
     1
  9
$DWFFRAME
280
     2
  9
$DGNFRAME
280
     2
  9
$REALWORLDSCALE
290
     1
  9
$INTERFERECOLOR
 62
   256
  9
$CSHADOW
280
     0
  9
$SHADOWPLANELOCATION
 40
0.0
  0
ENDSEC
  0
SECTION
  2
CLASSES
  0
CLASS
  1
ACDBDICTIONARYWDFLT
  2
AcDbDictionaryWithDefault
  3
ObjectDBX Classes
 90
        0
 91
        4
280
     0
281
     0
  0
CLASS
  1
VISUALSTYLE
  2
AcDbVisualStyle
  3
ObjectDBX Classes
 90
     4095
 91
        4
280
     0
281
     0
  0
CLASS
  1
MATERIAL
  2
AcDbMaterial
  3
ObjectDBX Classes
 90
     1153
 91
        4
280
     0
281
     0
  0
CLASS
  1
SUN
  2
AcDbSun
  3
SCENEOE
 90
     1024
 91
        4
280
     0
281
     0
  0
ENDSEC
  0
SECTION
  2
TABLES
  0
TABLE
  2
VPORT
  5
8
330
0
100
AcDbSymbolTable
 70
     1
  0
VPORT
  5
29
330
8
100
AcDbSymbolTableRecord
100
AcDbViewportTableRecord
  2
*Active
 70
     0
 10
0.0
 20
0.0
 11
1.0
 21
1.0
 12
0.0
 22
0.0
 13
0.0
 23
0.0
 14
0.5
 24
0.5
 15
0.5
 25
0.5
 16
0.0
 26
0.0
 36
1.0
 17
63.499999984125
 27
-89.00059456108309
 37
0.0
 40
178.0011891221662
 41
0.7134783795241226
 42
50.0
 43
0.0
 44
0.0
 50
0.0
 51
0.0
 71
     0
 72
   100
 73
     1
 74
     3
 75
     0
 76
     0
 77
     0
 78
     0
281
     0
 65
     1
110
0.0
120
0.0
130
0.0
111
1.0
121
0.0
131
0.0
112
0.0
122
1.0
132
0.0
 79
     0
146
0.0
 60
     3
 61
     5
292
     1
282
     1
141
0.0
142
0.0
 63
   250
361
3F
  0
ENDTAB
  0
TABLE
  2
LTYPE
  5
5
330
0
100
AcDbSymbolTable
 70
     1
  0
LTYPE
  5
14
330
5
100
AcDbSymbolTableRecord
100
AcDbLinetypeTableRecord
  2
ByBlock
 70
     0
  3

 72
    65
 73
     0
 40
0.0
  0
LTYPE
  5
15
330
5
100
AcDbSymbolTableRecord
100
AcDbLinetypeTableRecord
  2
ByLayer
 70
     0
  3

 72
    65
 73
     0
 40
0.0
  0
LTYPE
  5
16
330
5
100
AcDbSymbolTableRecord
100
AcDbLinetypeTableRecord
  2
Continuous
 70
     0
  3
Solid line
 72
    65
 73
     0
 40
0.0
  0
ENDTAB
  0
TABLE
  2
LAYER
  5
2
330
0
100
AcDbSymbolTable
 70
     2
  0
LAYER
  5
10
330
2
100
AcDbSymbolTableRecord
100
AcDbLayerTableRecord
  2
0
 70
     0
 62
     7
  6
Continuous
370
    -3
390
F
347
3E
  0
LAYER
  5
40
330
2
100
AcDbSymbolTableRecord
100
AcDbLayerTableRecord
  2
_U+30EC_U+30A4_U+30E4_U+30FC 1
 70
     0
 62
     7
  6
Continuous
370
    -3
390
F
347
3E
  0
ENDTAB
  0
TABLE
  2
STYLE
  5
3
330
0
100
AcDbSymbolTable
 70
     1
  0
STYLE
  5
11
330
3
100
AcDbSymbolTableRecord
100
AcDbTextStyleTableRecord
  2
Standard
 70
     0
 40
0.0
 41
1.0
 50
0.0
 71
     0
 42
0.2
  3
txt
  4

  0
ENDTAB
  0
TABLE
  2
VIEW
  5
6
330
0
100
AcDbSymbolTable
 70
     0
  0
ENDTAB
  0
TABLE
  2
UCS
  5
7
330
0
100
AcDbSymbolTable
 70
     0
  0
ENDTAB
  0
TABLE
  2
APPID
  5
9
330
0
100
AcDbSymbolTable
 70
     1
  0
APPID
  5
12
330
9
100
AcDbSymbolTableRecord
100
AcDbRegAppTableRecord
  2
ACAD
 70
     0
  0
ENDTAB
  0
TABLE
  2
DIMSTYLE
  5
A
330
0
100
AcDbSymbolTable
 70
     1
100
AcDbDimStyleTable
  0
DIMSTYLE
105
27
330
A
100
AcDbSymbolTableRecord
100
AcDbDimStyleTableRecord
  2
Standard
 70
     0
178
     0
340
11
  0
ENDTAB
  0
TABLE
  2
BLOCK_RECORD
  5
1
330
0
100
AcDbSymbolTable
 70
     6
  0
BLOCK_RECORD
  5
1F
330
1
100
AcDbSymbolTableRecord
100
AcDbBlockTableRecord
  2
*Model_Space
340
22
 70
     0
280
     1
281
     0
  0
BLOCK_RECORD
  5
1B
330
1
100
AcDbSymbolTableRecord
100
AcDbBlockTableRecord
  2
*Paper_Space
340
1E
 70
     0
280
     1
281
     0
  0
BLOCK_RECORD
  5
23
330
1
100
AcDbSymbolTableRecord
100
AcDbBlockTableRecord
  2
*Paper_Space0
340
26
 70
     0
280
     1
281
     0
  0
BLOCK_RECORD
  5
41
330
1
100
AcDbSymbolTableRecord
100
AcDbBlockTableRecord
  2
block 2
340
0
102
{BLKREFS
331
42
102
}
 70
     0
280
     1
281
     0
  0
BLOCK_RECORD
  5
54
330
1
100
AcDbSymbolTableRecord
100
AcDbBlockTableRecord
  2
block 3
340
0
102
{BLKREFS
331
55
102
}
 70
     0
280
     1
281
     0
  0
BLOCK_RECORD
  5
65
330
1
100
AcDbSymbolTableRecord
100
AcDbBlockTableRecord
  2
block 4
340
0
102
{BLKREFS
331
66
102
}
 70
     0
280
     1
281
     0
  0
BLOCK_RECORD
  5
6B
330
1
100
AcDbSymbolTableRecord
100
AcDbBlockTableRecord
  2
block 5
340
0
102
{BLKREFS
331
6C
102
}
 70
     0
280
     1
281
     0
  0
BLOCK_RECORD
  5
74
330
1
100
AcDbSymbolTableRecord
100
AcDbBlockTableRecord
  2
block 6
340
0
102
{BLKREFS
331
75
102
}
 70
     0
280
     1
281
     0
  0
ENDTAB
  0
ENDSEC
  0
SECTION
  2
BLOCKS
  0
BLOCK
  5
20
330
1F
100
AcDbEntity
  8
0
100
AcDbBlockBegin
  2
*Model_Space
 70
     0
 10
0.0
 20
0.0
 30
0.0
  3
*Model_Space
  1

  0
ENDBLK
  5
21
330
1F
100
AcDbEntity
  8
0
100
AcDbBlockEnd
  0
BLOCK
  5
1C
330
1B
100
AcDbEntity
 67
     1
  8
0
100
AcDbBlockBegin
  2
*Paper_Space
 70
     0
 10
0.0
 20
0.0
 30
0.0
  3
*Paper_Space
  1

  0
ENDBLK
  5
1D
330
1B
100
AcDbEntity
 67
     1
  8
0
100
AcDbBlockEnd
  0
BLOCK
  5
24
330
23
100
AcDbEntity
  8
0
100
AcDbBlockBegin
  2
*Paper_Space0
 70
     0
 10
0.0
 20
0.0
 30
0.0
  3
*Paper_Space0
  1

  0
ENDBLK
  5
25
330
23
100
AcDbEntity
  8
0
100
AcDbBlockEnd
  0
BLOCK
  5
43
330
41
100
AcDbEntity
  8
0
100
AcDbBlockBegin
  2
block 2
 70
     0
 10
0.0
 20
0.0
 30
0.0
  3
block 2
  1

  0
SPLINE
  5
45
330
41
100
AcDbEntity
  8
_U+30EC_U+30A4_U+30E4_U+30FC 1
370
     0
100
AcDbSpline
210
0.0
220
0.0
230
1.0
 70
    11
 71
     3
 72
    29
 73
    25
 74
     0
 42
0.0000000001
 43
0.0000000001
 12
1.0
 22
0.0
 32
0.0
 13
1.0
 23
0.0
 33
0.0
 40
0.0
 40
0.0
 40
0.0
 40
0.0
 40
1.0
 40
1.0
 40
1.0
 40
2.0
 40
2.0
 40
2.0
 40
3.0
 40
3.0
 40
3.0
 40
4.0
 40
4.0
 40
4.0
 40
5.0
 40
5.0
 40
5.0
 40
6.0
 40
6.0
 40
6.0
 40
7.0
 40
7.0
 40
7.0
 40
8.0
 40
8.0
 40
8.0
 40
8.0
 10
75.33700356189492
 20
-83.43228893313498
 30
0.0
 10
75.54646536739811
 20
-83.54769963189085
 30
0.0
 10
75.56541339256698
 20
-83.7330457689973
 30
0.0
 10
75.56541339256698
 20
-83.85741371601482
 30
0.0
 10
75.56541339256698
 20
-84.02897947118026
 30
0.0
 10
75.5189046035161
 20
-84.18056367253125
 30
0.0
 10
75.33700356189492
 20
-84.28219398934613
 30
0.0
 10
75.1423556669783
 20
-84.39312606397117
 30
0.0
 10
74.90533309759311
 20
-84.41345212733414
 30
0.0
 10
74.74272459068932
 20
-84.41345212733414
 30
0.0
 10
74.59871959940588
 20
-84.41345212733414
 30
0.0
 10
74.34688311943411
 20
-84.39519312126232
 30
0.0
 10
74.1481011099352
 20
-84.28219398934613
 30
0.0
 10
73.94518498585398
 20
-84.16712780013877
 30
0.0
 10
73.92175833655429
 20
-83.99521753542481
 30
0.0
 10
73.92175833655429
 20
-83.85741371601482
 30
0.0
 10
73.92175833655429
 20
-83.687570508592
 30
0.0
 10
73.96620006831401
 20
-83.53391924994986
 30
0.0
 10
74.1481011099352
 20
-83.43228893313498
 30
0.0
 10
74.34068194756067
 20
-83.32583548264077
 30
0.0
 10
74.56909177823273
 20
-83.30103079514697
 30
0.0
 10
74.74272459068932
 20
-83.30103079514697
 30
0.0
 10
74.91394583630624
 20
-83.30103079514697
 30
0.0
 10
75.14442272426945
 20
-83.32376842534961
 30
0.0
 10
75.33700356189492
 20
-83.43228893313498
 30
0.0
  0
SPLINE
  5
46
330
41
100
AcDbEntity
  8
_U+30EC_U+30A4_U+30E4_U+30FC 1
370
     0
100
AcDbSpline
210
0.0
220
0.0
230
1.0
 70
    11
 71
     3
 72
    17
 73
    13
 74
     0
 42
0.0000000001
 43
0.0000000001
 12
1.0
 22
0.0
 32
0.0
 13
1.0
 23
0.0
 33
0.0
 40
0.0
 40
0.0
 40
0.0
 40
0.0
 40
1.0
 40
1.0
 40
1.0
 40
2.0
 40
2.0
 40
2.0
 40
3.0
 40
3.0
 40
3.0
 40
4.0
 40
4.0
 40
4.0
 40
4.0
 10
74.11433917417975
 20
-83.85741371601482
 30
0.0
 10
74.11433917417975
 20
-84.12406410657316
 30
0.0
 10
74.39787053261581
 20
-84.17367348156075
 30
0.0
 10
74.74272459068932
 20
-84.17367348156075
 30
0.0
 10
75.06208494217198
 20
-84.17367348156075
 30
0.0
 10
75.37076549765037
 20
-84.13543292167448
 30
0.0
 10
75.37076549765037
 20
-83.85741371601482
 30
0.0
 10
75.37076549765037
 20
-83.59283038274764
 30
0.0
 10
75.08964570605399
 20
-83.54080944092036
 30
0.0
 10
74.74272459068932
 20
-83.54080944092036
 30
0.0
 10
74.42301972965814
 20
-83.54080944092036
 30
0.0
 10
74.11433917417975
 20
-83.5814615676463
 30
0.0
 10
74.11433917417975
 20
-83.85741371601482
 30
0.0
  0
HATCH
  5
47
330
41
100
AcDbEntity
  8
_U+30EC_U+30A4_U+30E4_U+30FC 1
 62
   179
420
  2234388
100
AcDbHatch
 10
0.0
 20
0.0
 30
0.0
210
0.0
220
0.0
230
1.0
  2
SOLID
 70
     1
 71
     0
 91
        2
 92
        1
 93
        1
 72
     4
 94
        3
 73
     0
 74
     1
 95
       29
 96
       25
 40
0.0
 40
0.0
 40
0.0
 40
0.0
 40
1.0
 40
1.0
 40
1.0
 40
2.0
 40
2.0
 40
2.0
 40
3.0
 40
3.0
 40
3.0
 40
4.0
 40
4.0
 40
4.0
 40
5.0
 40
5.0
 40
5.0
 40
6.0
 40
6.0
 40
6.0
 40
7.0
 40
7.0
 40
7.0
 40
8.0
 40
8.0
 40
8.0
 40
8.0
 10
75.33700356189492
 20
-83.43228893313498
 10
75.54646536739811
 20
-83.54769963189085
 10
75.56541339256698
 20
-83.7330457689973
 10
75.56541339256698
 20
-83.85741371601482
 10
75.56541339256698
 20
-84.02897947118026
 10
75.5189046035161
 20
-84.18056367253125
 10
75.33700356189492
 20
-84.28219398934613
 10
75.1423556669783
 20
-84.39312606397117
 10
74.90533309759311
 20
-84.41345212733414
 10
74.74272459068932
 20
-84.41345212733414
 10
74.59871959940588
 20
-84.41345212733414
 10
74.34688311943411
 20
-84.39519312126232
 10
74.1481011099352
 20
-84.28219398934613
 10
73.94518498585398
 20
-84.16712780013877
 10
73.92175833655429
 20
-83.99521753542481
 10
73.92175833655429
 20
-83.85741371601482
 10
73.92175833655429
 20
-83.687570508592
 10
73.96620006831401
 20
-83.53391924994986
 10
74.1481011099352
 20
-83.43228893313498
 10
74.34068194756067
 20
-83.32583548264077
 10
74.56909177823273
 20
-83.30103079514697
 10
74.74272459068932
 20
-83.30103079514697
 10
74.91394583630624
 20
-83.30103079514697
 10
75.14442272426945
 20
-83.32376842534961
 10
75.33700356189492
 20
-83.43228893313498
 97
        0
 97
        0
 92
        1
 93
        1
 72
     4
 94
        3
 73
     0
 74
     1
 95
       17
 96
       13
 40
0.0
 40
0.0
 40
0.0
 40
0.0
 40
1.0
 40
1.0
 40
1.0
 40
2.0
 40
2.0
 40
2.0
 40
3.0
 40
3.0
 40
3.0
 40
4.0
 40
4.0
 40
4.0
 40
4.0
 10
74.11433917417975
 20
-83.85741371601482
 10
74.11433917417975
 20
-84.12406410657316
 10
74.39787053261581
 20
-84.17367348156075
 10
74.74272459068932
 20
-84.17367348156075
 10
75.06208494217198
 20
-84.17367348156075
 10
75.37076549765037
 20
-84.13543292167448
 10
75.37076549765037
 20
-83.85741371601482
 10
75.37076549765037
 20
-83.59283038274764
 10
75.08964570605399
 20
-83.54080944092036
 10
74.74272459068932
 20
-83.54080944092036
 10
74.42301972965814
 20
-83.54080944092036
 10
74.11433917417975
 20
-83.5814615676463
 10
74.11433917417975
 20
-83.85741371601482
 97
        0
 97
        0
 75
     2
 76
     1
 98
        0
  0
POLYLINE
  5
48
330
41
100
AcDbEntity
  8
_U+30EC_U+30A4_U+30E4_U+30FC 1
370
     0
100
AcDb2dPolyline
 66
     1
 10
0.0
 20
0.0
 30
0.0
  0
VERTEX
  5
49
330
48
100
AcDbEntity
  8
_U+30EC_U+30A4_U+30E4_U+30FC 1
370
     0
100
AcDbVertex
100
AcDb2dVertex
 10
75.5147704889338
 20
-83.0698648880867
 30
0.0
  0
VERTEX
  5
4A
330
48
100
AcDbEntity
  8
_U+30EC_U+30A4_U+30E4_U+30FC 1
370
     0
100
AcDbVertex
100
AcDb2dVertex
 10
75.26293400896205
 20
-83.0698648880867
 30
0.0
  0
VERTEX
  5
4B
330
48
100
AcDbEntity
  8
_U+30EC_U+30A4_U+30E4_U+30FC 1
370
     0
100
AcDbVertex
100
AcDb2dVertex
 10
75.26293400896205
 20
-82.80080293068869
 30
0.0
  0
VERTEX
  5
4C
330
48
100
AcDbEntity
  8
_U+30EC_U+30A4_U+30E4_U+30FC 1
370
     0
100
AcDbVertex
100
AcDb2dVertex
 10
75.5147704889338
 20
-82.80080293068869
 30
0.0
  0
VERTEX
  5
4D
330
48
100
AcDbEntity
  8
_U+30EC_U+30A4_U+30E4_U+30FC 1
370
     0
100
AcDbVertex
100
AcDb2dVertex
 10
75.5147704889338
 20
-83.0698648880867
 30
0.0
  0
SEQEND
  5
4E
330
48
100
AcDbEntity
  8
_U+30EC_U+30A4_U+30E4_U+30FC 1
370
     0
  0
HATCH
  5
4F
330
41
100
AcDbEntity
  8
_U+30EC_U+30A4_U+30E4_U+30FC 1
 62
   179
420
  2234388
100
AcDbHatch
 10
0.0
 20
0.0
 30
0.0
210
0.0
220
0.0
230
1.0
  2
SOLID
 70
     1
 71
     0
 91
        1
 92
        1
 93
        4
 72
     1
 10
75.5147704889338
 20
-83.0698648880867
 11
75.26293400896205
 21
-83.0698648880867
 72
     1
 10
75.26293400896205
 20
-83.0698648880867
 11
75.26293400896205
 21
-82.80080293068869
 72
     1
 10
75.26293400896205
 20
-82.80080293068869
 11
75.5147704889338
 21
-82.80080293068869
 72
     1
 10
75.5147704889338
 20
-82.80080293068869
 11
75.5147704889338
 21
-83.0698648880867
 97
        0
 75
     2
 76
     1
 98
        0
  0
SPLINE
  5
50
330
41
100
AcDbEntity
  8
_U+30EC_U+30A4_U+30E4_U+30FC 1
370
     0
100
AcDbSpline
210
0.0
220
0.0
230
1.0
 70
    11
 71
     3
 72
    29
 73
    25
 74
     0
 42
0.0000000001
 43
0.0000000001
 12
1.0
 22
0.0
 32
0.0
 13
1.0
 23
0.0
 33
0.0
 40
0.0
 40
0.0
 40
0.0
 40
0.0
 40
1.0
 40
1.0
 40
1.0
 40
2.0
 40
2.0
 40
2.0
 40
3.0
 40
3.0
 40
3.0
 40
4.0
 40
4.0
 40
4.0
 40
5.0
 40
5.0
 40
5.0
 40
6.0
 40
6.0
 40
6.0
 40
7.0
 40
7.0
 40
7.0
 40
8.0
 40
8.0
 40
8.0
 40
8.0
 10
75.56541339256698
 20
-82.01359861230911
 30
0.0
 10
75.56541339256698
 20
-82.29850800893927
 30
0.0
 10
75.42795408270551
 20
-82.56963702362843
 30
0.0
 10
75.0789659100497
 20
-82.56963702362843
 30
0.0
 10
74.82299531549565
 20
-82.56963702362843
 30
0.0
 10
74.72791068010275
 20
-82.41805282227743
 30
0.0
 10
74.6665879804653
 20
-82.30505369036123
 30
0.0
 10
74.60733233811901
 20
-82.4383788856404
 30
0.0
 10
74.4929551680087
 20
-82.52002764864083
 30
0.0
 10
74.33206920884754
 20
-82.52002764864083
 30
0.0
 10
74.0571505891246
 20
-82.52002764864083
 30
0.0
 10
73.92175833655429
 20
-82.30746525720092
 30
0.0
 10
73.92175833655429
 20
-82.01359861230911
 30
0.0
 10
73.92175833655429
 20
-81.71043020960713
 30
0.0
 10
74.06576332783773
 20
-81.50716957597737
 30
0.0
 10
74.33206920884754
 20
-81.50716957597737
 30
0.0
 10
74.4929551680087
 20
-81.50716957597737
 30
0.0
 10
74.60733233811901
 20
-81.59054088672042
 30
0.0
 10
74.6665879804653
 20
-81.72421059154811
 30
0.0
 10
74.71723088409847
 20
-81.62912595615522
 30
0.0
 10
74.81231551949136
 20
-81.45962725828093
 30
0.0
 10
75.0748317954674
 20
-81.45962725828093
 30
0.0
 10
75.44931367471406
 20
-81.45962725828093
 30
0.0
 10
75.56541339256698
 20
-81.75797252730356
 30
0.0
 10
75.56541339256698
 20
-82.01359861230911
 30
0.0
  0
SPLINE
  5
51
330
41
100
AcDbEntity
  8
_U+30EC_U+30A4_U+30E4_U+30FC 1
370
     0
100
AcDbSpline
210
0.0
220
0.0
230
1.0
 70
    11
 71
     3
 72
    17
 73
    13
 74
     0
 42
0.0000000001
 43
0.0000000001
 12
1.0
 22
0.0
 32
0.0
 13
1.0
 23
0.0
 33
0.0
 40
0.0
 40
0.0
 40
0.0
 40
0.0
 40
1.0
 40
1.0
 40
1.0
 40
2.0
 40
2.0
 40
2.0
 40
3.0
 40
3.0
 40
3.0
 40
4.0
 40
4.0
 40
4.0
 40
4.0
 10
74.11433917417975
 20
-82.01359861230911
 30
0.0
 10
74.11433917417975
 20
-82.18964299160537
 30
0.0
 10
74.20942380957264
 20
-82.28024900286744
 30
0.0
 10
74.34481606214297
 20
-82.28024900286744
 30
0.0
 10
74.46746146141786
 20
-82.28024900286744
 30
0.0
 10
74.58597274611046
 20
-82.20342337354637
 30
0.0
 10
74.58597274611046
 20
-82.01359861230911
 30
0.0
 10
74.58597274611046
 20
-81.82342934152331
 30
0.0
 10
74.46746146141786
 20
-81.74660371220224
 30
0.0
 10
74.34481606214297
 20
-81.74660371220224
 30
0.0
 10
74.20942380957264
 20
-81.74660371220224
 30
0.0
 10
74.11433917417975
 20
-81.83927678075547
 30
0.0
 10
74.11433917417975
 20
-82.01359861230911
 30
0.0
  0
SPLINE
  5
52
330
41
100
AcDbEntity
  8
_U+30EC_U+30A4_U+30E4_U+30FC 1
370
     0
100
AcDbSpline
210
0.0
220
0.0
230
1.0
 70
    11
 71
     3
 72
    17
 73
    13
 74
     0
 42
0.0000000001
 43
0.0000000001
 12
1.0
 22
0.0
 32
0.0
 13
1.0
 23
0.0
 33
0.0
 40
0.0
 40
0.0
 40
0.0
 40
0.0
 40
1.0
 40
1.0
 40
1.0
 40
2.0
 40
2.0
 40
2.0
 40
3.0
 40
3.0
 40
3.0
 40
4.0
 40
4.0
 40
4.0
 40
4.0
 10
74.77441946915361
 20
-82.01359861230911
 30
0.0
 10
74.77441946915361
 20
-82.16724987095125
 30
0.0
 10
74.86123587538192
 20
-82.32985837785503
 30
0.0
 10
75.06415199946314
 20
-82.32985837785503
 30
0.0
 10
75.26947969038402
 20
-82.32985837785503
 30
0.0
 10
75.37076549765037
 20
-82.19446612528472
 30
0.0
 10
75.37076549765037
 20
-82.01359861230911
 30
0.0
 10
75.37076549765037
 20
-81.81447209326166
 30
0.0
 10
75.24812009837548
 20
-81.69699433721465
 30
0.0
 10
75.07035317133658
 20
-81.69699433721465
 30
0.0
 10
74.8484890220865
 20
-81.69699433721465
 30
0.0
 10
74.77441946915361
 20
-81.87097165921976
 30
0.0
 10
74.77441946915361
 20
-82.01359861230911
 30
0.0
  0
HATCH
  5
53
330
41
100
AcDbEntity
  8
_U+30EC_U+30A4_U+30E4_U+30FC 1
 62
   179
420
  2234388
100
AcDbHatch
 10
0.0
 20
0.0
 30
0.0
210
0.0
220
0.0
230
1.0
  2
SOLID
 70
     1
 71
     0
 91
        3
 92
        1
 93
        1
 72
     4
 94
        3
 73
     0
 74
     1
 95
       29
 96
       25
 40
0.0
 40
0.0
 40
0.0
 40
0.0
 40
1.0
 40
1.0
 40
1.0
 40
2.0
 40
2.0
 40
2.0
 40
3.0
 40
3.0
 40
3.0
 40
4.0
 40
4.0
 40
4.0
 40
5.0
 40
5.0
 40
5.0
 40
6.0
 40
6.0
 40
6.0
 40
7.0
 40
7.0
 40
7.0
 40
8.0
 40
8.0
 40
8.0
 40
8.0
 10
75.56541339256698
 20
-82.01359861230911
 10
75.56541339256698
 20
-82.29850800893927
 10
75.42795408270551
 20
-82.56963702362843
 10
75.0789659100497
 20
-82.56963702362843
 10
74.82299531549565
 20
-82.56963702362843
 10
74.72791068010275
 20
-82.41805282227743
 10
74.6665879804653
 20
-82.30505369036123
 10
74.60733233811901
 20
-82.4383788856404
 10
74.4929551680087
 20
-82.52002764864083
 10
74.33206920884754
 20
-82.52002764864083
 10
74.0571505891246
 20
-82.52002764864083
 10
73.92175833655429
 20
-82.30746525720092
 10
73.92175833655429
 20
-82.01359861230911
 10
73.92175833655429
 20
-81.71043020960713
 10
74.06576332783773
 20
-81.50716957597737
 10
74.33206920884754
 20
-81.50716957597737
 10
74.4929551680087
 20
-81.50716957597737
 10
74.60733233811901
 20
-81.59054088672042
 10
74.6665879804653
 20
-81.72421059154811
 10
74.71723088409847
 20
-81.62912595615522
 10
74.81231551949136
 20
-81.45962725828093
 10
75.0748317954674
 20
-81.45962725828093
 10
75.44931367471406
 20
-81.45962725828093
 10
75.56541339256698
 20
-81.75797252730356
 10
75.56541339256698
 20
-82.01359861230911
 97
        0
 97
        0
 92
        1
 93
        1
 72
     4
 94
        3
 73
     0
 74
     1
 95
       17
 96
       13
 40
0.0
 40
0.0
 40
0.0
 40
0.0
 40
1.0
 40
1.0
 40
1.0
 40
2.0
 40
2.0
 40
2.0
 40
3.0
 40
3.0
 40
3.0
 40
4.0
 40
4.0
 40
4.0
 40
4.0
 10
74.11433917417975
 20
-82.01359861230911
 10
74.11433917417975
 20
-82.18964299160537
 10
74.20942380957264
 20
-82.28024900286744
 10
74.34481606214297
 20
-82.28024900286744
 10
74.46746146141786
 20
-82.28024900286744
 10
74.58597274611046
 20
-82.20342337354637
 10
74.58597274611046
 20
-82.01359861230911
 10
74.58597274611046
 20
-81.82342934152331
 10
74.46746146141786
 20
-81.74660371220224
 10
74.34481606214297
 20
-81.74660371220224
 10
74.20942380957264
 20
-81.74660371220224
 10
74.11433917417975
 20
-81.83927678075547
 10
74.11433917417975
 20
-82.01359861230911
 97
        0
 97
        0
 92
        1
 93
        1
 72
     4
 94
        3
 73
     0
 74
     1
 95
       17
 96
       13
 40
0.0
 40
0.0
 40
0.0
 40
0.0
 40
1.0
 40
1.0
 40
1.0
 40
2.0
 40
2.0
 40
2.0
 40
3.0
 40
3.0
 40
3.0
 40
4.0
 40
4.0
 40
4.0
 40
4.0
 10
74.77441946915361
 20
-82.01359861230911
 10
74.77441946915361
 20
-82.16724987095125
 10
74.86123587538192
 20
-82.32985837785503
 10
75.06415199946314
 20
-82.32985837785503
 10
75.26947969038402
 20
-82.32985837785503
 10
75.37076549765037
 20
-82.19446612528472
 10
75.37076549765037
 20
-82.01359861230911
 10
75.37076549765037
 20
-81.81447209326166
 10
75.24812009837548
 20
-81.69699433721465
 10
75.07035317133658
 20
-81.69699433721465
 10
74.8484890220865
 20
-81.69699433721465
 10
74.77441946915361
 20
-81.87097165921976
 10
74.77441946915361
 20
-82.01359861230911
 97
        0
 97
        0
 75
     2
 76
     1
 98
        0
  0
ENDBLK
  5
44
330
41
100
AcDbEntity
  8
0
100
AcDbBlockEnd
  0
BLOCK
  5
56
330
54
100
AcDbEntity
  8
0
100
AcDbBlockBegin
  2
block 3
 70
     0
 10
0.0
 20
0.0
 30
0.0
  3
block 3
  1

  0
SPLINE
  5
58
330
54
100
AcDbEntity
  8
_U+30EC_U+30A4_U+30E4_U+30FC 1
370
     0
100
AcDbSpline
210
0.0
220
0.0
230
1.0
 70
    11
 71
     3
 72
    32
 73
    28
 74
     0
 42
0.0000000001
 43
0.0000000001
 12
1.0
 22
0.0
 32
0.0
 13
1.0
 23
0.0
 33
0.0
 40
0.0
 40
0.0
 40
0.0
 40
0.0
 40
1.0
 40
1.0
 40
1.0
 40
2.0
 40
2.0
 40
2.0
 40
3.0
 40
3.0
 40
3.0
 40
4.0
 40
4.0
 40
4.0
 40
5.0
 40
5.0
 40
5.0
 40
6.0
 40
6.0
 40
6.0
 40
7.0
 40
7.0
 40
7.0
 40
8.0
 40
8.0
 40
8.0
 40
9.0
 40
9.0
 40
9.0
 40
9.0
 10
75.44828014606848
 20
-90.53573131417163
 30
0.0
 10
75.44828014606848
 20
-91.08763561090865
 30
0.0
 10
74.89430879204032
 20
-91.0965928591703
 30
0.0
 10
74.6803683624063
 20
-91.0965928591703
 30
0.0
 10
74.44989147444309
 20
-91.0965928591703
 30
0.0
 10
73.80255803276464
 20
-91.07626679580733
 30
0.0
 10
73.80255803276464
 20
-90.49507918744568
 30
0.0
 10
73.80255803276464
 20
-90.30973305033923
 30
0.0
 10
73.87249347111522
 20
-90.04756128391172
 30
0.0
 10
74.2046006758933
 20
-90.00690915718577
 30
0.0
 10
74.2046006758933
 20
-90.00690915718577
 30
0.0
 10
74.2046006758933
 20
-90.23531898785784
 30
0.0
 10
74.2046006758933
 20
-90.23531898785784
 30
0.0
 10
74.14741209083815
 20
-90.24634329341065
 30
0.0
 10
73.99927298497241
 20
-90.28044973871461
 30
0.0
 10
73.99927298497241
 20
-90.49749075428535
 30
0.0
 10
73.99927298497241
 20
-90.80961640524899
 30
0.0
 10
74.32724607516819
 20
-90.85233558926609
 30
0.0
 10
74.53222925654056
 20
-90.86611597120708
 30
0.0
 10
74.45402558902539
 20
-90.76655271168336
 30
0.0
 10
74.39476994667909
 20
-90.69420570649312
 30
0.0
 10
74.39476994667909
 20
-90.49990232112503
 30
0.0
 10
74.39476994667909
 20
-90.30766599304809
 30
0.0
 10
74.50294594491594
 20
-89.98417152698313
 30
0.0
 10
74.90912270262689
 20
-89.98417152698313
 30
0.0
 10
75.22848305410955
 20
-89.98417152698313
 30
0.0
 10
75.44828014606848
 20
-90.19673391842305
 30
0.0
 10
75.44828014606848
 20
-90.53573131417163
 30
0.0
  0
SPLINE
  5
59
330
54
100
AcDbEntity
  8
_U+30EC_U+30A4_U+30E4_U+30FC 1
370
     0
100
AcDbSpline
210
0.0
220
0.0
230
1.0
 70
    11
 71
     3
 72
    17
 73
    13
 74
     0
 42
0.0000000001
 43
0.0000000001
 12
1.0
 22
0.0
 32
0.0
 13
1.0
 23
0.0
 33
0.0
 40
0.0
 40
0.0
 40
0.0
 40
0.0
 40
1.0
 40
1.0
 40
1.0
 40
2.0
 40
2.0
 40
2.0
 40
3.0
 40
3.0
 40
3.0
 40
4.0
 40
4.0
 40
4.0
 40
4.0
 10
74.5894178415957
 20
-90.51781681764832
 30
0.0
 10
74.5894178415957
 20
-90.79824759014767
 30
0.0
 10
74.80094670439004
 20
-90.83889971687361
 30
0.0
 10
74.91739093179149
 20
-90.83889971687361
 30
0.0
 10
75.09309080153923
 20
-90.83889971687361
 30
0.0
 10
75.25604381799155
 20
-90.73726940005874
 30
0.0
 10
75.25604381799155
 20
-90.54055444785098
 30
0.0
 10
75.25604381799155
 20
-90.41170787670264
 30
0.0
 10
75.19678817564525
 20
-90.22395017275652
 30
0.0
 10
74.91118975991805
 20
-90.22395017275652
 30
0.0
 10
74.68691404382828
 20
-90.22395017275652
 30
0.0
 10
74.5894178415957
 20
-90.37312280726783
 30
0.0
 10
74.5894178415957
 20
-90.51781681764832
 30
0.0
  0
HATCH
  5
5A
330
54
100
AcDbEntity
  8
_U+30EC_U+30A4_U+30E4_U+30FC 1
 62
   179
420
  2234388
100
AcDbHatch
 10
0.0
 20
0.0
 30
0.0
210
0.0
220
0.0
230
1.0
  2
SOLID
 70
     1
 71
     0
 91
        2
 92
        1
 93
        1
 72
     4
 94
        3
 73
     0
 74
     1
 95
       32
 96
       28
 40
0.0
 40
0.0
 40
0.0
 40
0.0
 40
1.0
 40
1.0
 40
1.0
 40
2.0
 40
2.0
 40
2.0
 40
3.0
 40
3.0
 40
3.0
 40
4.0
 40
4.0
 40
4.0
 40
5.0
 40
5.0
 40
5.0
 40
6.0
 40
6.0
 40
6.0
 40
7.0
 40
7.0
 40
7.0
 40
8.0
 40
8.0
 40
8.0
 40
9.0
 40
9.0
 40
9.0
 40
9.0
 10
75.44828014606848
 20
-90.53573131417163
 10
75.44828014606848
 20
-91.08763561090865
 10
74.89430879204032
 20
-91.0965928591703
 10
74.6803683624063
 20
-91.0965928591703
 10
74.44989147444309
 20
-91.0965928591703
 10
73.80255803276464
 20
-91.07626679580733
 10
73.80255803276464
 20
-90.49507918744568
 10
73.80255803276464
 20
-90.30973305033923
 10
73.87249347111522
 20
-90.04756128391172
 10
74.2046006758933
 20
-90.00690915718577
 10
74.2046006758933
 20
-90.00690915718577
 10
74.2046006758933
 20
-90.23531898785784
 10
74.2046006758933
 20
-90.23531898785784
 10
74.14741209083815
 20
-90.24634329341065
 10
73.99927298497241
 20
-90.28044973871461
 10
73.99927298497241
 20
-90.49749075428535
 10
73.99927298497241
 20
-90.80961640524899
 10
74.32724607516819
 20
-90.85233558926609
 10
74.53222925654056
 20
-90.86611597120708
 10
74.45402558902539
 20
-90.76655271168336
 10
74.39476994667909
 20
-90.69420570649312
 10
74.39476994667909
 20
-90.49990232112503
 10
74.39476994667909
 20
-90.30766599304809
 10
74.50294594491594
 20
-89.98417152698313
 10
74.90912270262689
 20
-89.98417152698313
 10
75.22848305410955
 20
-89.98417152698313
 10
75.44828014606848
 20
-90.19673391842305
 10
75.44828014606848
 20
-90.53573131417163
 97
        0
 97
        0
 92
        1
 93
        1
 72
     4
 94
        3
 73
     0
 74
     1
 95
       17
 96
       13
 40
0.0
 40
0.0
 40
0.0
 40
0.0
 40
1.0
 40
1.0
 40
1.0
 40
2.0
 40
2.0
 40
2.0
 40
3.0
 40
3.0
 40
3.0
 40
4.0
 40
4.0
 40
4.0
 40
4.0
 10
74.5894178415957
 20
-90.51781681764832
 10
74.5894178415957
 20
-90.79824759014767
 10
74.80094670439004
 20
-90.83889971687361
 10
74.91739093179149
 20
-90.83889971687361
 10
75.09309080153923
 20
-90.83889971687361
 10
75.25604381799155
 20
-90.73726940005874
 10
75.25604381799155
 20
-90.54055444785098
 10
75.25604381799155
 20
-90.41170787670264
 10
75.19678817564525
 20
-90.22395017275652
 10
74.91118975991805
 20
-90.22395017275652
 10
74.68691404382828
 20
-90.22395017275652
 10
74.5894178415957
 20
-90.37312280726783
 10
74.5894178415957
 20
-90.51781681764832
 97
        0
 97
        0
 75
     2
 76
     1
 98
        0
  0
POLYLINE
  5
5B
330
54
100
AcDbEntity
  8
_U+30EC_U+30A4_U+30E4_U+30FC 1
370
     0
100
AcDb2dPolyline
 66
     1
 10
0.0
 20
0.0
 30
0.0
  0
VERTEX
  5
5C
330
5B
100
AcDbEntity
  8
_U+30EC_U+30A4_U+30E4_U+30FC 1
370
     0
100
AcDbVertex
100
AcDb2dVertex
 10
75.39763724243532
 20
-89.75300561992286
 30
0.0
  0
VERTEX
  5
5D
330
5B
100
AcDbEntity
  8
_U+30EC_U+30A4_U+30E4_U+30FC 1
370
     0
100
AcDbVertex
100
AcDb2dVertex
 10
75.14580076246355
 20
-89.75300561992286
 30
0.0
  0
VERTEX
  5
5E
330
5B
100
AcDbEntity
  8
_U+30EC_U+30A4_U+30E4_U+30FC 1
370
     0
100
AcDbVertex
100
AcDb2dVertex
 10
75.14580076246355
 20
-89.48394366252485
 30
0.0
  0
VERTEX
  5
5F
330
5B
100
AcDbEntity
  8
_U+30EC_U+30A4_U+30E4_U+30FC 1
370
     0
100
AcDbVertex
100
AcDb2dVertex
 10
75.39763724243532
 20
-89.48394366252485
 30
0.0
  0
VERTEX
  5
60
330
5B
100
AcDbEntity
  8
_U+30EC_U+30A4_U+30E4_U+30FC 1
370
     0
100
AcDbVertex
100
AcDb2dVertex
 10
75.39763724243532
 20
-89.75300561992286
 30
0.0
  0
SEQEND
  5
61
330
5B
100
AcDbEntity
  8
_U+30EC_U+30A4_U+30E4_U+30FC 1
370
     0
  0
HATCH
  5
62
330
54
100
AcDbEntity
  8
_U+30EC_U+30A4_U+30E4_U+30FC 1
 62
   179
420
  2234388
100
AcDbHatch
 10
0.0
 20
0.0
 30
0.0
210
0.0
220
0.0
230
1.0
  2
SOLID
 70
     1
 71
     0
 91
        1
 92
        1
 93
        4
 72
     1
 10
75.39763724243532
 20
-89.75300561992286
 11
75.14580076246355
 21
-89.75300561992286
 72
     1
 10
75.14580076246355
 20
-89.75300561992286
 11
75.14580076246355
 21
-89.48394366252485
 72
     1
 10
75.14580076246355
 20
-89.48394366252485
 11
75.39763724243532
 21
-89.48394366252485
 72
     1
 10
75.39763724243532
 20
-89.48394366252485
 11
75.39763724243532
 21
-89.75300561992286
 97
        0
 75
     2
 76
     1
 98
        0
  0
SPLINE
  5
63
330
54
100
AcDbEntity
  8
_U+30EC_U+30A4_U+30E4_U+30FC 1
370
     0
100
AcDbSpline
210
0.0
220
0.0
230
1.0
 70
    11
 71
     3
 72
    53
 73
    49
 74
     0
 42
0.0000000001
 43
0.0000000001
 12
1.0
 22
0.0
 32
0.0
 13
1.0
 23
0.0
 33
0.0
 40
0.0
 40
0.0
 40
0.0
 40
0.0
 40
1.0
 40
1.0
 40
1.0
 40
2.0
 40
2.0
 40
2.0
 40
3.0
 40
3.0
 40
3.0
 40
4.0
 40
4.0
 40
4.0
 40
5.0
 40
5.0
 40
5.0
 40
6.0
 40
6.0
 40
6.0
 40
7.0
 40
7.0
 40
7.0
 40
8.0
 40
8.0
 40
8.0
 40
9.0
 40
9.0
 40
9.0
 40
10.0
 40
10.0
 40
10.0
 40
11.0
 40
11.0
 40
11.0
 40
12.0
 40
12.0
 40
12.0
 40
13.0
 40
13.0
 40
13.0
 40
14.0
 40
14.0
 40
14.0
 40
15.0
 40
15.0
 40
15.0
 40
16.0
 40
16.0
 40
16.0
 40
16.0
 10
75.44828014606848
 20
-88.71706540750824
 30
0.0
 10
75.44828014606848
 20
-88.8007812277998
 30
0.0
 10
75.43139917819076
 20
-88.90895722603665
 30
0.0
 10
75.36800942126217
 20
-89.01782224337055
 30
0.0
 10
75.2581108752827
 20
-89.203168380477
 30
0.0
 10
75.12685273729468
 20
-89.22556150113111
 30
0.0
 10
75.01902124860636
 20
-89.24588756449408
 30
0.0
 10
75.01902124860636
 20
-89.24588756449408
 30
0.0
 10
75.01902124860636
 20
-89.00852048556037
 30
0.0
 10
75.01902124860636
 20
-89.00852048556037
 30
0.0
 10
75.21780325810528
 20
-88.94995386231113
 30
0.0
 10
75.24743107927843
 20
-88.81421710019228
 30
0.0
 10
75.24743107927843
 20
-88.71465384066856
 30
0.0
 10
75.24743107927843
 20
-88.56548120615724
 30
0.0
 10
75.14786781975471
 20
-88.40252818970492
 30
0.0
 10
74.91532387450034
 20
-88.40252818970492
 30
0.0
 10
74.65935327994627
 20
-88.40252818970492
 30
0.0
 10
74.5894178415957
 20
-88.59476451778187
 30
0.0
 10
74.5894178415957
 20
-88.72361108893021
 30
0.0
 10
74.5894178415957
 20
-88.75771753423419
 30
0.0
 10
74.5894178415957
 20
-88.90895722603665
 30
0.0
 10
74.71860892229257
 20
-89.00404186142956
 30
0.0
 10
74.71860892229257
 20
-89.00404186142956
 30
0.0
 10
74.69966089712369
 20
-89.19179956537566
 30
0.0
 10
74.69966089712369
 20
-89.19179956537566
 30
0.0
 10
74.69966089712369
 20
-89.19179956537566
 30
0.0
 10
73.85320093639781
 20
-89.06295299422732
 30
0.0
 10
73.85320093639781
 20
-89.06295299422732
 30
0.0
 10
73.85320093639781
 20
-89.06295299422732
 30
0.0
 10
73.85320093639781
 20
-88.23096243453949
 30
0.0
 10
73.85320093639781
 20
-88.23096243453949
 30
0.0
 10
73.85320093639781
 20
-88.23096243453949
 30
0.0
 10
74.04784883131443
 20
-88.23096243453949
 30
0.0
 10
74.04784883131443
 20
-88.23096243453949
 30
0.0
 10
74.04784883131443
 20
-88.23096243453949
 30
0.0
 10
74.04784883131443
 20
-88.88863116267368
 30
0.0
 10
74.04784883131443
 20
-88.88863116267368
 30
0.0
 10
74.04784883131443
 20
-88.88863116267368
 30
0.0
 10
74.47090655690312
 20
-88.95891111057277
 30
0.0
 10
74.47090655690312
 20
-88.95891111057277
 30
0.0
 10
74.43714462114767
 20
-88.89345429635303
 30
0.0
 10
74.39683700397023
 20
-88.80525985193063
 30
0.0
 10
74.39683700397023
 20
-88.67848033807344
 30
0.0
 10
74.39683700397023
 20
-88.40735132338428
 30
0.0
 10
74.58321666972226
 20
-88.15413680521841
 30
0.0
 10
74.89637584933146
 20
-88.15413680521841
 30
0.0
 10
75.21366914352298
 20
-88.15413680521841
 30
0.0
 10
75.44828014606848
 20
-88.39357094144327
 30
0.0
 10
75.44828014606848
 20
-88.71706540750824
 30
0.0
  0
HATCH
  5
64
330
54
100
AcDbEntity
  8
_U+30EC_U+30A4_U+30E4_U+30FC 1
 62
   179
420
  2234388
100
AcDbHatch
 10
0.0
 20
0.0
 30
0.0
210
0.0
220
0.0
230
1.0
  2
SOLID
 70
     1
 71
     0
 91
        1
 92
        1
 93
        1
 72
     4
 94
        3
 73
     0
 74
     1
 95
       53
 96
       49
 40
0.0
 40
0.0
 40
0.0
 40
0.0
 40
1.0
 40
1.0
 40
1.0
 40
2.0
 40
2.0
 40
2.0
 40
3.0
 40
3.0
 40
3.0
 40
4.0
 40
4.0
 40
4.0
 40
5.0
 40
5.0
 40
5.0
 40
6.0
 40
6.0
 40
6.0
 40
7.0
 40
7.0
 40
7.0
 40
8.0
 40
8.0
 40
8.0
 40
9.0
 40
9.0
 40
9.0
 40
10.0
 40
10.0
 40
10.0
 40
11.0
 40
11.0
 40
11.0
 40
12.0
 40
12.0
 40
12.0
 40
13.0
 40
13.0
 40
13.0
 40
14.0
 40
14.0
 40
14.0
 40
15.0
 40
15.0
 40
15.0
 40
16.0
 40
16.0
 40
16.0
 40
16.0
 10
75.44828014606848
 20
-88.71706540750824
 10
75.44828014606848
 20
-88.8007812277998
 10
75.43139917819076
 20
-88.90895722603665
 10
75.36800942126217
 20
-89.01782224337055
 10
75.2581108752827
 20
-89.203168380477
 10
75.12685273729468
 20
-89.22556150113111
 10
75.01902124860636
 20
-89.24588756449408
 10
75.01902124860636
 20
-89.24588756449408
 10
75.01902124860636
 20
-89.00852048556037
 10
75.01902124860636
 20
-89.00852048556037
 10
75.21780325810528
 20
-88.94995386231113
 10
75.24743107927843
 20
-88.81421710019228
 10
75.24743107927843
 20
-88.71465384066856
 10
75.24743107927843
 20
-88.56548120615724
 10
75.14786781975471
 20
-88.40252818970492
 10
74.91532387450034
 20
-88.40252818970492
 10
74.65935327994627
 20
-88.40252818970492
 10
74.5894178415957
 20
-88.59476451778187
 10
74.5894178415957
 20
-88.72361108893021
 10
74.5894178415957
 20
-88.75771753423419
 10
74.5894178415957
 20
-88.90895722603665
 10
74.71860892229257
 20
-89.00404186142956
 10
74.71860892229257
 20
-89.00404186142956
 10
74.69966089712369
 20
-89.19179956537566
 10
74.69966089712369
 20
-89.19179956537566
 10
74.69966089712369
 20
-89.19179956537566
 10
73.85320093639781
 20
-89.06295299422732
 10
73.85320093639781
 20
-89.06295299422732
 10
73.85320093639781
 20
-89.06295299422732
 10
73.85320093639781
 20
-88.23096243453949
 10
73.85320093639781
 20
-88.23096243453949
 10
73.85320093639781
 20
-88.23096243453949
 10
74.04784883131443
 20
-88.23096243453949
 10
74.04784883131443
 20
-88.23096243453949
 10
74.04784883131443
 20
-88.23096243453949
 10
74.04784883131443
 20
-88.88863116267368
 10
74.04784883131443
 20
-88.88863116267368
 10
74.04784883131443
 20
-88.88863116267368
 10
74.47090655690312
 20
-88.95891111057277
 10
74.47090655690312
 20
-88.95891111057277
 10
74.43714462114767
 20
-88.89345429635303
 10
74.39683700397023
 20
-88.80525985193063
 10
74.39683700397023
 20
-88.67848033807344
 10
74.39683700397023
 20
-88.40735132338428
 10
74.58321666972226
 20
-88.15413680521841
 10
74.89637584933146
 20
-88.15413680521841
 10
75.21366914352298
 20
-88.15413680521841
 10
75.44828014606848
 20
-88.39357094144327
 10
75.44828014606848
 20
-88.71706540750824
 97
        0
 97
        0
 75
     2
 76
     1
 98
        0
  0
ENDBLK
  5
57
330
54
100
AcDbEntity
  8
0
100
AcDbBlockEnd
  0
BLOCK
  5
67
330
65
100
AcDbEntity
  8
0
100
AcDbBlockBegin
  2
block 4
 70
     0
 10
0.0
 20
0.0
 30
0.0
  3
block 4
  1

  0
SPLINE
  5
69
330
65
100
AcDbEntity
  8
_U+30EC_U+30A4_U+30E4_U+30FC 1
370
     0
100
AcDbSpline
210
0.0
220
0.0
230
1.0
 70
    11
 71
     3
 72
    62
 73
    58
 74
     0
 42
0.0000000001
 43
0.0000000001
 12
1.0
 22
0.0
 32
0.0
 13
1.0
 23
0.0
 33
0.0
 40
0.0
 40
0.0
 40
0.0
 40
0.0
 40
1.0
 40
1.0
 40
1.0
 40
2.0
 40
2.0
 40
2.0
 40
3.0
 40
3.0
 40
3.0
 40
4.0
 40
4.0
 40
4.0
 40
5.0
 40
5.0
 40
5.0
 40
6.0
 40
6.0
 40
6.0
 40
7.0
 40
7.0
 40
7.0
 40
8.0
 40
8.0
 40
8.0
 40
9.0
 40
9.0
 40
9.0
 40
10.0
 40
10.0
 40
10.0
 40
11.0
 40
11.0
 40
11.0
 40
12.0
 40
12.0
 40
12.0
 40
13.0
 40
13.0
 40
13.0
 40
14.0
 40
14.0
 40
14.0
 40
15.0
 40
15.0
 40
15.0
 40
16.0
 40
16.0
 40
16.0
 40
17.0
 40
17.0
 40
17.0
 40
18.0
 40
18.0
 40
18.0
 40
19.0
 40
19.0
 40
19.0
 40
19.0
 10
75.56541339256698
 20
-94.24678817088275
 30
0.0
 10
75.56541339256698
 20
-94.34841848769763
 30
0.0
 10
75.54439831010696
 20
-94.5813069425005
 30
0.0
 10
75.35836315390347
 20
-94.71463213777967
 30
0.0
 10
75.24605304108432
 20
-94.79386933394042
 30
0.0
 10
75.14683429110913
 20
-94.79834795807125
 30
0.0
 10
75.06208494217198
 20
-94.80282658220207
 30
0.0
 10
75.06208494217198
 20
-94.80282658220207
 30
0.0
 10
75.06208494217198
 20
-94.56787107010804
 30
0.0
 10
75.06208494217198
 20
-94.56787107010804
 30
0.0
 10
75.13615449510485
 20
-94.56545950326836
 30
0.0
 10
75.37076549765037
 20
-94.55409068816704
 30
0.0
 10
75.37076549765037
 20
-94.25126679501358
 30
0.0
 10
75.37076549765037
 20
-94.1041612177934
 30
0.0
 10
75.30117456884832
 20
-93.94155271088961
 30
0.0
 10
75.07276473817626
 20
-93.94155271088961
 30
0.0
 10
74.95632051077482
 20
-93.94155271088961
 30
0.0
 10
74.90774466443278
 20
-93.98220483761557
 30
0.0
 10
74.87604978596849
 20
-94.01596677337102
 30
0.0
 10
74.80198023303562
 20
-94.09520396953175
 30
0.0
 10
74.7892333797402
 20
-94.21957191654928
 30
0.0
 10
74.7892333797402
 20
-94.27848304934705
 30
0.0
 10
74.7892333797402
 20
-94.29880911271002
 30
0.0
 10
74.79130043703134
 20
-94.3370496725963
 30
0.0
 10
74.79543455161364
 20
-94.36667749376944
 30
0.0
 10
74.79543455161364
 20
-94.36667749376944
 30
0.0
 10
74.60078665669703
 20
-94.36667749376944
 30
0.0
 10
74.60078665669703
 20
-94.36667749376944
 30
0.0
 10
74.60733233811901
 20
-94.3260253670435
 30
0.0
 10
74.60939939541015
 20
-94.2805501066382
 30
0.0
 10
74.60939939541015
 20
-94.27400442521622
 30
0.0
 10
74.60939939541015
 20
-94.20372447731712
 30
0.0
 10
74.5880398034016
 20
-93.9911620858772
 30
0.0
 10
74.35136174356494
 20
-93.9911620858772
 30
0.0
 10
74.17359481652605
 20
-93.9911620858772
 30
0.0
 10
74.11847328876205
 20
-94.13137747212689
 30
0.0
 10
74.11847328876205
 20
-94.2488552281739
 30
0.0
 10
74.11847328876205
 20
-94.53169756751291
 30
0.0
 10
74.35136174356494
 20
-94.54065481577456
 30
0.0
 10
74.42301972965814
 20
-94.54513343990538
 30
0.0
 10
74.42301972965814
 20
-94.54513343990538
 30
0.0
 10
74.42301972965814
 20
-94.76217445547613
 30
0.0
 10
74.42301972965814
 20
-94.76217445547613
 30
0.0
 10
74.29830727309209
 20
-94.75321720721448
 30
0.0
 10
73.92175833655429
 20
-94.72393389558985
 30
0.0
 10
73.92175833655429
 20
-94.23541935578143
 30
0.0
 10
73.92175833655429
 20
-93.99564071000803
 30
0.0
 10
74.04888235996
 20
-93.73794756771134
 30
0.0
 10
74.34481606214297
 20
-93.73794756771134
 30
0.0
 10
74.53119572789498
 20
-93.73794756771134
 30
0.0
 10
74.61353350999245
 20
-93.83992239407475
 30
0.0
 10
74.6748562096299
 20
-93.94603133502044
 30
0.0
 10
74.7024169735119
 20
-93.88057452080069
 30
0.0
 10
74.78268769831823
 20
-93.68592662588408
 30
0.0
 10
75.06001788488084
 20
-93.68592662588408
 30
0.0
 10
75.39832626153236
 20
-93.68592662588408
 30
0.0
 10
75.56541339256698
 20
-93.95050995915126
 30
0.0
 10
75.56541339256698
 20
-94.24678817088275
 30
0.0
  0
HATCH
  5
6A
330
65
100
AcDbEntity
  8
_U+30EC_U+30A4_U+30E4_U+30FC 1
 62
   179
420
  2234388
100
AcDbHatch
 10
0.0
 20
0.0
 30
0.0
210
0.0
220
0.0
230
1.0
  2
SOLID
 70
     1
 71
     0
 91
        1
 92
        1
 93
        1
 72
     4
 94
        3
 73
     0
 74
     1
 95
       62
 96
       58
 40
0.0
 40
0.0
 40
0.0
 40
0.0
 40
1.0
 40
1.0
 40
1.0
 40
2.0
 40
2.0
 40
2.0
 40
3.0
 40
3.0
 40
3.0
 40
4.0
 40
4.0
 40
4.0
 40
5.0
 40
5.0
 40
5.0
 40
6.0
 40
6.0
 40
6.0
 40
7.0
 40
7.0
 40
7.0
 40
8.0
 40
8.0
 40
8.0
 40
9.0
 40
9.0
 40
9.0
 40
10.0
 40
10.0
 40
10.0
 40
11.0
 40
11.0
 40
11.0
 40
12.0
 40
12.0
 40
12.0
 40
13.0
 40
13.0
 40
13.0
 40
14.0
 40
14.0
 40
14.0
 40
15.0
 40
15.0
 40
15.0
 40
16.0
 40
16.0
 40
16.0
 40
17.0
 40
17.0
 40
17.0
 40
18.0
 40
18.0
 40
18.0
 40
19.0
 40
19.0
 40
19.0
 40
19.0
 10
75.56541339256698
 20
-94.24678817088275
 10
75.56541339256698
 20
-94.34841848769763
 10
75.54439831010696
 20
-94.5813069425005
 10
75.35836315390347
 20
-94.71463213777967
 10
75.24605304108432
 20
-94.79386933394042
 10
75.14683429110913
 20
-94.79834795807125
 10
75.06208494217198
 20
-94.80282658220207
 10
75.06208494217198
 20
-94.80282658220207
 10
75.06208494217198
 20
-94.56787107010804
 10
75.06208494217198
 20
-94.56787107010804
 10
75.13615449510485
 20
-94.56545950326836
 10
75.37076549765037
 20
-94.55409068816704
 10
75.37076549765037
 20
-94.25126679501358
 10
75.37076549765037
 20
-94.1041612177934
 10
75.30117456884832
 20
-93.94155271088961
 10
75.07276473817626
 20
-93.94155271088961
 10
74.95632051077482
 20
-93.94155271088961
 10
74.90774466443278
 20
-93.98220483761557
 10
74.87604978596849
 20
-94.01596677337102
 10
74.80198023303562
 20
-94.09520396953175
 10
74.7892333797402
 20
-94.21957191654928
 10
74.7892333797402
 20
-94.27848304934705
 10
74.7892333797402
 20
-94.29880911271002
 10
74.79130043703134
 20
-94.3370496725963
 10
74.79543455161364
 20
-94.36667749376944
 10
74.79543455161364
 20
-94.36667749376944
 10
74.60078665669703
 20
-94.36667749376944
 10
74.60078665669703
 20
-94.36667749376944
 10
74.60733233811901
 20
-94.3260253670435
 10
74.60939939541015
 20
-94.2805501066382
 10
74.60939939541015
 20
-94.27400442521622
 10
74.60939939541015
 20
-94.20372447731712
 10
74.5880398034016
 20
-93.9911620858772
 10
74.35136174356494
 20
-93.9911620858772
 10
74.17359481652605
 20
-93.9911620858772
 10
74.11847328876205
 20
-94.13137747212689
 10
74.11847328876205
 20
-94.2488552281739
 10
74.11847328876205
 20
-94.53169756751291
 10
74.35136174356494
 20
-94.54065481577456
 10
74.42301972965814
 20
-94.54513343990538
 10
74.42301972965814
 20
-94.54513343990538
 10
74.42301972965814
 20
-94.76217445547613
 10
74.42301972965814
 20
-94.76217445547613
 10
74.29830727309209
 20
-94.75321720721448
 10
73.92175833655429
 20
-94.72393389558985
 10
73.92175833655429
 20
-94.23541935578143
 10
73.92175833655429
 20
-93.99564071000803
 10
74.04888235996
 20
-93.73794756771134
 10
74.34481606214297
 20
-93.73794756771134
 10
74.53119572789498
 20
-93.73794756771134
 10
74.61353350999245
 20
-93.83992239407475
 10
74.6748562096299
 20
-93.94603133502044
 10
74.7024169735119
 20
-93.88057452080069
 10
74.78268769831823
 20
-93.68592662588408
 10
75.06001788488084
 20
-93.68592662588408
 10
75.39832626153236
 20
-93.68592662588408
 10
75.56541339256698
 20
-93.95050995915126
 10
75.56541339256698
 20
-94.24678817088275
 97
        0
 97
        0
 75
     2
 76
     1
 98
        0
  0
ENDBLK
  5
68
330
65
100
AcDbEntity
  8
0
100
AcDbBlockEnd
  0
BLOCK
  5
6D
330
6B
100
AcDbEntity
  8
0
100
AcDbBlockBegin
  2
block 5
 70
     0
 10
0.0
 20
0.0
 30
0.0
  3
block 5
  1

  0
SPLINE
  5
6F
330
6B
100
AcDbEntity
  8
_U+30EC_U+30A4_U+30E4_U+30FC 1
370
     0
100
AcDbSpline
210
0.0
220
0.0
230
1.0
 70
    11
 71
     3
 72
    26
 73
    22
 74
     0
 42
0.0000000001
 43
0.0000000001
 12
1.0
 22
0.0
 32
0.0
 13
1.0
 23
0.0
 33
0.0
 40
0.0
 40
0.0
 40
0.0
 40
0.0
 40
1.0
 40
1.0
 40
1.0
 40
2.0
 40
2.0
 40
2.0
 40
3.0
 40
3.0
 40
3.0
 40
4.0
 40
4.0
 40
4.0
 40
5.0
 40
5.0
 40
5.0
 40
6.0
 40
6.0
 40
6.0
 40
7.0
 40
7.0
 40
7.0
 40
7.0
 10
53.71558429646694
 20
-98.38641490595896
 30
0.0
 10
53.71558429646694
 20
-98.38641490595896
 30
0.0
 10
53.71558429646694
 20
-97.28226180293639
 30
0.0
 10
53.71558429646694
 20
-97.28226180293639
 30
0.0
 10
53.71558429646694
 20
-97.28226180293639
 30
0.0
 10
53.36280651877735
 20
-97.28226180293639
 30
0.0
 10
53.36280651877735
 20
-97.28226180293639
 30
0.0
 10
53.36280651877735
 20
-97.28226180293639
 30
0.0
 10
53.36280651877735
 20
-97.13412269707064
 30
0.0
 10
53.36280651877735
 20
-97.13412269707064
 30
0.0
 10
53.71782360853235
 20
-97.11930878648407
 30
0.0
 10
53.76760523829421
 20
-96.95635577003175
 30
0.0
 10
53.79912786198425
 20
-96.84197859992146
 30
0.0
 10
53.79912786198425
 20
-96.84197859992146
 30
0.0
 10
53.95519068746606
 20
-96.84197859992146
 30
0.0
 10
53.95519068746606
 20
-96.84197859992146
 30
0.0
 10
53.95519068746606
 20
-96.84197859992146
 30
0.0
 10
53.95519068746606
 20
-98.38641490595896
 30
0.0
 10
53.95519068746606
 20
-98.38641490595896
 30
0.0
 10
53.95519068746606
 20
-98.38641490595896
 30
0.0
 10
53.71558429646694
 20
-98.38641490595896
 30
0.0
 10
53.71558429646694
 20
-98.38641490595896
 30
0.0
  0
HATCH
  5
70
330
6B
100
AcDbEntity
  8
_U+30EC_U+30A4_U+30E4_U+30FC 1
 62
   179
420
  2234388
100
AcDbHatch
 10
0.0
 20
0.0
 30
0.0
210
0.0
220
0.0
230
1.0
  2
SOLID
 70
     1
 71
     0
 91
        1
 92
        1
 93
        1
 72
     4
 94
        3
 73
     0
 74
     1
 95
       26
 96
       22
 40
0.0
 40
0.0
 40
0.0
 40
0.0
 40
1.0
 40
1.0
 40
1.0
 40
2.0
 40
2.0
 40
2.0
 40
3.0
 40
3.0
 40
3.0
 40
4.0
 40
4.0
 40
4.0
 40
5.0
 40
5.0
 40
5.0
 40
6.0
 40
6.0
 40
6.0
 40
7.0
 40
7.0
 40
7.0
 40
7.0
 10
53.71558429646694
 20
-98.38641490595896
 10
53.71558429646694
 20
-98.38641490595896
 10
53.71558429646694
 20
-97.28226180293639
 10
53.71558429646694
 20
-97.28226180293639
 10
53.71558429646694
 20
-97.28226180293639
 10
53.36280651877735
 20
-97.28226180293639
 10
53.36280651877735
 20
-97.28226180293639
 10
53.36280651877735
 20
-97.28226180293639
 10
53.36280651877735
 20
-97.13412269707064
 10
53.36280651877735
 20
-97.13412269707064
 10
53.71782360853235
 20
-97.11930878648407
 10
53.76760523829421
 20
-96.95635577003175
 10
53.79912786198425
 20
-96.84197859992146
 10
53.79912786198425
 20
-96.84197859992146
 10
53.95519068746606
 20
-96.84197859992146
 10
53.95519068746606
 20
-96.84197859992146
 10
53.95519068746606
 20
-96.84197859992146
 10
53.95519068746606
 20
-98.38641490595896
 10
53.95519068746606
 20
-98.38641490595896
 10
53.95519068746606
 20
-98.38641490595896
 10
53.71558429646694
 20
-98.38641490595896
 10
53.71558429646694
 20
-98.38641490595896
 97
        0
 97
        0
 75
     2
 76
     1
 98
        0
  0
SPLINE
  5
71
330
6B
100
AcDbEntity
  8
_U+30EC_U+30A4_U+30E4_U+30FC 1
370
     0
100
AcDbSpline
210
0.0
220
0.0
230
1.0
 70
    11
 71
     3
 72
    29
 73
    25
 74
     0
 42
0.0000000001
 43
0.0000000001
 12
1.0
 22
0.0
 32
0.0
 13
1.0
 23
0.0
 33
0.0
 40
0.0
 40
0.0
 40
0.0
 40
0.0
 40
1.0
 40
1.0
 40
1.0
 40
2.0
 40
2.0
 40
2.0
 40
3.0
 40
3.0
 40
3.0
 40
4.0
 40
4.0
 40
4.0
 40
5.0
 40
5.0
 40
5.0
 40
6.0
 40
6.0
 40
6.0
 40
7.0
 40
7.0
 40
7.0
 40
8.0
 40
8.0
 40
8.0
 40
8.0
 10
55.4503621280645
 20
-98.20864797892007
 30
0.0
 10
55.33512368408289
 20
-98.41810978442325
 30
0.0
 10
55.14977754697644
 20
-98.43705780959213
 30
0.0
 10
55.02540959995893
 20
-98.43705780959213
 30
0.0
 10
54.85349933524496
 20
-98.43705780959213
 30
0.0
 10
54.70208738866823
 20
-98.39054902054126
 30
0.0
 10
54.6002848170791
 20
-98.20864797892007
 30
0.0
 10
54.48952499722832
 20
-98.01400008400346
 30
0.0
 10
54.46919893386534
 20
-97.77697751461827
 30
0.0
 10
54.46919893386534
 20
-97.61436900771447
 30
0.0
 10
54.46919893386534
 20
-97.47036401643102
 30
0.0
 10
54.4872856851629
 20
-97.21852753645926
 30
0.0
 10
54.6002848170791
 20
-97.01974552696035
 30
0.0
 10
54.71569551583497
 20
-96.81682940287914
 30
0.0
 10
54.88743352577468
 20
-96.79340275357943
 30
0.0
 10
55.02540959995893
 20
-96.79340275357943
 30
0.0
 10
55.19490829783322
 20
-96.79340275357943
 30
0.0
 10
55.34873181124963
 20
-96.83784448533916
 30
0.0
 10
55.4503621280645
 20
-97.01974552696035
 30
0.0
 10
55.55664332378446
 20
-97.2123263645858
 30
0.0
 10
55.58162026605251
 20
-97.44073619525787
 30
0.0
 10
55.58162026605251
 20
-97.61436900771447
 30
0.0
 10
55.58162026605251
 20
-97.78559025333138
 30
0.0
 10
55.55888263584986
 20
-98.0160671412946
 30
0.0
 10
55.4503621280645
 20
-98.20864797892007
 30
0.0
  0
SPLINE
  5
72
330
6B
100
AcDbEntity
  8
_U+30EC_U+30A4_U+30E4_U+30FC 1
370
     0
100
AcDbSpline
210
0.0
220
0.0
230
1.0
 70
    11
 71
     3
 72
    17
 73
    13
 74
     0
 42
0.0000000001
 43
0.0000000001
 12
1.0
 22
0.0
 32
0.0
 13
1.0
 23
0.0
 33
0.0
 40
0.0
 40
0.0
 40
0.0
 40
0.0
 40
1.0
 40
1.0
 40
1.0
 40
2.0
 40
2.0
 40
2.0
 40
3.0
 40
3.0
 40
3.0
 40
4.0
 40
4.0
 40
4.0
 40
4.0
 10
55.02540959995893
 20
-96.9859835912049
 30
0.0
 10
54.75858695462633
 20
-96.9859835912049
 30
0.0
 10
54.70880532486447
 20
-97.26951494964096
 30
0.0
 10
54.70880532486447
 20
-97.61436900771447
 30
0.0
 10
54.70880532486447
 20
-97.93372935919713
 30
0.0
 10
54.747218139525
 20
-98.24240991467552
 30
0.0
 10
55.02540959995893
 20
-98.24240991467552
 30
0.0
 10
55.28982067845185
 20
-98.24240991467552
 30
0.0
 10
55.34184162027913
 20
-97.96129012307912
 30
0.0
 10
55.34184162027913
 20
-97.61436900771447
 30
0.0
 10
55.34184162027913
 20
-97.29466414668329
 30
0.0
 10
55.30118949355317
 20
-96.9859835912049
 30
0.0
 10
55.02540959995893
 20
-96.9859835912049
 30
0.0
  0
HATCH
  5
73
330
6B
100
AcDbEntity
  8
_U+30EC_U+30A4_U+30E4_U+30FC 1
 62
   179
420
  2234388
100
AcDbHatch
 10
0.0
 20
0.0
 30
0.0
210
0.0
220
0.0
230
1.0
  2
SOLID
 70
     1
 71
     0
 91
        2
 92
        1
 93
        1
 72
     4
 94
        3
 73
     0
 74
     1
 95
       29
 96
       25
 40
0.0
 40
0.0
 40
0.0
 40
0.0
 40
1.0
 40
1.0
 40
1.0
 40
2.0
 40
2.0
 40
2.0
 40
3.0
 40
3.0
 40
3.0
 40
4.0
 40
4.0
 40
4.0
 40
5.0
 40
5.0
 40
5.0
 40
6.0
 40
6.0
 40
6.0
 40
7.0
 40
7.0
 40
7.0
 40
8.0
 40
8.0
 40
8.0
 40
8.0
 10
55.4503621280645
 20
-98.20864797892007
 10
55.33512368408289
 20
-98.41810978442325
 10
55.14977754697644
 20
-98.43705780959213
 10
55.02540959995893
 20
-98.43705780959213
 10
54.85349933524496
 20
-98.43705780959213
 10
54.70208738866823
 20
-98.39054902054126
 10
54.6002848170791
 20
-98.20864797892007
 10
54.48952499722832
 20
-98.01400008400346
 10
54.46919893386534
 20
-97.77697751461827
 10
54.46919893386534
 20
-97.61436900771447
 10
54.46919893386534
 20
-97.47036401643102
 10
54.4872856851629
 20
-97.21852753645926
 10
54.6002848170791
 20
-97.01974552696035
 10
54.71569551583497
 20
-96.81682940287914
 10
54.88743352577468
 20
-96.79340275357943
 10
55.02540959995893
 20
-96.79340275357943
 10
55.19490829783322
 20
-96.79340275357943
 10
55.34873181124963
 20
-96.83784448533916
 10
55.4503621280645
 20
-97.01974552696035
 10
55.55664332378446
 20
-97.2123263645858
 10
55.58162026605251
 20
-97.44073619525787
 10
55.58162026605251
 20
-97.61436900771447
 10
55.58162026605251
 20
-97.78559025333138
 10
55.55888263584986
 20
-98.0160671412946
 10
55.4503621280645
 20
-98.20864797892007
 97
        0
 97
        0
 92
        1
 93
        1
 72
     4
 94
        3
 73
     0
 74
     1
 95
       17
 96
       13
 40
0.0
 40
0.0
 40
0.0
 40
0.0
 40
1.0
 40
1.0
 40
1.0
 40
2.0
 40
2.0
 40
2.0
 40
3.0
 40
3.0
 40
3.0
 40
4.0
 40
4.0
 40
4.0
 40
4.0
 10
55.02540959995893
 20
-96.9859835912049
 10
54.75858695462633
 20
-96.9859835912049
 10
54.70880532486447
 20
-97.26951494964096
 10
54.70880532486447
 20
-97.61436900771447
 10
54.70880532486447
 20
-97.93372935919713
 10
54.747218139525
 20
-98.24240991467552
 10
55.02540959995893
 20
-98.24240991467552
 10
55.28982067845185
 20
-98.24240991467552
 10
55.34184162027913
 20
-97.96129012307912
 10
55.34184162027913
 20
-97.61436900771447
 10
55.34184162027913
 20
-97.29466414668329
 10
55.30118949355317
 20
-96.9859835912049
 10
55.02540959995893
 20
-96.9859835912049
 97
        0
 97
        0
 75
     2
 76
     1
 98
        0
  0
ENDBLK
  5
6E
330
6B
100
AcDbEntity
  8
0
100
AcDbBlockEnd
  0
BLOCK
  5
76
330
74
100
AcDbEntity
  8
0
100
AcDbBlockBegin
  2
block 6
 70
     0
 10
0.0
 20
0.0
 30
0.0
  3
block 6
  1

  0
SPLINE
  5
78
330
74
100
AcDbEntity
  8
_U+30EC_U+30A4_U+30E4_U+30FC 1
370
     0
100
AcDbSpline
210
0.0
220
0.0
230
1.0
 70
    11
 71
     3
 72
    44
 73
    40
 74
     0
 42
0.0000000001
 43
0.0000000001
 12
1.0
 22
0.0
 32
0.0
 13
1.0
 23
0.0
 33
0.0
 40
0.0
 40
0.0
 40
0.0
 40
0.0
 40
1.0
 40
1.0
 40
1.0
 40
2.0
 40
2.0
 40
2.0
 40
3.0
 40
3.0
 40
3.0
 40
4.0
 40
4.0
 40
4.0
 40
5.0
 40
5.0
 40
5.0
 40
6.0
 40
6.0
 40
6.0
 40
7.0
 40
7.0
 40
7.0
 40
8.0
 40
8.0
 40
8.0
 40
9.0
 40
9.0
 40
9.0
 40
10.0
 40
10.0
 40
10.0
 40
11.0
 40
11.0
 40
11.0
 40
12.0
 40
12.0
 40
12.0
 40
13.0
 40
13.0
 40
13.0
 40
13.0
 10
60.83745793834967
 20
-80.00183510369746
 30
0.0
 10
60.60456948354678
 20
-80.16048175079321
 30
0.0
 10
60.50500622402306
 20
-80.2345513037261
 30
0.0
 10
60.45332979174431
 20
-80.37838404023528
 30
0.0
 10
60.45332979174431
 20
-80.37838404023528
 30
0.0
 10
61.28497584188362
 20
-80.37838404023528
 30
0.0
 10
61.28497584188362
 20
-80.37838404023528
 30
0.0
 10
61.28497584188362
 20
-80.37838404023528
 30
0.0
 10
61.28497584188362
 20
-80.5835394763819
 30
0.0
 10
61.28497584188362
 20
-80.5835394763819
 30
0.0
 10
61.28497584188362
 20
-80.5835394763819
 30
0.0
 10
60.18633489163744
 20
-80.5835394763819
 30
0.0
 10
60.18633489163744
 20
-80.5835394763819
 30
0.0
 10
60.22044133694142
 20
-80.22593856501297
 30
0.0
 10
60.29037677529199
 20
-80.1477348974978
 30
0.0
 10
60.70172117623082
 20
-79.84938962847515
 30
0.0
 10
60.97526175775966
 20
-79.65060761897624
 30
0.0
 10
61.04554170565876
 20
-79.58291149269108
 30
0.0
 10
61.04554170565876
 20
-79.44545218282961
 30
0.0
 10
61.04554170565876
 20
-79.32694089813702
 30
0.0
 10
60.96871607633769
 20
-79.19585501492327
 30
0.0
 10
60.75822074218892
 20
-79.19585501492327
 30
0.0
 10
60.48020153652926
 20
-79.19585501492327
 30
0.0
 10
60.47124428826761
 20
-79.42633190288647
 30
0.0
 10
60.46676566413679
 20
-79.54277613028792
 30
0.0
 10
60.46676566413679
 20
-79.54277613028792
 30
0.0
 10
60.2269870183634
 20
-79.54277613028792
 30
0.0
 10
60.2269870183634
 20
-79.54277613028792
 30
0.0
 10
60.23628877617357
 20
-79.41582436165646
 30
0.0
 10
60.24731308172637
 20
-79.30368650361159
 30
0.0
 10
60.33344046885762
 20
-79.18517521891899
 30
0.0
 10
60.45091822490463
 20
-79.02446151453208
 30
0.0
 10
60.64970023440355
 20
-78.99052732400237
 30
0.0
 10
60.77406818142107
 20
-78.99052732400237
 30
0.0
 10
61.07034639315255
 20
-78.99052732400237
 30
0.0
 10
61.29186603285412
 20
-79.17466767768897
 30
0.0
 10
61.29186603285412
 20
-79.44751924012077
 30
0.0
 10
61.29186603285412
 20
-79.67592907079283
 30
0.0
 10
61.1674980858366
 20
-79.77549233031655
 30
0.0
 10
60.83745793834967
 20
-80.00183510369746
 30
0.0
  0
HATCH
  5
79
330
74
100
AcDbEntity
  8
_U+30EC_U+30A4_U+30E4_U+30FC 1
 62
   179
420
  2234388
100
AcDbHatch
 10
0.0
 20
0.0
 30
0.0
210
0.0
220
0.0
230
1.0
  2
SOLID
 70
     1
 71
     0
 91
        1
 92
        1
 93
        1
 72
     4
 94
        3
 73
     0
 74
     1
 95
       44
 96
       40
 40
0.0
 40
0.0
 40
0.0
 40
0.0
 40
1.0
 40
1.0
 40
1.0
 40
2.0
 40
2.0
 40
2.0
 40
3.0
 40
3.0
 40
3.0
 40
4.0
 40
4.0
 40
4.0
 40
5.0
 40
5.0
 40
5.0
 40
6.0
 40
6.0
 40
6.0
 40
7.0
 40
7.0
 40
7.0
 40
8.0
 40
8.0
 40
8.0
 40
9.0
 40
9.0
 40
9.0
 40
10.0
 40
10.0
 40
10.0
 40
11.0
 40
11.0
 40
11.0
 40
12.0
 40
12.0
 40
12.0
 40
13.0
 40
13.0
 40
13.0
 40
13.0
 10
60.83745793834967
 20
-80.00183510369746
 10
60.60456948354678
 20
-80.16048175079321
 10
60.50500622402306
 20
-80.2345513037261
 10
60.45332979174431
 20
-80.37838404023528
 10
60.45332979174431
 20
-80.37838404023528
 10
61.28497584188362
 20
-80.37838404023528
 10
61.28497584188362
 20
-80.37838404023528
 10
61.28497584188362
 20
-80.37838404023528
 10
61.28497584188362
 20
-80.5835394763819
 10
61.28497584188362
 20
-80.5835394763819
 10
61.28497584188362
 20
-80.5835394763819
 10
60.18633489163744
 20
-80.5835394763819
 10
60.18633489163744
 20
-80.5835394763819
 10
60.22044133694142
 20
-80.22593856501297
 10
60.29037677529199
 20
-80.1477348974978
 10
60.70172117623082
 20
-79.84938962847515
 10
60.97526175775966
 20
-79.65060761897624
 10
61.04554170565876
 20
-79.58291149269108
 10
61.04554170565876
 20
-79.44545218282961
 10
61.04554170565876
 20
-79.32694089813702
 10
60.96871607633769
 20
-79.19585501492327
 10
60.75822074218892
 20
-79.19585501492327
 10
60.48020153652926
 20
-79.19585501492327
 10
60.47124428826761
 20
-79.42633190288647
 10
60.46676566413679
 20
-79.54277613028792
 10
60.46676566413679
 20
-79.54277613028792
 10
60.2269870183634
 20
-79.54277613028792
 10
60.2269870183634
 20
-79.54277613028792
 10
60.23628877617357
 20
-79.41582436165646
 10
60.24731308172637
 20
-79.30368650361159
 10
60.33344046885762
 20
-79.18517521891899
 10
60.45091822490463
 20
-79.02446151453208
 10
60.64970023440355
 20
-78.99052732400237
 10
60.77406818142107
 20
-78.99052732400237
 10
61.07034639315255
 20
-78.99052732400237
 10
61.29186603285412
 20
-79.17466767768897
 10
61.29186603285412
 20
-79.44751924012077
 10
61.29186603285412
 20
-79.67592907079283
 10
61.1674980858366
 20
-79.77549233031655
 10
60.83745793834967
 20
-80.00183510369746
 97
        0
 97
        0
 75
     2
 76
     1
 98
        0
  0
SPLINE
  5
7A
330
74
100
AcDbEntity
  8
_U+30EC_U+30A4_U+30E4_U+30FC 1
370
     0
100
AcDbSpline
210
0.0
220
0.0
230
1.0
 70
    11
 71
     3
 72
    62
 73
    58
 74
     0
 42
0.0000000001
 43
0.0000000001
 12
1.0
 22
0.0
 32
0.0
 13
1.0
 23
0.0
 33
0.0
 40
0.0
 40
0.0
 40
0.0
 40
0.0
 40
1.0
 40
1.0
 40
1.0
 40
2.0
 40
2.0
 40
2.0
 40
3.0
 40
3.0
 40
3.0
 40
4.0
 40
4.0
 40
4.0
 40
5.0
 40
5.0
 40
5.0
 40
6.0
 40
6.0
 40
6.0
 40
7.0
 40
7.0
 40
7.0
 40
8.0
 40
8.0
 40
8.0
 40
9.0
 40
9.0
 40
9.0
 40
10.0
 40
10.0
 40
10.0
 40
11.0
 40
11.0
 40
11.0
 40
12.0
 40
12.0
 40
12.0
 40
13.0
 40
13.0
 40
13.0
 40
14.0
 40
14.0
 40
14.0
 40
15.0
 40
15.0
 40
15.0
 40
16.0
 40
16.0
 40
16.0
 40
17.0
 40
17.0
 40
17.0
 40
18.0
 40
18.0
 40
18.0
 40
19.0
 40
19.0
 40
19.0
 40
19.0
 10
61.98674179222901
 20
-80.63435463478933
 30
0.0
 10
61.88511147541414
 20
-80.63435463478933
 30
0.0
 10
61.65222302061125
 20
-80.61316729755505
 30
0.0
 10
61.51889782533208
 20
-80.4269598865773
 30
0.0
 10
61.43966062917134
 20
-80.3148220285324
 30
0.0
 10
61.43518200504051
 20
-80.21543102378295
 30
0.0
 10
61.43070338090969
 20
-80.13085392962007
 30
0.0
 10
61.43070338090969
 20
-80.13085392962007
 30
0.0
 10
61.66565889300373
 20
-80.13085392962007
 30
0.0
 10
61.66565889300373
 20
-80.13085392962007
 30
0.0
 10
61.6680704598434
 20
-80.20492348255294
 30
0.0
 10
61.67943927494473
 20
-80.43970673987272
 30
0.0
 10
61.98226316809819
 20
-80.43970673987272
 30
0.0
 10
62.12936874531835
 20
-80.43970673987272
 30
0.0
 10
62.29197725222215
 20
-80.3699435562964
 30
0.0
 10
62.29197725222215
 20
-80.14136147085009
 30
0.0
 10
62.29197725222215
 20
-80.0250894982229
 30
0.0
 10
62.2513251254962
 20
-79.97634139710661
 30
0.0
 10
62.21721868019223
 20
-79.94464651864232
 30
0.0
 10
62.13832599358
 20
-79.87057696570945
 30
0.0
 10
62.01395804656249
 20
-79.85800236718828
 30
0.0
 10
61.95504691376471
 20
-79.85800236718828
 30
0.0
 10
61.93472085040174
 20
-79.85800236718828
 30
0.0
 10
61.89648029051546
 20
-79.86006942447943
 30
0.0
 10
61.86685246934232
 20
-79.86420353906173
 30
0.0
 10
61.86685246934232
 20
-79.86420353906173
 30
0.0
 10
61.86685246934232
 20
-79.66955564414512
 30
0.0
 10
61.86685246934232
 20
-79.66955564414512
 30
0.0
 10
61.90750459606826
 20
-79.67592907079283
 30
0.0
 10
61.95297985647356
 20
-79.67816838285825
 30
0.0
 10
61.95952553789554
 20
-79.67816838285825
 30
0.0
 10
62.02980548579463
 20
-79.67816838285825
 30
0.0
 10
62.24236787723455
 20
-79.65698104562395
 30
0.0
 10
62.24236787723455
 20
-79.41995847623876
 30
0.0
 10
62.24236787723455
 20
-79.24236380397413
 30
0.0
 10
62.10215249098488
 20
-79.18724227621014
 30
0.0
 10
61.98467473493786
 20
-79.18724227621014
 30
0.0
 10
61.70183239559885
 20
-79.18724227621014
 30
0.0
 10
61.6928751473372
 20
-79.41995847623876
 30
0.0
 10
61.68839652320638
 20
-79.49196097188049
 30
0.0
 10
61.68839652320638
 20
-79.49196097188049
 30
0.0
 10
61.47135550763564
 20
-79.49196097188049
 30
0.0
 10
61.47135550763564
 20
-79.49196097188049
 30
0.0
 10
61.48031275589729
 20
-79.36707626054017
 30
0.0
 10
61.50959606752191
 20
-78.99052732400237
 30
0.0
 10
61.99811060733034
 20
-78.99052732400237
 30
0.0
 10
62.23788925310372
 20
-78.99052732400237
 30
0.0
 10
62.49558239540041
 20
-79.11747909263383
 30
0.0
 10
62.49558239540041
 20
-79.41358504959105
 30
0.0
 10
62.49558239540041
 20
-79.5997924605688
 30
0.0
 10
62.39360756903702
 20
-79.68230249744055
 30
0.0
 10
62.28749862809132
 20
-79.74362519707799
 30
0.0
 10
62.35295544231107
 20
-79.77118596095998
 30
0.0
 10
62.54760333722768
 20
-79.85162894054056
 30
0.0
 10
62.54760333722768
 20
-80.12878687232892
 30
0.0
 10
62.54760333722768
 20
-80.46726750375471
 30
0.0
 10
62.28302000396049
 20
-80.63435463478933
 30
0.0
 10
61.98674179222901
 20
-80.63435463478933
 30
0.0
  0
HATCH
  5
7B
330
74
100
AcDbEntity
  8
_U+30EC_U+30A4_U+30E4_U+30FC 1
 62
   179
420
  2234388
100
AcDbHatch
 10
0.0
 20
0.0
 30
0.0
210
0.0
220
0.0
230
1.0
  2
SOLID
 70
     1
 71
     0
 91
        1
 92
        1
 93
        1
 72
     4
 94
        3
 73
     0
 74
     1
 95
       62
 96
       58
 40
0.0
 40
0.0
 40
0.0
 40
0.0
 40
1.0
 40
1.0
 40
1.0
 40
2.0
 40
2.0
 40
2.0
 40
3.0
 40
3.0
 40
3.0
 40
4.0
 40
4.0
 40
4.0
 40
5.0
 40
5.0
 40
5.0
 40
6.0
 40
6.0
 40
6.0
 40
7.0
 40
7.0
 40
7.0
 40
8.0
 40
8.0
 40
8.0
 40
9.0
 40
9.0
 40
9.0
 40
10.0
 40
10.0
 40
10.0
 40
11.0
 40
11.0
 40
11.0
 40
12.0
 40
12.0
 40
12.0
 40
13.0
 40
13.0
 40
13.0
 40
14.0
 40
14.0
 40
14.0
 40
15.0
 40
15.0
 40
15.0
 40
16.0
 40
16.0
 40
16.0
 40
17.0
 40
17.0
 40
17.0
 40
18.0
 40
18.0
 40
18.0
 40
19.0
 40
19.0
 40
19.0
 40
19.0
 10
61.98674179222901
 20
-80.63435463478933
 10
61.88511147541414
 20
-80.63435463478933
 10
61.65222302061125
 20
-80.61316729755505
 10
61.51889782533208
 20
-80.4269598865773
 10
61.43966062917134
 20
-80.3148220285324
 10
61.43518200504051
 20
-80.21543102378295
 10
61.43070338090969
 20
-80.13085392962007
 10
61.43070338090969
 20
-80.13085392962007
 10
61.66565889300373
 20
-80.13085392962007
 10
61.66565889300373
 20
-80.13085392962007
 10
61.6680704598434
 20
-80.20492348255294
 10
61.67943927494473
 20
-80.43970673987272
 10
61.98226316809819
 20
-80.43970673987272
 10
62.12936874531835
 20
-80.43970673987272
 10
62.29197725222215
 20
-80.3699435562964
 10
62.29197725222215
 20
-80.14136147085009
 10
62.29197725222215
 20
-80.0250894982229
 10
62.2513251254962
 20
-79.97634139710661
 10
62.21721868019223
 20
-79.94464651864232
 10
62.13832599358
 20
-79.87057696570945
 10
62.01395804656249
 20
-79.85800236718828
 10
61.95504691376471
 20
-79.85800236718828
 10
61.93472085040174
 20
-79.85800236718828
 10
61.89648029051546
 20
-79.86006942447943
 10
61.86685246934232
 20
-79.86420353906173
 10
61.86685246934232
 20
-79.86420353906173
 10
61.86685246934232
 20
-79.66955564414512
 10
61.86685246934232
 20
-79.66955564414512
 10
61.90750459606826
 20
-79.67592907079283
 10
61.95297985647356
 20
-79.67816838285825
 10
61.95952553789554
 20
-79.67816838285825
 10
62.02980548579463
 20
-79.67816838285825
 10
62.24236787723455
 20
-79.65698104562395
 10
62.24236787723455
 20
-79.41995847623876
 10
62.24236787723455
 20
-79.24236380397413
 10
62.10215249098488
 20
-79.18724227621014
 10
61.98467473493786
 20
-79.18724227621014
 10
61.70183239559885
 20
-79.18724227621014
 10
61.6928751473372
 20
-79.41995847623876
 10
61.68839652320638
 20
-79.49196097188049
 10
61.68839652320638
 20
-79.49196097188049
 10
61.47135550763564
 20
-79.49196097188049
 10
61.47135550763564
 20
-79.49196097188049
 10
61.48031275589729
 20
-79.36707626054017
 10
61.50959606752191
 20
-78.99052732400237
 10
61.99811060733034
 20
-78.99052732400237
 10
62.23788925310372
 20
-78.99052732400237
 10
62.49558239540041
 20
-79.11747909263383
 10
62.49558239540041
 20
-79.41358504959105
 10
62.49558239540041
 20
-79.5997924605688
 10
62.39360756903702
 20
-79.68230249744055
 10
62.28749862809132
 20
-79.74362519707799
 10
62.35295544231107
 20
-79.77118596095998
 10
62.54760333722768
 20
-79.85162894054056
 10
62.54760333722768
 20
-80.12878687232892
 10
62.54760333722768
 20
-80.46726750375471
 10
62.28302000396049
 20
-80.63435463478933
 10
61.98674179222901
 20
-80.63435463478933
 97
        0
 97
        0
 75
     2
 76
     1
 98
        0
  0
ENDBLK
  5
77
330
74
100
AcDbEntity
  8
0
100
AcDbBlockEnd
  0
ENDSEC
  0
SECTION
  2
ENTITIES
  0
INSERT
  5
42
330
1F
100
AcDbEntity
  8
_U+30EC_U+30A4_U+30E4_U+30FC 1
100
AcDbBlockReference
  2
block 2
 10
0.0
 20
0.0
 30
0.0
  0
INSERT
  5
55
330
1F
100
AcDbEntity
  8
_U+30EC_U+30A4_U+30E4_U+30FC 1
100
AcDbBlockReference
  2
block 3
 10
0.0
 20
0.0
 30
0.0
  0
INSERT
  5
66
330
1F
100
AcDbEntity
  8
_U+30EC_U+30A4_U+30E4_U+30FC 1
100
AcDbBlockReference
  2
block 4
 10
0.0
 20
0.0
 30
0.0
  0
INSERT
  5
6C
330
1F
100
AcDbEntity
  8
_U+30EC_U+30A4_U+30E4_U+30FC 1
100
AcDbBlockReference
  2
block 5
 10
0.0
 20
0.0
 30
0.0
  0
INSERT
  5
75
330
1F
100
AcDbEntity
  8
_U+30EC_U+30A4_U+30E4_U+30FC 1
100
AcDbBlockReference
  2
block 6
 10
0.0
 20
0.0
 30
0.0
  0
POLYLINE
  5
7C
330
1F
100
AcDbEntity
  8
_U+30EC_U+30A4_U+30E4_U+30FC 1
 62
   179
420
  2234388
370
    25
100
AcDb2dPolyline
 66
     1
 10
0.0
 20
0.0
 30
0.0
  0
VERTEX
  5
7D
330
7C
100
AcDbEntity
  8
_U+30EC_U+30A4_U+30E4_U+30FC 1
 62
   179
420
  2234388
370
    25
100
AcDbVertex
100
AcDb2dVertex
 10
49.31790874179533
 20
-85.93550247851614
 30
0.0
  0
VERTEX
  5
7E
330
7C
100
AcDbEntity
  8
_U+30EC_U+30A4_U+30E4_U+30FC 1
 62
   179
420
  2234388
370
    25
100
AcDbVertex
100
AcDb2dVertex
 10
72.31806676612352
 20
-85.93550247851614
 30
0.0
  0
SEQEND
  5
7F
330
7C
100
AcDbEntity
  8
_U+30EC_U+30A4_U+30E4_U+30FC 1
 62
   179
420
  2234388
370
    25
  0
POLYLINE
  5
80
330
1F
100
AcDbEntity
  8
_U+30EC_U+30A4_U+30E4_U+30FC 1
 62
   179
420
  2234388
370
    25
100
AcDb2dPolyline
 66
     1
 10
0.0
 20
0.0
 30
0.0
  0
VERTEX
  5
81
330
80
100
AcDbEntity
  8
_U+30EC_U+30A4_U+30E4_U+30FC 1
 62
   179
420
  2234388
370
    25
100
AcDbVertex
100
AcDb2dVertex
 10
50.11786761027557
 20
-86.73546136720509
 30
0.0
  0
VERTEX
  5
82
330
80
100
AcDbEntity
  8
_U+30EC_U+30A4_U+30E4_U+30FC 1
 62
   179
420
  2234388
370
    25
100
AcDbVertex
100
AcDb2dVertex
 10
72.31806676612352
 20
-86.73546136720509
 30
0.0
  0
SEQEND
  5
83
330
80
100
AcDbEntity
  8
_U+30EC_U+30A4_U+30E4_U+30FC 1
 62
   179
420
  2234388
370
    25
  0
POLYLINE
  5
84
330
1F
100
AcDbEntity
  8
_U+30EC_U+30A4_U+30E4_U+30FC 1
 62
   179
420
  2234388
370
    25
100
AcDb2dPolyline
 66
     1
 10
0.0
 20
0.0
 30
0.0
  0
VERTEX
  5
85
330
84
100
AcDbEntity
  8
_U+30EC_U+30A4_U+30E4_U+30FC 1
 62
   179
420
  2234388
370
    25
100
AcDbVertex
100
AcDb2dVertex
 10
72.31806676612352
 20
-85.93550247851614
 30
0.0
  0
VERTEX
  5
86
330
84
100
AcDbEntity
  8
_U+30EC_U+30A4_U+30E4_U+30FC 1
 62
   179
420
  2234388
370
    25
100
AcDbVertex
100
AcDb2dVertex
 10
72.31806676612352
 20
-86.73546136720509
 30
0.0
  0
SEQEND
  5
87
330
84
100
AcDbEntity
  8
_U+30EC_U+30A4_U+30E4_U+30FC 1
 62
   179
420
  2234388
370
    25
  0
POLYLINE
  5
88
330
1F
100
AcDbEntity
  8
_U+30EC_U+30A4_U+30E4_U+30FC 1
 62
   179
420
  2234388
370
    25
100
AcDb2dPolyline
 66
     1
 10
0.0
 20
0.0
 30
0.0
  0
VERTEX
  5
89
330
88
100
AcDbEntity
  8
_U+30EC_U+30A4_U+30E4_U+30FC 1
 62
   179
420
  2234388
370
    25
100
AcDbVertex
100
AcDb2dVertex
 10
55.30204275579401
 20
-92.73716386570474
 30
0.0
  0
VERTEX
  5
8A
330
88
100
AcDbEntity
  8
_U+30EC_U+30A4_U+30E4_U+30FC 1
 62
   179
420
  2234388
370
    25
100
AcDbVertex
100
AcDb2dVertex
 10
59.31764154223644
 20
-92.73716386570474
 30
0.0
  0
SEQEND
  5
8B
330
88
100
AcDbEntity
  8
_U+30EC_U+30A4_U+30E4_U+30FC 1
 62
   179
420
  2234388
370
    25
  0
POLYLINE
  5
8C
330
1F
100
AcDbEntity
  8
_U+30EC_U+30A4_U+30E4_U+30FC 1
 62
   179
420
  2234388
370
    25
100
AcDb2dPolyline
 66
     1
 10
0.0
 20
0.0
 30
0.0
  0
VERTEX
  5
8D
330
8C
100
AcDbEntity
  8
_U+30EC_U+30A4_U+30E4_U+30FC 1
 62
   179
420
  2234388
370
    25
100
AcDbVertex
100
AcDb2dVertex
 10
49.31790874179533
 20
-95.73715080939908
 30
0.0
  0
VERTEX
  5
8E
330
8C
100
AcDbEntity
  8
_U+30EC_U+30A4_U+30E4_U+30FC 1
 62
   179
420
  2234388
370
    25
100
AcDbVertex
100
AcDb2dVertex
 10
59.31764154223644
 20
-95.73715080939908
 30
0.0
  0
SEQEND
  5
8F
330
8C
100
AcDbEntity
  8
_U+30EC_U+30A4_U+30E4_U+30FC 1
 62
   179
420
  2234388
370
    25
  0
POLYLINE
  5
90
330
1F
100
AcDbEntity
  8
_U+30EC_U+30A4_U+30E4_U+30FC 1
 62
   179
420
  2234388
370
    25
100
AcDb2dPolyline
 66
     1
 10
0.0
 20
0.0
 30
0.0
  0
VERTEX
  5
91
330
90
100
AcDbEntity
  8
_U+30EC_U+30A4_U+30E4_U+30FC 1
 62
   179
420
  2234388
370
    25
100
AcDbVertex
100
AcDb2dVertex
 10
59.31764154223644
 20
-92.73716386570474
 30
0.0
  0
VERTEX
  5
92
330
90
100
AcDbEntity
  8
_U+30EC_U+30A4_U+30E4_U+30FC 1
 62
   179
420
  2234388
370
    25
100
AcDbVertex
100
AcDb2dVertex
 10
59.31764154223644
 20
-95.73715080939908
 30
0.0
  0
SEQEND
  5
93
330
90
100
AcDbEntity
  8
_U+30EC_U+30A4_U+30E4_U+30FC 1
 62
   179
420
  2234388
370
    25
  0
POLYLINE
  5
94
330
1F
100
AcDbEntity
  8
_U+30EC_U+30A4_U+30E4_U+30FC 1
 62
   179
420
  2234388
370
    25
100
AcDb2dPolyline
 66
     1
 10
0.0
 20
0.0
 30
0.0
  0
VERTEX
  5
95
330
94
100
AcDbEntity
  8
_U+30EC_U+30A4_U+30E4_U+30FC 1
 62
   179
420
  2234388
370
    25
100
AcDbVertex
100
AcDb2dVertex
 10
55.30204275579401
 20
-92.73716386570474
 30
0.0
  0
VERTEX
  5
96
330
94
100
AcDbEntity
  8
_U+30EC_U+30A4_U+30E4_U+30FC 1
 62
   179
420
  2234388
370
    25
100
AcDbVertex
100
AcDb2dVertex
 10
55.30204275579401
 20
-93.53708747661585
 30
0.0
  0
SEQEND
  5
97
330
94
100
AcDbEntity
  8
_U+30EC_U+30A4_U+30E4_U+30FC 1
 62
   179
420
  2234388
370
    25
  0
POLYLINE
  5
98
330
1F
100
AcDbEntity
  8
_U+30EC_U+30A4_U+30E4_U+30FC 1
 62
   179
420
  2234388
370
    25
100
AcDb2dPolyline
 66
     1
 10
0.0
 20
0.0
 30
0.0
  0
VERTEX
  5
99
330
98
100
AcDbEntity
  8
_U+30EC_U+30A4_U+30E4_U+30FC 1
 62
   179
420
  2234388
370
    25
100
AcDbVertex
100
AcDb2dVertex
 10
50.11786761027557
 20
-94.93719192071046
 30
0.0
  0
VERTEX
  5
9A
330
98
100
AcDbEntity
  8
_U+30EC_U+30A4_U+30E4_U+30FC 1
 62
   179
420
  2234388
370
    25
100
AcDbVertex
100
AcDb2dVertex
 10
58.51771942981516
 20
-94.93719192071046
 30
0.0
  0
SEQEND
  5
9B
330
98
100
AcDbEntity
  8
_U+30EC_U+30A4_U+30E4_U+30FC 1
 62
   179
420
  2234388
370
    25
  0
POLYLINE
  5
9C
330
1F
100
AcDbEntity
  8
_U+30EC_U+30A4_U+30E4_U+30FC 1
 62
   179
420
  2234388
370
    25
100
AcDb2dPolyline
 66
     1
 10
0.0
 20
0.0
 30
0.0
  0
VERTEX
  5
9D
330
9C
100
AcDbEntity
  8
_U+30EC_U+30A4_U+30E4_U+30FC 1
 62
   179
420
  2234388
370
    25
100
AcDbVertex
100
AcDb2dVertex
 10
58.51771942981516
 20
-93.53708747661585
 30
0.0
  0
VERTEX
  5
9E
330
9C
100
AcDbEntity
  8
_U+30EC_U+30A4_U+30E4_U+30FC 1
 62
   179
420
  2234388
370
    25
100
AcDbVertex
100
AcDb2dVertex
 10
58.51771942981516
 20
-94.93719192071046
 30
0.0
  0
SEQEND
  5
9F
330
9C
100
AcDbEntity
  8
_U+30EC_U+30A4_U+30E4_U+30FC 1
 62
   179
420
  2234388
370
    25
  0
POLYLINE
  5
A0
330
1F
100
AcDbEntity
  8
_U+30EC_U+30A4_U+30E4_U+30FC 1
 62
   179
420
  2234388
370
    25
100
AcDb2dPolyline
 66
     1
 10
0.0
 20
0.0
 30
0.0
  0
VERTEX
  5
A1
330
A0
100
AcDbEntity
  8
_U+30EC_U+30A4_U+30E4_U+30FC 1
 62
   179
420
  2234388
370
    25
100
AcDbVertex
100
AcDb2dVertex
 10
55.30204275579401
 20
-93.53708747661585
 30
0.0
  0
VERTEX
  5
A2
330
A0
100
AcDbEntity
  8
_U+30EC_U+30A4_U+30E4_U+30FC 1
 62
   179
420
  2234388
370
    25
100
AcDbVertex
100
AcDb2dVertex
 10
58.51771942981516
 20
-93.53708747661585
 30
0.0
  0
SEQEND
  5
A3
330
A0
100
AcDbEntity
  8
_U+30EC_U+30A4_U+30E4_U+30FC 1
 62
   179
420
  2234388
370
    25
  0
POLYLINE
  5
A4
330
1F
100
AcDbEntity
  8
_U+30EC_U+30A4_U+30E4_U+30FC 1
 62
   179
420
  2234388
370
    25
100
AcDb2dPolyline
 66
     1
 10
0.0
 20
0.0
 30
0.0
  0
VERTEX
  5
A5
330
A4
100
AcDbEntity
  8
_U+30EC_U+30A4_U+30E4_U+30FC 1
 62
   179
420
  2234388
370
    25
100
AcDbVertex
100
AcDb2dVertex
 10
49.31790874179533
 20
-85.93723108962679
 30
0.0
  0
VERTEX
  5
A6
330
A4
100
AcDbEntity
  8
_U+30EC_U+30A4_U+30E4_U+30FC 1
 62
   179
420
  2234388
370
    25
100
AcDbVertex
100
AcDb2dVertex
 10
49.31790874179533
 20
-95.73715080939908
 30
0.0
  0
SEQEND
  5
A7
330
A4
100
AcDbEntity
  8
_U+30EC_U+30A4_U+30E4_U+30FC 1
 62
   179
420
  2234388
370
    25
  0
POLYLINE
  5
A8
330
1F
100
AcDbEntity
  8
_U+30EC_U+30A4_U+30E4_U+30FC 1
 62
   179
420
  2234388
370
    25
100
AcDb2dPolyline
 66
     1
 10
0.0
 20
0.0
 30
0.0
  0
VERTEX
  5
A9
330
A8
100
AcDbEntity
  8
_U+30EC_U+30A4_U+30E4_U+30FC 1
 62
   179
420
  2234388
370
    25
100
AcDbVertex
100
AcDb2dVertex
 10
50.11786761027557
 20
-86.7371547005379
 30
0.0
  0
VERTEX
  5
AA
330
A8
100
AcDbEntity
  8
_U+30EC_U+30A4_U+30E4_U+30FC 1
 62
   179
420
  2234388
370
    25
100
AcDbVertex
100
AcDb2dVertex
 10
50.11786761027557
 20
-94.93719192071046
 30
0.0
  0
SEQEND
  5
AB
330
A8
100
AcDbEntity
  8
_U+30EC_U+30A4_U+30E4_U+30FC 1
 62
   179
420
  2234388
370
    25
  0
SPLINE
  5
AC
330
1F
100
AcDbEntity
  8
_U+30EC_U+30A4_U+30E4_U+30FC 1
 62
   179
420
  2234388
370
     9
100
AcDbSpline
210
0.0
220
0.0
230
1.0
 70
    11
 71
     3
 72
    17
 73
    13
 74
     0
 42
0.0000000001
 43
0.0000000001
 12
1.0
 22
0.0
 32
0.0
 13
1.0
 23
0.0
 33
0.0
 40
0.0
 40
0.0
 40
0.0
 40
0.0
 40
1.0
 40
1.0
 40
1.0
 40
2.0
 40
2.0
 40
2.0
 40
3.0
 40
3.0
 40
3.0
 40
4.0
 40
4.0
 40
4.0
 40
4.0
 10
76.41773249486567
 20
-85.93550247851614
 30
0.0
 10
76.41773249486567
 20
-85.88004581186347
 30
0.0
 10
76.3729297182309
 20
-85.83559581187451
 30
0.0
 10
76.31782775869858
 20
-85.83559581187451
 30
0.0
 10
76.26268666548788
 20
-85.83559581187451
 30
0.0
 10
76.21791916663
 20
-85.88004581186347
 30
0.0
 10
76.21791916663
 20
-85.93550247851614
 30
0.0
 10
76.21791916663
 20
-85.99095914516883
 30
0.0
 10
76.26268666548788
 20
-86.03576192293555
 30
0.0
 10
76.31782775869858
 20
-86.03576192293555
 30
0.0
 10
76.3729297182309
 20
-86.03576192293555
 30
0.0
 10
76.41773249486567
 20
-85.99095914516883
 30
0.0
 10
76.41773249486567
 20
-85.93550247851614
 30
0.0
  0
SPLINE
  5
AD
330
1F
100
AcDbEntity
  8
_U+30EC_U+30A4_U+30E4_U+30FC 1
 62
   179
420
  2234388
370
     9
100
AcDbSpline
210
0.0
220
0.0
230
1.0
 70
    11
 71
     3
 72
    17
 73
    13
 74
     0
 42
0.0000000001
 43
0.0000000001
 12
1.0
 22
0.0
 32
0.0
 13
1.0
 23
0.0
 33
0.0
 40
0.0
 40
0.0
 40
0.0
 40
0.0
 40
1.0
 40
1.0
 40
1.0
 40
2.0
 40
2.0
 40
2.0
 40
3.0
 40
3.0
 40
3.0
 40
4.0
 40
4.0
 40
4.0
 40
4.0
 10
76.41773249486567
 20
-86.73546136720509
 30
0.0
 10
76.41773249486567
 20
-86.68032220055201
 30
0.0
 10
76.3729297182309
 20
-86.63555470056346
 30
0.0
 10
76.31782775869858
 20
-86.63555470056346
 30
0.0
 10
76.26268666548788
 20
-86.63555470056346
 30
0.0
 10
76.21791916663
 20
-86.68032220055201
 30
0.0
 10
76.21791916663
 20
-86.73546136720509
 30
0.0
 10
76.21791916663
 20
-86.79091803385776
 30
0.0
 10
76.26268666548788
 20
-86.83568553384666
 30
0.0
 10
76.31782775869858
 20
-86.83568553384666
 30
0.0
 10
76.3729297182309
 20
-86.83568553384666
 30
0.0
 10
76.41773249486567
 20
-86.79091803385776
 30
0.0
 10
76.41773249486567
 20
-86.73546136720509
 30
0.0
  0
SPLINE
  5
AE
330
1F
100
AcDbEntity
  8
_U+30EC_U+30A4_U+30E4_U+30FC 1
 62
   179
420
  2234388
370
     9
100
AcDbSpline
210
0.0
220
0.0
230
1.0
 70
    11
 71
     3
 72
    17
 73
    13
 74
     0
 42
0.0000000001
 43
0.0000000001
 12
1.0
 22
0.0
 32
0.0
 13
1.0
 23
0.0
 33
0.0
 40
0.0
 40
0.0
 40
0.0
 40
0.0
 40
1.0
 40
1.0
 40
1.0
 40
2.0
 40
2.0
 40
2.0
 40
3.0
 40
3.0
 40
3.0
 40
4.0
 40
4.0
 40
4.0
 40
4.0
 10
72.41797343024136
 20
-81.93539053507182
 30
0.0
 10
72.41797343024136
 20
-81.88028664619658
 30
0.0
 10
72.37317065360659
 20
-81.83548386842986
 30
0.0
 10
72.31806676612352
 20
-81.83548386842986
 30
0.0
 10
72.26292760086358
 20
-81.83548386842986
 30
0.0
 10
72.21816010200568
 20
-81.88028664619658
 30
0.0
 10
72.21816010200568
 20
-81.93539053507182
 30
0.0
 10
72.21816010200568
 20
-81.99052970172458
 30
0.0
 10
72.26292760086358
 20
-82.03529720171346
 30
0.0
 10
72.31806676612352
 20
-82.03529720171346
 30
0.0
 10
72.37317065360659
 20
-82.03529720171346
 30
0.0
 10
72.41797343024136
 20
-81.99052970172458
 30
0.0
 10
72.41797343024136
 20
-81.93539053507182
 30
0.0
  0
SPLINE
  5
AF
330
1F
100
AcDbEntity
  8
_U+30EC_U+30A4_U+30E4_U+30FC 1
 62
   179
420
  2234388
370
     9
100
AcDbSpline
210
0.0
220
0.0
230
1.0
 70
    11
 71
     3
 72
    17
 73
    13
 74
     0
 42
0.0000000001
 43
0.0000000001
 12
1.0
 22
0.0
 32
0.0
 13
1.0
 23
0.0
 33
0.0
 40
0.0
 40
0.0
 40
0.0
 40
0.0
 40
1.0
 40
1.0
 40
1.0
 40
2.0
 40
2.0
 40
2.0
 40
3.0
 40
3.0
 40
3.0
 40
4.0
 40
4.0
 40
4.0
 40
4.0
 10
59.41825376189183
 20
-99.73758025284333
 30
0.0
 10
59.41825376189183
 20
-99.68177080841289
 30
0.0
 10
59.37345098525707
 20
-99.63696803064617
 30
0.0
 10
59.31764154223644
 20
-99.63696803064617
 30
0.0
 10
59.26253765475337
 20
-99.63696803064617
 30
0.0
 10
59.21773487811861
 20
-99.68177080841289
 30
0.0
 10
59.21773487811861
 20
-99.73758025284333
 30
0.0
 10
59.21773487811861
 20
-99.79271941949641
 30
0.0
 10
59.26253765475337
 20
-99.83748691948497
 30
0.0
 10
59.31764154223644
 20
-99.83748691948497
 30
0.0
 10
59.37345098525707
 20
-99.83748691948497
 30
0.0
 10
59.41825376189183
 20
-99.79271941949641
 30
0.0
 10
59.41825376189183
 20
-99.73758025284333
 30
0.0
  0
SPLINE
  5
B0
330
1F
100
AcDbEntity
  8
_U+30EC_U+30A4_U+30E4_U+30FC 1
 62
   179
420
  2234388
370
     9
100
AcDbSpline
210
0.0
220
0.0
230
1.0
 70
    11
 71
     3
 72
    17
 73
    13
 74
     0
 42
0.0000000001
 43
0.0000000001
 12
1.0
 22
0.0
 32
0.0
 13
1.0
 23
0.0
 33
0.0
 40
0.0
 40
0.0
 40
0.0
 40
0.0
 40
1.0
 40
1.0
 40
1.0
 40
2.0
 40
2.0
 40
2.0
 40
3.0
 40
3.0
 40
3.0
 40
4.0
 40
4.0
 40
4.0
 40
4.0
 10
76.41773249486567
 20
-95.73715080939908
 30
0.0
 10
76.41773249486567
 20
-95.682011642746
 30
0.0
 10
76.3729297182309
 20
-95.63724414275745
 30
0.0
 10
76.31782775869858
 20
-95.63724414275745
 30
0.0
 10
76.26268666548788
 20
-95.63724414275745
 30
0.0
 10
76.21791916663
 20
-95.682011642746
 30
0.0
 10
76.21791916663
 20
-95.73715080939908
 30
0.0
 10
76.21791916663
 20
-95.79225469827401
 30
0.0
 10
76.26268666548788
 20
-95.83705747604073
 30
0.0
 10
76.31782775869858
 20
-95.83705747604073
 30
0.0
 10
76.3729297182309
 20
-95.83705747604073
 30
0.0
 10
76.41773249486567
 20
-95.79225469827401
 30
0.0
 10
76.41773249486567
 20
-95.73715080939908
 30
0.0
  0
SPLINE
  5
B1
330
1F
100
AcDbEntity
  8
_U+30EC_U+30A4_U+30E4_U+30FC 1
 62
   179
420
  2234388
370
     9
100
AcDbSpline
210
0.0
220
0.0
230
1.0
 70
    11
 71
     3
 72
    17
 73
    13
 74
     0
 42
0.0000000001
 43
0.0000000001
 12
1.0
 22
0.0
 32
0.0
 13
1.0
 23
0.0
 33
0.0
 40
0.0
 40
0.0
 40
0.0
 40
0.0
 40
1.0
 40
1.0
 40
1.0
 40
2.0
 40
2.0
 40
2.0
 40
3.0
 40
3.0
 40
3.0
 40
4.0
 40
4.0
 40
4.0
 40
4.0
 10
76.41773249486567
 20
-92.73716386570474
 30
0.0
 10
76.41773249486567
 20
-92.68202469905167
 30
0.0
 10
76.3729297182309
 20
-92.63725719906311
 30
0.0
 10
76.31782775869858
 20
-92.63725719906311
 30
0.0
 10
76.26268666548788
 20
-92.63725719906311
 30
0.0
 10
76.21791916663
 20
-92.68202469905167
 30
0.0
 10
76.21791916663
 20
-92.73716386570474
 30
0.0
 10
76.21791916663
 20
-92.79226775457967
 30
0.0
 10
76.26268666548788
 20
-92.83707053234639
 30
0.0
 10
76.31782775869858
 20
-92.83707053234639
 30
0.0
 10
76.3729297182309
 20
-92.83707053234639
 30
0.0
 10
76.41773249486567
 20
-92.79226775457967
 30
0.0
 10
76.41773249486567
 20
-92.73716386570474
 30
0.0
  0
SPLINE
  5
B2
330
1F
100
AcDbEntity
  8
_U+30EC_U+30A4_U+30E4_U+30FC 1
 62
   179
420
  2234388
370
     9
100
AcDbSpline
210
0.0
220
0.0
230
1.0
 70
    11
 71
     3
 72
    17
 73
    13
 74
     0
 42
0.0000000001
 43
0.0000000001
 12
1.0
 22
0.0
 32
0.0
 13
1.0
 23
0.0
 33
0.0
 40
0.0
 40
0.0
 40
0.0
 40
0.0
 40
1.0
 40
1.0
 40
1.0
 40
2.0
 40
2.0
 40
2.0
 40
3.0
 40
3.0
 40
3.0
 40
4.0
 40
4.0
 40
4.0
 40
4.0
 10
49.41781665431233
 20
-81.93539053507182
 30
0.0
 10
49.41781665431233
 20
-81.88028664619658
 30
0.0
 10
49.37304790705527
 20
-81.83548386842986
 30
0.0
 10
49.31790874179533
 20
-81.83548386842986
 30
0.0
 10
49.26280485431226
 20
-81.83548386842986
 30
0.0
 10
49.21800207767749
 20
-81.88028664619658
 30
0.0
 10
49.21800207767749
 20
-81.93539053507182
 30
0.0
 10
49.21800207767749
 20
-81.99052970172458
 30
0.0
 10
49.26280485431226
 20
-82.03529720171346
 30
0.0
 10
49.31790874179533
 20
-82.03529720171346
 30
0.0
 10
49.37304790705527
 20
-82.03529720171346
 30
0.0
 10
49.41781665431233
 20
-81.99052970172458
 30
0.0
 10
49.41781665431233
 20
-81.93539053507182
 30
0.0
  0
SPLINE
  5
B3
330
1F
100
AcDbEntity
  8
_U+30EC_U+30A4_U+30E4_U+30FC 1
 62
   179
420
  2234388
370
     9
100
AcDbSpline
210
0.0
220
0.0
230
1.0
 70
    11
 71
     3
 72
    17
 73
    13
 74
     0
 42
0.0000000001
 43
0.0000000001
 12
1.0
 22
0.0
 32
0.0
 13
1.0
 23
0.0
 33
0.0
 40
0.0
 40
0.0
 40
0.0
 40
0.0
 40
1.0
 40
1.0
 40
1.0
 40
2.0
 40
2.0
 40
2.0
 40
3.0
 40
3.0
 40
3.0
 40
4.0
 40
4.0
 40
4.0
 40
4.0
 10
49.41781665431233
 20
-99.73758025284333
 30
0.0
 10
49.41781665431233
 20
-99.68177080841289
 30
0.0
 10
49.37304790705527
 20
-99.63696803064617
 30
0.0
 10
49.31790874179533
 20
-99.63696803064617
 30
0.0
 10
49.26280485431226
 20
-99.63696803064617
 30
0.0
 10
49.21800207767749
 20
-99.68177080841289
 30
0.0
 10
49.21800207767749
 20
-99.73758025284333
 30
0.0
 10
49.21800207767749
 20
-99.79271941949641
 30
0.0
 10
49.26280485431226
 20
-99.83748691948497
 30
0.0
 10
49.31790874179533
 20
-99.83748691948497
 30
0.0
 10
49.37304790705527
 20
-99.83748691948497
 30
0.0
 10
49.41781665431233
 20
-99.79271941949641
 30
0.0
 10
49.41781665431233
 20
-99.73758025284333
 30
0.0
  0
POLYLINE
  5
B4
330
1F
100
AcDbEntity
  8
_U+30EC_U+30A4_U+30E4_U+30FC 1
 62
   179
420
  2234388
370
     9
100
AcDb2dPolyline
 66
     1
 10
0.0
 20
0.0
 30
0.0
  0
VERTEX
  5
B5
330
B4
100
AcDbEntity
  8
_U+30EC_U+30A4_U+30E4_U+30FC 1
 62
   179
420
  2234388
370
     9
100
AcDbVertex
100
AcDb2dVertex
 10
76.31782775869858
 20
-85.93550247851614
 30
0.0
  0
VERTEX
  5
B6
330
B4
100
AcDbEntity
  8
_U+30EC_U+30A4_U+30E4_U+30FC 1
 62
   179
420
  2234388
370
     9
100
AcDbVertex
100
AcDb2dVertex
 10
76.31782775869858
 20
-80.677949424275
 30
0.0
  0
SEQEND
  5
B7
330
B4
100
AcDbEntity
  8
_U+30EC_U+30A4_U+30E4_U+30FC 1
 62
   179
420
  2234388
370
     9
  0
POLYLINE
  5
B8
330
1F
100
AcDbEntity
  8
_U+30EC_U+30A4_U+30E4_U+30FC 1
 62
   179
420
  2234388
370
     9
100
AcDb2dPolyline
 66
     1
 10
0.0
 20
0.0
 30
0.0
  0
VERTEX
  5
B9
330
B8
100
AcDbEntity
  8
_U+30EC_U+30A4_U+30E4_U+30FC 1
 62
   179
420
  2234388
370
     9
100
AcDbVertex
100
AcDb2dVertex
 10
76.31782775869858
 20
-85.93550247851614
 30
0.0
  0
VERTEX
  5
BA
330
B8
100
AcDbEntity
  8
_U+30EC_U+30A4_U+30E4_U+30FC 1
 62
   179
420
  2234388
370
     9
100
AcDbVertex
100
AcDb2dVertex
 10
76.31782775869858
 20
-86.73546136720509
 30
0.0
  0
SEQEND
  5
BB
330
B8
100
AcDbEntity
  8
_U+30EC_U+30A4_U+30E4_U+30FC 1
 62
   179
420
  2234388
370
     9
  0
POLYLINE
  5
BC
330
1F
100
AcDbEntity
  8
_U+30EC_U+30A4_U+30E4_U+30FC 1
 62
   179
420
  2234388
370
     9
100
AcDb2dPolyline
 66
     1
 10
0.0
 20
0.0
 30
0.0
  0
VERTEX
  5
BD
330
BC
100
AcDbEntity
  8
_U+30EC_U+30A4_U+30E4_U+30FC 1
 62
   179
420
  2234388
370
     9
100
AcDbVertex
100
AcDb2dVertex
 10
74.8577844791077
 20
-85.93550247851614
 30
0.0
  0
VERTEX
  5
BE
330
BC
100
AcDbEntity
  8
_U+30EC_U+30A4_U+30E4_U+30FC 1
 62
   179
420
  2234388
370
     9
100
AcDbVertex
100
AcDb2dVertex
 10
77.31826830522442
 20
-85.93550247851614
 30
0.0
  0
SEQEND
  5
BF
330
BC
100
AcDbEntity
  8
_U+30EC_U+30A4_U+30E4_U+30FC 1
 62
   179
420
  2234388
370
     9
  0
POLYLINE
  5
C0
330
1F
100
AcDbEntity
  8
_U+30EC_U+30A4_U+30E4_U+30FC 1
 62
   179
420
  2234388
370
     9
100
AcDb2dPolyline
 66
     1
 10
0.0
 20
0.0
 30
0.0
  0
VERTEX
  5
C1
330
C0
100
AcDbEntity
  8
_U+30EC_U+30A4_U+30E4_U+30FC 1
 62
   179
420
  2234388
370
     9
100
AcDbVertex
100
AcDb2dVertex
 10
74.8577844791077
 20
-86.73546136720509
 30
0.0
  0
VERTEX
  5
C2
330
C0
100
AcDbEntity
  8
_U+30EC_U+30A4_U+30E4_U+30FC 1
 62
   179
420
  2234388
370
     9
100
AcDbVertex
100
AcDb2dVertex
 10
77.31826830522442
 20
-86.73546136720509
 30
0.0
  0
SEQEND
  5
C3
330
C0
100
AcDbEntity
  8
_U+30EC_U+30A4_U+30E4_U+30FC 1
 62
   179
420
  2234388
370
     9
  0
POLYLINE
  5
C4
330
1F
100
AcDbEntity
  8
_U+30EC_U+30A4_U+30E4_U+30FC 1
 62
   179
420
  2234388
370
     9
100
AcDb2dPolyline
 66
     1
 10
0.0
 20
0.0
 30
0.0
  0
VERTEX
  5
C5
330
C4
100
AcDbEntity
  8
_U+30EC_U+30A4_U+30E4_U+30FC 1
 62
   179
420
  2234388
370
     9
100
AcDbVertex
100
AcDb2dVertex
 10
76.31782775869858
 20
-92.73716386570474
 30
0.0
  0
VERTEX
  5
C6
330
C4
100
AcDbEntity
  8
_U+30EC_U+30A4_U+30E4_U+30FC 1
 62
   179
420
  2234388
370
     9
100
AcDbVertex
100
AcDb2dVertex
 10
76.31782775869858
 20
-86.7371547005379
 30
0.0
  0
SEQEND
  5
C7
330
C4
100
AcDbEntity
  8
_U+30EC_U+30A4_U+30E4_U+30FC 1
 62
   179
420
  2234388
370
     9
  0
POLYLINE
  5
C8
330
1F
100
AcDbEntity
  8
_U+30EC_U+30A4_U+30E4_U+30FC 1
 62
   179
420
  2234388
370
     9
100
AcDb2dPolyline
 66
     1
 10
0.0
 20
0.0
 30
0.0
  0
VERTEX
  5
C9
330
C8
100
AcDbEntity
  8
_U+30EC_U+30A4_U+30E4_U+30FC 1
 62
   179
420
  2234388
370
     9
100
AcDbVertex
100
AcDb2dVertex
 10
61.85806481075818
 20
-92.73716386570474
 30
0.0
  0
VERTEX
  5
CA
330
C8
100
AcDbEntity
  8
_U+30EC_U+30A4_U+30E4_U+30FC 1
 62
   179
420
  2234388
370
     9
100
AcDbVertex
100
AcDb2dVertex
 10
77.31826830522442
 20
-92.73716386570474
 30
0.0
  0
SEQEND
  5
CB
330
C8
100
AcDbEntity
  8
_U+30EC_U+30A4_U+30E4_U+30FC 1
 62
   179
420
  2234388
370
     9
  0
POLYLINE
  5
CC
330
1F
100
AcDbEntity
  8
_U+30EC_U+30A4_U+30E4_U+30FC 1
 62
   179
420
  2234388
370
     9
100
AcDb2dPolyline
 66
     1
 10
0.0
 20
0.0
 30
0.0
  0
VERTEX
  5
CD
330
CC
100
AcDbEntity
  8
_U+30EC_U+30A4_U+30E4_U+30FC 1
 62
   179
420
  2234388
370
     9
100
AcDbVertex
100
AcDb2dVertex
 10
76.31782775869858
 20
-92.73716386570474
 30
0.0
  0
VERTEX
  5
CE
330
CC
100
AcDbEntity
  8
_U+30EC_U+30A4_U+30E4_U+30FC 1
 62
   179
420
  2234388
370
     9
100
AcDbVertex
100
AcDb2dVertex
 10
76.31782775869858
 20
-95.73715080939908
 30
0.0
  0
SEQEND
  5
CF
330
CC
100
AcDbEntity
  8
_U+30EC_U+30A4_U+30E4_U+30FC 1
 62
   179
420
  2234388
370
     9
  0
POLYLINE
  5
D0
330
1F
100
AcDbEntity
  8
_U+30EC_U+30A4_U+30E4_U+30FC 1
 62
   179
420
  2234388
370
     9
100
AcDb2dPolyline
 66
     1
 10
0.0
 20
0.0
 30
0.0
  0
VERTEX
  5
D1
330
D0
100
AcDbEntity
  8
_U+30EC_U+30A4_U+30E4_U+30FC 1
 62
   179
420
  2234388
370
     9
100
AcDbVertex
100
AcDb2dVertex
 10
61.85806481075818
 20
-95.73715080939908
 30
0.0
  0
VERTEX
  5
D2
330
D0
100
AcDbEntity
  8
_U+30EC_U+30A4_U+30E4_U+30FC 1
 62
   179
420
  2234388
370
     9
100
AcDbVertex
100
AcDb2dVertex
 10
77.31826830522442
 20
-95.73715080939908
 30
0.0
  0
SEQEND
  5
D3
330
D0
100
AcDbEntity
  8
_U+30EC_U+30A4_U+30E4_U+30FC 1
 62
   179
420
  2234388
370
     9
  0
POLYLINE
  5
D4
330
1F
100
AcDbEntity
  8
_U+30EC_U+30A4_U+30E4_U+30FC 1
 62
   179
420
  2234388
370
     9
100
AcDb2dPolyline
 66
     1
 10
0.0
 20
0.0
 30
0.0
  0
VERTEX
  5
D5
330
D4
100
AcDbEntity
  8
_U+30EC_U+30A4_U+30E4_U+30FC 1
 62
   179
420
  2234388
370
     9
100
AcDbVertex
100
AcDb2dVertex
 10
49.31790874179533
 20
-99.73758025284333
 30
0.0
  0
VERTEX
  5
D6
330
D4
100
AcDbEntity
  8
_U+30EC_U+30A4_U+30E4_U+30FC 1
 62
   179
420
  2234388
370
     9
100
AcDbVertex
100
AcDb2dVertex
 10
59.31764154223644
 20
-99.73758025284333
 30
0.0
  0
SEQEND
  5
D7
330
D4
100
AcDbEntity
  8
_U+30EC_U+30A4_U+30E4_U+30FC 1
 62
   179
420
  2234388
370
     9
  0
POLYLINE
  5
D8
330
1F
100
AcDbEntity
  8
_U+30EC_U+30A4_U+30E4_U+30FC 1
 62
   179
420
  2234388
370
     9
100
AcDb2dPolyline
 66
     1
 10
0.0
 20
0.0
 30
0.0
  0
VERTEX
  5
D9
330
D8
100
AcDbEntity
  8
_U+30EC_U+30A4_U+30E4_U+30FC 1
 62
   179
420
  2234388
370
     9
100
AcDbVertex
100
AcDb2dVertex
 10
49.31790874179533
 20
-98.27753886431962
 30
0.0
  0
VERTEX
  5
DA
330
D8
100
AcDbEntity
  8
_U+30EC_U+30A4_U+30E4_U+30FC 1
 62
   179
420
  2234388
370
     9
100
AcDbVertex
100
AcDb2dVertex
 10
49.31790874179533
 20
-100.7373524748159
 30
0.0
  0
SEQEND
  5
DB
330
D8
100
AcDbEntity
  8
_U+30EC_U+30A4_U+30E4_U+30FC 1
 62
   179
420
  2234388
370
     9
  0
POLYLINE
  5
DC
330
1F
100
AcDbEntity
  8
_U+30EC_U+30A4_U+30E4_U+30FC 1
 62
   179
420
  2234388
370
     9
100
AcDb2dPolyline
 66
     1
 10
0.0
 20
0.0
 30
0.0
  0
VERTEX
  5
DD
330
DC
100
AcDbEntity
  8
_U+30EC_U+30A4_U+30E4_U+30FC 1
 62
   179
420
  2234388
370
     9
100
AcDbVertex
100
AcDb2dVertex
 10
59.31764154223644
 20
-98.27753886431962
 30
0.0
  0
VERTEX
  5
DE
330
DC
100
AcDbEntity
  8
_U+30EC_U+30A4_U+30E4_U+30FC 1
 62
   179
420
  2234388
370
     9
100
AcDbVertex
100
AcDb2dVertex
 10
59.31764154223644
 20
-100.7373524748159
 30
0.0
  0
SEQEND
  5
DF
330
DC
100
AcDbEntity
  8
_U+30EC_U+30A4_U+30E4_U+30FC 1
 62
   179
420
  2234388
370
     9
  0
POLYLINE
  5
E0
330
1F
100
AcDbEntity
  8
_U+30EC_U+30A4_U+30E4_U+30FC 1
 62
   179
420
  2234388
370
     9
100
AcDb2dPolyline
 66
     1
 10
0.0
 20
0.0
 30
0.0
  0
VERTEX
  5
E1
330
E0
100
AcDbEntity
  8
_U+30EC_U+30A4_U+30E4_U+30FC 1
 62
   179
420
  2234388
370
     9
100
AcDbVertex
100
AcDb2dVertex
 10
49.31790874179533
 20
-81.93539053507182
 30
0.0
  0
VERTEX
  5
E2
330
E0
100
AcDbEntity
  8
_U+30EC_U+30A4_U+30E4_U+30FC 1
 62
   179
420
  2234388
370
     9
100
AcDbVertex
100
AcDb2dVertex
 10
72.31806676612352
 20
-81.93539053507182
 30
0.0
  0
SEQEND
  5
E3
330
E0
100
AcDbEntity
  8
_U+30EC_U+30A4_U+30E4_U+30FC 1
 62
   179
420
  2234388
370
     9
  0
POLYLINE
  5
E4
330
1F
100
AcDbEntity
  8
_U+30EC_U+30A4_U+30E4_U+30FC 1
 62
   179
420
  2234388
370
     9
100
AcDb2dPolyline
 66
     1
 10
0.0
 20
0.0
 30
0.0
  0
VERTEX
  5
E5
330
E4
100
AcDbEntity
  8
_U+30EC_U+30A4_U+30E4_U+30FC 1
 62
   179
420
  2234388
370
     9
100
AcDbVertex
100
AcDb2dVertex
 10
49.31790874179533
 20
-83.39543192359554
 30
0.0
  0
VERTEX
  5
E6
330
E4
100
AcDbEntity
  8
_U+30EC_U+30A4_U+30E4_U+30FC 1
 62
   179
420
  2234388
370
     9
100
AcDbVertex
100
AcDb2dVertex
 10
49.31790874179533
 20
-80.93561831309928
 30
0.0
  0
SEQEND
  5
E7
330
E4
100
AcDbEntity
  8
_U+30EC_U+30A4_U+30E4_U+30FC 1
 62
   179
420
  2234388
370
     9
  0
POLYLINE
  5
E8
330
1F
100
AcDbEntity
  8
_U+30EC_U+30A4_U+30E4_U+30FC 1
 62
   179
420
  2234388
370
     9
100
AcDb2dPolyline
 66
     1
 10
0.0
 20
0.0
 30
0.0
  0
VERTEX
  5
E9
330
E8
100
AcDbEntity
  8
_U+30EC_U+30A4_U+30E4_U+30FC 1
 62
   179
420
  2234388
370
     9
100
AcDbVertex
100
AcDb2dVertex
 10
72.31806676612352
 20
-83.39543192359554
 30
0.0
  0
VERTEX
  5
EA
330
E8
100
AcDbEntity
  8
_U+30EC_U+30A4_U+30E4_U+30FC 1
 62
   179
420
  2234388
370
     9
100
AcDbVertex
100
AcDb2dVertex
 10
72.31806676612352
 20
-80.93561831309928
 30
0.0
  0
SEQEND
  5
EB
330
E8
100
AcDbEntity
  8
_U+30EC_U+30A4_U+30E4_U+30FC 1
 62
   179
420
  2234388
370
     9
  0
ENDSEC
  0
SECTION
  2
OBJECTS
  0
DICTIONARY
  5
C
330
0
100
AcDbDictionary
281
     1
  3
ACAD_GROUP
350
D
  3
ACAD_LAYOUT
350
1A
  3
ACAD_MATERIAL
350
3B
  3
ACAD_MLEADERSTYLE
350
ED
  3
ACAD_MLINESTYLE
350
17
  3
ACAD_PLOTSETTINGS
350
19
  3
ACAD_PLOTSTYLENAME
350
E
  3
ACAD_TABLESTYLE
350
EC
  3
ACAD_VISUALSTYLE
350
2A
  0
SUN
  5
3F
330
29
100
AcDbSun
 90
        1
290
     0
 63
     7
421
 16777215
 40
1.0
291
     1
 91
  2455826
 92
 54000000
292
     0
 70
     2
 71
   256
280
     1
  0
DICTIONARY
  5
D
102
{ACAD_REACTORS
330
C
102
}
330
C
100
AcDbDictionary
281
     1
  0
DICTIONARY
  5
1A
102
{ACAD_REACTORS
330
C
102
}
330
C
100
AcDbDictionary
281
     1
  3
Layout1
350
1E
  3
Layout2
350
26
  3
Model
350
22
  0
DICTIONARY
  5
3B
102
{ACAD_REACTORS
330
C
102
}
330
C
100
AcDbDictionary
281
     1
  3
ByBlock
350
3D
  3
ByLayer
350
3C
  3
Global
350
3E
  0
DICTIONARY
  5
ED
102
{ACAD_REACTORS
330
C
102
}
330
C
100
AcDbDictionary
281
     1
  0
DICTIONARY
  5
17
102
{ACAD_REACTORS
330
C
102
}
330
C
100
AcDbDictionary
281
     1
  3
Standard
350
18
  0
DICTIONARY
  5
19
102
{ACAD_REACTORS
330
C
102
}
330
C
100
AcDbDictionary
281
     1
  0
ACDBDICTIONARYWDFLT
  5
E
102
{ACAD_REACTORS
330
C
102
}
330
C
100
AcDbDictionary
281
     1
  3
Normal
350
F
100
AcDbDictionaryWithDefault
340
F
  0
DICTIONARY
  5
EC
102
{ACAD_REACTORS
330
C
102
}
330
C
100
AcDbDictionary
281
     1
  0
DICTIONARY
  5
2A
102
{ACAD_REACTORS
330
C
102
}
330
C
100
AcDbDictionary
281
     1
  3
2dWireframe
350
2F
  3
3D Hidden
350
31
  3
3dWireframe
350
30
  3
Basic
350
32
  3
Brighten
350
36
  3
ColorChange
350
3A
  3
Conceptual
350
34
  3
Dim
350
35
  3
Facepattern
350
39
  3
Flat
350
2B
  3
FlatWithEdges
350
2C
  3
Gouraud
350
2D
  3
GouraudWithEdges
350
2E
  3
Linepattern
350
38
  3
Realistic
350
33
  3
Thicken
350
37
  0
LAYOUT
  5
1E
102
{ACAD_REACTORS
330
1A
102
}
330
1A
100
AcDbPlotSettings
  1

  2
none_device
  4

  6

 40
0.0
 41
0.0
 42
0.0
 43
0.0
 44
0.0
 45
0.0
 46
0.0
 47
0.0
 48
0.0
 49
0.0
140
0.0
141
0.0
142
1.0
143
1.0
 70
   688
 72
     0
 73
     0
 74
     5
  7

 75
    16
 76
     0
 77
     2
 78
   300
147
1.0
148
0.0
149
0.0
100
AcDbLayout
  1
Layout1
 70
     1
 71
     1
 10
0.0
 20
0.0
 11
12.0
 21
9.0
 12
0.0
 22
0.0
 32
0.0
 14
1.000000000000000E+20
 24
1.000000000000000E+20
 34
1.000000000000000E+20
 15
-1.000000000000000E+20
 25
-1.000000000000000E+20
 35
-1.000000000000000E+20
146
0.0
 13
0.0
 23
0.0
 33
0.0
 16
1.0
 26
0.0
 36
0.0
 17
0.0
 27
1.0
 37
0.0
 76
     0
330
1B
  0
LAYOUT
  5
26
102
{ACAD_REACTORS
330
1A
102
}
330
1A
100
AcDbPlotSettings
  1

  2
none_device
  4

  6

 40
0.0
 41
0.0
 42
0.0
 43
0.0
 44
0.0
 45
0.0
 46
0.0
 47
0.0
 48
0.0
 49
0.0
140
0.0
141
0.0
142
1.0
143
1.0
 70
   688
 72
     0
 73
     0
 74
     5
  7

 75
    16
 76
     0
 77
     2
 78
   300
147
1.0
148
0.0
149
0.0
100
AcDbLayout
  1
Layout2
 70
     1
 71
     2
 10
0.0
 20
0.0
 11
0.0
 21
0.0
 12
0.0
 22
0.0
 32
0.0
 14
0.0
 24
0.0
 34
0.0
 15
0.0
 25
0.0
 35
0.0
146
0.0
 13
0.0
 23
0.0
 33
0.0
 16
1.0
 26
0.0
 36
0.0
 17
0.0
 27
1.0
 37
0.0
 76
     0
330
23
  0
LAYOUT
  5
22
102
{ACAD_REACTORS
330
1A
102
}
330
1A
100
AcDbPlotSettings
  1

  2
none_device
  4

  6

 40
0.0
 41
0.0
 42
0.0
 43
0.0
 44
0.0
 45
0.0
 46
0.0
 47
0.0
 48
0.0
 49
0.0
140
0.0
141
0.0
142
1.0
143
1.0
 70
  1712
 72
     0
 73
     0
 74
     0
  7

 75
     0
 76
     0
 77
     2
 78
   300
147
1.0
148
0.0
149
0.0
100
AcDbLayout
  1
Model
 70
     1
 71
     0
 10
0.0
 20
0.0
 11
12.0
 21
9.0
 12
0.0
 22
0.0
 32
0.0
 14
1.000000000000000E+20
 24
1.000000000000000E+20
 34
1.000000000000000E+20
 15
-1.000000000000000E+20
 25
-1.000000000000000E+20
 35
-1.000000000000000E+20
146
0.0
 13
0.0
 23
0.0
 33
0.0
 16
1.0
 26
0.0
 36
0.0
 17
0.0
 27
1.0
 37
0.0
 76
     0
330
1F
331
29
  0
MATERIAL
  5
3D
102
{ACAD_REACTORS
330
3B
102
}
330
3B
100
AcDbMaterial
  1
ByBlock
 72
     1
 94
      127
  0
MATERIAL
  5
3C
102
{ACAD_REACTORS
330
3B
102
}
330
3B
100
AcDbMaterial
  1
ByLayer
 72
     1
 94
      127
  0
MATERIAL
  5
3E
102
{ACAD_REACTORS
330
3B
102
}
330
3B
100
AcDbMaterial
  1
Global
 72
     1
 94
      127
  0
MLINESTYLE
  5
18
102
{ACAD_REACTORS
330
17
102
}
330
17
100
AcDbMlineStyle
  2
Standard
 70
     0
  3

 62
   256
 51
90.0
 52
90.0
 71
     2
 49
0.5
 62
   256
  6
BYLAYER
 49
-0.5
 62
   256
  6
BYLAYER
  0
ACDBPLACEHOLDER
  5
F
102
{ACAD_REACTORS
330
E
102
}
330
E
  0
VISUALSTYLE
  5
2F
102
{ACAD_REACTORS
330
2A
102
}
330
2A
100
AcDbVisualStyle
  2
2dWireframe
 70
     4
177
     2
291
     0
 71
     0
176
     1
 72
     2
176
     1
 73
     0
176
     1
 90
        0
176
     1
 40
-0.6
176
     1
 41
-30.0
176
     1
 62
     5
 63
     7
421
 16777215
176
     1
 74
     1
176
     1
 91
        4
176
     1
 64
     7
176
     1
 65
   257
176
     1
 75
     1
176
     1
175
     1
176
     1
 42
1.0
176
     1
 92
        0
176
     1
 66
   257
176
     1
 43
1.0
176
     1
 76
     1
176
     1
 77
     6
176
     1
 78
     2
176
     1
 67
     7
176
     1
 79
     5
176
     1
170
     0
176
     1
171
     0
176
     1
290
     0
176
     1
 93
        1
176
     1
 44
0.0
176
     1
173
     0
176
     1
  0
VISUALSTYLE
  5
31
102
{ACAD_REACTORS
330
2A
102
}
330
2A
100
AcDbVisualStyle
  2
3D Hidden
 70
     6
177
     2
291
     0
 71
     1
176
     1
 72
     2
176
     1
 73
     2
176
     1
 90
        0
176
     1
 40
-0.6
176
     1
 41
-30.0
176
     1
 62
     5
 63
     7
421
 16777215
176
     1
 74
     2
176
     1
 91
        2
176
     1
 64
     7
176
     1
 65
   257
176
     1
 75
     2
176
     1
175
     1
176
     1
 42
40.0
176
     1
 92
        0
176
     1
 66
   257
176
     1
 43
1.0
176
     1
 76
     1
176
     1
 77
     6
176
     1
 78
     2
176
     1
 67
     7
176
     1
 79
     3
176
     1
170
     0
176
     1
171
     0
176
     1
290
     0
176
     1
 93
        1
176
     1
 44
0.0
176
     1
173
     0
176
     1
  0
VISUALSTYLE
  5
30
102
{ACAD_REACTORS
330
2A
102
}
330
2A
100
AcDbVisualStyle
  2
3dWireframe
 70
     5
177
     2
291
     0
 71
     0
176
     1
 72
     2
176
     1
 73
     0
176
     1
 90
        0
176
     1
 40
-0.6
176
     1
 41
-30.0
176
     1
 62
     5
 63
     7
421
 16777215
176
     1
 74
     1
176
     1
 91
        4
176
     1
 64
     7
176
     1
 65
   257
176
     1
 75
     1
176
     1
175
     1
176
     1
 42
1.0
176
     1
 92
        0
176
     1
 66
   257
176
     1
 43
1.0
176
     1
 76
     1
176
     1
 77
     6
176
     1
 78
     2
176
     1
 67
     7
176
     1
 79
     5
176
     1
170
     0
176
     1
171
     0
176
     1
290
     0
176
     1
 93
        1
176
     1
 44
0.0
176
     1
173
     0
176
     1
  0
VISUALSTYLE
  5
32
102
{ACAD_REACTORS
330
2A
102
}
330
2A
100
AcDbVisualStyle
  2
Basic
 70
     7
177
     2
291
     1
 71
     1
176
     1
 72
     0
176
     1
 73
     1
176
     1
 90
        0
176
     1
 40
-0.6
176
     1
 41
-30.0
176
     1
 62
     5
 63
     7
421
 16777215
176
     1
 74
     0
176
     1
 91
        4
176
     1
 64
     7
176
     1
 65
   257
176
     1
 75
     1
176
     1
175
     1
176
     1
 42
1.0
176
     1
 92
        8
176
     1
 66
     7
176
     1
 43
1.0
176
     1
 76
     1
176
     1
 77
     6
176
     1
 78
     2
176
     1
 67
     7
176
     1
 79
     5
176
     1
170
     0
176
     1
171
     0
176
     1
290
     0
176
     1
 93
        1
176
     1
 44
0.0
176
     1
173
     0
176
     1
  0
VISUALSTYLE
  5
36
102
{ACAD_REACTORS
330
2A
102
}
330
2A
100
AcDbVisualStyle
  2
Brighten
 70
    12
177
     2
291
     1
 71
     2
176
     1
 72
     2
176
     1
 73
     0
176
     1
 90
        0
176
     1
 40
-0.6
176
     1
 41
-30.0
176
     1
 62
     5
 63
     7
421
 16777215
176
     1
 74
     1
176
     1
 91
        4
176
     1
 64
     7
176
     1
 65
   257
176
     1
 75
     1
176
     1
175
     1
176
     1
 42
1.0
176
     1
 92
        8
176
     1
 66
     7
176
     1
 43
1.0
176
     1
 76
     1
176
     1
 77
     6
176
     1
 78
     2
176
     1
 67
     7
176
     1
 79
     5
176
     1
170
     0
176
     1
171
     0
176
     1
290
     0
176
     1
 93
        1
176
     1
 44
50.0
176
     1
173
     0
176
     1
  0
VISUALSTYLE
  5
3A
102
{ACAD_REACTORS
330
2A
102
}
330
2A
100
AcDbVisualStyle
  2
ColorChange
 70
    16
177
     2
291
     1
 71
     2
176
     1
 72
     2
176
     1
 73
     3
176
     1
 90
        0
176
     1
 40
-0.6
176
     1
 41
-30.0
176
     1
 62
     5
 63
     8
421
  8421504
176
     1
 74
     1
176
     1
 91
        4
176
     1
 64
     7
176
     1
 65
   257
176
     1
 75
     1
176
     1
175
     1
176
     1
 42
1.0
176
     1
 92
        8
176
     1
 66
     8
424
  8421504
176
     1
 43
1.0
176
     1
 76
     1
176
     1
 77
     6
176
     1
 78
     2
176
     1
 67
     7
176
     1
 79
     5
176
     1
170
     0
176
     1
171
     0
176
     1
290
     0
176
     1
 93
        1
176
     1
 44
0.0
176
     1
173
     0
176
     1
  0
VISUALSTYLE
  5
34
102
{ACAD_REACTORS
330
2A
102
}
330
2A
100
AcDbVisualStyle
  2
Conceptual
 70
     9
177
     2
291
     0
 71
     3
176
     1
 72
     2
176
     1
 73
     0
176
     1
 90
        0
176
     1
 40
-0.6
176
     1
 41
-30.0
176
     1
 62
     5
 63
     7
421
 16777215
176
     1
 74
     2
176
     1
 91
        2
176
     1
 64
     7
176
     1
 65
   257
176
     1
 75
     1
176
     1
175
     1
176
     1
 42
40.0
176
     1
 92
        8
176
     1
 66
     7
176
     1
 43
1.0
176
     1
 76
     1
176
     1
 77
     6
176
     1
 78
     2
176
     1
 67
     7
176
     1
 79
     3
176
     1
170
     0
176
     1
171
     0
176
     1
290
     0
176
     1
 93
        1
176
     1
 44
0.0
176
     1
173
     0
176
     1
  0
VISUALSTYLE
  5
35
102
{ACAD_REACTORS
330
2A
102
}
330
2A
100
AcDbVisualStyle
  2
Dim
 70
    11
177
     2
291
     1
 71
     2
176
     1
 72
     2
176
     1
 73
     0
176
     1
 90
        0
176
     1
 40
-0.6
176
     1
 41
-30.0
176
     1
 62
     5
 63
     7
421
 16777215
176
     1
 74
     1
176
     1
 91
        4
176
     1
 64
     7
176
     1
 65
   257
176
     1
 75
     1
176
     1
175
     1
176
     1
 42
1.0
176
     1
 92
        8
176
     1
 66
     7
176
     1
 43
1.0
176
     1
 76
     1
176
     1
 77
     6
176
     1
 78
     2
176
     1
 67
     7
176
     1
 79
     5
176
     1
170
     0
176
     1
171
     0
176
     1
290
     0
176
     1
 93
        1
176
     1
 44
-50.0
176
     1
173
     0
176
     1
  0
VISUALSTYLE
  5
39
102
{ACAD_REACTORS
330
2A
102
}
330
2A
100
AcDbVisualStyle
  2
Facepattern
 70
    15
177
     2
291
     1
 71
     2
176
     1
 72
     2
176
     1
 73
     0
176
     1
 90
        0
176
     1
 40
-0.6
176
     1
 41
-30.0
176
     1
 62
     5
 63
     7
421
 16777215
176
     1
 74
     1
176
     1
 91
        4
176
     1
 64
     7
176
     1
 65
   257
176
     1
 75
     1
176
     1
175
     1
176
     1
 42
1.0
176
     1
 92
        8
176
     1
 66
     7
176
     1
 43
1.0
176
     1
 76
     1
176
     1
 77
     6
176
     1
 78
     2
176
     1
 67
     7
176
     1
 79
     5
176
     1
170
     0
176
     1
171
     0
176
     1
290
     0
176
     1
 93
        1
176
     1
 44
0.0
176
     1
173
     0
176
     1
  0
VISUALSTYLE
  5
2B
102
{ACAD_REACTORS
330
2A
102
}
330
2A
100
AcDbVisualStyle
  2
Flat
 70
     0
177
     2
291
     1
 71
     2
176
     1
 72
     1
176
     1
 73
     1
176
     1
 90
        2
176
     1
 40
-0.6
176
     1
 41
30.0
176
     1
 62
     5
 63
     7
421
 16777215
176
     1
 74
     0
176
     1
 91
        4
176
     1
 64
     7
176
     1
 65
   257
176
     1
 75
     1
176
     1
175
     1
176
     1
 42
1.0
176
     1
 92
        8
176
     1
 66
     7
176
     1
 43
1.0
176
     1
 76
     1
176
     1
 77
     6
176
     1
 78
     2
176
     1
 67
     7
176
     1
 79
     5
176
     1
170
     0
176
     1
171
     0
176
     1
290
     0
176
     1
 93
       13
176
     1
 44
0.0
176
     1
173
     0
176
     1
  0
VISUALSTYLE
  5
2C
102
{ACAD_REACTORS
330
2A
102
}
330
2A
100
AcDbVisualStyle
  2
FlatWithEdges
 70
     1
177
     2
291
     1
 71
     2
176
     1
 72
     1
176
     1
 73
     1
176
     1
 90
        2
176
     1
 40
-0.6
176
     1
 41
30.0
176
     1
 62
     5
 63
     7
421
 16777215
176
     1
 74
     1
176
     1
 91
        4
176
     1
 64
     7
176
     1
 65
   257
176
     1
 75
     1
176
     1
175
     1
176
     1
 42
1.0
176
     1
 92
        0
176
     1
 66
   257
176
     1
 43
1.0
176
     1
 76
     1
176
     1
 77
     6
176
     1
 78
     2
176
     1
 67
     7
176
     1
 79
     5
176
     1
170
     0
176
     1
171
     0
176
     1
290
     0
176
     1
 93
       13
176
     1
 44
0.0
176
     1
173
     0
176
     1
  0
VISUALSTYLE
  5
2D
102
{ACAD_REACTORS
330
2A
102
}
330
2A
100
AcDbVisualStyle
  2
Gouraud
 70
     2
177
     2
291
     1
 71
     2
176
     1
 72
     2
176
     1
 73
     1
176
     1
 90
        2
176
     1
 40
-0.6
176
     1
 41
30.0
176
     1
 62
     5
 63
     7
421
 16777215
176
     1
 74
     0
176
     1
 91
        4
176
     1
 64
     7
176
     1
 65
   257
176
     1
 75
     1
176
     1
175
     1
176
     1
 42
1.0
176
     1
 92
        0
176
     1
 66
     7
176
     1
 43
1.0
176
     1
 76
     1
176
     1
 77
     6
176
     1
 78
     2
176
     1
 67
     7
176
     1
 79
     5
176
     1
170
     0
176
     1
171
     0
176
     1
290
     0
176
     1
 93
       13
176
     1
 44
0.0
176
     1
173
     0
176
     1
  0
VISUALSTYLE
  5
2E
102
{ACAD_REACTORS
330
2A
102
}
330
2A
100
AcDbVisualStyle
  2
GouraudWithEdges
 70
     3
177
     2
291
     1
 71
     2
176
     1
 72
     2
176
     1
 73
     1
176
     1
 90
        2
176
     1
 40
-0.6
176
     1
 41
30.0
176
     1
 62
     5
 63
     7
421
 16777215
176
     1
 74
     1
176
     1
 91
        4
176
     1
 64
     7
176
     1
 65
   257
176
     1
 75
     1
176
     1
175
     1
176
     1
 42
1.0
176
     1
 92
        0
176
     1
 66
   257
176
     1
 43
1.0
176
     1
 76
     1
176
     1
 77
     6
176
     1
 78
     2
176
     1
 67
     7
176
     1
 79
     5
176
     1
170
     0
176
     1
171
     0
176
     1
290
     0
176
     1
 93
       13
176
     1
 44
0.0
176
     1
173
     0
176
     1
  0
VISUALSTYLE
  5
38
102
{ACAD_REACTORS
330
2A
102
}
330
2A
100
AcDbVisualStyle
  2
Linepattern
 70
    14
177
     2
291
     1
 71
     2
176
     1
 72
     2
176
     1
 73
     0
176
     1
 90
        0
176
     1
 40
-0.6
176
     1
 41
-30.0
176
     1
 62
     5
 63
     7
421
 16777215
176
     1
 74
     1
176
     1
 91
        4
176
     1
 64
     7
176
     1
 65
   257
176
     1
 75
     7
176
     1
175
     7
176
     1
 42
1.0
176
     1
 92
        8
176
     1
 66
     7
176
     1
 43
1.0
176
     1
 76
     1
176
     1
 77
     6
176
     1
 78
     2
176
     1
 67
     7
176
     1
 79
     5
176
     1
170
     0
176
     1
171
     0
176
     1
290
     0
176
     1
 93
        1
176
     1
 44
0.0
176
     1
173
     0
176
     1
  0
VISUALSTYLE
  5
33
102
{ACAD_REACTORS
330
2A
102
}
330
2A
100
AcDbVisualStyle
  2
Realistic
 70
     8
177
     2
291
     0
 71
     2
176
     1
 72
     2
176
     1
 73
     0
176
     1
 90
        0
176
     1
 40
-0.6
176
     1
 41
-30.0
176
     1
 62
     5
 63
     7
421
 16777215
176
     1
 74
     1
176
     1
 91
        0
176
     1
 64
     7
176
     1
 65
   257
176
     1
 75
     1
176
     1
175
     1
176
     1
 42
1.0
176
     1
 92
        8
176
     1
 66
     8
424
  7895160
176
     1
 43
1.0
176
     1
 76
     1
176
     1
 77
     6
176
     1
 78
     2
176
     1
 67
     7
176
     1
 79
     5
176
     1
170
     0
176
     1
171
     0
176
     1
290
     0
176
     1
 93
       13
176
     1
 44
0.0
176
     1
173
     0
176
     1
  0
VISUALSTYLE
  5
37
102
{ACAD_REACTORS
330
2A
102
}
330
2A
100
AcDbVisualStyle
  2
Thicken
 70
    13
177
     2
291
     1
 71
     2
176
     1
 72
     2
176
     1
 73
     0
176
     1
 90
        0
176
     1
 40
-0.6
176
     1
 41
-30.0
176
     1
 62
     5
 63
     7
421
 16777215
176
     1
 74
     1
176
     1
 91
        4
176
     1
 64
     7
176
     1
 65
   257
176
     1
 75
     1
176
     1
175
     1
176
     1
 42
1.0
176
     1
 92
       12
176
     1
 66
     7
176
     1
 43
1.0
176
     1
 76
     1
176
     1
 77
     6
176
     1
 78
     2
176
     1
 67
     7
176
     1
 79
     5
176
     1
170
     0
176
     1
171
     0
176
     1
290
     0
176
     1
 93
        1
176
     1
 44
0.0
176
     1
173
     0
176
     1
  0
ENDSEC
  0
EOF
