  0
SECTION
  2
HEADER
  9
$ACADVER
  1
AC1024
  9
$ACADMAINTVER
 70
     6
  9
$DWGCODEPAGE
  3
UNDEFINED
  9
$INSBASE
 10
0.0
 20
0.0
 30
0.0
  9
$EXTMIN
 10
1.000000000000000E+20
 20
1.000000000000000E+20
 30
1.000000000000000E+20
  9
$EXTMAX
 10
-1.000000000000000E+20
 20
-1.000000000000000E+20
 30
-1.000000000000000E+20
  9
$LIMMIN
 10
0.0
 20
0.0
  9
$LIMMAX
 10
12.0
 20
9.0
  9
$ORTHOMODE
 70
     0
  9
$REGENMODE
 70
     1
  9
$FILLMODE
 70
     1
  9
$QTEXTMODE
 70
     0
  9
$MIRRTEXT
 70
     1
  9
$LTSCALE
 40
1.0
  9
$ATTMODE
 70
     1
  9
$TEXTSIZE
 40
0.2
  9
$TRACEWID
 40
0.05
  9
$TEXTSTYLE
  7
Standard
  9
$CLAYER
  8
0
  9
$CELTYPE
  6
ByLayer
  9
$CECOLOR
 62
   256
  9
$CELTSCALE
 40
1.0
  9
$DISPSILH
 70
     0
  9
$DIMSCALE
 40
1.0
  9
$DIMASZ
 40
0.18
  9
$DIMEXO
 40
0.0625
  9
$DIMDLI
 40
0.38
  9
$DIMRND
 40
0.0
  9
$DIMDLE
 40
0.0
  9
$DIMEXE
 40
0.18
  9
$DIMTP
 40
0.0
  9
$DIMTM
 40
0.0
  9
$DIMTXT
 40
0.18
  9
$DIMCEN
 40
0.09
  9
$DIMTSZ
 40
0.0
  9
$DIMTOL
 70
     0
  9
$DIMLIM
 70
     0
  9
$DIMTIH
 70
     1
  9
$DIMTOH
 70
     1
  9
$DIMSE1
 70
     0
  9
$DIMSE2
 70
     0
  9
$DIMTAD
 70
     0
  9
$DIMZIN
 70
     0
  9
$DIMBLK
  1

  9
$DIMASO
 70
     1
  9
$DIMSHO
 70
     1
  9
$DIMPOST
  1

  9
$DIMAPOST
  1

  9
$DIMALT
 70
     0
  9
$DIMALTD
 70
     2
  9
$DIMALTF
 40
25.4
  9
$DIMLFAC
 40
1.0
  9
$DIMTOFL
 70
     0
  9
$DIMTVP
 40
0.0
  9
$DIMTIX
 70
     0
  9
$DIMSOXD
 70
     0
  9
$DIMSAH
 70
     0
  9
$DIMBLK1
  1

  9
$DIMBLK2
  1

  9
$DIMSTYLE
  2
Standard
  9
$DIMCLRD
 70
     0
  9
$DIMCLRE
 70
     0
  9
$DIMCLRT
 70
     0
  9
$DIMTFAC
 40
1.0
  9
$DIMGAP
 40
0.09
  9
$DIMJUST
 70
     0
  9
$DIMSD1
 70
     0
  9
$DIMSD2
 70
     0
  9
$DIMTOLJ
 70
     1
  9
$DIMTZIN
 70
     0
  9
$DIMALTZ
 70
     0
  9
$DIMALTTZ
 70
     0
  9
$DIMUPT
 70
     0
  9
$DIMDEC
 70
     4
  9
$DIMTDEC
 70
     4
  9
$DIMALTU
 70
     2
  9
$DIMALTTD
 70
     2
  9
$DIMTXSTY
  7
Standard
  9
$DIMAUNIT
 70
     0
  9
$DIMADEC
 70
     0
  9
$DIMALTRND
 40
0.0
  9
$DIMAZIN
 70
     0
  9
$DIMDSEP
 70
    46
  9
$DIMATFIT
 70
     3
  9
$DIMFRAC
 70
     0
  9
$DIMLDRBLK
  1

  9
$DIMLUNIT
 70
     2
  9
$DIMLWD
 70
    -2
  9
$DIMLWE
 70
    -2
  9
$DIMTMOVE
 70
     0
  9
$DIMFXL
 40
1.0
  9
$DIMFXLON
 70
     0
  9
$DIMJOGANG
 40
0.7853981633974483
  9
$DIMTFILL
 70
     0
  9
$DIMTFILLCLR
 70
     0
  9
$DIMARCSYM
 70
     0
  9
$DIMLTYPE
  6

  9
$DIMLTEX1
  6

  9
$DIMLTEX2
  6

  9
$DIMTXTDIRECTION
 70
     0
  9
$LUNITS
 70
     2
  9
$LUPREC
 70
     4
  9
$SKETCHINC
 40
0.1
  9
$FILLETRAD
 40
0.5
  9
$AUNITS
 70
     0
  9
$AUPREC
 70
     0
  9
$MENU
  1
.
  9
$ELEVATION
 40
0.0
  9
$PELEVATION
 40
0.0
  9
$THICKNESS
 40
0.0
  9
$LIMCHECK
 70
     0
  9
$CHAMFERA
 40
0.5
  9
$CHAMFERB
 40
0.5
  9
$CHAMFERC
 40
1.0
  9
$CHAMFERD
 40
0.0
  9
$SKPOLY
 70
     0
  9
$TDCREATE
 40
2458270.587025463
  9
$TDUCREATE
 40
2458270.212025463
  9
$TDUPDATE
 40
2458270.587025463
  9
$TDUUPDATE
 40
2458270.212025463
  9
$TDINDWG
 40
0.0000000116
  9
$TDUSRTIMER
 40
0.0000000116
  9
$USRTIMER
 70
     1
  9
$ANGBASE
 50
0.0
  9
$ANGDIR
 70
     0
  9
$PDMODE
 70
     0
  9
$PDSIZE
 40
0.0
  9
$PLINEWID
 40
0.0
  9
$SPLFRAME
 70
     0
  9
$SPLINETYPE
 70
     6
  9
$SPLINESEGS
 70
     8
  9
$HANDSEED
  5
EE
  9
$SURFTAB1
 70
     6
  9
$SURFTAB2
 70
     6
  9
$SURFTYPE
 70
     6
  9
$SURFU
 70
     6
  9
$SURFV
 70
     6
  9
$UCSBASE
  2

  9
$UCSNAME
  2

  9
$UCSORG
 10
0.0
 20
0.0
 30
0.0
  9
$UCSXDIR
 10
1.0
 20
0.0
 30
0.0
  9
$UCSYDIR
 10
0.0
 20
1.0
 30
0.0
  9
$UCSORTHOREF
  2

  9
$UCSORTHOVIEW
 70
     0
  9
$UCSORGTOP
 10
0.0
 20
0.0
 30
0.0
  9
$UCSORGBOTTOM
 10
0.0
 20
0.0
 30
0.0
  9
$UCSORGLEFT
 10
0.0
 20
0.0
 30
0.0
  9
$UCSORGRIGHT
 10
0.0
 20
0.0
 30
0.0
  9
$UCSORGFRONT
 10
0.0
 20
0.0
 30
0.0
  9
$UCSORGBACK
 10
0.0
 20
0.0
 30
0.0
  9
$PUCSBASE
  2

  9
$PUCSNAME
  2

  9
$PUCSORG
 10
0.0
 20
0.0
 30
0.0
  9
$PUCSXDIR
 10
1.0
 20
0.0
 30
0.0
  9
$PUCSYDIR
 10
0.0
 20
1.0
 30
0.0
  9
$PUCSORTHOREF
  2

  9
$PUCSORTHOVIEW
 70
     0
  9
$PUCSORGTOP
 10
0.0
 20
0.0
 30
0.0
  9
$PUCSORGBOTTOM
 10
0.0
 20
0.0
 30
0.0
  9
$PUCSORGLEFT
 10
0.0
 20
0.0
 30
0.0
  9
$PUCSORGRIGHT
 10
0.0
 20
0.0
 30
0.0
  9
$PUCSORGFRONT
 10
0.0
 20
0.0
 30
0.0
  9
$PUCSORGBACK
 10
0.0
 20
0.0
 30
0.0
  9
$USERI1
 70
     0
  9
$USERI2
 70
     0
  9
$USERI3
 70
     0
  9
$USERI4
 70
     0
  9
$USERI5
 70
     0
  9
$USERR1
 40
0.0
  9
$USERR2
 40
0.0
  9
$USERR3
 40
0.0
  9
$USERR4
 40
0.0
  9
$USERR5
 40
0.0
  9
$WORLDVIEW
 70
     1
  9
$SHADEDGE
 70
     3
  9
$SHADEDIF
 70
    70
  9
$TILEMODE
 70
     1
  9
$MAXACTVP
 70
    64
  9
$PINSBASE
 10
0.0
 20
0.0
 30
0.0
  9
$PLIMCHECK
 70
     0
  9
$PEXTMIN
 10
1.000000000000000E+20
 20
1.000000000000000E+20
 30
1.000000000000000E+20
  9
$PEXTMAX
 10
-1.000000000000000E+20
 20
-1.000000000000000E+20
 30
-1.000000000000000E+20
  9
$PLIMMIN
 10
0.0
 20
0.0
  9
$PLIMMAX
 10
12.0
 20
9.0
  9
$UNITMODE
 70
     0
  9
$VISRETAIN
 70
     1
  9
$PLINEGEN
 70
     0
  9
$PSLTSCALE
 70
     1
  9
$TREEDEPTH
 70
  3020
  9
$CMLSTYLE
  2
Standard
  9
$CMLJUST
 70
     0
  9
$CMLSCALE
 40
1.0
  9
$PROXYGRAPHICS
 70
     1
  9
$MEASUREMENT
 70
     0
  9
$CELWEIGHT
370
    -1
  9
$ENDCAPS
280
     0
  9
$JOINSTYLE
280
     0
  9
$LWDISPLAY
290
     1
  9
$INSUNITS
 70
     1
  9
$HYPERLINKBASE
  1

  9
$STYLESHEET
  1

  9
$XEDIT
290
     1
  9
$CEPSNTYPE
380
     0
  9
$PSTYLEMODE
290
     1
  9
$FINGERPRINTGUID
  2
{4E270957-664F-0197-FD68-57239A9E76DC}
  9
$VERSIONGUID
  2
{FAEB1C32-E019-11D5-929B-00C0DF256EC4}
  9
$EXTNAMES
290
     1
  9
$PSVPSCALE
 40
0.0
  9
$OLESTARTUP
290
     0
  9
$SORTENTS
280
   127
  9
$INDEXCTL
280
     0
  9
$HIDETEXT
280
     1
  9
$XCLIPFRAME
280
     2
  9
$HALOGAP
280
     0
  9
$OBSCOLOR
 70
   257
  9
$OBSLTYPE
280
     0
  9
$INTERSECTIONDISPLAY
280
     0
  9
$INTERSECTIONCOLOR
 70
   257
  9
$DIMASSOC
280
     2
  9
$PROJECTNAME
  1

  9
$CAMERADISPLAY
290
     0
  9
$LENSLENGTH
 40
50.0
  9
$CAMERAHEIGHT
 40
0.0
  9
$STEPSPERSEC
 40
2.0
  9
$STEPSIZE
 40
6.0
  9
$3DDWFPREC
 40
2.0
  9
$PSOLWIDTH
 40
0.25
  9
$PSOLHEIGHT
 40
4.0
  9
$LOFTANG1
 40
1.570796326794897
  9
$LOFTANG2
 40
1.570796326794897
  9
$LOFTMAG1
 40
0.0
  9
$LOFTMAG2
 40
0.0
  9
$LOFTPARAM
 70
     7
  9
$LOFTNORMALS
280
     1
  9
$LATITUDE
 40
37.795
  9
$LONGITUDE
 40
-122.394
  9
$NORTHDIRECTION
 40
0.0
  9
$TIMEZONE
 70
 -8000
  9
$LIGHTGLYPHDISPLAY
280
     1
  9
$TILEMODELIGHTSYNCH
280
     1
  9
$CMATERIAL
347
3C
  9
$SOLIDHIST
280
     1
  9
$SHOWHIST
280
     1
  9
$DWFFRAME
280
     2
  9
$DGNFRAME
280
     2
  9
$REALWORLDSCALE
290
     1
  9
$INTERFERECOLOR
 62
   256
  9
$CSHADOW
280
     0
  9
$SHADOWPLANELOCATION
 40
0.0
  0
ENDSEC
  0
SECTION
  2
CLASSES
  0
CLASS
  1
ACDBDICTIONARYWDFLT
  2
AcDbDictionaryWithDefault
  3
ObjectDBX Classes
 90
        0
 91
        4
280
     0
281
     0
  0
CLASS
  1
VISUALSTYLE
  2
AcDbVisualStyle
  3
ObjectDBX Classes
 90
     4095
 91
        4
280
     0
281
     0
  0
CLASS
  1
MATERIAL
  2
AcDbMaterial
  3
ObjectDBX Classes
 90
     1153
 91
        4
280
     0
281
     0
  0
CLASS
  1
SUN
  2
AcDbSun
  3
SCENEOE
 90
     1024
 91
        4
280
     0
281
     0
  0
ENDSEC
  0
SECTION
  2
TABLES
  0
TABLE
  2
VPORT
  5
8
330
0
100
AcDbSymbolTable
 70
     1
  0
VPORT
  5
29
330
8
100
AcDbSymbolTableRecord
100
AcDbViewportTableRecord
  2
*Active
 70
     0
 10
0.0
 20
0.0
 11
1.0
 21
1.0
 12
0.0
 22
0.0
 13
0.0
 23
0.0
 14
0.5
 24
0.5
 15
0.5
 25
0.5
 16
0.0
 26
0.0
 36
1.0
 17
105.0007777515277
 27
-148.5000416295416
 37
0.0
 40
297.0000832590831
 41
0.7070757462376333
 42
50.0
 43
0.0
 44
0.0
 50
0.0
 51
0.0
 71
     0
 72
   100
 73
     1
 74
     3
 75
     0
 76
     0
 77
     0
 78
     0
281
     0
 65
     1
110
0.0
120
0.0
130
0.0
111
1.0
121
0.0
131
0.0
112
0.0
122
1.0
132
0.0
 79
     0
146
0.0
 60
     3
 61
     5
292
     1
282
     1
141
0.0
142
0.0
 63
   250
361
3F
  0
ENDTAB
  0
TABLE
  2
LTYPE
  5
5
330
0
100
AcDbSymbolTable
 70
     1
  0
LTYPE
  5
14
330
5
100
AcDbSymbolTableRecord
100
AcDbLinetypeTableRecord
  2
ByBlock
 70
     0
  3

 72
    65
 73
     0
 40
0.0
  0
LTYPE
  5
15
330
5
100
AcDbSymbolTableRecord
100
AcDbLinetypeTableRecord
  2
ByLayer
 70
     0
  3

 72
    65
 73
     0
 40
0.0
  0
LTYPE
  5
16
330
5
100
AcDbSymbolTableRecord
100
AcDbLinetypeTableRecord
  2
Continuous
 70
     0
  3
Solid line
 72
    65
 73
     0
 40
0.0
  0
ENDTAB
  0
TABLE
  2
LAYER
  5
2
330
0
100
AcDbSymbolTable
 70
     2
  0
LAYER
  5
10
330
2
100
AcDbSymbolTableRecord
100
AcDbLayerTableRecord
  2
0
 70
     0
 62
     7
  6
Continuous
370
    -3
390
F
347
3E
  0
LAYER
  5
40
330
2
100
AcDbSymbolTableRecord
100
AcDbLayerTableRecord
  2
_U+30EC_U+30A4_U+30E4_U+30FC 1
 70
     0
 62
     7
  6
Continuous
370
    -3
390
F
347
3E
  0
ENDTAB
  0
TABLE
  2
STYLE
  5
3
330
0
100
AcDbSymbolTable
 70
     1
  0
STYLE
  5
11
330
3
100
AcDbSymbolTableRecord
100
AcDbTextStyleTableRecord
  2
Standard
 70
     0
 40
0.0
 41
1.0
 50
0.0
 71
     0
 42
0.2
  3
txt
  4

  0
ENDTAB
  0
TABLE
  2
VIEW
  5
6
330
0
100
AcDbSymbolTable
 70
     0
  0
ENDTAB
  0
TABLE
  2
UCS
  5
7
330
0
100
AcDbSymbolTable
 70
     0
  0
ENDTAB
  0
TABLE
  2
APPID
  5
9
330
0
100
AcDbSymbolTable
 70
     1
  0
APPID
  5
12
330
9
100
AcDbSymbolTableRecord
100
AcDbRegAppTableRecord
  2
ACAD
 70
     0
  0
ENDTAB
  0
TABLE
  2
DIMSTYLE
  5
A
330
0
100
AcDbSymbolTable
 70
     1
100
AcDbDimStyleTable
  0
DIMSTYLE
105
27
330
A
100
AcDbSymbolTableRecord
100
AcDbDimStyleTableRecord
  2
Standard
 70
     0
178
     0
340
11
  0
ENDTAB
  0
TABLE
  2
BLOCK_RECORD
  5
1
330
0
100
AcDbSymbolTable
 70
     6
  0
BLOCK_RECORD
  5
1F
330
1
100
AcDbSymbolTableRecord
100
AcDbBlockTableRecord
  2
*Model_Space
340
22
 70
     0
280
     1
281
     0
  0
BLOCK_RECORD
  5
1B
330
1
100
AcDbSymbolTableRecord
100
AcDbBlockTableRecord
  2
*Paper_Space
340
1E
 70
     0
280
     1
281
     0
  0
BLOCK_RECORD
  5
23
330
1
100
AcDbSymbolTableRecord
100
AcDbBlockTableRecord
  2
*Paper_Space0
340
26
 70
     0
280
     1
281
     0
  0
BLOCK_RECORD
  5
81
330
1
100
AcDbSymbolTableRecord
100
AcDbBlockTableRecord
  2
block 2
340
0
102
{BLKREFS
331
82
102
}
 70
     0
280
     1
281
     0
  0
BLOCK_RECORD
  5
93
330
1
100
AcDbSymbolTableRecord
100
AcDbBlockTableRecord
  2
block 3
340
0
102
{BLKREFS
331
94
102
}
 70
     0
280
     1
281
     0
  0
BLOCK_RECORD
  5
A8
330
1
100
AcDbSymbolTableRecord
100
AcDbBlockTableRecord
  2
block 4
340
0
102
{BLKREFS
331
A9
102
}
 70
     0
280
     1
281
     0
  0
BLOCK_RECORD
  5
BE
330
1
100
AcDbSymbolTableRecord
100
AcDbBlockTableRecord
  2
block 5
340
0
102
{BLKREFS
331
BF
102
}
 70
     0
280
     1
281
     0
  0
BLOCK_RECORD
  5
DD
330
1
100
AcDbSymbolTableRecord
100
AcDbBlockTableRecord
  2
block 6
340
0
102
{BLKREFS
331
DE
102
}
 70
     0
280
     1
281
     0
  0
ENDTAB
  0
ENDSEC
  0
SECTION
  2
BLOCKS
  0
BLOCK
  5
20
330
1F
100
AcDbEntity
  8
0
100
AcDbBlockBegin
  2
*Model_Space
 70
     0
 10
0.0
 20
0.0
 30
0.0
  3
*Model_Space
  1

  0
ENDBLK
  5
21
330
1F
100
AcDbEntity
  8
0
100
AcDbBlockEnd
  0
BLOCK
  5
1C
330
1B
100
AcDbEntity
 67
     1
  8
0
100
AcDbBlockBegin
  2
*Paper_Space
 70
     0
 10
0.0
 20
0.0
 30
0.0
  3
*Paper_Space
  1

  0
ENDBLK
  5
1D
330
1B
100
AcDbEntity
 67
     1
  8
0
100
AcDbBlockEnd
  0
BLOCK
  5
24
330
23
100
AcDbEntity
  8
0
100
AcDbBlockBegin
  2
*Paper_Space0
 70
     0
 10
0.0
 20
0.0
 30
0.0
  3
*Paper_Space0
  1

  0
ENDBLK
  5
25
330
23
100
AcDbEntity
  8
0
100
AcDbBlockEnd
  0
BLOCK
  5
83
330
81
100
AcDbEntity
  8
0
100
AcDbBlockBegin
  2
block 2
 70
     0
 10
0.0
 20
0.0
 30
0.0
  3
block 2
  1

  0
SPLINE
  5
85
330
81
100
AcDbEntity
  8
_U+30EC_U+30A4_U+30E4_U+30FC 1
370
     0
100
AcDbSpline
210
0.0
220
0.0
230
1.0
 70
    11
 71
     3
 72
    62
 73
    58
 74
     0
 42
0.0000000001
 43
0.0000000001
 12
1.0
 22
0.0
 32
0.0
 13
1.0
 23
0.0
 33
0.0
 40
0.0
 40
0.0
 40
0.0
 40
0.0
 40
1.0
 40
1.0
 40
1.0
 40
2.0
 40
2.0
 40
2.0
 40
3.0
 40
3.0
 40
3.0
 40
4.0
 40
4.0
 40
4.0
 40
5.0
 40
5.0
 40
5.0
 40
6.0
 40
6.0
 40
6.0
 40
7.0
 40
7.0
 40
7.0
 40
8.0
 40
8.0
 40
8.0
 40
9.0
 40
9.0
 40
9.0
 40
10.0
 40
10.0
 40
10.0
 40
11.0
 40
11.0
 40
11.0
 40
12.0
 40
12.0
 40
12.0
 40
13.0
 40
13.0
 40
13.0
 40
14.0
 40
14.0
 40
14.0
 40
15.0
 40
15.0
 40
15.0
 40
16.0
 40
16.0
 40
16.0
 40
17.0
 40
17.0
 40
17.0
 40
18.0
 40
18.0
 40
18.0
 40
19.0
 40
19.0
 40
19.0
 40
19.0
 10
110.473532415958
 20
-157.1397623305067
 30
0.0
 10
110.473532415958
 20
-157.2410481377731
 30
0.0
 10
110.452517333498
 20
-157.473936592576
 30
0.0
 10
110.2664821772945
 20
-157.6076062974037
 30
0.0
 10
110.1541720644753
 20
-157.6868434935644
 30
0.0
 10
110.0549533145002
 20
-157.6909776081467
 30
0.0
 10
109.970203965563
 20
-157.695800741826
 30
0.0
 10
109.970203965563
 20
-157.695800741826
 30
0.0
 10
109.970203965563
 20
-157.4605007201835
 30
0.0
 10
109.970203965563
 20
-157.4605007201835
 30
0.0
 10
110.0442735184959
 20
-157.4580891533438
 30
0.0
 10
110.2788845210414
 20
-157.447064847791
 30
0.0
 10
110.2788845210414
 20
-157.143896445089
 30
0.0
 10
110.2788845210414
 20
-156.9971353774174
 30
0.0
 10
110.2092935922393
 20
-156.8345268705136
 30
0.0
 10
109.9808837615673
 20
-156.8345268705136
 30
0.0
 10
109.8644395341658
 20
-156.8345268705136
 30
0.0
 10
109.8158636878238
 20
-156.8751789972395
 30
0.0
 10
109.7841688093595
 20
-156.908940932995
 30
0.0
 10
109.7100992564266
 20
-156.9881781291557
 30
0.0
 10
109.6973524031312
 20
-157.1122015666247
 30
0.0
 10
109.6973524031312
 20
-157.1711126994225
 30
0.0
 10
109.6973524031312
 20
-157.1914387627855
 30
0.0
 10
109.6994194604224
 20
-157.2300238322203
 30
0.0
 10
109.7035535750047
 20
-157.2593071438449
 30
0.0
 10
109.7035535750047
 20
-157.2593071438449
 30
0.0
 10
109.5089056800881
 20
-157.2593071438449
 30
0.0
 10
109.5089056800881
 20
-157.2593071438449
 30
0.0
 10
109.51545136151
 20
-157.2186550171189
 30
0.0
 10
109.5175184188012
 20
-157.1735242662622
 30
0.0
 10
109.5175184188012
 20
-157.1666340752917
 30
0.0
 10
109.5175184188012
 20
-157.0963541273926
 30
0.0
 10
109.4961588267926
 20
-156.8841362455012
 30
0.0
 10
109.259480766956
 20
-156.8841362455012
 30
0.0
 10
109.0817138399171
 20
-156.8841362455012
 30
0.0
 10
109.0265923121531
 20
-157.0240071222023
 30
0.0
 10
109.0265923121531
 20
-157.1418293877979
 30
0.0
 10
109.0265923121531
 20
-157.4243272175884
 30
0.0
 10
109.259480766956
 20
-157.43328446585
 30
0.0
 10
109.3311387530492
 20
-157.4381075995294
 30
0.0
 10
109.3311387530492
 20
-157.4381075995294
 30
0.0
 10
109.3311387530492
 20
-157.6551486151001
 30
0.0
 10
109.3311387530492
 20
-157.6551486151001
 30
0.0
 10
109.2064262964831
 20
-157.6461913668385
 30
0.0
 10
108.8298773599453
 20
-157.6165635456653
 30
0.0
 10
108.8298773599453
 20
-157.1280490058569
 30
0.0
 10
108.8298773599453
 20
-156.888614869632
 30
0.0
 10
108.957001383351
 20
-156.6309217273353
 30
0.0
 10
109.252935085534
 20
-156.6309217273353
 30
0.0
 10
109.439314751286
 20
-156.6309217273353
 30
0.0
 10
109.5216525333835
 20
-156.7325520441502
 30
0.0
 10
109.5829752330209
 20
-156.8386609850959
 30
0.0
 10
109.6105359969029
 20
-156.7732041708761
 30
0.0
 10
109.6908067217093
 20
-156.5789007855081
 30
0.0
 10
109.9681369082719
 20
-156.5789007855081
 30
0.0
 10
110.3064452849234
 20
-156.5789007855081
 30
0.0
 10
110.473532415958
 20
-156.8434841187753
 30
0.0
 10
110.473532415958
 20
-157.1397623305067
 30
0.0
  0
HATCH
  5
86
330
81
100
AcDbEntity
  8
_U+30EC_U+30A4_U+30E4_U+30FC 1
 62
   179
420
  2234388
100
AcDbHatch
 10
0.0
 20
0.0
 30
0.0
210
0.0
220
0.0
230
1.0
  2
SOLID
 70
     1
 71
     0
 91
        1
 92
        1
 93
        1
 72
     4
 94
        3
 73
     0
 74
     1
 95
       62
 96
       58
 40
0.0
 40
0.0
 40
0.0
 40
0.0
 40
1.0
 40
1.0
 40
1.0
 40
2.0
 40
2.0
 40
2.0
 40
3.0
 40
3.0
 40
3.0
 40
4.0
 40
4.0
 40
4.0
 40
5.0
 40
5.0
 40
5.0
 40
6.0
 40
6.0
 40
6.0
 40
7.0
 40
7.0
 40
7.0
 40
8.0
 40
8.0
 40
8.0
 40
9.0
 40
9.0
 40
9.0
 40
10.0
 40
10.0
 40
10.0
 40
11.0
 40
11.0
 40
11.0
 40
12.0
 40
12.0
 40
12.0
 40
13.0
 40
13.0
 40
13.0
 40
14.0
 40
14.0
 40
14.0
 40
15.0
 40
15.0
 40
15.0
 40
16.0
 40
16.0
 40
16.0
 40
17.0
 40
17.0
 40
17.0
 40
18.0
 40
18.0
 40
18.0
 40
19.0
 40
19.0
 40
19.0
 40
19.0
 10
110.473532415958
 20
-157.1397623305067
 10
110.473532415958
 20
-157.2410481377731
 10
110.452517333498
 20
-157.473936592576
 10
110.2664821772945
 20
-157.6076062974037
 10
110.1541720644753
 20
-157.6868434935644
 10
110.0549533145002
 20
-157.6909776081467
 10
109.970203965563
 20
-157.695800741826
 10
109.970203965563
 20
-157.695800741826
 10
109.970203965563
 20
-157.4605007201835
 10
109.970203965563
 20
-157.4605007201835
 10
110.0442735184959
 20
-157.4580891533438
 10
110.2788845210414
 20
-157.447064847791
 10
110.2788845210414
 20
-157.143896445089
 10
110.2788845210414
 20
-156.9971353774174
 10
110.2092935922393
 20
-156.8345268705136
 10
109.9808837615673
 20
-156.8345268705136
 10
109.8644395341658
 20
-156.8345268705136
 10
109.8158636878238
 20
-156.8751789972395
 10
109.7841688093595
 20
-156.908940932995
 10
109.7100992564266
 20
-156.9881781291557
 10
109.6973524031312
 20
-157.1122015666247
 10
109.6973524031312
 20
-157.1711126994225
 10
109.6973524031312
 20
-157.1914387627855
 10
109.6994194604224
 20
-157.2300238322203
 10
109.7035535750047
 20
-157.2593071438449
 10
109.7035535750047
 20
-157.2593071438449
 10
109.5089056800881
 20
-157.2593071438449
 10
109.5089056800881
 20
-157.2593071438449
 10
109.51545136151
 20
-157.2186550171189
 10
109.5175184188012
 20
-157.1735242662622
 10
109.5175184188012
 20
-157.1666340752917
 10
109.5175184188012
 20
-157.0963541273926
 10
109.4961588267926
 20
-156.8841362455012
 10
109.259480766956
 20
-156.8841362455012
 10
109.0817138399171
 20
-156.8841362455012
 10
109.0265923121531
 20
-157.0240071222023
 10
109.0265923121531
 20
-157.1418293877979
 10
109.0265923121531
 20
-157.4243272175884
 10
109.259480766956
 20
-157.43328446585
 10
109.3311387530492
 20
-157.4381075995294
 10
109.3311387530492
 20
-157.4381075995294
 10
109.3311387530492
 20
-157.6551486151001
 10
109.3311387530492
 20
-157.6551486151001
 10
109.2064262964831
 20
-157.6461913668385
 10
108.8298773599453
 20
-157.6165635456653
 10
108.8298773599453
 20
-157.1280490058569
 10
108.8298773599453
 20
-156.888614869632
 10
108.957001383351
 20
-156.6309217273353
 10
109.252935085534
 20
-156.6309217273353
 10
109.439314751286
 20
-156.6309217273353
 10
109.5216525333835
 20
-156.7325520441502
 10
109.5829752330209
 20
-156.8386609850959
 10
109.6105359969029
 20
-156.7732041708761
 10
109.6908067217093
 20
-156.5789007855081
 10
109.9681369082719
 20
-156.5789007855081
 10
110.3064452849234
 20
-156.5789007855081
 10
110.473532415958
 20
-156.8434841187753
 10
110.473532415958
 20
-157.1397623305067
 97
        0
 97
        0
 75
     2
 76
     1
 98
        0
  0
ENDBLK
  5
84
330
81
100
AcDbEntity
  8
0
100
AcDbBlockEnd
  0
BLOCK
  5
95
330
93
100
AcDbEntity
  8
0
100
AcDbBlockBegin
  2
block 3
 70
     0
 10
0.0
 20
0.0
 30
0.0
  3
block 3
  1

  0
SPLINE
  5
97
330
93
100
AcDbEntity
  8
_U+30EC_U+30A4_U+30E4_U+30FC 1
370
     0
100
AcDbSpline
210
0.0
220
0.0
230
1.0
 70
    11
 71
     3
 72
    26
 73
    22
 74
     0
 42
0.0000000001
 43
0.0000000001
 12
1.0
 22
0.0
 32
0.0
 13
1.0
 23
0.0
 33
0.0
 40
0.0
 40
0.0
 40
0.0
 40
0.0
 40
1.0
 40
1.0
 40
1.0
 40
2.0
 40
2.0
 40
2.0
 40
3.0
 40
3.0
 40
3.0
 40
4.0
 40
4.0
 40
4.0
 40
5.0
 40
5.0
 40
5.0
 40
6.0
 40
6.0
 40
6.0
 40
7.0
 40
7.0
 40
7.0
 40
7.0
 10
102.093509902862
 20
-136.4800414697862
 30
0.0
 10
102.093509902862
 20
-136.4800414697862
 30
0.0
 10
102.093509902862
 20
-135.3758883667637
 30
0.0
 10
102.093509902862
 20
-135.3758883667637
 30
0.0
 10
102.093509902862
 20
-135.3758883667637
 30
0.0
 10
101.7407321251725
 20
-135.3758883667637
 30
0.0
 10
101.7407321251725
 20
-135.3758883667637
 30
0.0
 10
101.7407321251725
 20
-135.3758883667637
 30
0.0
 10
101.7407321251725
 20
-135.2277492608979
 30
0.0
 10
101.7407321251725
 20
-135.2277492608979
 30
0.0
 10
102.0957492149275
 20
-135.2129353503114
 30
0.0
 10
102.1455308446893
 20
-135.049982333859
 30
0.0
 10
102.1770534683794
 20
-134.9356051637487
 30
0.0
 10
102.1770534683794
 20
-134.9356051637487
 30
0.0
 10
102.3331162938612
 20
-134.9356051637487
 30
0.0
 10
102.3331162938612
 20
-134.9356051637487
 30
0.0
 10
102.3331162938612
 20
-134.9356051637487
 30
0.0
 10
102.3331162938612
 20
-136.4800414697862
 30
0.0
 10
102.3331162938612
 20
-136.4800414697862
 30
0.0
 10
102.3331162938612
 20
-136.4800414697862
 30
0.0
 10
102.093509902862
 20
-136.4800414697862
 30
0.0
 10
102.093509902862
 20
-136.4800414697862
 30
0.0
  0
HATCH
  5
98
330
93
100
AcDbEntity
  8
_U+30EC_U+30A4_U+30E4_U+30FC 1
 62
   179
420
  2234388
100
AcDbHatch
 10
0.0
 20
0.0
 30
0.0
210
0.0
220
0.0
230
1.0
  2
SOLID
 70
     1
 71
     0
 91
        1
 92
        1
 93
        1
 72
     4
 94
        3
 73
     0
 74
     1
 95
       26
 96
       22
 40
0.0
 40
0.0
 40
0.0
 40
0.0
 40
1.0
 40
1.0
 40
1.0
 40
2.0
 40
2.0
 40
2.0
 40
3.0
 40
3.0
 40
3.0
 40
4.0
 40
4.0
 40
4.0
 40
5.0
 40
5.0
 40
5.0
 40
6.0
 40
6.0
 40
6.0
 40
7.0
 40
7.0
 40
7.0
 40
7.0
 10
102.093509902862
 20
-136.4800414697862
 10
102.093509902862
 20
-136.4800414697862
 10
102.093509902862
 20
-135.3758883667637
 10
102.093509902862
 20
-135.3758883667637
 10
102.093509902862
 20
-135.3758883667637
 10
101.7407321251725
 20
-135.3758883667637
 10
101.7407321251725
 20
-135.3758883667637
 10
101.7407321251725
 20
-135.3758883667637
 10
101.7407321251725
 20
-135.2277492608979
 10
101.7407321251725
 20
-135.2277492608979
 10
102.0957492149275
 20
-135.2129353503114
 10
102.1455308446893
 20
-135.049982333859
 10
102.1770534683794
 20
-134.9356051637487
 10
102.1770534683794
 20
-134.9356051637487
 10
102.3331162938612
 20
-134.9356051637487
 10
102.3331162938612
 20
-134.9356051637487
 10
102.3331162938612
 20
-134.9356051637487
 10
102.3331162938612
 20
-136.4800414697862
 10
102.3331162938612
 20
-136.4800414697862
 10
102.3331162938612
 20
-136.4800414697862
 10
102.093509902862
 20
-136.4800414697862
 10
102.093509902862
 20
-136.4800414697862
 97
        0
 97
        0
 75
     2
 76
     1
 98
        0
  0
SPLINE
  5
99
330
93
100
AcDbEntity
  8
_U+30EC_U+30A4_U+30E4_U+30FC 1
370
     0
100
AcDbSpline
210
0.0
220
0.0
230
1.0
 70
    11
 71
     3
 72
    29
 73
    25
 74
     0
 42
0.0000000001
 43
0.0000000001
 12
1.0
 22
0.0
 32
0.0
 13
1.0
 23
0.0
 33
0.0
 40
0.0
 40
0.0
 40
0.0
 40
0.0
 40
1.0
 40
1.0
 40
1.0
 40
2.0
 40
2.0
 40
2.0
 40
3.0
 40
3.0
 40
3.0
 40
4.0
 40
4.0
 40
4.0
 40
5.0
 40
5.0
 40
5.0
 40
6.0
 40
6.0
 40
6.0
 40
7.0
 40
7.0
 40
7.0
 40
8.0
 40
8.0
 40
8.0
 40
8.0
 10
103.8282877344596
 20
-136.3022745427473
 30
0.0
 10
103.713049290478
 20
-136.5117363482505
 30
0.0
 10
103.5277031533715
 20
-136.5306843734194
 30
0.0
 10
103.403335206354
 20
-136.5306843734194
 30
0.0
 10
103.2314249416401
 20
-136.5306843734194
 30
0.0
 10
103.0800129950633
 20
-136.4841755843686
 30
0.0
 10
102.9782104234742
 20
-136.3022745427473
 30
0.0
 10
102.8674506036234
 20
-136.1076266478307
 30
0.0
 10
102.8471245402605
 20
-135.8706040784456
 30
0.0
 10
102.8471245402605
 20
-135.7079955715417
 30
0.0
 10
102.8471245402605
 20
-135.5639905802583
 30
0.0
 10
102.865211291558
 20
-135.3121541002866
 30
0.0
 10
102.9782104234742
 20
-135.1133720907876
 30
0.0
 10
103.0936211222301
 20
-134.9104559667064
 30
0.0
 10
103.2653591321698
 20
-134.8870293174067
 30
0.0
 10
103.403335206354
 20
-134.8870293174067
 30
0.0
 10
103.5728339042283
 20
-134.8870293174067
 30
0.0
 10
103.7266574176447
 20
-134.9314710491664
 30
0.0
 10
103.8282877344596
 20
-135.1133720907876
 30
0.0
 10
103.9345689301796
 20
-135.3059529284131
 30
0.0
 10
103.9595458724476
 20
-135.5343627590852
 30
0.0
 10
103.9595458724476
 20
-135.7079955715417
 30
0.0
 10
103.9595458724476
 20
-135.8792168171587
 30
0.0
 10
103.936808242245
 20
-136.1096937051219
 30
0.0
 10
103.8282877344596
 20
-136.3022745427473
 30
0.0
  0
SPLINE
  5
9A
330
93
100
AcDbEntity
  8
_U+30EC_U+30A4_U+30E4_U+30FC 1
370
     0
100
AcDbSpline
210
0.0
220
0.0
230
1.0
 70
    11
 71
     3
 72
    17
 73
    13
 74
     0
 42
0.0000000001
 43
0.0000000001
 12
1.0
 22
0.0
 32
0.0
 13
1.0
 23
0.0
 33
0.0
 40
0.0
 40
0.0
 40
0.0
 40
0.0
 40
1.0
 40
1.0
 40
1.0
 40
2.0
 40
2.0
 40
2.0
 40
3.0
 40
3.0
 40
3.0
 40
4.0
 40
4.0
 40
4.0
 40
4.0
 10
103.403335206354
 20
-135.0796101550322
 30
0.0
 10
103.1365125610214
 20
-135.0796101550322
 30
0.0
 10
103.0867309312596
 20
-135.3631415134682
 30
0.0
 10
103.0867309312596
 20
-135.7079955715417
 30
0.0
 10
103.0867309312596
 20
-136.0273559230244
 30
0.0
 10
103.1251437459201
 20
-136.3360364785028
 30
0.0
 10
103.403335206354
 20
-136.3360364785028
 30
0.0
 10
103.667746284847
 20
-136.3360364785028
 30
0.0
 10
103.7197672266742
 20
-136.0549166869064
 30
0.0
 10
103.7197672266742
 20
-135.7079955715417
 30
0.0
 10
103.7197672266742
 20
-135.3882907105106
 30
0.0
 10
103.6791150999483
 20
-135.0796101550322
 30
0.0
 10
103.403335206354
 20
-135.0796101550322
 30
0.0
  0
HATCH
  5
9B
330
93
100
AcDbEntity
  8
_U+30EC_U+30A4_U+30E4_U+30FC 1
 62
   179
420
  2234388
100
AcDbHatch
 10
0.0
 20
0.0
 30
0.0
210
0.0
220
0.0
230
1.0
  2
SOLID
 70
     1
 71
     0
 91
        2
 92
        1
 93
        1
 72
     4
 94
        3
 73
     0
 74
     1
 95
       29
 96
       25
 40
0.0
 40
0.0
 40
0.0
 40
0.0
 40
1.0
 40
1.0
 40
1.0
 40
2.0
 40
2.0
 40
2.0
 40
3.0
 40
3.0
 40
3.0
 40
4.0
 40
4.0
 40
4.0
 40
5.0
 40
5.0
 40
5.0
 40
6.0
 40
6.0
 40
6.0
 40
7.0
 40
7.0
 40
7.0
 40
8.0
 40
8.0
 40
8.0
 40
8.0
 10
103.8282877344596
 20
-136.3022745427473
 10
103.713049290478
 20
-136.5117363482505
 10
103.5277031533715
 20
-136.5306843734194
 10
103.403335206354
 20
-136.5306843734194
 10
103.2314249416401
 20
-136.5306843734194
 10
103.0800129950633
 20
-136.4841755843686
 10
102.9782104234742
 20
-136.3022745427473
 10
102.8674506036234
 20
-136.1076266478307
 10
102.8471245402605
 20
-135.8706040784456
 10
102.8471245402605
 20
-135.7079955715417
 10
102.8471245402605
 20
-135.5639905802583
 10
102.865211291558
 20
-135.3121541002866
 10
102.9782104234742
 20
-135.1133720907876
 10
103.0936211222301
 20
-134.9104559667064
 10
103.2653591321698
 20
-134.8870293174067
 10
103.403335206354
 20
-134.8870293174067
 10
103.5728339042283
 20
-134.8870293174067
 10
103.7266574176447
 20
-134.9314710491664
 10
103.8282877344596
 20
-135.1133720907876
 10
103.9345689301796
 20
-135.3059529284131
 10
103.9595458724476
 20
-135.5343627590852
 10
103.9595458724476
 20
-135.7079955715417
 10
103.9595458724476
 20
-135.8792168171587
 10
103.936808242245
 20
-136.1096937051219
 10
103.8282877344596
 20
-136.3022745427473
 97
        0
 97
        0
 92
        1
 93
        1
 72
     4
 94
        3
 73
     0
 74
     1
 95
       17
 96
       13
 40
0.0
 40
0.0
 40
0.0
 40
0.0
 40
1.0
 40
1.0
 40
1.0
 40
2.0
 40
2.0
 40
2.0
 40
3.0
 40
3.0
 40
3.0
 40
4.0
 40
4.0
 40
4.0
 40
4.0
 10
103.403335206354
 20
-135.0796101550322
 10
103.1365125610214
 20
-135.0796101550322
 10
103.0867309312596
 20
-135.3631415134682
 10
103.0867309312596
 20
-135.7079955715417
 10
103.0867309312596
 20
-136.0273559230244
 10
103.1251437459201
 20
-136.3360364785028
 10
103.403335206354
 20
-136.3360364785028
 10
103.667746284847
 20
-136.3360364785028
 10
103.7197672266742
 20
-136.0549166869064
 10
103.7197672266742
 20
-135.7079955715417
 10
103.7197672266742
 20
-135.3882907105106
 10
103.6791150999483
 20
-135.0796101550322
 10
103.403335206354
 20
-135.0796101550322
 97
        0
 97
        0
 75
     2
 76
     1
 98
        0
  0
ENDBLK
  5
96
330
93
100
AcDbEntity
  8
0
100
AcDbBlockEnd
  0
BLOCK
  5
AA
330
A8
100
AcDbEntity
  8
0
100
AcDbBlockBegin
  2
block 4
 70
     0
 10
0.0
 20
0.0
 30
0.0
  3
block 4
  1

  0
SPLINE
  5
AC
330
A8
100
AcDbEntity
  8
_U+30EC_U+30A4_U+30E4_U+30FC 1
370
     0
100
AcDbSpline
210
0.0
220
0.0
230
1.0
 70
    11
 71
     3
 72
    53
 73
    49
 74
     0
 42
0.0000000001
 43
0.0000000001
 12
1.0
 22
0.0
 32
0.0
 13
1.0
 23
0.0
 33
0.0
 40
0.0
 40
0.0
 40
0.0
 40
0.0
 40
1.0
 40
1.0
 40
1.0
 40
2.0
 40
2.0
 40
2.0
 40
3.0
 40
3.0
 40
3.0
 40
4.0
 40
4.0
 40
4.0
 40
5.0
 40
5.0
 40
5.0
 40
6.0
 40
6.0
 40
6.0
 40
7.0
 40
7.0
 40
7.0
 40
8.0
 40
8.0
 40
8.0
 40
9.0
 40
9.0
 40
9.0
 40
10.0
 40
10.0
 40
10.0
 40
11.0
 40
11.0
 40
11.0
 40
12.0
 40
12.0
 40
12.0
 40
13.0
 40
13.0
 40
13.0
 40
14.0
 40
14.0
 40
14.0
 40
15.0
 40
15.0
 40
15.0
 40
16.0
 40
16.0
 40
16.0
 40
16.0
 10
100.2538289137386
 20
-161.3303764787646
 30
0.0
 10
100.1701130934471
 20
-161.3303764787646
 30
0.0
 10
100.0615925856617
 20
-161.3134955108869
 30
0.0
 10
99.95307207787631
 20
-161.2501057539583
 30
0.0
 10
99.76772594076988
 20
-161.1402072079788
 30
0.0
 10
99.7451605653415
 20
-161.0089490699908
 30
0.0
 10
99.72466224720425
 20
-160.9011175813025
 30
0.0
 10
99.72466224720425
 20
-160.9011175813025
 30
0.0
 10
99.96220158091224
 20
-160.9011175813025
 30
0.0
 10
99.96220158091224
 20
-160.9011175813025
 30
0.0
 10
100.0209404589357
 20
-161.0998995908014
 30
0.0
 10
100.1565049662803
 20
-161.1295274119746
 30
0.0
 10
100.256068225804
 20
-161.1295274119746
 30
0.0
 10
100.4052408603154
 20
-161.1295274119746
 30
0.0
 10
100.5680216219934
 20
-161.0299641524508
 30
0.0
 10
100.5680216219934
 20
-160.7974202071965
 30
0.0
 10
100.5680216219934
 20
-160.5414496126424
 30
0.0
 10
100.3757852939165
 20
-160.4715141742919
 30
0.0
 10
100.2469387227681
 20
-160.4715141742919
 30
0.0
 10
100.2130045322384
 20
-160.4715141742919
 30
0.0
 10
100.0615925856617
 20
-160.4715141742919
 30
0.0
 10
99.96668020504306
 20
-160.6007052549887
 30
0.0
 10
99.96668020504306
 20
-160.6007052549887
 30
0.0
 10
99.77892250109694
 20
-160.5817572298199
 30
0.0
 10
99.77892250109694
 20
-160.5817572298199
 30
0.0
 10
99.77892250109694
 20
-160.5817572298199
 30
0.0
 10
99.90776907224529
 20
-159.735297269094
 30
0.0
 10
99.90776907224529
 20
-159.735297269094
 30
0.0
 10
99.90776907224529
 20
-159.735297269094
 30
0.0
 10
100.7397596319331
 20
-159.735297269094
 30
0.0
 10
100.7397596319331
 20
-159.735297269094
 30
0.0
 10
100.7397596319331
 20
-159.735297269094
 30
0.0
 10
100.7397596319331
 20
-159.9299451640106
 30
0.0
 10
100.7397596319331
 20
-159.9299451640106
 30
0.0
 10
100.7397596319331
 20
-159.9299451640106
 30
0.0
 10
100.0819186490247
 20
-159.9299451640106
 30
0.0
 10
100.0819186490247
 20
-159.9299451640106
 30
0.0
 10
100.0819186490247
 20
-159.9299451640106
 30
0.0
 10
100.0118109558998
 20
-160.3530028895993
 30
0.0
 10
100.0118109558998
 20
-160.3530028895993
 30
0.0
 10
100.0774400248938
 20
-160.3192409538438
 30
0.0
 10
100.1656344693162
 20
-160.2789333366664
 30
0.0
 10
100.2922417283992
 20
-160.2789333366664
 30
0.0
 10
100.5635429978626
 20
-160.2789333366664
 30
0.0
 10
100.8167575160285
 20
-160.4653130024184
 30
0.0
 10
100.8167575160285
 20
-160.7784721820276
 30
0.0
 10
100.8167575160285
 20
-161.0957654762191
 30
0.0
 10
100.5771511250293
 20
-161.3303764787646
 30
0.0
 10
100.2538289137386
 20
-161.3303764787646
 30
0.0
  0
HATCH
  5
AD
330
A8
100
AcDbEntity
  8
_U+30EC_U+30A4_U+30E4_U+30FC 1
 62
   179
420
  2234388
100
AcDbHatch
 10
0.0
 20
0.0
 30
0.0
210
0.0
220
0.0
230
1.0
  2
SOLID
 70
     1
 71
     0
 91
        1
 92
        1
 93
        1
 72
     4
 94
        3
 73
     0
 74
     1
 95
       53
 96
       49
 40
0.0
 40
0.0
 40
0.0
 40
0.0
 40
1.0
 40
1.0
 40
1.0
 40
2.0
 40
2.0
 40
2.0
 40
3.0
 40
3.0
 40
3.0
 40
4.0
 40
4.0
 40
4.0
 40
5.0
 40
5.0
 40
5.0
 40
6.0
 40
6.0
 40
6.0
 40
7.0
 40
7.0
 40
7.0
 40
8.0
 40
8.0
 40
8.0
 40
9.0
 40
9.0
 40
9.0
 40
10.0
 40
10.0
 40
10.0
 40
11.0
 40
11.0
 40
11.0
 40
12.0
 40
12.0
 40
12.0
 40
13.0
 40
13.0
 40
13.0
 40
14.0
 40
14.0
 40
14.0
 40
15.0
 40
15.0
 40
15.0
 40
16.0
 40
16.0
 40
16.0
 40
16.0
 10
100.2538289137386
 20
-161.3303764787646
 10
100.1701130934471
 20
-161.3303764787646
 10
100.0615925856617
 20
-161.3134955108869
 10
99.95307207787631
 20
-161.2501057539583
 10
99.76772594076988
 20
-161.1402072079788
 10
99.7451605653415
 20
-161.0089490699908
 10
99.72466224720425
 20
-160.9011175813025
 10
99.72466224720425
 20
-160.9011175813025
 10
99.96220158091224
 20
-160.9011175813025
 10
99.96220158091224
 20
-160.9011175813025
 10
100.0209404589357
 20
-161.0998995908014
 10
100.1565049662803
 20
-161.1295274119746
 10
100.256068225804
 20
-161.1295274119746
 10
100.4052408603154
 20
-161.1295274119746
 10
100.5680216219934
 20
-161.0299641524508
 10
100.5680216219934
 20
-160.7974202071965
 10
100.5680216219934
 20
-160.5414496126424
 10
100.3757852939165
 20
-160.4715141742919
 10
100.2469387227681
 20
-160.4715141742919
 10
100.2130045322384
 20
-160.4715141742919
 10
100.0615925856617
 20
-160.4715141742919
 10
99.96668020504306
 20
-160.6007052549887
 10
99.96668020504306
 20
-160.6007052549887
 10
99.77892250109694
 20
-160.5817572298199
 10
99.77892250109694
 20
-160.5817572298199
 10
99.77892250109694
 20
-160.5817572298199
 10
99.90776907224529
 20
-159.735297269094
 10
99.90776907224529
 20
-159.735297269094
 10
99.90776907224529
 20
-159.735297269094
 10
100.7397596319331
 20
-159.735297269094
 10
100.7397596319331
 20
-159.735297269094
 10
100.7397596319331
 20
-159.735297269094
 10
100.7397596319331
 20
-159.9299451640106
 10
100.7397596319331
 20
-159.9299451640106
 10
100.7397596319331
 20
-159.9299451640106
 10
100.0819186490247
 20
-159.9299451640106
 10
100.0819186490247
 20
-159.9299451640106
 10
100.0819186490247
 20
-159.9299451640106
 10
100.0118109558998
 20
-160.3530028895993
 10
100.0118109558998
 20
-160.3530028895993
 10
100.0774400248938
 20
-160.3192409538438
 10
100.1656344693162
 20
-160.2789333366664
 10
100.2922417283992
 20
-160.2789333366664
 10
100.5635429978626
 20
-160.2789333366664
 10
100.8167575160285
 20
-160.4653130024184
 10
100.8167575160285
 20
-160.7784721820276
 10
100.8167575160285
 20
-161.0957654762191
 10
100.5771511250293
 20
-161.3303764787646
 10
100.2538289137386
 20
-161.3303764787646
 97
        0
 97
        0
 75
     2
 76
     1
 98
        0
  0
ENDBLK
  5
AB
330
A8
100
AcDbEntity
  8
0
100
AcDbBlockEnd
  0
BLOCK
  5
C0
330
BE
100
AcDbEntity
  8
0
100
AcDbBlockBegin
  2
block 5
 70
     0
 10
0.0
 20
0.0
 30
0.0
  3
block 5
  1

  0
SPLINE
  5
C2
330
BE
100
AcDbEntity
  8
_U+30EC_U+30A4_U+30E4_U+30FC 1
370
     0
100
AcDbSpline
210
0.0
220
0.0
230
1.0
 70
    11
 71
     3
 72
    29
 73
    25
 74
     0
 42
0.0000000001
 43
0.0000000001
 12
1.0
 22
0.0
 32
0.0
 13
1.0
 23
0.0
 33
0.0
 40
0.0
 40
0.0
 40
0.0
 40
0.0
 40
1.0
 40
1.0
 40
1.0
 40
2.0
 40
2.0
 40
2.0
 40
3.0
 40
3.0
 40
3.0
 40
4.0
 40
4.0
 40
4.0
 40
5.0
 40
5.0
 40
5.0
 40
6.0
 40
6.0
 40
6.0
 40
7.0
 40
7.0
 40
7.0
 40
8.0
 40
8.0
 40
8.0
 40
8.0
 10
110.2454670948345
 20
-139.3270683787967
 30
0.0
 10
110.4549289003377
 20
-139.4423068227783
 30
0.0
 10
110.4738769255065
 20
-139.6276529598848
 30
0.0
 10
110.4738769255065
 20
-139.7520209069023
 30
0.0
 10
110.4738769255065
 20
-139.9239311716162
 30
0.0
 10
110.4273681364557
 20
-140.075343118193
 30
0.0
 10
110.2454670948345
 20
-140.1771456897821
 30
0.0
 10
110.0508191999179
 20
-140.2879055096329
 30
0.0
 10
109.8141411400812
 20
-140.3082315729959
 30
0.0
 10
109.6511881236289
 20
-140.3082315729959
 30
0.0
 10
109.5071831323454
 20
-140.3082315729959
 30
0.0
 10
109.2553466523737
 20
-140.2901448216983
 30
0.0
 10
109.0565646428747
 20
-140.1771456897821
 30
0.0
 10
108.8536485187935
 20
-140.0617349910262
 30
0.0
 10
108.8302218694938
 20
-139.8899969810865
 30
0.0
 10
108.8302218694938
 20
-139.7520209069023
 30
0.0
 10
108.8302218694938
 20
-139.582522209028
 30
0.0
 10
108.8746636012536
 20
-139.4286986956116
 30
0.0
 10
109.0565646428747
 20
-139.3270683787967
 30
0.0
 10
109.2491454805002
 20
-139.2207871830768
 30
0.0
 10
109.4775553111723
 20
-139.195982495583
 30
0.0
 10
109.6511881236289
 20
-139.195982495583
 30
0.0
 10
109.8224093692458
 20
-139.195982495583
 30
0.0
 10
110.052886257209
 20
-139.2185478710113
 30
0.0
 10
110.2454670948345
 20
-139.3270683787967
 30
0.0
  0
SPLINE
  5
C3
330
BE
100
AcDbEntity
  8
_U+30EC_U+30A4_U+30E4_U+30FC 1
370
     0
100
AcDbSpline
210
0.0
220
0.0
230
1.0
 70
    11
 71
     3
 72
    17
 73
    13
 74
     0
 42
0.0000000001
 43
0.0000000001
 12
1.0
 22
0.0
 32
0.0
 13
1.0
 23
0.0
 33
0.0
 40
0.0
 40
0.0
 40
0.0
 40
0.0
 40
1.0
 40
1.0
 40
1.0
 40
2.0
 40
2.0
 40
2.0
 40
3.0
 40
3.0
 40
3.0
 40
4.0
 40
4.0
 40
4.0
 40
4.0
 10
109.0228027071193
 20
-139.7520209069023
 30
0.0
 10
109.0228027071193
 20
-140.0188435522349
 30
0.0
 10
109.3063340655554
 20
-140.0686251819967
 30
0.0
 10
109.6511881236289
 20
-140.0686251819967
 30
0.0
 10
109.9705484751115
 20
-140.0686251819967
 30
0.0
 10
110.2792290305899
 20
-140.0302123673362
 30
0.0
 10
110.2792290305899
 20
-139.7520209069023
 30
0.0
 10
110.2792290305899
 20
-139.4876098284093
 30
0.0
 10
109.9981092389935
 20
-139.4355888865821
 30
0.0
 10
109.6511881236289
 20
-139.4355888865821
 30
0.0
 10
109.3314832625977
 20
-139.4355888865821
 30
0.0
 10
109.0228027071193
 20
-139.476241013308
 30
0.0
 10
109.0228027071193
 20
-139.7520209069023
 30
0.0
  0
HATCH
  5
C4
330
BE
100
AcDbEntity
  8
_U+30EC_U+30A4_U+30E4_U+30FC 1
 62
   179
420
  2234388
100
AcDbHatch
 10
0.0
 20
0.0
 30
0.0
210
0.0
220
0.0
230
1.0
  2
SOLID
 70
     1
 71
     0
 91
        2
 92
        1
 93
        1
 72
     4
 94
        3
 73
     0
 74
     1
 95
       29
 96
       25
 40
0.0
 40
0.0
 40
0.0
 40
0.0
 40
1.0
 40
1.0
 40
1.0
 40
2.0
 40
2.0
 40
2.0
 40
3.0
 40
3.0
 40
3.0
 40
4.0
 40
4.0
 40
4.0
 40
5.0
 40
5.0
 40
5.0
 40
6.0
 40
6.0
 40
6.0
 40
7.0
 40
7.0
 40
7.0
 40
8.0
 40
8.0
 40
8.0
 40
8.0
 10
110.2454670948345
 20
-139.3270683787967
 10
110.4549289003377
 20
-139.4423068227783
 10
110.4738769255065
 20
-139.6276529598848
 10
110.4738769255065
 20
-139.7520209069023
 10
110.4738769255065
 20
-139.9239311716162
 10
110.4273681364557
 20
-140.075343118193
 10
110.2454670948345
 20
-140.1771456897821
 10
110.0508191999179
 20
-140.2879055096329
 10
109.8141411400812
 20
-140.3082315729959
 10
109.6511881236289
 20
-140.3082315729959
 10
109.5071831323454
 20
-140.3082315729959
 10
109.2553466523737
 20
-140.2901448216983
 10
109.0565646428747
 20
-140.1771456897821
 10
108.8536485187935
 20
-140.0617349910262
 10
108.8302218694938
 20
-139.8899969810865
 10
108.8302218694938
 20
-139.7520209069023
 10
108.8302218694938
 20
-139.582522209028
 10
108.8746636012536
 20
-139.4286986956116
 10
109.0565646428747
 20
-139.3270683787967
 10
109.2491454805002
 20
-139.2207871830768
 10
109.4775553111723
 20
-139.195982495583
 10
109.6511881236289
 20
-139.195982495583
 10
109.8224093692458
 20
-139.195982495583
 10
110.052886257209
 20
-139.2185478710113
 10
110.2454670948345
 20
-139.3270683787967
 97
        0
 97
        0
 92
        1
 93
        1
 72
     4
 94
        3
 73
     0
 74
     1
 95
       17
 96
       13
 40
0.0
 40
0.0
 40
0.0
 40
0.0
 40
1.0
 40
1.0
 40
1.0
 40
2.0
 40
2.0
 40
2.0
 40
3.0
 40
3.0
 40
3.0
 40
4.0
 40
4.0
 40
4.0
 40
4.0
 10
109.0228027071193
 20
-139.7520209069023
 10
109.0228027071193
 20
-140.0188435522349
 10
109.3063340655554
 20
-140.0686251819967
 10
109.6511881236289
 20
-140.0686251819967
 10
109.9705484751115
 20
-140.0686251819967
 10
110.2792290305899
 20
-140.0302123673362
 10
110.2792290305899
 20
-139.7520209069023
 10
110.2792290305899
 20
-139.4876098284093
 10
109.9981092389935
 20
-139.4355888865821
 10
109.6511881236289
 20
-139.4355888865821
 10
109.3314832625977
 20
-139.4355888865821
 10
109.0228027071193
 20
-139.476241013308
 10
109.0228027071193
 20
-139.7520209069023
 97
        0
 97
        0
 75
     2
 76
     1
 98
        0
  0
POLYLINE
  5
C5
330
BE
100
AcDbEntity
  8
_U+30EC_U+30A4_U+30E4_U+30FC 1
370
     0
100
AcDb2dPolyline
 66
     1
 10
0.0
 20
0.0
 30
0.0
  0
VERTEX
  5
C6
330
C5
100
AcDbEntity
  8
_U+30EC_U+30A4_U+30E4_U+30FC 1
370
     0
100
AcDbVertex
100
AcDb2dVertex
 10
110.4232340218734
 20
-138.9644720789742
 30
0.0
  0
VERTEX
  5
C7
330
C5
100
AcDbEntity
  8
_U+30EC_U+30A4_U+30E4_U+30FC 1
370
     0
100
AcDbVertex
100
AcDb2dVertex
 10
110.1713975419016
 20
-138.9644720789742
 30
0.0
  0
VERTEX
  5
C8
330
C5
100
AcDbEntity
  8
_U+30EC_U+30A4_U+30E4_U+30FC 1
370
     0
100
AcDbVertex
100
AcDb2dVertex
 10
110.1713975419016
 20
-138.6954101215761
 30
0.0
  0
VERTEX
  5
C9
330
C5
100
AcDbEntity
  8
_U+30EC_U+30A4_U+30E4_U+30FC 1
370
     0
100
AcDbVertex
100
AcDb2dVertex
 10
110.4232340218734
 20
-138.6954101215761
 30
0.0
  0
VERTEX
  5
CA
330
C5
100
AcDbEntity
  8
_U+30EC_U+30A4_U+30E4_U+30FC 1
370
     0
100
AcDbVertex
100
AcDb2dVertex
 10
110.4232340218734
 20
-138.9644720789742
 30
0.0
  0
SEQEND
  5
CB
330
C5
100
AcDbEntity
  8
_U+30EC_U+30A4_U+30E4_U+30FC 1
370
     0
  0
HATCH
  5
CC
330
BE
100
AcDbEntity
  8
_U+30EC_U+30A4_U+30E4_U+30FC 1
 62
   179
420
  2234388
100
AcDbHatch
 10
0.0
 20
0.0
 30
0.0
210
0.0
220
0.0
230
1.0
  2
SOLID
 70
     1
 71
     0
 91
        1
 92
        1
 93
        4
 72
     1
 10
110.4232340218734
 20
-138.9644720789742
 11
110.1713975419016
 21
-138.9644720789742
 72
     1
 10
110.1713975419016
 20
-138.9644720789742
 11
110.1713975419016
 21
-138.6954101215761
 72
     1
 10
110.1713975419016
 20
-138.6954101215761
 11
110.4232340218734
 21
-138.6954101215761
 72
     1
 10
110.4232340218734
 20
-138.6954101215761
 11
110.4232340218734
 21
-138.9644720789742
 97
        0
 75
     2
 76
     1
 98
        0
  0
SPLINE
  5
CD
330
BE
100
AcDbEntity
  8
_U+30EC_U+30A4_U+30E4_U+30FC 1
370
     0
100
AcDbSpline
210
0.0
220
0.0
230
1.0
 70
    11
 71
     3
 72
    29
 73
    25
 74
     0
 42
0.0000000001
 43
0.0000000001
 12
1.0
 22
0.0
 32
0.0
 13
1.0
 23
0.0
 33
0.0
 40
0.0
 40
0.0
 40
0.0
 40
0.0
 40
1.0
 40
1.0
 40
1.0
 40
2.0
 40
2.0
 40
2.0
 40
3.0
 40
3.0
 40
3.0
 40
4.0
 40
4.0
 40
4.0
 40
5.0
 40
5.0
 40
5.0
 40
6.0
 40
6.0
 40
6.0
 40
7.0
 40
7.0
 40
7.0
 40
8.0
 40
8.0
 40
8.0
 40
8.0
 10
110.4738769255065
 20
-137.9083780579708
 30
0.0
 10
110.4738769255065
 20
-138.193287454601
 30
0.0
 10
110.3364176156451
 20
-138.4645887240644
 30
0.0
 10
109.9874294429893
 20
-138.4645887240644
 30
0.0
 10
109.7314588484352
 20
-138.4645887240644
 30
0.0
 10
109.6363742130423
 20
-138.3131767774877
 30
0.0
 10
109.5750515134049
 20
-138.2000053907972
 30
0.0
 10
109.5157958710586
 20
-138.3335028408507
 30
0.0
 10
109.4014187009483
 20
-138.4148070943025
 30
0.0
 10
109.2405327417871
 20
-138.4148070943025
 30
0.0
 10
108.9656141220642
 20
-138.4148070943025
 30
0.0
 10
108.8302218694938
 20
-138.2024169576369
 30
0.0
 10
108.8302218694938
 20
-137.9083780579708
 30
0.0
 10
108.8302218694938
 20
-137.6053819100431
 30
0.0
 10
108.9742268607773
 20
-137.4019490216391
 30
0.0
 10
109.2405327417871
 20
-137.4019490216391
 30
0.0
 10
109.4014187009483
 20
-137.4019490216391
 30
0.0
 10
109.5157958710586
 20
-137.4856648419307
 30
0.0
 10
109.5750515134049
 20
-137.6189900372098
 30
0.0
 10
109.625694417038
 20
-137.5240776565912
 30
0.0
 10
109.7207790524309
 20
-137.3545789587169
 30
0.0
 10
109.983295328407
 20
-137.3545789587169
 30
0.0
 10
110.3577772076536
 20
-137.3545789587169
 30
0.0
 10
110.4738769255065
 20
-137.6529242277396
 30
0.0
 10
110.4738769255065
 20
-137.9083780579708
 30
0.0
  0
SPLINE
  5
CE
330
BE
100
AcDbEntity
  8
_U+30EC_U+30A4_U+30E4_U+30FC 1
370
     0
100
AcDbSpline
210
0.0
220
0.0
230
1.0
 70
    11
 71
     3
 72
    17
 73
    13
 74
     0
 42
0.0000000001
 43
0.0000000001
 12
1.0
 22
0.0
 32
0.0
 13
1.0
 23
0.0
 33
0.0
 40
0.0
 40
0.0
 40
0.0
 40
0.0
 40
1.0
 40
1.0
 40
1.0
 40
2.0
 40
2.0
 40
2.0
 40
3.0
 40
3.0
 40
3.0
 40
4.0
 40
4.0
 40
4.0
 40
4.0
 10
109.0228027071193
 20
-137.9083780579708
 30
0.0
 10
109.0228027071193
 20
-138.0847669468156
 30
0.0
 10
109.1178873425122
 20
-138.1752007033034
 30
0.0
 10
109.2532795950825
 20
-138.1752007033034
 30
0.0
 10
109.3759249943574
 20
-138.1752007033034
 30
0.0
 10
109.49443627905
 20
-138.0983750739824
 30
0.0
 10
109.49443627905
 20
-137.9083780579708
 30
0.0
 10
109.49443627905
 20
-137.7185532967336
 30
0.0
 10
109.3759249943574
 20
-137.6415554126382
 30
0.0
 10
109.2532795950825
 20
-137.6415554126382
 30
0.0
 10
109.1178873425122
 20
-137.6415554126382
 30
0.0
 10
109.0228027071193
 20
-137.7344007359657
 30
0.0
 10
109.0228027071193
 20
-137.9083780579708
 30
0.0
  0
SPLINE
  5
CF
330
BE
100
AcDbEntity
  8
_U+30EC_U+30A4_U+30E4_U+30FC 1
370
     0
100
AcDbSpline
210
0.0
220
0.0
230
1.0
 70
    11
 71
     3
 72
    17
 73
    13
 74
     0
 42
0.0000000001
 43
0.0000000001
 12
1.0
 22
0.0
 32
0.0
 13
1.0
 23
0.0
 33
0.0
 40
0.0
 40
0.0
 40
0.0
 40
0.0
 40
1.0
 40
1.0
 40
1.0
 40
2.0
 40
2.0
 40
2.0
 40
3.0
 40
3.0
 40
3.0
 40
4.0
 40
4.0
 40
4.0
 40
4.0
 10
109.6828830020932
 20
-137.9083780579708
 30
0.0
 10
109.6828830020932
 20
-138.0622015713872
 30
0.0
 10
109.7696994083215
 20
-138.2249823330653
 30
0.0
 10
109.9726155324027
 20
-138.2249823330653
 30
0.0
 10
110.1779432233236
 20
-138.2249823330653
 30
0.0
 10
110.2792290305899
 20
-138.0892455709464
 30
0.0
 10
110.2792290305899
 20
-137.9083780579708
 30
0.0
 10
110.2792290305899
 20
-137.7094237936977
 30
0.0
 10
110.156583631315
 20
-137.5919460376506
 30
0.0
 10
109.9788167042761
 20
-137.5919460376506
 30
0.0
 10
109.756952555026
 20
-137.5919460376506
 30
0.0
 10
109.6828830020932
 20
-137.7659233596557
 30
0.0
 10
109.6828830020932
 20
-137.9083780579708
 30
0.0
  0
HATCH
  5
D0
330
BE
100
AcDbEntity
  8
_U+30EC_U+30A4_U+30E4_U+30FC 1
 62
   179
420
  2234388
100
AcDbHatch
 10
0.0
 20
0.0
 30
0.0
210
0.0
220
0.0
230
1.0
  2
SOLID
 70
     1
 71
     0
 91
        3
 92
        1
 93
        1
 72
     4
 94
        3
 73
     0
 74
     1
 95
       29
 96
       25
 40
0.0
 40
0.0
 40
0.0
 40
0.0
 40
1.0
 40
1.0
 40
1.0
 40
2.0
 40
2.0
 40
2.0
 40
3.0
 40
3.0
 40
3.0
 40
4.0
 40
4.0
 40
4.0
 40
5.0
 40
5.0
 40
5.0
 40
6.0
 40
6.0
 40
6.0
 40
7.0
 40
7.0
 40
7.0
 40
8.0
 40
8.0
 40
8.0
 40
8.0
 10
110.4738769255065
 20
-137.9083780579708
 10
110.4738769255065
 20
-138.193287454601
 10
110.3364176156451
 20
-138.4645887240644
 10
109.9874294429893
 20
-138.4645887240644
 10
109.7314588484352
 20
-138.4645887240644
 10
109.6363742130423
 20
-138.3131767774877
 10
109.5750515134049
 20
-138.2000053907972
 10
109.5157958710586
 20
-138.3335028408507
 10
109.4014187009483
 20
-138.4148070943025
 10
109.2405327417871
 20
-138.4148070943025
 10
108.9656141220642
 20
-138.4148070943025
 10
108.8302218694938
 20
-138.2024169576369
 10
108.8302218694938
 20
-137.9083780579708
 10
108.8302218694938
 20
-137.6053819100431
 10
108.9742268607773
 20
-137.4019490216391
 10
109.2405327417871
 20
-137.4019490216391
 10
109.4014187009483
 20
-137.4019490216391
 10
109.5157958710586
 20
-137.4856648419307
 10
109.5750515134049
 20
-137.6189900372098
 10
109.625694417038
 20
-137.5240776565912
 10
109.7207790524309
 20
-137.3545789587169
 10
109.983295328407
 20
-137.3545789587169
 10
110.3577772076536
 20
-137.3545789587169
 10
110.4738769255065
 20
-137.6529242277396
 10
110.4738769255065
 20
-137.9083780579708
 97
        0
 97
        0
 92
        1
 93
        1
 72
     4
 94
        3
 73
     0
 74
     1
 95
       17
 96
       13
 40
0.0
 40
0.0
 40
0.0
 40
0.0
 40
1.0
 40
1.0
 40
1.0
 40
2.0
 40
2.0
 40
2.0
 40
3.0
 40
3.0
 40
3.0
 40
4.0
 40
4.0
 40
4.0
 40
4.0
 10
109.0228027071193
 20
-137.9083780579708
 10
109.0228027071193
 20
-138.0847669468156
 10
109.1178873425122
 20
-138.1752007033034
 10
109.2532795950825
 20
-138.1752007033034
 10
109.3759249943574
 20
-138.1752007033034
 10
109.49443627905
 20
-138.0983750739824
 10
109.49443627905
 20
-137.9083780579708
 10
109.49443627905
 20
-137.7185532967336
 10
109.3759249943574
 20
-137.6415554126382
 10
109.2532795950825
 20
-137.6415554126382
 10
109.1178873425122
 20
-137.6415554126382
 10
109.0228027071193
 20
-137.7344007359657
 10
109.0228027071193
 20
-137.9083780579708
 97
        0
 97
        0
 92
        1
 93
        1
 72
     4
 94
        3
 73
     0
 74
     1
 95
       17
 96
       13
 40
0.0
 40
0.0
 40
0.0
 40
0.0
 40
1.0
 40
1.0
 40
1.0
 40
2.0
 40
2.0
 40
2.0
 40
3.0
 40
3.0
 40
3.0
 40
4.0
 40
4.0
 40
4.0
 40
4.0
 10
109.6828830020932
 20
-137.9083780579708
 10
109.6828830020932
 20
-138.0622015713872
 10
109.7696994083215
 20
-138.2249823330653
 10
109.9726155324027
 20
-138.2249823330653
 10
110.1779432233236
 20
-138.2249823330653
 10
110.2792290305899
 20
-138.0892455709464
 10
110.2792290305899
 20
-137.9083780579708
 10
110.2792290305899
 20
-137.7094237936977
 10
110.156583631315
 20
-137.5919460376506
 10
109.9788167042761
 20
-137.5919460376506
 10
109.756952555026
 20
-137.5919460376506
 10
109.6828830020932
 20
-137.7659233596557
 10
109.6828830020932
 20
-137.9083780579708
 97
        0
 97
        0
 75
     2
 76
     1
 98
        0
  0
ENDBLK
  5
C1
330
BE
100
AcDbEntity
  8
0
100
AcDbBlockEnd
  0
BLOCK
  5
DF
330
DD
100
AcDbEntity
  8
0
100
AcDbBlockBegin
  2
block 6
 70
     0
 10
0.0
 20
0.0
 30
0.0
  3
block 6
  1

  0
SPLINE
  5
E1
330
DD
100
AcDbEntity
  8
_U+30EC_U+30A4_U+30E4_U+30FC 1
370
     0
100
AcDbSpline
210
0.0
220
0.0
230
1.0
 70
    11
 71
     3
 72
    26
 73
    22
 74
     0
 42
0.0000000001
 43
0.0000000001
 12
1.0
 22
0.0
 32
0.0
 13
1.0
 23
0.0
 33
0.0
 40
0.0
 40
0.0
 40
0.0
 40
0.0
 40
1.0
 40
1.0
 40
1.0
 40
2.0
 40
2.0
 40
2.0
 40
3.0
 40
3.0
 40
3.0
 40
4.0
 40
4.0
 40
4.0
 40
5.0
 40
5.0
 40
5.0
 40
6.0
 40
6.0
 40
6.0
 40
7.0
 40
7.0
 40
7.0
 40
7.0
 10
110.4228895123248
 20
-149.8113552142833
 30
0.0
 10
110.4228895123248
 20
-149.8113552142833
 30
0.0
 10
109.3190809188508
 20
-149.8113552142833
 30
0.0
 10
109.3190809188508
 20
-149.8113552142833
 30
0.0
 10
109.3190809188508
 20
-149.8113552142833
 30
0.0
 10
109.3190809188508
 20
-150.1641329919728
 30
0.0
 10
109.3190809188508
 20
-150.1641329919728
 30
0.0
 10
109.3190809188508
 20
-150.1641329919728
 30
0.0
 10
109.170941812985
 20
-150.1641329919728
 30
0.0
 10
109.170941812985
 20
-150.1641329919728
 30
0.0
 10
109.15578339285
 20
-149.8092881569921
 30
0.0
 10
108.9931748859462
 20
-149.759334272456
 30
0.0
 10
108.8787977158359
 20
-149.7276393939917
 30
0.0
 10
108.8787977158359
 20
-149.7276393939917
 30
0.0
 10
108.8787977158359
 20
-149.5715765685099
 30
0.0
 10
108.8787977158359
 20
-149.5715765685099
 30
0.0
 10
108.8787977158359
 20
-149.5715765685099
 30
0.0
 10
110.4228895123248
 20
-149.5715765685099
 30
0.0
 10
110.4228895123248
 20
-149.5715765685099
 30
0.0
 10
110.4228895123248
 20
-149.5715765685099
 30
0.0
 10
110.4228895123248
 20
-149.8113552142833
 30
0.0
 10
110.4228895123248
 20
-149.8113552142833
 30
0.0
  0
HATCH
  5
E2
330
DD
100
AcDbEntity
  8
_U+30EC_U+30A4_U+30E4_U+30FC 1
 62
   179
420
  2234388
100
AcDbHatch
 10
0.0
 20
0.0
 30
0.0
210
0.0
220
0.0
230
1.0
  2
SOLID
 70
     1
 71
     0
 91
        1
 92
        1
 93
        1
 72
     4
 94
        3
 73
     0
 74
     1
 95
       26
 96
       22
 40
0.0
 40
0.0
 40
0.0
 40
0.0
 40
1.0
 40
1.0
 40
1.0
 40
2.0
 40
2.0
 40
2.0
 40
3.0
 40
3.0
 40
3.0
 40
4.0
 40
4.0
 40
4.0
 40
5.0
 40
5.0
 40
5.0
 40
6.0
 40
6.0
 40
6.0
 40
7.0
 40
7.0
 40
7.0
 40
7.0
 10
110.4228895123248
 20
-149.8113552142833
 10
110.4228895123248
 20
-149.8113552142833
 10
109.3190809188508
 20
-149.8113552142833
 10
109.3190809188508
 20
-149.8113552142833
 10
109.3190809188508
 20
-149.8113552142833
 10
109.3190809188508
 20
-150.1641329919728
 10
109.3190809188508
 20
-150.1641329919728
 10
109.3190809188508
 20
-150.1641329919728
 10
109.170941812985
 20
-150.1641329919728
 10
109.170941812985
 20
-150.1641329919728
 10
109.15578339285
 20
-149.8092881569921
 10
108.9931748859462
 20
-149.759334272456
 10
108.8787977158359
 20
-149.7276393939917
 10
108.8787977158359
 20
-149.7276393939917
 10
108.8787977158359
 20
-149.5715765685099
 10
108.8787977158359
 20
-149.5715765685099
 10
108.8787977158359
 20
-149.5715765685099
 10
110.4228895123248
 20
-149.5715765685099
 10
110.4228895123248
 20
-149.5715765685099
 10
110.4228895123248
 20
-149.5715765685099
 10
110.4228895123248
 20
-149.8113552142833
 10
110.4228895123248
 20
-149.8113552142833
 97
        0
 97
        0
 75
     2
 76
     1
 98
        0
  0
SPLINE
  5
E3
330
DD
100
AcDbEntity
  8
_U+30EC_U+30A4_U+30E4_U+30FC 1
370
     0
100
AcDbSpline
210
0.0
220
0.0
230
1.0
 70
    11
 71
     3
 72
    62
 73
    58
 74
     0
 42
0.0000000001
 43
0.0000000001
 12
1.0
 22
0.0
 32
0.0
 13
1.0
 23
0.0
 33
0.0
 40
0.0
 40
0.0
 40
0.0
 40
0.0
 40
1.0
 40
1.0
 40
1.0
 40
2.0
 40
2.0
 40
2.0
 40
3.0
 40
3.0
 40
3.0
 40
4.0
 40
4.0
 40
4.0
 40
5.0
 40
5.0
 40
5.0
 40
6.0
 40
6.0
 40
6.0
 40
7.0
 40
7.0
 40
7.0
 40
8.0
 40
8.0
 40
8.0
 40
9.0
 40
9.0
 40
9.0
 40
10.0
 40
10.0
 40
10.0
 40
11.0
 40
11.0
 40
11.0
 40
12.0
 40
12.0
 40
12.0
 40
13.0
 40
13.0
 40
13.0
 40
14.0
 40
14.0
 40
14.0
 40
15.0
 40
15.0
 40
15.0
 40
16.0
 40
16.0
 40
16.0
 40
17.0
 40
17.0
 40
17.0
 40
18.0
 40
18.0
 40
18.0
 40
19.0
 40
19.0
 40
19.0
 40
19.0
 10
110.4738769255065
 20
-148.5106594138272
 30
0.0
 10
110.4738769255065
 20
-148.6122897306421
 30
0.0
 10
110.452517333498
 20
-148.845178185445
 30
0.0
 10
110.2664821772945
 20
-148.9786756354984
 30
0.0
 10
110.1541720644753
 20
-149.0575683221106
 30
0.0
 10
110.0549533145002
 20
-149.06239145579
 30
0.0
 10
109.970203965563
 20
-149.0668700799208
 30
0.0
 10
109.970203965563
 20
-149.0668700799208
 30
0.0
 10
109.970203965563
 20
-148.8315700582782
 30
0.0
 10
109.970203965563
 20
-148.8315700582782
 30
0.0
 10
110.0446180280444
 20
-148.8293307462128
 30
0.0
 10
110.2788845210414
 20
-148.8181341858858
 30
0.0
 10
110.2788845210414
 20
-148.515138037958
 30
0.0
 10
110.2788845210414
 20
-148.3682047155121
 30
0.0
 10
110.2092935922393
 20
-148.2054239538341
 30
0.0
 10
109.9812282711158
 20
-148.2054239538341
 30
0.0
 10
109.8647840437144
 20
-148.2054239538341
 30
0.0
 10
109.8158636878238
 20
-148.24607608056
 30
0.0
 10
109.7841688093595
 20
-148.2800102710897
 30
0.0
 10
109.7104437659752
 20
-148.3590752124762
 30
0.0
 10
109.6973524031312
 20
-148.4834431594937
 30
0.0
 10
109.6973524031312
 20
-148.5421820375173
 30
0.0
 10
109.6973524031312
 20
-148.5626803556545
 30
0.0
 10
109.6994194604224
 20
-148.601093170315
 30
0.0
 10
109.7035535750047
 20
-148.6303764819396
 30
0.0
 10
109.7035535750047
 20
-148.6303764819396
 30
0.0
 10
109.5092501896366
 20
-148.6303764819396
 30
0.0
 10
109.5092501896366
 20
-148.6303764819396
 30
0.0
 10
109.51545136151
 20
-148.5897243552137
 30
0.0
 10
109.5175184188012
 20
-148.5445936043569
 30
0.0
 10
109.5175184188012
 20
-148.5377034133864
 30
0.0
 10
109.5175184188012
 20
-148.4675957202616
 30
0.0
 10
109.4961588267926
 20
-148.2552055835959
 30
0.0
 10
109.2598252765045
 20
-148.2552055835959
 30
0.0
 10
109.0820583494656
 20
-148.2552055835959
 30
0.0
 10
109.0269368217016
 20
-148.3952487150713
 30
0.0
 10
109.0269368217016
 20
-148.5128987258926
 30
0.0
 10
109.0269368217016
 20
-148.7953965556831
 30
0.0
 10
109.2598252765045
 20
-148.804526058719
 30
0.0
 10
109.3314832625977
 20
-148.8090046828498
 30
0.0
 10
109.3314832625977
 20
-148.8090046828498
 30
0.0
 10
109.3314832625977
 20
-149.0258734436463
 30
0.0
 10
109.3314832625977
 20
-149.0258734436463
 30
0.0
 10
109.2067708060316
 20
-149.0169161953847
 30
0.0
 10
108.8298773599453
 20
-148.9876328837601
 30
0.0
 10
108.8298773599453
 20
-148.4992905987259
 30
0.0
 10
108.8298773599453
 20
-148.2596842077268
 30
0.0
 10
108.9573458928996
 20
-148.0019910654301
 30
0.0
 10
109.252935085534
 20
-148.0019910654301
 30
0.0
 10
109.4396592608345
 20
-148.0019910654301
 30
0.0
 10
109.5216525333835
 20
-148.1036213822449
 30
0.0
 10
109.5829752330209
 20
-148.2099025779649
 30
0.0
 10
109.6105359969029
 20
-148.1442735089709
 30
0.0
 10
109.6911512312578
 20
-147.9499701236028
 30
0.0
 10
109.9681369082719
 20
-147.9499701236028
 30
0.0
 10
110.3064452849234
 20
-147.9499701236028
 30
0.0
 10
110.4738769255065
 20
-148.2143812020957
 30
0.0
 10
110.4738769255065
 20
-148.5106594138272
 30
0.0
  0
HATCH
  5
E4
330
DD
100
AcDbEntity
  8
_U+30EC_U+30A4_U+30E4_U+30FC 1
 62
   179
420
  2234388
100
AcDbHatch
 10
0.0
 20
0.0
 30
0.0
210
0.0
220
0.0
230
1.0
  2
SOLID
 70
     1
 71
     0
 91
        1
 92
        1
 93
        1
 72
     4
 94
        3
 73
     0
 74
     1
 95
       62
 96
       58
 40
0.0
 40
0.0
 40
0.0
 40
0.0
 40
1.0
 40
1.0
 40
1.0
 40
2.0
 40
2.0
 40
2.0
 40
3.0
 40
3.0
 40
3.0
 40
4.0
 40
4.0
 40
4.0
 40
5.0
 40
5.0
 40
5.0
 40
6.0
 40
6.0
 40
6.0
 40
7.0
 40
7.0
 40
7.0
 40
8.0
 40
8.0
 40
8.0
 40
9.0
 40
9.0
 40
9.0
 40
10.0
 40
10.0
 40
10.0
 40
11.0
 40
11.0
 40
11.0
 40
12.0
 40
12.0
 40
12.0
 40
13.0
 40
13.0
 40
13.0
 40
14.0
 40
14.0
 40
14.0
 40
15.0
 40
15.0
 40
15.0
 40
16.0
 40
16.0
 40
16.0
 40
17.0
 40
17.0
 40
17.0
 40
18.0
 40
18.0
 40
18.0
 40
19.0
 40
19.0
 40
19.0
 40
19.0
 10
110.4738769255065
 20
-148.5106594138272
 10
110.4738769255065
 20
-148.6122897306421
 10
110.452517333498
 20
-148.845178185445
 10
110.2664821772945
 20
-148.9786756354984
 10
110.1541720644753
 20
-149.0575683221106
 10
110.0549533145002
 20
-149.06239145579
 10
109.970203965563
 20
-149.0668700799208
 10
109.970203965563
 20
-149.0668700799208
 10
109.970203965563
 20
-148.8315700582782
 10
109.970203965563
 20
-148.8315700582782
 10
110.0446180280444
 20
-148.8293307462128
 10
110.2788845210414
 20
-148.8181341858858
 10
110.2788845210414
 20
-148.515138037958
 10
110.2788845210414
 20
-148.3682047155121
 10
110.2092935922393
 20
-148.2054239538341
 10
109.9812282711158
 20
-148.2054239538341
 10
109.8647840437144
 20
-148.2054239538341
 10
109.8158636878238
 20
-148.24607608056
 10
109.7841688093595
 20
-148.2800102710897
 10
109.7104437659752
 20
-148.3590752124762
 10
109.6973524031312
 20
-148.4834431594937
 10
109.6973524031312
 20
-148.5421820375173
 10
109.6973524031312
 20
-148.5626803556545
 10
109.6994194604224
 20
-148.601093170315
 10
109.7035535750047
 20
-148.6303764819396
 10
109.7035535750047
 20
-148.6303764819396
 10
109.5092501896366
 20
-148.6303764819396
 10
109.5092501896366
 20
-148.6303764819396
 10
109.51545136151
 20
-148.5897243552137
 10
109.5175184188012
 20
-148.5445936043569
 10
109.5175184188012
 20
-148.5377034133864
 10
109.5175184188012
 20
-148.4675957202616
 10
109.4961588267926
 20
-148.2552055835959
 10
109.2598252765045
 20
-148.2552055835959
 10
109.0820583494656
 20
-148.2552055835959
 10
109.0269368217016
 20
-148.3952487150713
 10
109.0269368217016
 20
-148.5128987258926
 10
109.0269368217016
 20
-148.7953965556831
 10
109.2598252765045
 20
-148.804526058719
 10
109.3314832625977
 20
-148.8090046828498
 10
109.3314832625977
 20
-148.8090046828498
 10
109.3314832625977
 20
-149.0258734436463
 10
109.3314832625977
 20
-149.0258734436463
 10
109.2067708060316
 20
-149.0169161953847
 10
108.8298773599453
 20
-148.9876328837601
 10
108.8298773599453
 20
-148.4992905987259
 10
108.8298773599453
 20
-148.2596842077268
 10
108.9573458928996
 20
-148.0019910654301
 10
109.252935085534
 20
-148.0019910654301
 10
109.4396592608345
 20
-148.0019910654301
 10
109.5216525333835
 20
-148.1036213822449
 10
109.5829752330209
 20
-148.2099025779649
 10
109.6105359969029
 20
-148.1442735089709
 10
109.6911512312578
 20
-147.9499701236028
 10
109.9681369082719
 20
-147.9499701236028
 10
110.3064452849234
 20
-147.9499701236028
 10
110.4738769255065
 20
-148.2143812020957
 10
110.4738769255065
 20
-148.5106594138272
 97
        0
 97
        0
 75
     2
 76
     1
 98
        0
  0
ENDBLK
  5
E0
330
DD
100
AcDbEntity
  8
0
100
AcDbBlockEnd
  0
ENDSEC
  0
SECTION
  2
ENTITIES
  0
POLYLINE
  5
41
330
1F
100
AcDbEntity
  8
_U+30EC_U+30A4_U+30E4_U+30FC 1
 62
   179
420
  2234388
370
    25
100
AcDb2dPolyline
 66
     1
 10
0.0
 20
0.0
 30
0.0
  0
VERTEX
  5
42
330
41
100
AcDbEntity
  8
_U+30EC_U+30A4_U+30E4_U+30FC 1
 62
   179
420
  2234388
370
    25
100
AcDbVertex
100
AcDb2dVertex
 10
99.96974849320961
 20
-155.6319409299234
 30
0.0
  0
VERTEX
  5
43
330
41
100
AcDbEntity
  8
_U+30EC_U+30A4_U+30E4_U+30FC 1
 62
   179
420
  2234388
370
    25
100
AcDbVertex
100
AcDb2dVertex
 10
102.7743253662878
 20
-155.6319409299234
 30
0.0
  0
SEQEND
  5
44
330
41
100
AcDbEntity
  8
_U+30EC_U+30A4_U+30E4_U+30FC 1
 62
   179
420
  2234388
370
    25
  0
POLYLINE
  5
45
330
1F
100
AcDbEntity
  8
_U+30EC_U+30A4_U+30E4_U+30FC 1
 62
   179
420
  2234388
370
    25
100
AcDb2dPolyline
 66
     1
 10
0.0
 20
0.0
 30
0.0
  0
VERTEX
  5
46
330
45
100
AcDbEntity
  8
_U+30EC_U+30A4_U+30E4_U+30FC 1
 62
   179
420
  2234388
370
    25
100
AcDbVertex
100
AcDb2dVertex
 10
98.57447405576035
 20
-142.6315178408612
 30
0.0
  0
VERTEX
  5
47
330
45
100
AcDbEntity
  8
_U+30EC_U+30A4_U+30E4_U+30FC 1
 62
   179
420
  2234388
370
    25
100
AcDbVertex
100
AcDb2dVertex
 10
107.7745584854262
 20
-142.6315178408612
 30
0.0
  0
SEQEND
  5
48
330
45
100
AcDbEntity
  8
_U+30EC_U+30A4_U+30E4_U+30FC 1
 62
   179
420
  2234388
370
    25
  0
POLYLINE
  5
49
330
1F
100
AcDbEntity
  8
_U+30EC_U+30A4_U+30E4_U+30FC 1
 62
   179
420
  2234388
370
    25
100
AcDb2dPolyline
 66
     1
 10
0.0
 20
0.0
 30
0.0
  0
VERTEX
  5
4A
330
49
100
AcDbEntity
  8
_U+30EC_U+30A4_U+30E4_U+30FC 1
 62
   179
420
  2234388
370
    25
100
AcDbVertex
100
AcDb2dVertex
 10
97.77451211816162
 20
-158.631930078479
 30
0.0
  0
VERTEX
  5
4B
330
49
100
AcDbEntity
  8
_U+30EC_U+30A4_U+30E4_U+30FC 1
 62
   179
420
  2234388
370
    25
100
AcDbVertex
100
AcDb2dVertex
 10
102.7744222595983
 20
-158.631930078479
 30
0.0
  0
SEQEND
  5
4C
330
49
100
AcDbEntity
  8
_U+30EC_U+30A4_U+30E4_U+30FC 1
 62
   179
420
  2234388
370
    25
  0
POLYLINE
  5
4D
330
1F
100
AcDbEntity
  8
_U+30EC_U+30A4_U+30E4_U+30FC 1
 62
   179
420
  2234388
370
    25
100
AcDb2dPolyline
 66
     1
 10
0.0
 20
0.0
 30
0.0
  0
VERTEX
  5
4E
330
4D
100
AcDbEntity
  8
_U+30EC_U+30A4_U+30E4_U+30FC 1
 62
   179
420
  2234388
370
    25
100
AcDbVertex
100
AcDb2dVertex
 10
97.77451211816162
 20
-141.8315989669564
 30
0.0
  0
VERTEX
  5
4F
330
4D
100
AcDbEntity
  8
_U+30EC_U+30A4_U+30E4_U+30FC 1
 62
   179
420
  2234388
370
    25
100
AcDbVertex
100
AcDb2dVertex
 10
107.7746984424302
 20
-141.8315989669564
 30
0.0
  0
SEQEND
  5
50
330
4D
100
AcDbEntity
  8
_U+30EC_U+30A4_U+30E4_U+30FC 1
 62
   179
420
  2234388
370
    25
  0
POLYLINE
  5
51
330
1F
100
AcDbEntity
  8
_U+30EC_U+30A4_U+30E4_U+30FC 1
 62
   179
420
  2234388
370
    25
100
AcDb2dPolyline
 66
     1
 10
0.0
 20
0.0
 30
0.0
  0
VERTEX
  5
52
330
51
100
AcDbEntity
  8
_U+30EC_U+30A4_U+30E4_U+30FC 1
 62
   179
420
  2234388
370
    25
100
AcDbVertex
100
AcDb2dVertex
 10
102.7744007277515
 20
-155.6319409299234
 30
0.0
  0
VERTEX
  5
53
330
51
100
AcDbEntity
  8
_U+30EC_U+30A4_U+30E4_U+30FC 1
 62
   179
420
  2234388
370
    25
100
AcDbVertex
100
AcDb2dVertex
 10
102.7744007277515
 20
-158.6319731421725
 30
0.0
  0
SEQEND
  5
54
330
51
100
AcDbEntity
  8
_U+30EC_U+30A4_U+30E4_U+30FC 1
 62
   179
420
  2234388
370
    25
  0
POLYLINE
  5
55
330
1F
100
AcDbEntity
  8
_U+30EC_U+30A4_U+30E4_U+30FC 1
 62
   179
420
  2234388
370
    25
100
AcDb2dPolyline
 66
     1
 10
0.0
 20
0.0
 30
0.0
  0
VERTEX
  5
56
330
55
100
AcDbEntity
  8
_U+30EC_U+30A4_U+30E4_U+30FC 1
 62
   179
420
  2234388
370
    25
100
AcDbVertex
100
AcDb2dVertex
 10
99.96974849320961
 20
-155.6319409299234
 30
0.0
  0
VERTEX
  5
57
330
55
100
AcDbEntity
  8
_U+30EC_U+30A4_U+30E4_U+30FC 1
 62
   179
420
  2234388
370
    25
100
AcDbVertex
100
AcDb2dVertex
 10
99.96974849320961
 20
-156.4320428245259
 30
0.0
  0
SEQEND
  5
58
330
55
100
AcDbEntity
  8
_U+30EC_U+30A4_U+30E4_U+30FC 1
 62
   179
420
  2234388
370
    25
  0
POLYLINE
  5
59
330
1F
100
AcDbEntity
  8
_U+30EC_U+30A4_U+30E4_U+30FC 1
 62
   179
420
  2234388
370
    25
100
AcDb2dPolyline
 66
     1
 10
0.0
 20
0.0
 30
0.0
  0
VERTEX
  5
5A
330
59
100
AcDbEntity
  8
_U+30EC_U+30A4_U+30E4_U+30FC 1
 62
   179
420
  2234388
370
    25
100
AcDbVertex
100
AcDb2dVertex
 10
97.77451211816162
 20
-141.8315989669564
 30
0.0
  0
VERTEX
  5
5B
330
59
100
AcDbEntity
  8
_U+30EC_U+30A4_U+30E4_U+30FC 1
 62
   179
420
  2234388
370
    25
100
AcDbVertex
100
AcDb2dVertex
 10
97.77451211816162
 20
-158.6319408444024
 30
0.0
  0
SEQEND
  5
5C
330
59
100
AcDbEntity
  8
_U+30EC_U+30A4_U+30E4_U+30FC 1
 62
   179
420
  2234388
370
    25
  0
POLYLINE
  5
5D
330
1F
100
AcDbEntity
  8
_U+30EC_U+30A4_U+30E4_U+30FC 1
 62
   179
420
  2234388
370
    25
100
AcDb2dPolyline
 66
     1
 10
0.0
 20
0.0
 30
0.0
  0
VERTEX
  5
5E
330
5D
100
AcDbEntity
  8
_U+30EC_U+30A4_U+30E4_U+30FC 1
 62
   179
420
  2234388
370
    25
100
AcDbVertex
100
AcDb2dVertex
 10
107.7746015491197
 20
-141.8315989669564
 30
0.0
  0
VERTEX
  5
5F
330
5D
100
AcDbEntity
  8
_U+30EC_U+30A4_U+30E4_U+30FC 1
 62
   179
420
  2234388
370
    25
100
AcDbVertex
100
AcDb2dVertex
 10
107.7746015491197
 20
-142.6317008615589
 30
0.0
  0
SEQEND
  5
60
330
5D
100
AcDbEntity
  8
_U+30EC_U+30A4_U+30E4_U+30FC 1
 62
   179
420
  2234388
370
    25
  0
POLYLINE
  5
61
330
1F
100
AcDbEntity
  8
_U+30EC_U+30A4_U+30E4_U+30FC 1
 62
   179
420
  2234388
370
    25
100
AcDb2dPolyline
 66
     1
 10
0.0
 20
0.0
 30
0.0
  0
VERTEX
  5
62
330
61
100
AcDbEntity
  8
_U+30EC_U+30A4_U+30E4_U+30FC 1
 62
   179
420
  2234388
370
    25
100
AcDbVertex
100
AcDb2dVertex
 10
98.57447405576035
 20
-142.6315178408612
 30
0.0
  0
VERTEX
  5
63
330
61
100
AcDbEntity
  8
_U+30EC_U+30A4_U+30E4_U+30FC 1
 62
   179
420
  2234388
370
    25
100
AcDbVertex
100
AcDb2dVertex
 10
98.57447405576035
 20
-157.8320112045741
 30
0.0
  0
SEQEND
  5
64
330
61
100
AcDbEntity
  8
_U+30EC_U+30A4_U+30E4_U+30FC 1
 62
   179
420
  2234388
370
    25
  0
POLYLINE
  5
65
330
1F
100
AcDbEntity
  8
_U+30EC_U+30A4_U+30E4_U+30FC 1
 62
   179
420
  2234388
370
    25
100
AcDb2dPolyline
 66
     1
 10
0.0
 20
0.0
 30
0.0
  0
VERTEX
  5
66
330
65
100
AcDbEntity
  8
_U+30EC_U+30A4_U+30E4_U+30FC 1
 62
   179
420
  2234388
370
    25
100
AcDbVertex
100
AcDb2dVertex
 10
98.57447405576035
 20
-157.831978906804
 30
0.0
  0
VERTEX
  5
67
330
65
100
AcDbEntity
  8
_U+30EC_U+30A4_U+30E4_U+30FC 1
 62
   179
420
  2234388
370
    25
100
AcDbVertex
100
AcDb2dVertex
 10
101.9745356834636
 20
-157.831978906804
 30
0.0
  0
SEQEND
  5
68
330
65
100
AcDbEntity
  8
_U+30EC_U+30A4_U+30E4_U+30FC 1
 62
   179
420
  2234388
370
    25
  0
POLYLINE
  5
69
330
1F
100
AcDbEntity
  8
_U+30EC_U+30A4_U+30E4_U+30FC 1
 62
   179
420
  2234388
370
    25
100
AcDb2dPolyline
 66
     1
 10
0.0
 20
0.0
 30
0.0
  0
VERTEX
  5
6A
330
69
100
AcDbEntity
  8
_U+30EC_U+30A4_U+30E4_U+30FC 1
 62
   179
420
  2234388
370
    25
100
AcDbVertex
100
AcDb2dVertex
 10
101.9744387901534
 20
-156.4319028675218
 30
0.0
  0
VERTEX
  5
6B
330
69
100
AcDbEntity
  8
_U+30EC_U+30A4_U+30E4_U+30FC 1
 62
   179
420
  2234388
370
    25
100
AcDbVertex
100
AcDb2dVertex
 10
101.9744387901534
 20
-157.8320865660379
 30
0.0
  0
SEQEND
  5
6C
330
69
100
AcDbEntity
  8
_U+30EC_U+30A4_U+30E4_U+30FC 1
 62
   179
420
  2234388
370
    25
  0
POLYLINE
  5
6D
330
1F
100
AcDbEntity
  8
_U+30EC_U+30A4_U+30E4_U+30FC 1
 62
   179
420
  2234388
370
    25
100
AcDb2dPolyline
 66
     1
 10
0.0
 20
0.0
 30
0.0
  0
VERTEX
  5
6E
330
6D
100
AcDbEntity
  8
_U+30EC_U+30A4_U+30E4_U+30FC 1
 62
   179
420
  2234388
370
    25
100
AcDbVertex
100
AcDb2dVertex
 10
99.96974849320961
 20
-156.4319028675218
 30
0.0
  0
VERTEX
  5
6F
330
6D
100
AcDbEntity
  8
_U+30EC_U+30A4_U+30E4_U+30FC 1
 62
   179
420
  2234388
370
    25
100
AcDbVertex
100
AcDb2dVertex
 10
101.9745787471572
 20
-156.4319028675218
 30
0.0
  0
SEQEND
  5
70
330
6D
100
AcDbEntity
  8
_U+30EC_U+30A4_U+30E4_U+30FC 1
 62
   179
420
  2234388
370
    25
  0
SPLINE
  5
71
330
1F
100
AcDbEntity
  8
_U+30EC_U+30A4_U+30E4_U+30FC 1
 62
   179
420
  2234388
370
     9
100
AcDbSpline
210
0.0
220
0.0
230
1.0
 70
    11
 71
     3
 72
    17
 73
    13
 74
     0
 42
0.0000000001
 43
0.0000000001
 12
1.0
 22
0.0
 32
0.0
 13
1.0
 23
0.0
 33
0.0
 40
0.0
 40
0.0
 40
0.0
 40
0.0
 40
1.0
 40
1.0
 40
1.0
 40
2.0
 40
2.0
 40
2.0
 40
3.0
 40
3.0
 40
3.0
 40
4.0
 40
4.0
 40
4.0
 40
4.0
 10
111.8746204520389
 20
-141.8315989669564
 30
0.0
 10
111.8746204520389
 20
-141.7765743325032
 30
0.0
 10
111.8298126788839
 20
-141.7317665593479
 30
0.0
 10
111.7744220030351
 20
-141.7317665593479
 30
0.0
 10
111.7193973685817
 20
-141.7317665593479
 30
0.0
 10
111.6745895954266
 20
-141.7765743325032
 30
0.0
 10
111.6745895954266
 20
-141.8315989669564
 30
0.0
 10
111.6745895954266
 20
-141.8866343673332
 30
0.0
 10
111.7193973685817
 20
-141.9314421404883
 30
0.0
 10
111.7744220030351
 20
-141.9314421404883
 30
0.0
 10
111.8298126788839
 20
-141.9314421404883
 30
0.0
 10
111.8746204520389
 20
-141.8866343673332
 30
0.0
 10
111.8746204520389
 20
-141.8315989669564
 30
0.0
  0
SPLINE
  5
72
330
1F
100
AcDbEntity
  8
_U+30EC_U+30A4_U+30E4_U+30FC 1
 62
   179
420
  2234388
370
     9
100
AcDbSpline
210
0.0
220
0.0
230
1.0
 70
    11
 71
     3
 72
    17
 73
    13
 74
     0
 42
0.0000000001
 43
0.0000000001
 12
1.0
 22
0.0
 32
0.0
 13
1.0
 23
0.0
 33
0.0
 40
0.0
 40
0.0
 40
0.0
 40
0.0
 40
1.0
 40
1.0
 40
1.0
 40
2.0
 40
2.0
 40
2.0
 40
3.0
 40
3.0
 40
3.0
 40
4.0
 40
4.0
 40
4.0
 40
4.0
 10
111.8746204520389
 20
-155.6319409299234
 30
0.0
 10
111.8746204520389
 20
-155.5762057445261
 30
0.0
 10
111.8298126788839
 20
-155.5321085223149
 30
0.0
 10
111.7744220030351
 20
-155.5321085223149
 30
0.0
 10
111.7193973685817
 20
-155.5321085223149
 30
0.0
 10
111.6745895954266
 20
-155.5762057445261
 30
0.0
 10
111.6745895954266
 20
-155.6319409299234
 30
0.0
 10
111.6745895954266
 20
-155.6869763303003
 30
0.0
 10
111.7193973685817
 20
-155.7317841034553
 30
0.0
 10
111.7744220030351
 20
-155.7317841034553
 30
0.0
 10
111.8298126788839
 20
-155.7317841034553
 30
0.0
 10
111.8746204520389
 20
-155.6869763303003
 30
0.0
 10
111.8746204520389
 20
-155.6319409299234
 30
0.0
  0
SPLINE
  5
73
330
1F
100
AcDbEntity
  8
_U+30EC_U+30A4_U+30E4_U+30FC 1
 62
   179
420
  2234388
370
     9
100
AcDbSpline
210
0.0
220
0.0
230
1.0
 70
    11
 71
     3
 72
    17
 73
    13
 74
     0
 42
0.0000000001
 43
0.0000000001
 12
1.0
 22
0.0
 32
0.0
 13
1.0
 23
0.0
 33
0.0
 40
0.0
 40
0.0
 40
0.0
 40
0.0
 40
1.0
 40
1.0
 40
1.0
 40
2.0
 40
2.0
 40
2.0
 40
3.0
 40
3.0
 40
3.0
 40
4.0
 40
4.0
 40
4.0
 40
4.0
 10
111.8746204520389
 20
-158.631930078479
 30
0.0
 10
111.8746204520389
 20
-158.5769054440255
 30
0.0
 10
111.8298126788839
 20
-158.5320976708705
 30
0.0
 10
111.7744220030351
 20
-158.5320976708705
 30
0.0
 10
111.7193973685817
 20
-158.5320976708705
 30
0.0
 10
111.6745895954266
 20
-158.5769054440255
 30
0.0
 10
111.6745895954266
 20
-158.631930078479
 30
0.0
 10
111.6745895954266
 20
-158.6869654788558
 30
0.0
 10
111.7193973685817
 20
-158.7317732520109
 30
0.0
 10
111.7744220030351
 20
-158.7317732520109
 30
0.0
 10
111.8298126788839
 20
-158.7317732520109
 30
0.0
 10
111.8746204520389
 20
-158.6869654788558
 30
0.0
 10
111.8746204520389
 20
-158.631930078479
 30
0.0
  0
SPLINE
  5
74
330
1F
100
AcDbEntity
  8
_U+30EC_U+30A4_U+30E4_U+30FC 1
 62
   179
420
  2234388
370
     9
100
AcDbSpline
210
0.0
220
0.0
230
1.0
 70
    11
 71
     3
 72
    17
 73
    13
 74
     0
 42
0.0000000001
 43
0.0000000001
 12
1.0
 22
0.0
 32
0.0
 13
1.0
 23
0.0
 33
0.0
 40
0.0
 40
0.0
 40
0.0
 40
0.0
 40
1.0
 40
1.0
 40
1.0
 40
2.0
 40
2.0
 40
2.0
 40
3.0
 40
3.0
 40
3.0
 40
4.0
 40
4.0
 40
4.0
 40
4.0
 10
102.8743084968237
 20
-162.6316967027774
 30
0.0
 10
102.8743084968237
 20
-162.5766720683239
 30
0.0
 10
102.8295007236687
 20
-162.5318642951689
 30
0.0
 10
102.7744653232918
 20
-162.5318642951689
 30
0.0
 10
102.719429922915
 20
-162.5318642951689
 30
0.0
 10
102.6746329156833
 20
-162.5766720683239
 30
0.0
 10
102.6746329156833
 20
-162.6316967027774
 30
0.0
 10
102.6746329156833
 20
-162.6867321031543
 30
0.0
 10
102.719429922915
 20
-162.7315398763093
 30
0.0
 10
102.7744653232918
 20
-162.7315398763093
 30
0.0
 10
102.8295007236687
 20
-162.7315398763093
 30
0.0
 10
102.8743084968237
 20
-162.6867321031543
 30
0.0
 10
102.8743084968237
 20
-162.6316967027774
 30
0.0
  0
SPLINE
  5
75
330
1F
100
AcDbEntity
  8
_U+30EC_U+30A4_U+30E4_U+30FC 1
 62
   179
420
  2234388
370
     9
100
AcDbSpline
210
0.0
220
0.0
230
1.0
 70
    11
 71
     3
 72
    17
 73
    13
 74
     0
 42
0.0000000001
 43
0.0000000001
 12
1.0
 22
0.0
 32
0.0
 13
1.0
 23
0.0
 33
0.0
 40
0.0
 40
0.0
 40
0.0
 40
0.0
 40
1.0
 40
1.0
 40
1.0
 40
2.0
 40
2.0
 40
2.0
 40
3.0
 40
3.0
 40
3.0
 40
4.0
 40
4.0
 40
4.0
 40
4.0
 10
111.8746204520389
 20
-142.6315178408612
 30
0.0
 10
111.8746204520389
 20
-142.5764932064077
 30
0.0
 10
111.8298126788839
 20
-142.5316854332527
 30
0.0
 10
111.7744220030351
 20
-142.5316854332527
 30
0.0
 10
111.7193973685817
 20
-142.5316854332527
 30
0.0
 10
111.6745895954266
 20
-142.5764932064077
 30
0.0
 10
111.6745895954266
 20
-142.6315178408612
 30
0.0
 10
111.6745895954266
 20
-142.6872637921819
 30
0.0
 10
111.7193973685817
 20
-142.7320607994136
 30
0.0
 10
111.7744220030351
 20
-142.7320607994136
 30
0.0
 10
111.8298126788839
 20
-142.7320607994136
 30
0.0
 10
111.8746204520389
 20
-142.6872637921819
 30
0.0
 10
111.8746204520389
 20
-142.6315178408612
 30
0.0
  0
SPLINE
  5
76
330
1F
100
AcDbEntity
  8
_U+30EC_U+30A4_U+30E4_U+30FC 1
 62
   179
420
  2234388
370
     9
100
AcDbSpline
210
0.0
220
0.0
230
1.0
 70
    11
 71
     3
 72
    17
 73
    13
 74
     0
 42
0.0000000001
 43
0.0000000001
 12
1.0
 22
0.0
 32
0.0
 13
1.0
 23
0.0
 33
0.0
 40
0.0
 40
0.0
 40
0.0
 40
0.0
 40
1.0
 40
1.0
 40
1.0
 40
2.0
 40
2.0
 40
2.0
 40
3.0
 40
3.0
 40
3.0
 40
4.0
 40
4.0
 40
4.0
 40
4.0
 10
107.874509318192
 20
-137.8318431085813
 30
0.0
 10
107.874509318192
 20
-137.7768184741282
 30
0.0
 10
107.8297015450369
 20
-137.7320107009728
 30
0.0
 10
107.7746661446601
 20
-137.7320107009728
 30
0.0
 10
107.7192862347347
 20
-137.7320107009728
 30
0.0
 10
107.6748337370516
 20
-137.7768184741282
 30
0.0
 10
107.6748337370516
 20
-137.8318431085813
 30
0.0
 10
107.6748337370516
 20
-137.8868785089582
 30
0.0
 10
107.7192862347347
 20
-137.9316862821132
 30
0.0
 10
107.7746661446601
 20
-137.9316862821132
 30
0.0
 10
107.8297015450369
 20
-137.9316862821132
 30
0.0
 10
107.874509318192
 20
-137.8868785089582
 30
0.0
 10
107.874509318192
 20
-137.8318431085813
 30
0.0
  0
SPLINE
  5
77
330
1F
100
AcDbEntity
  8
_U+30EC_U+30A4_U+30E4_U+30FC 1
 62
   179
420
  2234388
370
     9
100
AcDbSpline
210
0.0
220
0.0
230
1.0
 70
    11
 71
     3
 72
    17
 73
    13
 74
     0
 42
0.0000000001
 43
0.0000000001
 12
1.0
 22
0.0
 32
0.0
 13
1.0
 23
0.0
 33
0.0
 40
0.0
 40
0.0
 40
0.0
 40
0.0
 40
1.0
 40
1.0
 40
1.0
 40
2.0
 40
2.0
 40
2.0
 40
3.0
 40
3.0
 40
3.0
 40
4.0
 40
4.0
 40
4.0
 40
4.0
 10
97.87477516270611
 20
-137.8318431085813
 30
0.0
 10
97.87477516270611
 20
-137.7768184741282
 30
0.0
 10
97.82996738955076
 20
-137.7320107009728
 30
0.0
 10
97.77457671370198
 20
-137.7320107009728
 30
0.0
 10
97.71919680377658
 20
-137.7320107009728
 30
0.0
 10
97.67438903062155
 20
-137.7768184741282
 30
0.0
 10
97.67438903062155
 20
-137.8318431085813
 30
0.0
 10
97.67438903062155
 20
-137.8868785089582
 30
0.0
 10
97.71919680377658
 20
-137.9316862821132
 30
0.0
 10
97.77457671370198
 20
-137.9316862821132
 30
0.0
 10
97.82996738955076
 20
-137.9316862821132
 30
0.0
 10
97.87477516270611
 20
-137.8868785089582
 30
0.0
 10
97.87477516270611
 20
-137.8318431085813
 30
0.0
  0
SPLINE
  5
78
330
1F
100
AcDbEntity
  8
_U+30EC_U+30A4_U+30E4_U+30FC 1
 62
   179
420
  2234388
370
     9
100
AcDbSpline
210
0.0
220
0.0
230
1.0
 70
    11
 71
     3
 72
    17
 73
    13
 74
     0
 42
0.0000000001
 43
0.0000000001
 12
1.0
 22
0.0
 32
0.0
 13
1.0
 23
0.0
 33
0.0
 40
0.0
 40
0.0
 40
0.0
 40
0.0
 40
1.0
 40
1.0
 40
1.0
 40
2.0
 40
2.0
 40
2.0
 40
3.0
 40
3.0
 40
3.0
 40
4.0
 40
4.0
 40
4.0
 40
4.0
 10
97.87477516270611
 20
-162.6316967027774
 30
0.0
 10
97.87477516270611
 20
-162.5766720683239
 30
0.0
 10
97.82996738955076
 20
-162.5318642951689
 30
0.0
 10
97.77457671370198
 20
-162.5318642951689
 30
0.0
 10
97.71919680377658
 20
-162.5318642951689
 30
0.0
 10
97.67438903062155
 20
-162.5766720683239
 30
0.0
 10
97.67438903062155
 20
-162.6316967027774
 30
0.0
 10
97.67438903062155
 20
-162.6867321031543
 30
0.0
 10
97.71919680377658
 20
-162.7315398763093
 30
0.0
 10
97.77457671370198
 20
-162.7315398763093
 30
0.0
 10
97.82996738955076
 20
-162.7315398763093
 30
0.0
 10
97.87477516270611
 20
-162.6867321031543
 30
0.0
 10
97.87477516270611
 20
-162.6316967027774
 30
0.0
  0
POLYLINE
  5
79
330
1F
100
AcDbEntity
  8
_U+30EC_U+30A4_U+30E4_U+30FC 1
 62
   179
420
  2234388
370
     9
100
AcDb2dPolyline
 66
     1
 10
0.0
 20
0.0
 30
0.0
  0
VERTEX
  5
7A
330
79
100
AcDbEntity
  8
_U+30EC_U+30A4_U+30E4_U+30FC 1
 62
   179
420
  2234388
370
     9
100
AcDbVertex
100
AcDb2dVertex
 10
111.7743574074948
 20
-155.6319409299234
 30
0.0
  0
VERTEX
  5
7B
330
79
100
AcDbEntity
  8
_U+30EC_U+30A4_U+30E4_U+30FC 1
 62
   179
420
  2234388
370
     9
100
AcDbVertex
100
AcDb2dVertex
 10
111.7743574074948
 20
-158.6319731421725
 30
0.0
  0
SEQEND
  5
7C
330
79
100
AcDbEntity
  8
_U+30EC_U+30A4_U+30E4_U+30FC 1
 62
   179
420
  2234388
370
     9
  0
POLYLINE
  5
7D
330
1F
100
AcDbEntity
  8
_U+30EC_U+30A4_U+30E4_U+30FC 1
 62
   179
420
  2234388
370
     9
100
AcDb2dPolyline
 66
     1
 10
0.0
 20
0.0
 30
0.0
  0
VERTEX
  5
7E
330
7D
100
AcDbEntity
  8
_U+30EC_U+30A4_U+30E4_U+30FC 1
 62
   179
420
  2234388
370
     9
100
AcDbVertex
100
AcDb2dVertex
 10
105.3144696290262
 20
-158.631930078479
 30
0.0
  0
VERTEX
  5
7F
330
7D
100
AcDbEntity
  8
_U+30EC_U+30A4_U+30E4_U+30FC 1
 62
   179
420
  2234388
370
     9
100
AcDbVertex
100
AcDb2dVertex
 10
112.7743071380119
 20
-158.631930078479
 30
0.0
  0
SEQEND
  5
80
330
7D
100
AcDbEntity
  8
_U+30EC_U+30A4_U+30E4_U+30FC 1
 62
   179
420
  2234388
370
     9
  0
INSERT
  5
82
330
1F
100
AcDbEntity
  8
_U+30EC_U+30A4_U+30E4_U+30FC 1
100
AcDbBlockReference
  2
block 2
 10
0.0
 20
0.0
 30
0.0
  0
POLYLINE
  5
87
330
1F
100
AcDbEntity
  8
_U+30EC_U+30A4_U+30E4_U+30FC 1
 62
   179
420
  2234388
370
     9
100
AcDb2dPolyline
 66
     1
 10
0.0
 20
0.0
 30
0.0
  0
VERTEX
  5
88
330
87
100
AcDbEntity
  8
_U+30EC_U+30A4_U+30E4_U+30FC 1
 62
   179
420
  2234388
370
     9
100
AcDbVertex
100
AcDb2dVertex
 10
97.77451211816162
 20
-137.8318431085813
 30
0.0
  0
VERTEX
  5
89
330
87
100
AcDbEntity
  8
_U+30EC_U+30A4_U+30E4_U+30FC 1
 62
   179
420
  2234388
370
     9
100
AcDbVertex
100
AcDb2dVertex
 10
107.7746984424302
 20
-137.8318431085813
 30
0.0
  0
SEQEND
  5
8A
330
87
100
AcDbEntity
  8
_U+30EC_U+30A4_U+30E4_U+30FC 1
 62
   179
420
  2234388
370
     9
  0
POLYLINE
  5
8B
330
1F
100
AcDbEntity
  8
_U+30EC_U+30A4_U+30E4_U+30FC 1
 62
   179
420
  2234388
370
     9
100
AcDb2dPolyline
 66
     1
 10
0.0
 20
0.0
 30
0.0
  0
VERTEX
  5
8C
330
8B
100
AcDbEntity
  8
_U+30EC_U+30A4_U+30E4_U+30FC 1
 62
   179
420
  2234388
370
     9
100
AcDbVertex
100
AcDb2dVertex
 10
97.77451211816162
 20
-139.29184227746
 30
0.0
  0
VERTEX
  5
8D
330
8B
100
AcDbEntity
  8
_U+30EC_U+30A4_U+30E4_U+30FC 1
 62
   179
420
  2234388
370
     9
100
AcDbVertex
100
AcDb2dVertex
 10
97.77451211816162
 20
-136.8315704003628
 30
0.0
  0
SEQEND
  5
8E
330
8B
100
AcDbEntity
  8
_U+30EC_U+30A4_U+30E4_U+30FC 1
 62
   179
420
  2234388
370
     9
  0
POLYLINE
  5
8F
330
1F
100
AcDbEntity
  8
_U+30EC_U+30A4_U+30E4_U+30FC 1
 62
   179
420
  2234388
370
     9
100
AcDb2dPolyline
 66
     1
 10
0.0
 20
0.0
 30
0.0
  0
VERTEX
  5
90
330
8F
100
AcDbEntity
  8
_U+30EC_U+30A4_U+30E4_U+30FC 1
 62
   179
420
  2234388
370
     9
100
AcDbVertex
100
AcDb2dVertex
 10
107.7746015491197
 20
-139.29184227746
 30
0.0
  0
VERTEX
  5
91
330
8F
100
AcDbEntity
  8
_U+30EC_U+30A4_U+30E4_U+30FC 1
 62
   179
420
  2234388
370
     9
100
AcDbVertex
100
AcDb2dVertex
 10
107.7746015491197
 20
-136.8315704003628
 30
0.0
  0
SEQEND
  5
92
330
8F
100
AcDbEntity
  8
_U+30EC_U+30A4_U+30E4_U+30FC 1
 62
   179
420
  2234388
370
     9
  0
INSERT
  5
94
330
1F
100
AcDbEntity
  8
_U+30EC_U+30A4_U+30E4_U+30FC 1
100
AcDbBlockReference
  2
block 3
 10
0.0
 20
0.0
 30
0.0
  0
POLYLINE
  5
9C
330
1F
100
AcDbEntity
  8
_U+30EC_U+30A4_U+30E4_U+30FC 1
 62
   179
420
  2234388
370
     9
100
AcDb2dPolyline
 66
     1
 10
0.0
 20
0.0
 30
0.0
  0
VERTEX
  5
9D
330
9C
100
AcDbEntity
  8
_U+30EC_U+30A4_U+30E4_U+30FC 1
 62
   179
420
  2234388
370
     9
100
AcDbVertex
100
AcDb2dVertex
 10
97.77451211816162
 20
-162.6316967027774
 30
0.0
  0
VERTEX
  5
9E
330
9C
100
AcDbEntity
  8
_U+30EC_U+30A4_U+30E4_U+30FC 1
 62
   179
420
  2234388
370
     9
100
AcDbVertex
100
AcDb2dVertex
 10
102.7744222595983
 20
-162.6316967027774
 30
0.0
  0
SEQEND
  5
9F
330
9C
100
AcDbEntity
  8
_U+30EC_U+30A4_U+30E4_U+30FC 1
 62
   179
420
  2234388
370
     9
  0
POLYLINE
  5
A0
330
1F
100
AcDbEntity
  8
_U+30EC_U+30A4_U+30E4_U+30FC 1
 62
   179
420
  2234388
370
     9
100
AcDb2dPolyline
 66
     1
 10
0.0
 20
0.0
 30
0.0
  0
VERTEX
  5
A1
330
A0
100
AcDbEntity
  8
_U+30EC_U+30A4_U+30E4_U+30FC 1
 62
   179
420
  2234388
370
     9
100
AcDbVertex
100
AcDb2dVertex
 10
97.77451211816162
 20
-161.1716544702051
 30
0.0
  0
VERTEX
  5
A2
330
A0
100
AcDbEntity
  8
_U+30EC_U+30A4_U+30E4_U+30FC 1
 62
   179
420
  2234388
370
     9
100
AcDbVertex
100
AcDb2dVertex
 10
97.77451211816162
 20
-163.6315818377542
 30
0.0
  0
SEQEND
  5
A3
330
A0
100
AcDbEntity
  8
_U+30EC_U+30A4_U+30E4_U+30FC 1
 62
   179
420
  2234388
370
     9
  0
POLYLINE
  5
A4
330
1F
100
AcDbEntity
  8
_U+30EC_U+30A4_U+30E4_U+30FC 1
 62
   179
420
  2234388
370
     9
100
AcDb2dPolyline
 66
     1
 10
0.0
 20
0.0
 30
0.0
  0
VERTEX
  5
A5
330
A4
100
AcDbEntity
  8
_U+30EC_U+30A4_U+30E4_U+30FC 1
 62
   179
420
  2234388
370
     9
100
AcDbVertex
100
AcDb2dVertex
 10
102.7744007277515
 20
-161.1716544702051
 30
0.0
  0
VERTEX
  5
A6
330
A4
100
AcDbEntity
  8
_U+30EC_U+30A4_U+30E4_U+30FC 1
 62
   179
420
  2234388
370
     9
100
AcDbVertex
100
AcDb2dVertex
 10
102.7744007277515
 20
-163.6315818377542
 30
0.0
  0
SEQEND
  5
A7
330
A4
100
AcDbEntity
  8
_U+30EC_U+30A4_U+30E4_U+30FC 1
 62
   179
420
  2234388
370
     9
  0
INSERT
  5
A9
330
1F
100
AcDbEntity
  8
_U+30EC_U+30A4_U+30E4_U+30FC 1
100
AcDbBlockReference
  2
block 4
 10
0.0
 20
0.0
 30
0.0
  0
POLYLINE
  5
AE
330
1F
100
AcDbEntity
  8
_U+30EC_U+30A4_U+30E4_U+30FC 1
 62
   179
420
  2234388
370
     9
100
AcDb2dPolyline
 66
     1
 10
0.0
 20
0.0
 30
0.0
  0
VERTEX
  5
AF
330
AE
100
AcDbEntity
  8
_U+30EC_U+30A4_U+30E4_U+30FC 1
 62
   179
420
  2234388
370
     9
100
AcDbVertex
100
AcDb2dVertex
 10
111.7743574074948
 20
-141.8315989669564
 30
0.0
  0
VERTEX
  5
B0
330
AE
100
AcDbEntity
  8
_U+30EC_U+30A4_U+30E4_U+30FC 1
 62
   179
420
  2234388
370
     9
100
AcDbVertex
100
AcDb2dVertex
 10
111.7743574074948
 20
-136.573801896602
 30
0.0
  0
SEQEND
  5
B1
330
AE
100
AcDbEntity
  8
_U+30EC_U+30A4_U+30E4_U+30FC 1
 62
   179
420
  2234388
370
     9
  0
POLYLINE
  5
B2
330
1F
100
AcDbEntity
  8
_U+30EC_U+30A4_U+30E4_U+30FC 1
 62
   179
420
  2234388
370
     9
100
AcDb2dPolyline
 66
     1
 10
0.0
 20
0.0
 30
0.0
  0
VERTEX
  5
B3
330
B2
100
AcDbEntity
  8
_U+30EC_U+30A4_U+30E4_U+30FC 1
 62
   179
420
  2234388
370
     9
100
AcDbVertex
100
AcDb2dVertex
 10
111.7743574074948
 20
-142.6315178408612
 30
0.0
  0
VERTEX
  5
B4
330
B2
100
AcDbEntity
  8
_U+30EC_U+30A4_U+30E4_U+30FC 1
 62
   179
420
  2234388
370
     9
100
AcDbVertex
100
AcDb2dVertex
 10
111.7743574074948
 20
-141.8314267121821
 30
0.0
  0
SEQEND
  5
B5
330
B2
100
AcDbEntity
  8
_U+30EC_U+30A4_U+30E4_U+30FC 1
 62
   179
420
  2234388
370
     9
  0
POLYLINE
  5
B6
330
1F
100
AcDbEntity
  8
_U+30EC_U+30A4_U+30E4_U+30FC 1
 62
   179
420
  2234388
370
     9
100
AcDb2dPolyline
 66
     1
 10
0.0
 20
0.0
 30
0.0
  0
VERTEX
  5
B7
330
B6
100
AcDbEntity
  8
_U+30EC_U+30A4_U+30E4_U+30FC 1
 62
   179
420
  2234388
370
     9
100
AcDbVertex
100
AcDb2dVertex
 10
110.3146704503944
 20
-142.6315178408612
 30
0.0
  0
VERTEX
  5
B8
330
B6
100
AcDbEntity
  8
_U+30EC_U+30A4_U+30E4_U+30FC 1
 62
   179
420
  2234388
370
     9
100
AcDbVertex
100
AcDb2dVertex
 10
112.7745870520201
 20
-142.6315178408612
 30
0.0
  0
SEQEND
  5
B9
330
B6
100
AcDbEntity
  8
_U+30EC_U+30A4_U+30E4_U+30FC 1
 62
   179
420
  2234388
370
     9
  0
POLYLINE
  5
BA
330
1F
100
AcDbEntity
  8
_U+30EC_U+30A4_U+30E4_U+30FC 1
 62
   179
420
  2234388
370
     9
100
AcDb2dPolyline
 66
     1
 10
0.0
 20
0.0
 30
0.0
  0
VERTEX
  5
BB
330
BA
100
AcDbEntity
  8
_U+30EC_U+30A4_U+30E4_U+30FC 1
 62
   179
420
  2234388
370
     9
100
AcDbVertex
100
AcDb2dVertex
 10
110.3146704503944
 20
-141.8315989669564
 30
0.0
  0
VERTEX
  5
BC
330
BA
100
AcDbEntity
  8
_U+30EC_U+30A4_U+30E4_U+30FC 1
 62
   179
420
  2234388
370
     9
100
AcDbVertex
100
AcDb2dVertex
 10
112.7745870520201
 20
-141.8315989669564
 30
0.0
  0
SEQEND
  5
BD
330
BA
100
AcDbEntity
  8
_U+30EC_U+30A4_U+30E4_U+30FC 1
 62
   179
420
  2234388
370
     9
  0
INSERT
  5
BF
330
1F
100
AcDbEntity
  8
_U+30EC_U+30A4_U+30E4_U+30FC 1
100
AcDbBlockReference
  2
block 5
 10
0.0
 20
0.0
 30
0.0
  0
POLYLINE
  5
D1
330
1F
100
AcDbEntity
  8
_U+30EC_U+30A4_U+30E4_U+30FC 1
 62
   179
420
  2234388
370
     9
100
AcDb2dPolyline
 66
     1
 10
0.0
 20
0.0
 30
0.0
  0
VERTEX
  5
D2
330
D1
100
AcDbEntity
  8
_U+30EC_U+30A4_U+30E4_U+30FC 1
 62
   179
420
  2234388
370
     9
100
AcDbVertex
100
AcDb2dVertex
 10
111.7743574074948
 20
-142.6315178408612
 30
0.0
  0
VERTEX
  5
D3
330
D1
100
AcDbEntity
  8
_U+30EC_U+30A4_U+30E4_U+30FC 1
 62
   179
420
  2234388
370
     9
100
AcDbVertex
100
AcDb2dVertex
 10
111.7743574074948
 20
-155.6320916528509
 30
0.0
  0
SEQEND
  5
D4
330
D1
100
AcDbEntity
  8
_U+30EC_U+30A4_U+30E4_U+30FC 1
 62
   179
420
  2234388
370
     9
  0
POLYLINE
  5
D5
330
1F
100
AcDbEntity
  8
_U+30EC_U+30A4_U+30E4_U+30FC 1
 62
   179
420
  2234388
370
     9
100
AcDb2dPolyline
 66
     1
 10
0.0
 20
0.0
 30
0.0
  0
VERTEX
  5
D6
330
D5
100
AcDbEntity
  8
_U+30EC_U+30A4_U+30E4_U+30FC 1
 62
   179
420
  2234388
370
     9
100
AcDbVertex
100
AcDb2dVertex
 10
110.3146704503944
 20
-142.6315178408612
 30
0.0
  0
VERTEX
  5
D7
330
D5
100
AcDbEntity
  8
_U+30EC_U+30A4_U+30E4_U+30FC 1
 62
   179
420
  2234388
370
     9
100
AcDbVertex
100
AcDb2dVertex
 10
112.7745870520201
 20
-142.6315178408612
 30
0.0
  0
SEQEND
  5
D8
330
D5
100
AcDbEntity
  8
_U+30EC_U+30A4_U+30E4_U+30FC 1
 62
   179
420
  2234388
370
     9
  0
POLYLINE
  5
D9
330
1F
100
AcDbEntity
  8
_U+30EC_U+30A4_U+30E4_U+30FC 1
 62
   179
420
  2234388
370
     9
100
AcDb2dPolyline
 66
     1
 10
0.0
 20
0.0
 30
0.0
  0
VERTEX
  5
DA
330
D9
100
AcDbEntity
  8
_U+30EC_U+30A4_U+30E4_U+30FC 1
 62
   179
420
  2234388
370
     9
100
AcDbVertex
100
AcDb2dVertex
 10
105.3144696290262
 20
-155.6319409299234
 30
0.0
  0
VERTEX
  5
DB
330
D9
100
AcDbEntity
  8
_U+30EC_U+30A4_U+30E4_U+30FC 1
 62
   179
420
  2234388
370
     9
100
AcDbVertex
100
AcDb2dVertex
 10
112.7743071380119
 20
-155.6319409299234
 30
0.0
  0
SEQEND
  5
DC
330
D9
100
AcDbEntity
  8
_U+30EC_U+30A4_U+30E4_U+30FC 1
 62
   179
420
  2234388
370
     9
  0
INSERT
  5
DE
330
1F
100
AcDbEntity
  8
_U+30EC_U+30A4_U+30E4_U+30FC 1
100
AcDbBlockReference
  2
block 6
 10
0.0
 20
0.0
 30
0.0
  0
POLYLINE
  5
E5
330
1F
100
AcDbEntity
  8
_U+30EC_U+30A4_U+30E4_U+30FC 1
370
     0
100
AcDb2dPolyline
 66
     1
 10
0.0
 20
0.0
 30
0.0
  0
VERTEX
  5
E6
330
E5
100
AcDbEntity
  8
_U+30EC_U+30A4_U+30E4_U+30FC 1
370
     0
100
AcDbVertex
100
AcDb2dVertex
 10
128.9058267906902
 20
-166.8870554927108
 30
0.0
  0
VERTEX
  5
E7
330
E5
100
AcDbEntity
  8
_U+30EC_U+30A4_U+30E4_U+30FC 1
370
     0
100
AcDbVertex
100
AcDb2dVertex
 10
80.30113352563612
 20
-166.8870554927108
 30
0.0
  0
VERTEX
  5
E8
330
E5
100
AcDbEntity
  8
_U+30EC_U+30A4_U+30E4_U+30FC 1
370
     0
100
AcDbVertex
100
AcDb2dVertex
 10
80.30113352563612
 20
-130.1749999414463
 30
0.0
  0
VERTEX
  5
E9
330
E5
100
AcDbEntity
  8
_U+30EC_U+30A4_U+30E4_U+30FC 1
370
     0
100
AcDbVertex
100
AcDb2dVertex
 10
128.9058267906902
 20
-130.1749999414463
 30
0.0
  0
VERTEX
  5
EA
330
E5
100
AcDbEntity
  8
_U+30EC_U+30A4_U+30E4_U+30FC 1
370
     0
100
AcDbVertex
100
AcDb2dVertex
 10
128.9058267906902
 20
-166.8870554927108
 30
0.0
  0
SEQEND
  5
EB
330
E5
100
AcDbEntity
  8
_U+30EC_U+30A4_U+30E4_U+30FC 1
370
     0
  0
ENDSEC
  0
SECTION
  2
OBJECTS
  0
DICTIONARY
  5
C
330
0
100
AcDbDictionary
281
     1
  3
ACAD_GROUP
350
D
  3
ACAD_LAYOUT
350
1A
  3
ACAD_MATERIAL
350
3B
  3
ACAD_MLEADERSTYLE
350
ED
  3
ACAD_MLINESTYLE
350
17
  3
ACAD_PLOTSETTINGS
350
19
  3
ACAD_PLOTSTYLENAME
350
E
  3
ACAD_TABLESTYLE
350
EC
  3
ACAD_VISUALSTYLE
350
2A
  0
SUN
  5
3F
330
29
100
AcDbSun
 90
        1
290
     0
 63
     7
421
 16777215
 40
1.0
291
     1
 91
  2455826
 92
 54000000
292
     0
 70
     2
 71
   256
280
     1
  0
DICTIONARY
  5
D
102
{ACAD_REACTORS
330
C
102
}
330
C
100
AcDbDictionary
281
     1
  0
DICTIONARY
  5
1A
102
{ACAD_REACTORS
330
C
102
}
330
C
100
AcDbDictionary
281
     1
  3
Layout1
350
1E
  3
Layout2
350
26
  3
Model
350
22
  0
DICTIONARY
  5
3B
102
{ACAD_REACTORS
330
C
102
}
330
C
100
AcDbDictionary
281
     1
  3
ByBlock
350
3D
  3
ByLayer
350
3C
  3
Global
350
3E
  0
DICTIONARY
  5
ED
102
{ACAD_REACTORS
330
C
102
}
330
C
100
AcDbDictionary
281
     1
  0
DICTIONARY
  5
17
102
{ACAD_REACTORS
330
C
102
}
330
C
100
AcDbDictionary
281
     1
  3
Standard
350
18
  0
DICTIONARY
  5
19
102
{ACAD_REACTORS
330
C
102
}
330
C
100
AcDbDictionary
281
     1
  0
ACDBDICTIONARYWDFLT
  5
E
102
{ACAD_REACTORS
330
C
102
}
330
C
100
AcDbDictionary
281
     1
  3
Normal
350
F
100
AcDbDictionaryWithDefault
340
F
  0
DICTIONARY
  5
EC
102
{ACAD_REACTORS
330
C
102
}
330
C
100
AcDbDictionary
281
     1
  0
DICTIONARY
  5
2A
102
{ACAD_REACTORS
330
C
102
}
330
C
100
AcDbDictionary
281
     1
  3
2dWireframe
350
2F
  3
3D Hidden
350
31
  3
3dWireframe
350
30
  3
Basic
350
32
  3
Brighten
350
36
  3
ColorChange
350
3A
  3
Conceptual
350
34
  3
Dim
350
35
  3
Facepattern
350
39
  3
Flat
350
2B
  3
FlatWithEdges
350
2C
  3
Gouraud
350
2D
  3
GouraudWithEdges
350
2E
  3
Linepattern
350
38
  3
Realistic
350
33
  3
Thicken
350
37
  0
LAYOUT
  5
1E
102
{ACAD_REACTORS
330
1A
102
}
330
1A
100
AcDbPlotSettings
  1

  2
none_device
  4

  6

 40
0.0
 41
0.0
 42
0.0
 43
0.0
 44
0.0
 45
0.0
 46
0.0
 47
0.0
 48
0.0
 49
0.0
140
0.0
141
0.0
142
1.0
143
1.0
 70
   688
 72
     0
 73
     0
 74
     5
  7

 75
    16
 76
     0
 77
     2
 78
   300
147
1.0
148
0.0
149
0.0
100
AcDbLayout
  1
Layout1
 70
     1
 71
     1
 10
0.0
 20
0.0
 11
12.0
 21
9.0
 12
0.0
 22
0.0
 32
0.0
 14
1.000000000000000E+20
 24
1.000000000000000E+20
 34
1.000000000000000E+20
 15
-1.000000000000000E+20
 25
-1.000000000000000E+20
 35
-1.000000000000000E+20
146
0.0
 13
0.0
 23
0.0
 33
0.0
 16
1.0
 26
0.0
 36
0.0
 17
0.0
 27
1.0
 37
0.0
 76
     0
330
1B
  0
LAYOUT
  5
26
102
{ACAD_REACTORS
330
1A
102
}
330
1A
100
AcDbPlotSettings
  1

  2
none_device
  4

  6

 40
0.0
 41
0.0
 42
0.0
 43
0.0
 44
0.0
 45
0.0
 46
0.0
 47
0.0
 48
0.0
 49
0.0
140
0.0
141
0.0
142
1.0
143
1.0
 70
   688
 72
     0
 73
     0
 74
     5
  7

 75
    16
 76
     0
 77
     2
 78
   300
147
1.0
148
0.0
149
0.0
100
AcDbLayout
  1
Layout2
 70
     1
 71
     2
 10
0.0
 20
0.0
 11
0.0
 21
0.0
 12
0.0
 22
0.0
 32
0.0
 14
0.0
 24
0.0
 34
0.0
 15
0.0
 25
0.0
 35
0.0
146
0.0
 13
0.0
 23
0.0
 33
0.0
 16
1.0
 26
0.0
 36
0.0
 17
0.0
 27
1.0
 37
0.0
 76
     0
330
23
  0
LAYOUT
  5
22
102
{ACAD_REACTORS
330
1A
102
}
330
1A
100
AcDbPlotSettings
  1

  2
none_device
  4

  6

 40
0.0
 41
0.0
 42
0.0
 43
0.0
 44
0.0
 45
0.0
 46
0.0
 47
0.0
 48
0.0
 49
0.0
140
0.0
141
0.0
142
1.0
143
1.0
 70
  1712
 72
     0
 73
     0
 74
     0
  7

 75
     0
 76
     0
 77
     2
 78
   300
147
1.0
148
0.0
149
0.0
100
AcDbLayout
  1
Model
 70
     1
 71
     0
 10
0.0
 20
0.0
 11
12.0
 21
9.0
 12
0.0
 22
0.0
 32
0.0
 14
1.000000000000000E+20
 24
1.000000000000000E+20
 34
1.000000000000000E+20
 15
-1.000000000000000E+20
 25
-1.000000000000000E+20
 35
-1.000000000000000E+20
146
0.0
 13
0.0
 23
0.0
 33
0.0
 16
1.0
 26
0.0
 36
0.0
 17
0.0
 27
1.0
 37
0.0
 76
     0
330
1F
331
29
  0
MATERIAL
  5
3D
102
{ACAD_REACTORS
330
3B
102
}
330
3B
100
AcDbMaterial
  1
ByBlock
 72
     1
 94
      127
  0
MATERIAL
  5
3C
102
{ACAD_REACTORS
330
3B
102
}
330
3B
100
AcDbMaterial
  1
ByLayer
 72
     1
 94
      127
  0
MATERIAL
  5
3E
102
{ACAD_REACTORS
330
3B
102
}
330
3B
100
AcDbMaterial
  1
Global
 72
     1
 94
      127
  0
MLINESTYLE
  5
18
102
{ACAD_REACTORS
330
17
102
}
330
17
100
AcDbMlineStyle
  2
Standard
 70
     0
  3

 62
   256
 51
90.0
 52
90.0
 71
     2
 49
0.5
 62
   256
  6
BYLAYER
 49
-0.5
 62
   256
  6
BYLAYER
  0
ACDBPLACEHOLDER
  5
F
102
{ACAD_REACTORS
330
E
102
}
330
E
  0
VISUALSTYLE
  5
2F
102
{ACAD_REACTORS
330
2A
102
}
330
2A
100
AcDbVisualStyle
  2
2dWireframe
 70
     4
177
     2
291
     0
 71
     0
176
     1
 72
     2
176
     1
 73
     0
176
     1
 90
        0
176
     1
 40
-0.6
176
     1
 41
-30.0
176
     1
 62
     5
 63
     7
421
 16777215
176
     1
 74
     1
176
     1
 91
        4
176
     1
 64
     7
176
     1
 65
   257
176
     1
 75
     1
176
     1
175
     1
176
     1
 42
1.0
176
     1
 92
        0
176
     1
 66
   257
176
     1
 43
1.0
176
     1
 76
     1
176
     1
 77
     6
176
     1
 78
     2
176
     1
 67
     7
176
     1
 79
     5
176
     1
170
     0
176
     1
171
     0
176
     1
290
     0
176
     1
 93
        1
176
     1
 44
0.0
176
     1
173
     0
176
     1
  0
VISUALSTYLE
  5
31
102
{ACAD_REACTORS
330
2A
102
}
330
2A
100
AcDbVisualStyle
  2
3D Hidden
 70
     6
177
     2
291
     0
 71
     1
176
     1
 72
     2
176
     1
 73
     2
176
     1
 90
        0
176
     1
 40
-0.6
176
     1
 41
-30.0
176
     1
 62
     5
 63
     7
421
 16777215
176
     1
 74
     2
176
     1
 91
        2
176
     1
 64
     7
176
     1
 65
   257
176
     1
 75
     2
176
     1
175
     1
176
     1
 42
40.0
176
     1
 92
        0
176
     1
 66
   257
176
     1
 43
1.0
176
     1
 76
     1
176
     1
 77
     6
176
     1
 78
     2
176
     1
 67
     7
176
     1
 79
     3
176
     1
170
     0
176
     1
171
     0
176
     1
290
     0
176
     1
 93
        1
176
     1
 44
0.0
176
     1
173
     0
176
     1
  0
VISUALSTYLE
  5
30
102
{ACAD_REACTORS
330
2A
102
}
330
2A
100
AcDbVisualStyle
  2
3dWireframe
 70
     5
177
     2
291
     0
 71
     0
176
     1
 72
     2
176
     1
 73
     0
176
     1
 90
        0
176
     1
 40
-0.6
176
     1
 41
-30.0
176
     1
 62
     5
 63
     7
421
 16777215
176
     1
 74
     1
176
     1
 91
        4
176
     1
 64
     7
176
     1
 65
   257
176
     1
 75
     1
176
     1
175
     1
176
     1
 42
1.0
176
     1
 92
        0
176
     1
 66
   257
176
     1
 43
1.0
176
     1
 76
     1
176
     1
 77
     6
176
     1
 78
     2
176
     1
 67
     7
176
     1
 79
     5
176
     1
170
     0
176
     1
171
     0
176
     1
290
     0
176
     1
 93
        1
176
     1
 44
0.0
176
     1
173
     0
176
     1
  0
VISUALSTYLE
  5
32
102
{ACAD_REACTORS
330
2A
102
}
330
2A
100
AcDbVisualStyle
  2
Basic
 70
     7
177
     2
291
     1
 71
     1
176
     1
 72
     0
176
     1
 73
     1
176
     1
 90
        0
176
     1
 40
-0.6
176
     1
 41
-30.0
176
     1
 62
     5
 63
     7
421
 16777215
176
     1
 74
     0
176
     1
 91
        4
176
     1
 64
     7
176
     1
 65
   257
176
     1
 75
     1
176
     1
175
     1
176
     1
 42
1.0
176
     1
 92
        8
176
     1
 66
     7
176
     1
 43
1.0
176
     1
 76
     1
176
     1
 77
     6
176
     1
 78
     2
176
     1
 67
     7
176
     1
 79
     5
176
     1
170
     0
176
     1
171
     0
176
     1
290
     0
176
     1
 93
        1
176
     1
 44
0.0
176
     1
173
     0
176
     1
  0
VISUALSTYLE
  5
36
102
{ACAD_REACTORS
330
2A
102
}
330
2A
100
AcDbVisualStyle
  2
Brighten
 70
    12
177
     2
291
     1
 71
     2
176
     1
 72
     2
176
     1
 73
     0
176
     1
 90
        0
176
     1
 40
-0.6
176
     1
 41
-30.0
176
     1
 62
     5
 63
     7
421
 16777215
176
     1
 74
     1
176
     1
 91
        4
176
     1
 64
     7
176
     1
 65
   257
176
     1
 75
     1
176
     1
175
     1
176
     1
 42
1.0
176
     1
 92
        8
176
     1
 66
     7
176
     1
 43
1.0
176
     1
 76
     1
176
     1
 77
     6
176
     1
 78
     2
176
     1
 67
     7
176
     1
 79
     5
176
     1
170
     0
176
     1
171
     0
176
     1
290
     0
176
     1
 93
        1
176
     1
 44
50.0
176
     1
173
     0
176
     1
  0
VISUALSTYLE
  5
3A
102
{ACAD_REACTORS
330
2A
102
}
330
2A
100
AcDbVisualStyle
  2
ColorChange
 70
    16
177
     2
291
     1
 71
     2
176
     1
 72
     2
176
     1
 73
     3
176
     1
 90
        0
176
     1
 40
-0.6
176
     1
 41
-30.0
176
     1
 62
     5
 63
     8
421
  8421504
176
     1
 74
     1
176
     1
 91
        4
176
     1
 64
     7
176
     1
 65
   257
176
     1
 75
     1
176
     1
175
     1
176
     1
 42
1.0
176
     1
 92
        8
176
     1
 66
     8
424
  8421504
176
     1
 43
1.0
176
     1
 76
     1
176
     1
 77
     6
176
     1
 78
     2
176
     1
 67
     7
176
     1
 79
     5
176
     1
170
     0
176
     1
171
     0
176
     1
290
     0
176
     1
 93
        1
176
     1
 44
0.0
176
     1
173
     0
176
     1
  0
VISUALSTYLE
  5
34
102
{ACAD_REACTORS
330
2A
102
}
330
2A
100
AcDbVisualStyle
  2
Conceptual
 70
     9
177
     2
291
     0
 71
     3
176
     1
 72
     2
176
     1
 73
     0
176
     1
 90
        0
176
     1
 40
-0.6
176
     1
 41
-30.0
176
     1
 62
     5
 63
     7
421
 16777215
176
     1
 74
     2
176
     1
 91
        2
176
     1
 64
     7
176
     1
 65
   257
176
     1
 75
     1
176
     1
175
     1
176
     1
 42
40.0
176
     1
 92
        8
176
     1
 66
     7
176
     1
 43
1.0
176
     1
 76
     1
176
     1
 77
     6
176
     1
 78
     2
176
     1
 67
     7
176
     1
 79
     3
176
     1
170
     0
176
     1
171
     0
176
     1
290
     0
176
     1
 93
        1
176
     1
 44
0.0
176
     1
173
     0
176
     1
  0
VISUALSTYLE
  5
35
102
{ACAD_REACTORS
330
2A
102
}
330
2A
100
AcDbVisualStyle
  2
Dim
 70
    11
177
     2
291
     1
 71
     2
176
     1
 72
     2
176
     1
 73
     0
176
     1
 90
        0
176
     1
 40
-0.6
176
     1
 41
-30.0
176
     1
 62
     5
 63
     7
421
 16777215
176
     1
 74
     1
176
     1
 91
        4
176
     1
 64
     7
176
     1
 65
   257
176
     1
 75
     1
176
     1
175
     1
176
     1
 42
1.0
176
     1
 92
        8
176
     1
 66
     7
176
     1
 43
1.0
176
     1
 76
     1
176
     1
 77
     6
176
     1
 78
     2
176
     1
 67
     7
176
     1
 79
     5
176
     1
170
     0
176
     1
171
     0
176
     1
290
     0
176
     1
 93
        1
176
     1
 44
-50.0
176
     1
173
     0
176
     1
  0
VISUALSTYLE
  5
39
102
{ACAD_REACTORS
330
2A
102
}
330
2A
100
AcDbVisualStyle
  2
Facepattern
 70
    15
177
     2
291
     1
 71
     2
176
     1
 72
     2
176
     1
 73
     0
176
     1
 90
        0
176
     1
 40
-0.6
176
     1
 41
-30.0
176
     1
 62
     5
 63
     7
421
 16777215
176
     1
 74
     1
176
     1
 91
        4
176
     1
 64
     7
176
     1
 65
   257
176
     1
 75
     1
176
     1
175
     1
176
     1
 42
1.0
176
     1
 92
        8
176
     1
 66
     7
176
     1
 43
1.0
176
     1
 76
     1
176
     1
 77
     6
176
     1
 78
     2
176
     1
 67
     7
176
     1
 79
     5
176
     1
170
     0
176
     1
171
     0
176
     1
290
     0
176
     1
 93
        1
176
     1
 44
0.0
176
     1
173
     0
176
     1
  0
VISUALSTYLE
  5
2B
102
{ACAD_REACTORS
330
2A
102
}
330
2A
100
AcDbVisualStyle
  2
Flat
 70
     0
177
     2
291
     1
 71
     2
176
     1
 72
     1
176
     1
 73
     1
176
     1
 90
        2
176
     1
 40
-0.6
176
     1
 41
30.0
176
     1
 62
     5
 63
     7
421
 16777215
176
     1
 74
     0
176
     1
 91
        4
176
     1
 64
     7
176
     1
 65
   257
176
     1
 75
     1
176
     1
175
     1
176
     1
 42
1.0
176
     1
 92
        8
176
     1
 66
     7
176
     1
 43
1.0
176
     1
 76
     1
176
     1
 77
     6
176
     1
 78
     2
176
     1
 67
     7
176
     1
 79
     5
176
     1
170
     0
176
     1
171
     0
176
     1
290
     0
176
     1
 93
       13
176
     1
 44
0.0
176
     1
173
     0
176
     1
  0
VISUALSTYLE
  5
2C
102
{ACAD_REACTORS
330
2A
102
}
330
2A
100
AcDbVisualStyle
  2
FlatWithEdges
 70
     1
177
     2
291
     1
 71
     2
176
     1
 72
     1
176
     1
 73
     1
176
     1
 90
        2
176
     1
 40
-0.6
176
     1
 41
30.0
176
     1
 62
     5
 63
     7
421
 16777215
176
     1
 74
     1
176
     1
 91
        4
176
     1
 64
     7
176
     1
 65
   257
176
     1
 75
     1
176
     1
175
     1
176
     1
 42
1.0
176
     1
 92
        0
176
     1
 66
   257
176
     1
 43
1.0
176
     1
 76
     1
176
     1
 77
     6
176
     1
 78
     2
176
     1
 67
     7
176
     1
 79
     5
176
     1
170
     0
176
     1
171
     0
176
     1
290
     0
176
     1
 93
       13
176
     1
 44
0.0
176
     1
173
     0
176
     1
  0
VISUALSTYLE
  5
2D
102
{ACAD_REACTORS
330
2A
102
}
330
2A
100
AcDbVisualStyle
  2
Gouraud
 70
     2
177
     2
291
     1
 71
     2
176
     1
 72
     2
176
     1
 73
     1
176
     1
 90
        2
176
     1
 40
-0.6
176
     1
 41
30.0
176
     1
 62
     5
 63
     7
421
 16777215
176
     1
 74
     0
176
     1
 91
        4
176
     1
 64
     7
176
     1
 65
   257
176
     1
 75
     1
176
     1
175
     1
176
     1
 42
1.0
176
     1
 92
        0
176
     1
 66
     7
176
     1
 43
1.0
176
     1
 76
     1
176
     1
 77
     6
176
     1
 78
     2
176
     1
 67
     7
176
     1
 79
     5
176
     1
170
     0
176
     1
171
     0
176
     1
290
     0
176
     1
 93
       13
176
     1
 44
0.0
176
     1
173
     0
176
     1
  0
VISUALSTYLE
  5
2E
102
{ACAD_REACTORS
330
2A
102
}
330
2A
100
AcDbVisualStyle
  2
GouraudWithEdges
 70
     3
177
     2
291
     1
 71
     2
176
     1
 72
     2
176
     1
 73
     1
176
     1
 90
        2
176
     1
 40
-0.6
176
     1
 41
30.0
176
     1
 62
     5
 63
     7
421
 16777215
176
     1
 74
     1
176
     1
 91
        4
176
     1
 64
     7
176
     1
 65
   257
176
     1
 75
     1
176
     1
175
     1
176
     1
 42
1.0
176
     1
 92
        0
176
     1
 66
   257
176
     1
 43
1.0
176
     1
 76
     1
176
     1
 77
     6
176
     1
 78
     2
176
     1
 67
     7
176
     1
 79
     5
176
     1
170
     0
176
     1
171
     0
176
     1
290
     0
176
     1
 93
       13
176
     1
 44
0.0
176
     1
173
     0
176
     1
  0
VISUALSTYLE
  5
38
102
{ACAD_REACTORS
330
2A
102
}
330
2A
100
AcDbVisualStyle
  2
Linepattern
 70
    14
177
     2
291
     1
 71
     2
176
     1
 72
     2
176
     1
 73
     0
176
     1
 90
        0
176
     1
 40
-0.6
176
     1
 41
-30.0
176
     1
 62
     5
 63
     7
421
 16777215
176
     1
 74
     1
176
     1
 91
        4
176
     1
 64
     7
176
     1
 65
   257
176
     1
 75
     7
176
     1
175
     7
176
     1
 42
1.0
176
     1
 92
        8
176
     1
 66
     7
176
     1
 43
1.0
176
     1
 76
     1
176
     1
 77
     6
176
     1
 78
     2
176
     1
 67
     7
176
     1
 79
     5
176
     1
170
     0
176
     1
171
     0
176
     1
290
     0
176
     1
 93
        1
176
     1
 44
0.0
176
     1
173
     0
176
     1
  0
VISUALSTYLE
  5
33
102
{ACAD_REACTORS
330
2A
102
}
330
2A
100
AcDbVisualStyle
  2
Realistic
 70
     8
177
     2
291
     0
 71
     2
176
     1
 72
     2
176
     1
 73
     0
176
     1
 90
        0
176
     1
 40
-0.6
176
     1
 41
-30.0
176
     1
 62
     5
 63
     7
421
 16777215
176
     1
 74
     1
176
     1
 91
        0
176
     1
 64
     7
176
     1
 65
   257
176
     1
 75
     1
176
     1
175
     1
176
     1
 42
1.0
176
     1
 92
        8
176
     1
 66
     8
424
  7895160
176
     1
 43
1.0
176
     1
 76
     1
176
     1
 77
     6
176
     1
 78
     2
176
     1
 67
     7
176
     1
 79
     5
176
     1
170
     0
176
     1
171
     0
176
     1
290
     0
176
     1
 93
       13
176
     1
 44
0.0
176
     1
173
     0
176
     1
  0
VISUALSTYLE
  5
37
102
{ACAD_REACTORS
330
2A
102
}
330
2A
100
AcDbVisualStyle
  2
Thicken
 70
    13
177
     2
291
     1
 71
     2
176
     1
 72
     2
176
     1
 73
     0
176
     1
 90
        0
176
     1
 40
-0.6
176
     1
 41
-30.0
176
     1
 62
     5
 63
     7
421
 16777215
176
     1
 74
     1
176
     1
 91
        4
176
     1
 64
     7
176
     1
 65
   257
176
     1
 75
     1
176
     1
175
     1
176
     1
 42
1.0
176
     1
 92
       12
176
     1
 66
     7
176
     1
 43
1.0
176
     1
 76
     1
176
     1
 77
     6
176
     1
 78
     2
176
     1
 67
     7
176
     1
 79
     5
176
     1
170
     0
176
     1
171
     0
176
     1
290
     0
176
     1
 93
        1
176
     1
 44
0.0
176
     1
173
     0
176
     1
  0
ENDSEC
  0
EOF
