  0
SECTION
  2
HEADER
  9
$ACADVER
  1
AC1024
  9
$ACADMAINTVER
 70
     6
  9
$DWGCODEPAGE
  3
UNDEFINED
  9
$INSBASE
 10
0.0
 20
0.0
 30
0.0
  9
$EXTMIN
 10
1.000000000000000E+20
 20
1.000000000000000E+20
 30
1.000000000000000E+20
  9
$EXTMAX
 10
-1.000000000000000E+20
 20
-1.000000000000000E+20
 30
-1.000000000000000E+20
  9
$LIMMIN
 10
0.0
 20
0.0
  9
$LIMMAX
 10
12.0
 20
9.0
  9
$ORTHOMODE
 70
     0
  9
$REGENMODE
 70
     1
  9
$FILLMODE
 70
     1
  9
$QTEXTMODE
 70
     0
  9
$MIRRTEXT
 70
     1
  9
$LTSCALE
 40
1.0
  9
$ATTMODE
 70
     1
  9
$TEXTSIZE
 40
0.2
  9
$TRACEWID
 40
0.05
  9
$TEXTSTYLE
  7
Standard
  9
$CLAYER
  8
0
  9
$CELTYPE
  6
ByLayer
  9
$CECOLOR
 62
   256
  9
$CELTSCALE
 40
1.0
  9
$DISPSILH
 70
     0
  9
$DIMSCALE
 40
1.0
  9
$DIMASZ
 40
0.18
  9
$DIMEXO
 40
0.0625
  9
$DIMDLI
 40
0.38
  9
$DIMRND
 40
0.0
  9
$DIMDLE
 40
0.0
  9
$DIMEXE
 40
0.18
  9
$DIMTP
 40
0.0
  9
$DIMTM
 40
0.0
  9
$DIMTXT
 40
0.18
  9
$DIMCEN
 40
0.09
  9
$DIMTSZ
 40
0.0
  9
$DIMTOL
 70
     0
  9
$DIMLIM
 70
     0
  9
$DIMTIH
 70
     1
  9
$DIMTOH
 70
     1
  9
$DIMSE1
 70
     0
  9
$DIMSE2
 70
     0
  9
$DIMTAD
 70
     0
  9
$DIMZIN
 70
     0
  9
$DIMBLK
  1

  9
$DIMASO
 70
     1
  9
$DIMSHO
 70
     1
  9
$DIMPOST
  1

  9
$DIMAPOST
  1

  9
$DIMALT
 70
     0
  9
$DIMALTD
 70
     2
  9
$DIMALTF
 40
25.4
  9
$DIMLFAC
 40
1.0
  9
$DIMTOFL
 70
     0
  9
$DIMTVP
 40
0.0
  9
$DIMTIX
 70
     0
  9
$DIMSOXD
 70
     0
  9
$DIMSAH
 70
     0
  9
$DIMBLK1
  1

  9
$DIMBLK2
  1

  9
$DIMSTYLE
  2
Standard
  9
$DIMCLRD
 70
     0
  9
$DIMCLRE
 70
     0
  9
$DIMCLRT
 70
     0
  9
$DIMTFAC
 40
1.0
  9
$DIMGAP
 40
0.09
  9
$DIMJUST
 70
     0
  9
$DIMSD1
 70
     0
  9
$DIMSD2
 70
     0
  9
$DIMTOLJ
 70
     1
  9
$DIMTZIN
 70
     0
  9
$DIMALTZ
 70
     0
  9
$DIMALTTZ
 70
     0
  9
$DIMUPT
 70
     0
  9
$DIMDEC
 70
     4
  9
$DIMTDEC
 70
     4
  9
$DIMALTU
 70
     2
  9
$DIMALTTD
 70
     2
  9
$DIMTXSTY
  7
Standard
  9
$DIMAUNIT
 70
     0
  9
$DIMADEC
 70
     0
  9
$DIMALTRND
 40
0.0
  9
$DIMAZIN
 70
     0
  9
$DIMDSEP
 70
    46
  9
$DIMATFIT
 70
     3
  9
$DIMFRAC
 70
     0
  9
$DIMLDRBLK
  1

  9
$DIMLUNIT
 70
     2
  9
$DIMLWD
 70
    -2
  9
$DIMLWE
 70
    -2
  9
$DIMTMOVE
 70
     0
  9
$DIMFXL
 40
1.0
  9
$DIMFXLON
 70
     0
  9
$DIMJOGANG
 40
0.7853981633974483
  9
$DIMTFILL
 70
     0
  9
$DIMTFILLCLR
 70
     0
  9
$DIMARCSYM
 70
     0
  9
$DIMLTYPE
  6

  9
$DIMLTEX1
  6

  9
$DIMLTEX2
  6

  9
$DIMTXTDIRECTION
 70
     0
  9
$LUNITS
 70
     2
  9
$LUPREC
 70
     4
  9
$SKETCHINC
 40
0.1
  9
$FILLETRAD
 40
0.5
  9
$AUNITS
 70
     0
  9
$AUPREC
 70
     0
  9
$MENU
  1
.
  9
$ELEVATION
 40
0.0
  9
$PELEVATION
 40
0.0
  9
$THICKNESS
 40
0.0
  9
$LIMCHECK
 70
     0
  9
$CHAMFERA
 40
0.5
  9
$CHAMFERB
 40
0.5
  9
$CHAMFERC
 40
1.0
  9
$CHAMFERD
 40
0.0
  9
$SKPOLY
 70
     0
  9
$TDCREATE
 40
2457917.589074074
  9
$TDUCREATE
 40
2457917.214074074
  9
$TDUPDATE
 40
2457917.589074074
  9
$TDUUPDATE
 40
2457917.214074074
  9
$TDINDWG
 40
0.0000000116
  9
$TDUSRTIMER
 40
0.0000000116
  9
$USRTIMER
 70
     1
  9
$ANGBASE
 50
0.0
  9
$ANGDIR
 70
     0
  9
$PDMODE
 70
     0
  9
$PDSIZE
 40
0.0
  9
$PLINEWID
 40
0.0
  9
$SPLFRAME
 70
     0
  9
$SPLINETYPE
 70
     6
  9
$SPLINESEGS
 70
     8
  9
$HANDSEED
  5
D0
  9
$SURFTAB1
 70
     6
  9
$SURFTAB2
 70
     6
  9
$SURFTYPE
 70
     6
  9
$SURFU
 70
     6
  9
$SURFV
 70
     6
  9
$UCSBASE
  2

  9
$UCSNAME
  2

  9
$UCSORG
 10
0.0
 20
0.0
 30
0.0
  9
$UCSXDIR
 10
1.0
 20
0.0
 30
0.0
  9
$UCSYDIR
 10
0.0
 20
1.0
 30
0.0
  9
$UCSORTHOREF
  2

  9
$UCSORTHOVIEW
 70
     0
  9
$UCSORGTOP
 10
0.0
 20
0.0
 30
0.0
  9
$UCSORGBOTTOM
 10
0.0
 20
0.0
 30
0.0
  9
$UCSORGLEFT
 10
0.0
 20
0.0
 30
0.0
  9
$UCSORGRIGHT
 10
0.0
 20
0.0
 30
0.0
  9
$UCSORGFRONT
 10
0.0
 20
0.0
 30
0.0
  9
$UCSORGBACK
 10
0.0
 20
0.0
 30
0.0
  9
$PUCSBASE
  2

  9
$PUCSNAME
  2

  9
$PUCSORG
 10
0.0
 20
0.0
 30
0.0
  9
$PUCSXDIR
 10
1.0
 20
0.0
 30
0.0
  9
$PUCSYDIR
 10
0.0
 20
1.0
 30
0.0
  9
$PUCSORTHOREF
  2

  9
$PUCSORTHOVIEW
 70
     0
  9
$PUCSORGTOP
 10
0.0
 20
0.0
 30
0.0
  9
$PUCSORGBOTTOM
 10
0.0
 20
0.0
 30
0.0
  9
$PUCSORGLEFT
 10
0.0
 20
0.0
 30
0.0
  9
$PUCSORGRIGHT
 10
0.0
 20
0.0
 30
0.0
  9
$PUCSORGFRONT
 10
0.0
 20
0.0
 30
0.0
  9
$PUCSORGBACK
 10
0.0
 20
0.0
 30
0.0
  9
$USERI1
 70
     0
  9
$USERI2
 70
     0
  9
$USERI3
 70
     0
  9
$USERI4
 70
     0
  9
$USERI5
 70
     0
  9
$USERR1
 40
0.0
  9
$USERR2
 40
0.0
  9
$USERR3
 40
0.0
  9
$USERR4
 40
0.0
  9
$USERR5
 40
0.0
  9
$WORLDVIEW
 70
     1
  9
$SHADEDGE
 70
     3
  9
$SHADEDIF
 70
    70
  9
$TILEMODE
 70
     1
  9
$MAXACTVP
 70
    64
  9
$PINSBASE
 10
0.0
 20
0.0
 30
0.0
  9
$PLIMCHECK
 70
     0
  9
$PEXTMIN
 10
1.000000000000000E+20
 20
1.000000000000000E+20
 30
1.000000000000000E+20
  9
$PEXTMAX
 10
-1.000000000000000E+20
 20
-1.000000000000000E+20
 30
-1.000000000000000E+20
  9
$PLIMMIN
 10
0.0
 20
0.0
  9
$PLIMMAX
 10
12.0
 20
9.0
  9
$UNITMODE
 70
     0
  9
$VISRETAIN
 70
     1
  9
$PLINEGEN
 70
     0
  9
$PSLTSCALE
 70
     1
  9
$TREEDEPTH
 70
  3020
  9
$CMLSTYLE
  2
Standard
  9
$CMLJUST
 70
     0
  9
$CMLSCALE
 40
1.0
  9
$PROXYGRAPHICS
 70
     1
  9
$MEASUREMENT
 70
     0
  9
$CELWEIGHT
370
    -1
  9
$ENDCAPS
280
     0
  9
$JOINSTYLE
280
     0
  9
$LWDISPLAY
290
     1
  9
$INSUNITS
 70
     1
  9
$HYPERLINKBASE
  1

  9
$STYLESHEET
  1

  9
$XEDIT
290
     1
  9
$CEPSNTYPE
380
     0
  9
$PSTYLEMODE
290
     1
  9
$FINGERPRINTGUID
  2
{B4C95504-6EEB-1831-F999-EFAE8E1B5CD4}
  9
$VERSIONGUID
  2
{FAEB1C32-E019-11D5-929B-00C0DF256EC4}
  9
$EXTNAMES
290
     1
  9
$PSVPSCALE
 40
0.0
  9
$OLESTARTUP
290
     0
  9
$SORTENTS
280
   127
  9
$INDEXCTL
280
     0
  9
$HIDETEXT
280
     1
  9
$XCLIPFRAME
280
     2
  9
$HALOGAP
280
     0
  9
$OBSCOLOR
 70
   257
  9
$OBSLTYPE
280
     0
  9
$INTERSECTIONDISPLAY
280
     0
  9
$INTERSECTIONCOLOR
 70
   257
  9
$DIMASSOC
280
     2
  9
$PROJECTNAME
  1

  9
$CAMERADISPLAY
290
     0
  9
$LENSLENGTH
 40
50.0
  9
$CAMERAHEIGHT
 40
0.0
  9
$STEPSPERSEC
 40
2.0
  9
$STEPSIZE
 40
6.0
  9
$3DDWFPREC
 40
2.0
  9
$PSOLWIDTH
 40
0.25
  9
$PSOLHEIGHT
 40
4.0
  9
$LOFTANG1
 40
1.570796326794897
  9
$LOFTANG2
 40
1.570796326794897
  9
$LOFTMAG1
 40
0.0
  9
$LOFTMAG2
 40
0.0
  9
$LOFTPARAM
 70
     7
  9
$LOFTNORMALS
280
     1
  9
$LATITUDE
 40
37.795
  9
$LONGITUDE
 40
-122.394
  9
$NORTHDIRECTION
 40
0.0
  9
$TIMEZONE
 70
 -8000
  9
$LIGHTGLYPHDISPLAY
280
     1
  9
$TILEMODELIGHTSYNCH
280
     1
  9
$CMATERIAL
347
3C
  9
$SOLIDHIST
280
     1
  9
$SHOWHIST
280
     1
  9
$DWFFRAME
280
     2
  9
$DGNFRAME
280
     2
  9
$REALWORLDSCALE
290
     1
  9
$INTERFERECOLOR
 62
   256
  9
$CSHADOW
280
     0
  9
$SHADOWPLANELOCATION
 40
0.0
  0
ENDSEC
  0
SECTION
  2
CLASSES
  0
CLASS
  1
ACDBDICTIONARYWDFLT
  2
AcDbDictionaryWithDefault
  3
ObjectDBX Classes
 90
        0
 91
        4
280
     0
281
     0
  0
CLASS
  1
VISUALSTYLE
  2
AcDbVisualStyle
  3
ObjectDBX Classes
 90
     4095
 91
        4
280
     0
281
     0
  0
CLASS
  1
MATERIAL
  2
AcDbMaterial
  3
ObjectDBX Classes
 90
     1153
 91
        4
280
     0
281
     0
  0
CLASS
  1
SUN
  2
AcDbSun
  3
SCENEOE
 90
     1024
 91
        4
280
     0
281
     0
  0
ENDSEC
  0
SECTION
  2
TABLES
  0
TABLE
  2
VPORT
  5
8
330
0
100
AcDbSymbolTable
 70
     1
  0
VPORT
  5
29
330
8
100
AcDbSymbolTableRecord
100
AcDbViewportTableRecord
  2
*Active
 70
     0
 10
0.0
 20
0.0
 11
1.0
 21
1.0
 12
0.0
 22
0.0
 13
0.0
 23
0.0
 14
0.5
 24
0.5
 15
0.5
 25
0.5
 16
0.0
 26
0.0
 36
1.0
 17
63.499999984125
 27
-89.00059456108309
 37
0.0
 40
178.0011891221662
 41
0.7134783795241226
 42
50.0
 43
0.0
 44
0.0
 50
0.0
 51
0.0
 71
     0
 72
   100
 73
     1
 74
     3
 75
     0
 76
     0
 77
     0
 78
     0
281
     0
 65
     1
110
0.0
120
0.0
130
0.0
111
1.0
121
0.0
131
0.0
112
0.0
122
1.0
132
0.0
 79
     0
146
0.0
 60
     3
 61
     5
292
     1
282
     1
141
0.0
142
0.0
 63
   250
361
3F
  0
ENDTAB
  0
TABLE
  2
LTYPE
  5
5
330
0
100
AcDbSymbolTable
 70
     1
  0
LTYPE
  5
14
330
5
100
AcDbSymbolTableRecord
100
AcDbLinetypeTableRecord
  2
ByBlock
 70
     0
  3

 72
    65
 73
     0
 40
0.0
  0
LTYPE
  5
15
330
5
100
AcDbSymbolTableRecord
100
AcDbLinetypeTableRecord
  2
ByLayer
 70
     0
  3

 72
    65
 73
     0
 40
0.0
  0
LTYPE
  5
16
330
5
100
AcDbSymbolTableRecord
100
AcDbLinetypeTableRecord
  2
Continuous
 70
     0
  3
Solid line
 72
    65
 73
     0
 40
0.0
  0
ENDTAB
  0
TABLE
  2
LAYER
  5
2
330
0
100
AcDbSymbolTable
 70
     2
  0
LAYER
  5
10
330
2
100
AcDbSymbolTableRecord
100
AcDbLayerTableRecord
  2
0
 70
     0
 62
     7
  6
Continuous
370
    -3
390
F
347
3E
  0
LAYER
  5
40
330
2
100
AcDbSymbolTableRecord
100
AcDbLayerTableRecord
  2
_U+30EC_U+30A4_U+30E4_U+30FC 1
 70
     0
 62
     7
  6
Continuous
370
    -3
390
F
347
3E
  0
ENDTAB
  0
TABLE
  2
STYLE
  5
3
330
0
100
AcDbSymbolTable
 70
     1
  0
STYLE
  5
11
330
3
100
AcDbSymbolTableRecord
100
AcDbTextStyleTableRecord
  2
Standard
 70
     0
 40
0.0
 41
1.0
 50
0.0
 71
     0
 42
0.2
  3
txt
  4

  0
ENDTAB
  0
TABLE
  2
VIEW
  5
6
330
0
100
AcDbSymbolTable
 70
     0
  0
ENDTAB
  0
TABLE
  2
UCS
  5
7
330
0
100
AcDbSymbolTable
 70
     0
  0
ENDTAB
  0
TABLE
  2
APPID
  5
9
330
0
100
AcDbSymbolTable
 70
     1
  0
APPID
  5
12
330
9
100
AcDbSymbolTableRecord
100
AcDbRegAppTableRecord
  2
ACAD
 70
     0
  0
ENDTAB
  0
TABLE
  2
DIMSTYLE
  5
A
330
0
100
AcDbSymbolTable
 70
     1
100
AcDbDimStyleTable
  0
DIMSTYLE
105
27
330
A
100
AcDbSymbolTableRecord
100
AcDbDimStyleTableRecord
  2
Standard
 70
     0
178
     0
340
11
  0
ENDTAB
  0
TABLE
  2
BLOCK_RECORD
  5
1
330
0
100
AcDbSymbolTable
 70
     6
  0
BLOCK_RECORD
  5
1F
330
1
100
AcDbSymbolTableRecord
100
AcDbBlockTableRecord
  2
*Model_Space
340
22
 70
     0
280
     1
281
     0
  0
BLOCK_RECORD
  5
1B
330
1
100
AcDbSymbolTableRecord
100
AcDbBlockTableRecord
  2
*Paper_Space
340
1E
 70
     0
280
     1
281
     0
  0
BLOCK_RECORD
  5
23
330
1
100
AcDbSymbolTableRecord
100
AcDbBlockTableRecord
  2
*Paper_Space0
340
26
 70
     0
280
     1
281
     0
  0
BLOCK_RECORD
  5
41
330
1
100
AcDbSymbolTableRecord
100
AcDbBlockTableRecord
  2
block 2
340
0
102
{BLKREFS
331
42
102
}
 70
     0
280
     1
281
     0
  0
BLOCK_RECORD
  5
53
330
1
100
AcDbSymbolTableRecord
100
AcDbBlockTableRecord
  2
block 3
340
0
102
{BLKREFS
331
54
102
}
 70
     0
280
     1
281
     0
  0
BLOCK_RECORD
  5
63
330
1
100
AcDbSymbolTableRecord
100
AcDbBlockTableRecord
  2
block 4
340
0
102
{BLKREFS
331
64
102
}
 70
     0
280
     1
281
     0
  0
BLOCK_RECORD
  5
69
330
1
100
AcDbSymbolTableRecord
100
AcDbBlockTableRecord
  2
block 5
340
0
102
{BLKREFS
331
6A
102
}
 70
     0
280
     1
281
     0
  0
BLOCK_RECORD
  5
C6
330
1
100
AcDbSymbolTableRecord
100
AcDbBlockTableRecord
  2
block 6
340
0
102
{BLKREFS
331
C7
102
}
 70
     0
280
     1
281
     0
  0
ENDTAB
  0
ENDSEC
  0
SECTION
  2
BLOCKS
  0
BLOCK
  5
20
330
1F
100
AcDbEntity
  8
0
100
AcDbBlockBegin
  2
*Model_Space
 70
     0
 10
0.0
 20
0.0
 30
0.0
  3
*Model_Space
  1

  0
ENDBLK
  5
21
330
1F
100
AcDbEntity
  8
0
100
AcDbBlockEnd
  0
BLOCK
  5
1C
330
1B
100
AcDbEntity
 67
     1
  8
0
100
AcDbBlockBegin
  2
*Paper_Space
 70
     0
 10
0.0
 20
0.0
 30
0.0
  3
*Paper_Space
  1

  0
ENDBLK
  5
1D
330
1B
100
AcDbEntity
 67
     1
  8
0
100
AcDbBlockEnd
  0
BLOCK
  5
24
330
23
100
AcDbEntity
  8
0
100
AcDbBlockBegin
  2
*Paper_Space0
 70
     0
 10
0.0
 20
0.0
 30
0.0
  3
*Paper_Space0
  1

  0
ENDBLK
  5
25
330
23
100
AcDbEntity
  8
0
100
AcDbBlockEnd
  0
BLOCK
  5
43
330
41
100
AcDbEntity
  8
0
100
AcDbBlockBegin
  2
block 2
 70
     0
 10
0.0
 20
0.0
 30
0.0
  3
block 2
  1

  0
SPLINE
  5
45
330
41
100
AcDbEntity
  8
_U+30EC_U+30A4_U+30E4_U+30FC 1
370
     0
100
AcDbSpline
210
0.0
220
0.0
230
1.0
 70
    11
 71
     3
 72
    29
 73
    25
 74
     0
 42
0.0000000001
 43
0.0000000001
 12
1.0
 22
0.0
 32
0.0
 13
1.0
 23
0.0
 33
0.0
 40
0.0
 40
0.0
 40
0.0
 40
0.0
 40
1.0
 40
1.0
 40
1.0
 40
2.0
 40
2.0
 40
2.0
 40
3.0
 40
3.0
 40
3.0
 40
4.0
 40
4.0
 40
4.0
 40
5.0
 40
5.0
 40
5.0
 40
6.0
 40
6.0
 40
6.0
 40
7.0
 40
7.0
 40
7.0
 40
8.0
 40
8.0
 40
8.0
 40
8.0
 10
76.13661022402141
 20
-83.3096435338601
 30
0.0
 10
76.34607202952459
 20
-83.42505423261596
 30
0.0
 10
76.36502005469347
 20
-83.6104003697224
 30
0.0
 10
76.36502005469347
 20
-83.73476831673992
 30
0.0
 10
76.36502005469347
 20
-83.90633407190536
 30
0.0
 10
76.3185112656426
 20
-84.05791827325636
 30
0.0
 10
76.13661022402141
 20
-84.15954859007122
 30
0.0
 10
75.9419623291048
 20
-84.27048066469628
 30
0.0
 10
75.70528426926813
 20
-84.29080672805925
 30
0.0
 10
75.54233125281581
 20
-84.29080672805925
 30
0.0
 10
75.39832626153236
 20
-84.29080672805925
 30
0.0
 10
75.1464897815606
 20
-84.27254772198742
 30
0.0
 10
74.94770777206169
 20
-84.15954859007122
 30
0.0
 10
74.74479164798048
 20
-84.04448240086388
 30
0.0
 10
74.72136499868077
 20
-83.87257213614991
 30
0.0
 10
74.72136499868077
 20
-83.73476831673992
 30
0.0
 10
74.72136499868077
 20
-83.5649251093171
 30
0.0
 10
74.7658067304405
 20
-83.41127385067496
 30
0.0
 10
74.94770777206169
 20
-83.3096435338601
 30
0.0
 10
75.14028860968715
 20
-83.20319008336587
 30
0.0
 10
75.36869844035921
 20
-83.17838539587207
 30
0.0
 10
75.54233125281581
 20
-83.17838539587207
 30
0.0
 10
75.71355249843273
 20
-83.17838539587207
 30
0.0
 10
75.94402938639594
 20
-83.20112302607473
 30
0.0
 10
76.13661022402141
 20
-83.3096435338601
 30
0.0
  0
SPLINE
  5
46
330
41
100
AcDbEntity
  8
_U+30EC_U+30A4_U+30E4_U+30FC 1
370
     0
100
AcDbSpline
210
0.0
220
0.0
230
1.0
 70
    11
 71
     3
 72
    17
 73
    13
 74
     0
 42
0.0000000001
 43
0.0000000001
 12
1.0
 22
0.0
 32
0.0
 13
1.0
 23
0.0
 33
0.0
 40
0.0
 40
0.0
 40
0.0
 40
0.0
 40
1.0
 40
1.0
 40
1.0
 40
2.0
 40
2.0
 40
2.0
 40
3.0
 40
3.0
 40
3.0
 40
4.0
 40
4.0
 40
4.0
 40
4.0
 10
74.91394583630624
 20
-83.73476831673992
 30
0.0
 10
74.91394583630624
 20
-84.00141870729826
 30
0.0
 10
75.1974771947423
 20
-84.05102808228585
 30
0.0
 10
75.54233125281581
 20
-84.05102808228585
 30
0.0
 10
75.86169160429847
 20
-84.05102808228585
 30
0.0
 10
76.17037215977686
 20
-84.01278752239959
 30
0.0
 10
76.17037215977686
 20
-83.73476831673992
 30
0.0
 10
76.17037215977686
 20
-83.47018498347273
 30
0.0
 10
75.88925236818046
 20
-83.41816404164547
 30
0.0
 10
75.54233125281581
 20
-83.41816404164547
 30
0.0
 10
75.22262639178463
 20
-83.41816404164547
 30
0.0
 10
74.91394583630624
 20
-83.45881616837141
 30
0.0
 10
74.91394583630624
 20
-83.73476831673992
 30
0.0
  0
HATCH
  5
47
330
41
100
AcDbEntity
  8
_U+30EC_U+30A4_U+30E4_U+30FC 1
 62
     7
420
 16777215
100
AcDbHatch
 10
0.0
 20
0.0
 30
0.0
210
0.0
220
0.0
230
1.0
  2
SOLID
 70
     1
 71
     0
 91
        2
 92
        1
 93
        1
 72
     4
 94
        3
 73
     0
 74
     1
 95
       29
 96
       25
 40
0.0
 40
0.0
 40
0.0
 40
0.0
 40
1.0
 40
1.0
 40
1.0
 40
2.0
 40
2.0
 40
2.0
 40
3.0
 40
3.0
 40
3.0
 40
4.0
 40
4.0
 40
4.0
 40
5.0
 40
5.0
 40
5.0
 40
6.0
 40
6.0
 40
6.0
 40
7.0
 40
7.0
 40
7.0
 40
8.0
 40
8.0
 40
8.0
 40
8.0
 10
76.13661022402141
 20
-83.3096435338601
 10
76.34607202952459
 20
-83.42505423261596
 10
76.36502005469347
 20
-83.6104003697224
 10
76.36502005469347
 20
-83.73476831673992
 10
76.36502005469347
 20
-83.90633407190536
 10
76.3185112656426
 20
-84.05791827325636
 10
76.13661022402141
 20
-84.15954859007122
 10
75.9419623291048
 20
-84.27048066469628
 10
75.70528426926813
 20
-84.29080672805925
 10
75.54233125281581
 20
-84.29080672805925
 10
75.39832626153236
 20
-84.29080672805925
 10
75.1464897815606
 20
-84.27254772198742
 10
74.94770777206169
 20
-84.15954859007122
 10
74.74479164798048
 20
-84.04448240086388
 10
74.72136499868077
 20
-83.87257213614991
 10
74.72136499868077
 20
-83.73476831673992
 10
74.72136499868077
 20
-83.5649251093171
 10
74.7658067304405
 20
-83.41127385067496
 10
74.94770777206169
 20
-83.3096435338601
 10
75.14028860968715
 20
-83.20319008336587
 10
75.36869844035921
 20
-83.17838539587207
 10
75.54233125281581
 20
-83.17838539587207
 10
75.71355249843273
 20
-83.17838539587207
 10
75.94402938639594
 20
-83.20112302607473
 10
76.13661022402141
 20
-83.3096435338601
 97
        0
 97
        0
 92
        1
 93
        1
 72
     4
 94
        3
 73
     0
 74
     1
 95
       17
 96
       13
 40
0.0
 40
0.0
 40
0.0
 40
0.0
 40
1.0
 40
1.0
 40
1.0
 40
2.0
 40
2.0
 40
2.0
 40
3.0
 40
3.0
 40
3.0
 40
4.0
 40
4.0
 40
4.0
 40
4.0
 10
74.91394583630624
 20
-83.73476831673992
 10
74.91394583630624
 20
-84.00141870729826
 10
75.1974771947423
 20
-84.05102808228585
 10
75.54233125281581
 20
-84.05102808228585
 10
75.86169160429847
 20
-84.05102808228585
 10
76.17037215977686
 20
-84.01278752239959
 10
76.17037215977686
 20
-83.73476831673992
 10
76.17037215977686
 20
-83.47018498347273
 10
75.88925236818046
 20
-83.41816404164547
 10
75.54233125281581
 20
-83.41816404164547
 10
75.22262639178463
 20
-83.41816404164547
 10
74.91394583630624
 20
-83.45881616837141
 10
74.91394583630624
 20
-83.73476831673992
 97
        0
 97
        0
 75
     2
 76
     1
 98
        0
  0
POLYLINE
  5
48
330
41
100
AcDbEntity
  8
_U+30EC_U+30A4_U+30E4_U+30FC 1
370
     0
100
AcDb2dPolyline
 66
     1
 10
0.0
 20
0.0
 30
0.0
  0
VERTEX
  5
49
330
48
100
AcDbEntity
  8
_U+30EC_U+30A4_U+30E4_U+30FC 1
370
     0
100
AcDbVertex
100
AcDb2dVertex
 10
76.3143771510603
 20
-82.94721948881181
 30
0.0
  0
VERTEX
  5
4A
330
48
100
AcDbEntity
  8
_U+30EC_U+30A4_U+30E4_U+30FC 1
370
     0
100
AcDbVertex
100
AcDb2dVertex
 10
76.06254067108854
 20
-82.94721948881181
 30
0.0
  0
VERTEX
  5
4B
330
48
100
AcDbEntity
  8
_U+30EC_U+30A4_U+30E4_U+30FC 1
370
     0
100
AcDbVertex
100
AcDb2dVertex
 10
76.06254067108854
 20
-82.6781575314138
 30
0.0
  0
VERTEX
  5
4C
330
48
100
AcDbEntity
  8
_U+30EC_U+30A4_U+30E4_U+30FC 1
370
     0
100
AcDbVertex
100
AcDb2dVertex
 10
76.3143771510603
 20
-82.6781575314138
 30
0.0
  0
VERTEX
  5
4D
330
48
100
AcDbEntity
  8
_U+30EC_U+30A4_U+30E4_U+30FC 1
370
     0
100
AcDbVertex
100
AcDb2dVertex
 10
76.3143771510603
 20
-82.94721948881181
 30
0.0
  0
SEQEND
  5
4E
330
48
100
AcDbEntity
  8
_U+30EC_U+30A4_U+30E4_U+30FC 1
370
     0
  0
HATCH
  5
4F
330
41
100
AcDbEntity
  8
_U+30EC_U+30A4_U+30E4_U+30FC 1
 62
     7
420
 16777215
100
AcDbHatch
 10
0.0
 20
0.0
 30
0.0
210
0.0
220
0.0
230
1.0
  2
SOLID
 70
     1
 71
     0
 91
        1
 92
        1
 93
        4
 72
     1
 10
76.3143771510603
 20
-82.94721948881181
 11
76.06254067108854
 21
-82.94721948881181
 72
     1
 10
76.06254067108854
 20
-82.94721948881181
 11
76.06254067108854
 21
-82.6781575314138
 72
     1
 10
76.06254067108854
 20
-82.6781575314138
 11
76.3143771510603
 21
-82.6781575314138
 72
     1
 10
76.3143771510603
 20
-82.6781575314138
 11
76.3143771510603
 21
-82.94721948881181
 97
        0
 75
     2
 76
     1
 98
        0
  0
SPLINE
  5
50
330
41
100
AcDbEntity
  8
_U+30EC_U+30A4_U+30E4_U+30FC 1
370
     0
100
AcDbSpline
210
0.0
220
0.0
230
1.0
 70
    11
 71
     3
 72
    32
 73
    28
 74
     0
 42
0.0000000001
 43
0.0000000001
 12
1.0
 22
0.0
 32
0.0
 13
1.0
 23
0.0
 33
0.0
 40
0.0
 40
0.0
 40
0.0
 40
0.0
 40
1.0
 40
1.0
 40
1.0
 40
2.0
 40
2.0
 40
2.0
 40
3.0
 40
3.0
 40
3.0
 40
4.0
 40
4.0
 40
4.0
 40
5.0
 40
5.0
 40
5.0
 40
6.0
 40
6.0
 40
6.0
 40
7.0
 40
7.0
 40
7.0
 40
8.0
 40
8.0
 40
8.0
 40
9.0
 40
9.0
 40
9.0
 40
9.0
 10
76.36502005469347
 20
-81.93608396389098
 30
0.0
 10
76.36502005469347
 20
-82.12143010099743
 30
0.0
 10
76.29542912589143
 20
-82.38360186742494
 30
0.0
 10
75.96332192111333
 20
-82.42425399415089
 30
0.0
 10
75.96332192111333
 20
-82.42425399415089
 30
0.0
 10
75.96332192111333
 20
-82.19618867302735
 30
0.0
 10
75.96332192111333
 20
-82.19618867302735
 30
0.0
 10
76.02257756345963
 20
-82.18481985792602
 30
0.0
 10
76.17037215977686
 20
-82.15071341262205
 30
0.0
 10
76.17037215977686
 20
-81.93367239705131
 30
0.0
 10
76.17037215977686
 20
-81.6218912556362
 30
0.0
 10
75.84033201228992
 20
-81.58123912891025
 30
0.0
 10
75.63534883091755
 20
-81.56745874696925
 30
0.0
 10
75.71561955572388
 20
-81.6646104396533
 30
0.0
 10
75.77280814077902
 20
-81.73695744484354
 30
0.0
 10
75.77280814077902
 20
-81.93160533976015
 30
0.0
 10
75.77280814077902
 20
-82.1238416678371
 30
0.0
 10
75.66704370938186
 20
-82.44699162435353
 30
0.0
 10
75.26086695167089
 20
-82.44699162435353
 30
0.0
 10
74.94150660018823
 20
-82.44699162435353
 30
0.0
 10
74.72136499868077
 20
-82.23442923291361
 30
0.0
 10
74.72136499868077
 20
-81.89543183716503
 30
0.0
 10
74.72136499868077
 20
-81.34593910726768
 30
0.0
 10
75.27568086225747
 20
-81.33457029216636
 30
0.0
 10
75.48927678234296
 20
-81.33457029216636
 30
0.0
 10
75.71975367030618
 20
-81.33457029216636
 30
0.0
 10
76.36502005469347
 20
-81.35489635552933
 30
0.0
 10
76.36502005469347
 20
-81.93608396389098
 30
0.0
  0
SPLINE
  5
51
330
41
100
AcDbEntity
  8
_U+30EC_U+30A4_U+30E4_U+30FC 1
370
     0
100
AcDbSpline
210
0.0
220
0.0
230
1.0
 70
    11
 71
     3
 72
    17
 73
    13
 74
     0
 42
0.0000000001
 43
0.0000000001
 12
1.0
 22
0.0
 32
0.0
 13
1.0
 23
0.0
 33
0.0
 40
0.0
 40
0.0
 40
0.0
 40
0.0
 40
1.0
 40
1.0
 40
1.0
 40
2.0
 40
2.0
 40
2.0
 40
3.0
 40
3.0
 40
3.0
 40
4.0
 40
4.0
 40
4.0
 40
4.0
 10
74.91394583630624
 20
-81.89302027032537
 30
0.0
 10
74.91394583630624
 20
-82.01979978418255
 30
0.0
 10
74.97113442136138
 20
-82.20721297858015
 30
0.0
 10
75.25673283708859
 20
-82.20721297858015
 30
0.0
 10
75.48307561046951
 20
-82.20721297858015
 30
0.0
 10
75.5781602458624
 20
-82.05804034406883
 30
0.0
 10
75.5781602458624
 20
-81.91334633368834
 30
0.0
 10
75.5781602458624
 20
-81.632915561189
 30
0.0
 10
75.36869844035921
 20
-81.59226343446305
 30
0.0
 10
75.25225421295778
 20
-81.59226343446305
 30
0.0
 10
75.07689885275856
 20
-81.59226343446305
 30
0.0
 10
74.91394583630624
 20
-81.69423826082644
 30
0.0
 10
74.91394583630624
 20
-81.89302027032537
 30
0.0
  0
HATCH
  5
52
330
41
100
AcDbEntity
  8
_U+30EC_U+30A4_U+30E4_U+30FC 1
 62
     7
420
 16777215
100
AcDbHatch
 10
0.0
 20
0.0
 30
0.0
210
0.0
220
0.0
230
1.0
  2
SOLID
 70
     1
 71
     0
 91
        2
 92
        1
 93
        1
 72
     4
 94
        3
 73
     0
 74
     1
 95
       32
 96
       28
 40
0.0
 40
0.0
 40
0.0
 40
0.0
 40
1.0
 40
1.0
 40
1.0
 40
2.0
 40
2.0
 40
2.0
 40
3.0
 40
3.0
 40
3.0
 40
4.0
 40
4.0
 40
4.0
 40
5.0
 40
5.0
 40
5.0
 40
6.0
 40
6.0
 40
6.0
 40
7.0
 40
7.0
 40
7.0
 40
8.0
 40
8.0
 40
8.0
 40
9.0
 40
9.0
 40
9.0
 40
9.0
 10
76.36502005469347
 20
-81.93608396389098
 10
76.36502005469347
 20
-82.12143010099743
 10
76.29542912589143
 20
-82.38360186742494
 10
75.96332192111333
 20
-82.42425399415089
 10
75.96332192111333
 20
-82.42425399415089
 10
75.96332192111333
 20
-82.19618867302735
 10
75.96332192111333
 20
-82.19618867302735
 10
76.02257756345963
 20
-82.18481985792602
 10
76.17037215977686
 20
-82.15071341262205
 10
76.17037215977686
 20
-81.93367239705131
 10
76.17037215977686
 20
-81.6218912556362
 10
75.84033201228992
 20
-81.58123912891025
 10
75.63534883091755
 20
-81.56745874696925
 10
75.71561955572388
 20
-81.6646104396533
 10
75.77280814077902
 20
-81.73695744484354
 10
75.77280814077902
 20
-81.93160533976015
 10
75.77280814077902
 20
-82.1238416678371
 10
75.66704370938186
 20
-82.44699162435353
 10
75.26086695167089
 20
-82.44699162435353
 10
74.94150660018823
 20
-82.44699162435353
 10
74.72136499868077
 20
-82.23442923291361
 10
74.72136499868077
 20
-81.89543183716503
 10
74.72136499868077
 20
-81.34593910726768
 10
75.27568086225747
 20
-81.33457029216636
 10
75.48927678234296
 20
-81.33457029216636
 10
75.71975367030618
 20
-81.33457029216636
 10
76.36502005469347
 20
-81.35489635552933
 10
76.36502005469347
 20
-81.93608396389098
 97
        0
 97
        0
 92
        1
 93
        1
 72
     4
 94
        3
 73
     0
 74
     1
 95
       17
 96
       13
 40
0.0
 40
0.0
 40
0.0
 40
0.0
 40
1.0
 40
1.0
 40
1.0
 40
2.0
 40
2.0
 40
2.0
 40
3.0
 40
3.0
 40
3.0
 40
4.0
 40
4.0
 40
4.0
 40
4.0
 10
74.91394583630624
 20
-81.89302027032537
 10
74.91394583630624
 20
-82.01979978418255
 10
74.97113442136138
 20
-82.20721297858015
 10
75.25673283708859
 20
-82.20721297858015
 10
75.48307561046951
 20
-82.20721297858015
 10
75.5781602458624
 20
-82.05804034406883
 10
75.5781602458624
 20
-81.91334633368834
 10
75.5781602458624
 20
-81.632915561189
 10
75.36869844035921
 20
-81.59226343446305
 10
75.25225421295778
 20
-81.59226343446305
 10
75.07689885275856
 20
-81.59226343446305
 10
74.91394583630624
 20
-81.69423826082644
 10
74.91394583630624
 20
-81.89302027032537
 97
        0
 97
        0
 75
     2
 76
     1
 98
        0
  0
ENDBLK
  5
44
330
41
100
AcDbEntity
  8
0
100
AcDbBlockEnd
  0
BLOCK
  5
55
330
53
100
AcDbEntity
  8
0
100
AcDbBlockBegin
  2
block 3
 70
     0
 10
0.0
 20
0.0
 30
0.0
  3
block 3
  1

  0
SPLINE
  5
57
330
53
100
AcDbEntity
  8
_U+30EC_U+30A4_U+30E4_U+30FC 1
370
     0
100
AcDbSpline
210
0.0
220
0.0
230
1.0
 70
    11
 71
     3
 72
    53
 73
    49
 74
     0
 42
0.0000000001
 43
0.0000000001
 12
1.0
 22
0.0
 32
0.0
 13
1.0
 23
0.0
 33
0.0
 40
0.0
 40
0.0
 40
0.0
 40
0.0
 40
1.0
 40
1.0
 40
1.0
 40
2.0
 40
2.0
 40
2.0
 40
3.0
 40
3.0
 40
3.0
 40
4.0
 40
4.0
 40
4.0
 40
5.0
 40
5.0
 40
5.0
 40
6.0
 40
6.0
 40
6.0
 40
7.0
 40
7.0
 40
7.0
 40
8.0
 40
8.0
 40
8.0
 40
9.0
 40
9.0
 40
9.0
 40
10.0
 40
10.0
 40
10.0
 40
11.0
 40
11.0
 40
11.0
 40
12.0
 40
12.0
 40
12.0
 40
13.0
 40
13.0
 40
13.0
 40
14.0
 40
14.0
 40
14.0
 40
15.0
 40
15.0
 40
15.0
 40
16.0
 40
16.0
 40
16.0
 40
16.0
 10
76.24754229864645
 20
-90.40481768573213
 30
0.0
 10
76.24754229864645
 20
-90.48818899647517
 30
0.0
 10
76.23066133076873
 20
-90.59705401380907
 30
0.0
 10
76.16727157384013
 20
-90.70523001204592
 30
0.0
 10
76.05737302786066
 20
-90.89092065870088
 30
0.0
 10
75.92611488987264
 20
-90.91331377935501
 30
0.0
 10
75.81828340118432
 20
-90.93363984271798
 30
0.0
 10
75.81828340118432
 20
-90.93363984271798
 30
0.0
 10
75.81828340118432
 20
-90.69627276378426
 30
0.0
 10
75.81828340118432
 20
-90.69627276378426
 30
0.0
 10
76.01706541068323
 20
-90.63770614053502
 30
0.0
 10
76.04669323185638
 20
-90.50196937841618
 30
0.0
 10
76.04669323185638
 20
-90.40240611889246
 30
0.0
 10
76.04669323185638
 20
-90.25323348438114
 30
0.0
 10
75.94712997233266
 20
-90.09062497747735
 30
0.0
 10
75.7145860270783
 20
-90.09062497747735
 30
0.0
 10
75.45861543252424
 20
-90.09062497747735
 30
0.0
 10
75.38867999417367
 20
-90.28251679600577
 30
0.0
 10
75.38867999417367
 20
-90.41136336715411
 30
0.0
 10
75.38867999417367
 20
-90.44546981245809
 30
0.0
 10
75.38867999417367
 20
-90.59705401380907
 30
0.0
 10
75.51787107487054
 20
-90.69179413965344
 30
0.0
 10
75.51787107487054
 20
-90.69179413965344
 30
0.0
 10
75.49892304970166
 20
-90.87955184359956
 30
0.0
 10
75.49892304970166
 20
-90.87955184359956
 30
0.0
 10
75.49892304970166
 20
-90.87955184359956
 30
0.0
 10
74.65246308897578
 20
-90.75070527245121
 30
0.0
 10
74.65246308897578
 20
-90.75070527245121
 30
0.0
 10
74.65246308897578
 20
-90.75070527245121
 30
0.0
 10
74.65246308897578
 20
-89.91871471276338
 30
0.0
 10
74.65246308897578
 20
-89.91871471276338
 30
0.0
 10
74.65246308897578
 20
-89.91871471276338
 30
0.0
 10
74.84711098389239
 20
-89.91871471276338
 30
0.0
 10
74.84711098389239
 20
-89.91871471276338
 30
0.0
 10
74.84711098389239
 20
-89.91871471276338
 30
0.0
 10
74.84711098389239
 20
-90.57638344089757
 30
0.0
 10
74.84711098389239
 20
-90.57638344089757
 30
0.0
 10
74.84711098389239
 20
-90.57638344089757
 30
0.0
 10
75.27016870948107
 20
-90.64666338879667
 30
0.0
 10
75.27016870948107
 20
-90.64666338879667
 30
0.0
 10
75.23640677372562
 20
-90.58120657457692
 30
0.0
 10
75.1960991565482
 20
-90.49301213015453
 30
0.0
 10
75.1960991565482
 20
-90.36623261629734
 30
0.0
 10
75.1960991565482
 20
-90.09510360160817
 30
0.0
 10
75.38247882230021
 20
-89.84188908344231
 30
0.0
 10
75.69563800190943
 20
-89.84188908344231
 30
0.0
 10
76.01293129610093
 20
-89.84188908344231
 30
0.0
 10
76.24754229864645
 20
-90.08132321966717
 30
0.0
 10
76.24754229864645
 20
-90.40481768573213
 30
0.0
  0
HATCH
  5
58
330
53
100
AcDbEntity
  8
_U+30EC_U+30A4_U+30E4_U+30FC 1
 62
     7
420
 16777215
100
AcDbHatch
 10
0.0
 20
0.0
 30
0.0
210
0.0
220
0.0
230
1.0
  2
SOLID
 70
     1
 71
     0
 91
        1
 92
        1
 93
        1
 72
     4
 94
        3
 73
     0
 74
     1
 95
       53
 96
       49
 40
0.0
 40
0.0
 40
0.0
 40
0.0
 40
1.0
 40
1.0
 40
1.0
 40
2.0
 40
2.0
 40
2.0
 40
3.0
 40
3.0
 40
3.0
 40
4.0
 40
4.0
 40
4.0
 40
5.0
 40
5.0
 40
5.0
 40
6.0
 40
6.0
 40
6.0
 40
7.0
 40
7.0
 40
7.0
 40
8.0
 40
8.0
 40
8.0
 40
9.0
 40
9.0
 40
9.0
 40
10.0
 40
10.0
 40
10.0
 40
11.0
 40
11.0
 40
11.0
 40
12.0
 40
12.0
 40
12.0
 40
13.0
 40
13.0
 40
13.0
 40
14.0
 40
14.0
 40
14.0
 40
15.0
 40
15.0
 40
15.0
 40
16.0
 40
16.0
 40
16.0
 40
16.0
 10
76.24754229864645
 20
-90.40481768573213
 10
76.24754229864645
 20
-90.48818899647517
 10
76.23066133076873
 20
-90.59705401380907
 10
76.16727157384013
 20
-90.70523001204592
 10
76.05737302786066
 20
-90.89092065870088
 10
75.92611488987264
 20
-90.91331377935501
 10
75.81828340118432
 20
-90.93363984271798
 10
75.81828340118432
 20
-90.93363984271798
 10
75.81828340118432
 20
-90.69627276378426
 10
75.81828340118432
 20
-90.69627276378426
 10
76.01706541068323
 20
-90.63770614053502
 10
76.04669323185638
 20
-90.50196937841618
 10
76.04669323185638
 20
-90.40240611889246
 10
76.04669323185638
 20
-90.25323348438114
 10
75.94712997233266
 20
-90.09062497747735
 10
75.7145860270783
 20
-90.09062497747735
 10
75.45861543252424
 20
-90.09062497747735
 10
75.38867999417367
 20
-90.28251679600577
 10
75.38867999417367
 20
-90.41136336715411
 10
75.38867999417367
 20
-90.44546981245809
 10
75.38867999417367
 20
-90.59705401380907
 10
75.51787107487054
 20
-90.69179413965344
 10
75.51787107487054
 20
-90.69179413965344
 10
75.49892304970166
 20
-90.87955184359956
 10
75.49892304970166
 20
-90.87955184359956
 10
75.49892304970166
 20
-90.87955184359956
 10
74.65246308897578
 20
-90.75070527245121
 10
74.65246308897578
 20
-90.75070527245121
 10
74.65246308897578
 20
-90.75070527245121
 10
74.65246308897578
 20
-89.91871471276338
 10
74.65246308897578
 20
-89.91871471276338
 10
74.65246308897578
 20
-89.91871471276338
 10
74.84711098389239
 20
-89.91871471276338
 10
74.84711098389239
 20
-89.91871471276338
 10
74.84711098389239
 20
-89.91871471276338
 10
74.84711098389239
 20
-90.57638344089757
 10
74.84711098389239
 20
-90.57638344089757
 10
74.84711098389239
 20
-90.57638344089757
 10
75.27016870948107
 20
-90.64666338879667
 10
75.27016870948107
 20
-90.64666338879667
 10
75.23640677372562
 20
-90.58120657457692
 10
75.1960991565482
 20
-90.49301213015453
 10
75.1960991565482
 20
-90.36623261629734
 10
75.1960991565482
 20
-90.09510360160817
 10
75.38247882230021
 20
-89.84188908344231
 10
75.69563800190943
 20
-89.84188908344231
 10
76.01293129610093
 20
-89.84188908344231
 10
76.24754229864645
 20
-90.08132321966717
 10
76.24754229864645
 20
-90.40481768573213
 97
        0
 97
        0
 75
     2
 76
     1
 98
        0
  0
POLYLINE
  5
59
330
53
100
AcDbEntity
  8
_U+30EC_U+30A4_U+30E4_U+30FC 1
370
     0
100
AcDb2dPolyline
 66
     1
 10
0.0
 20
0.0
 30
0.0
  0
VERTEX
  5
5A
330
59
100
AcDbEntity
  8
_U+30EC_U+30A4_U+30E4_U+30FC 1
370
     0
100
AcDbVertex
100
AcDb2dVertex
 10
76.19689939501328
 20
-89.59694279444105
 30
0.0
  0
VERTEX
  5
5B
330
59
100
AcDbEntity
  8
_U+30EC_U+30A4_U+30E4_U+30FC 1
370
     0
100
AcDbVertex
100
AcDb2dVertex
 10
75.94506291504152
 20
-89.59694279444105
 30
0.0
  0
VERTEX
  5
5C
330
59
100
AcDbEntity
  8
_U+30EC_U+30A4_U+30E4_U+30FC 1
370
     0
100
AcDbVertex
100
AcDb2dVertex
 10
75.94506291504152
 20
-89.32788083704304
 30
0.0
  0
VERTEX
  5
5D
330
59
100
AcDbEntity
  8
_U+30EC_U+30A4_U+30E4_U+30FC 1
370
     0
100
AcDbVertex
100
AcDb2dVertex
 10
76.19689939501328
 20
-89.32788083704304
 30
0.0
  0
VERTEX
  5
5E
330
59
100
AcDbEntity
  8
_U+30EC_U+30A4_U+30E4_U+30FC 1
370
     0
100
AcDbVertex
100
AcDb2dVertex
 10
76.19689939501328
 20
-89.59694279444105
 30
0.0
  0
SEQEND
  5
5F
330
59
100
AcDbEntity
  8
_U+30EC_U+30A4_U+30E4_U+30FC 1
370
     0
  0
HATCH
  5
60
330
53
100
AcDbEntity
  8
_U+30EC_U+30A4_U+30E4_U+30FC 1
 62
     7
420
 16777215
100
AcDbHatch
 10
0.0
 20
0.0
 30
0.0
210
0.0
220
0.0
230
1.0
  2
SOLID
 70
     1
 71
     0
 91
        1
 92
        1
 93
        4
 72
     1
 10
76.19689939501328
 20
-89.59694279444105
 11
75.94506291504152
 21
-89.59694279444105
 72
     1
 10
75.94506291504152
 20
-89.59694279444105
 11
75.94506291504152
 21
-89.32788083704304
 72
     1
 10
75.94506291504152
 20
-89.32788083704304
 11
76.19689939501328
 21
-89.32788083704304
 72
     1
 10
76.19689939501328
 20
-89.32788083704304
 11
76.19689939501328
 21
-89.59694279444105
 97
        0
 75
     2
 76
     1
 98
        0
  0
SPLINE
  5
61
330
53
100
AcDbEntity
  8
_U+30EC_U+30A4_U+30E4_U+30FC 1
370
     0
100
AcDbSpline
210
0.0
220
0.0
230
1.0
 70
    11
 71
     3
 72
    53
 73
    49
 74
     0
 42
0.0000000001
 43
0.0000000001
 12
1.0
 22
0.0
 32
0.0
 13
1.0
 23
0.0
 33
0.0
 40
0.0
 40
0.0
 40
0.0
 40
0.0
 40
1.0
 40
1.0
 40
1.0
 40
2.0
 40
2.0
 40
2.0
 40
3.0
 40
3.0
 40
3.0
 40
4.0
 40
4.0
 40
4.0
 40
5.0
 40
5.0
 40
5.0
 40
6.0
 40
6.0
 40
6.0
 40
7.0
 40
7.0
 40
7.0
 40
8.0
 40
8.0
 40
8.0
 40
9.0
 40
9.0
 40
9.0
 40
10.0
 40
10.0
 40
10.0
 40
11.0
 40
11.0
 40
11.0
 40
12.0
 40
12.0
 40
12.0
 40
13.0
 40
13.0
 40
13.0
 40
14.0
 40
14.0
 40
14.0
 40
15.0
 40
15.0
 40
15.0
 40
16.0
 40
16.0
 40
16.0
 40
16.0
 10
76.24754229864645
 20
-88.56100258202642
 30
0.0
 10
76.24754229864645
 20
-88.64437389276947
 30
0.0
 10
76.23066133076873
 20
-88.75323891010336
 30
0.0
 10
76.16727157384013
 20
-88.86141490834021
 30
0.0
 10
76.05737302786066
 20
-89.04710555499517
 30
0.0
 10
75.92611488987264
 20
-89.0694986756493
 30
0.0
 10
75.81828340118432
 20
-89.08982473901227
 30
0.0
 10
75.81828340118432
 20
-89.08982473901227
 30
0.0
 10
75.81828340118432
 20
-88.85245766007856
 30
0.0
 10
75.81828340118432
 20
-88.85245766007856
 30
0.0
 10
76.01706541068323
 20
-88.79389103682931
 30
0.0
 10
76.04669323185638
 20
-88.65815427471047
 30
0.0
 10
76.04669323185638
 20
-88.55859101518675
 30
0.0
 10
76.04669323185638
 20
-88.40941838067543
 30
0.0
 10
75.94712997233266
 20
-88.24680987377164
 30
0.0
 10
75.7145860270783
 20
-88.24680987377164
 30
0.0
 10
75.45861543252424
 20
-88.24680987377164
 30
0.0
 10
75.38867999417367
 20
-88.43870169230006
 30
0.0
 10
75.38867999417367
 20
-88.5675482634484
 30
0.0
 10
75.38867999417367
 20
-88.60165470875236
 30
0.0
 10
75.38867999417367
 20
-88.75323891010336
 30
0.0
 10
75.51787107487054
 20
-88.84797903594773
 30
0.0
 10
75.51787107487054
 20
-88.84797903594773
 30
0.0
 10
75.49892304970166
 20
-89.03573673989385
 30
0.0
 10
75.49892304970166
 20
-89.03573673989385
 30
0.0
 10
75.49892304970166
 20
-89.03573673989385
 30
0.0
 10
74.65246308897578
 20
-88.9068901687455
 30
0.0
 10
74.65246308897578
 20
-88.9068901687455
 30
0.0
 10
74.65246308897578
 20
-88.9068901687455
 30
0.0
 10
74.65246308897578
 20
-88.07489960905767
 30
0.0
 10
74.65246308897578
 20
-88.07489960905767
 30
0.0
 10
74.65246308897578
 20
-88.07489960905767
 30
0.0
 10
74.84711098389239
 20
-88.07489960905767
 30
0.0
 10
74.84711098389239
 20
-88.07489960905767
 30
0.0
 10
74.84711098389239
 20
-88.07489960905767
 30
0.0
 10
74.84711098389239
 20
-88.73256833719186
 30
0.0
 10
74.84711098389239
 20
-88.73256833719186
 30
0.0
 10
74.84711098389239
 20
-88.73256833719186
 30
0.0
 10
75.27016870948107
 20
-88.80284828509096
 30
0.0
 10
75.27016870948107
 20
-88.80284828509096
 30
0.0
 10
75.23640677372562
 20
-88.73739147087122
 30
0.0
 10
75.1960991565482
 20
-88.64919702644882
 30
0.0
 10
75.1960991565482
 20
-88.52241751259162
 30
0.0
 10
75.1960991565482
 20
-88.25128849790246
 30
0.0
 10
75.38247882230021
 20
-87.9980739797366
 30
0.0
 10
75.69563800190943
 20
-87.9980739797366
 30
0.0
 10
76.01293129610093
 20
-87.9980739797366
 30
0.0
 10
76.24754229864645
 20
-88.23750811596146
 30
0.0
 10
76.24754229864645
 20
-88.56100258202642
 30
0.0
  0
HATCH
  5
62
330
53
100
AcDbEntity
  8
_U+30EC_U+30A4_U+30E4_U+30FC 1
 62
     7
420
 16777215
100
AcDbHatch
 10
0.0
 20
0.0
 30
0.0
210
0.0
220
0.0
230
1.0
  2
SOLID
 70
     1
 71
     0
 91
        1
 92
        1
 93
        1
 72
     4
 94
        3
 73
     0
 74
     1
 95
       53
 96
       49
 40
0.0
 40
0.0
 40
0.0
 40
0.0
 40
1.0
 40
1.0
 40
1.0
 40
2.0
 40
2.0
 40
2.0
 40
3.0
 40
3.0
 40
3.0
 40
4.0
 40
4.0
 40
4.0
 40
5.0
 40
5.0
 40
5.0
 40
6.0
 40
6.0
 40
6.0
 40
7.0
 40
7.0
 40
7.0
 40
8.0
 40
8.0
 40
8.0
 40
9.0
 40
9.0
 40
9.0
 40
10.0
 40
10.0
 40
10.0
 40
11.0
 40
11.0
 40
11.0
 40
12.0
 40
12.0
 40
12.0
 40
13.0
 40
13.0
 40
13.0
 40
14.0
 40
14.0
 40
14.0
 40
15.0
 40
15.0
 40
15.0
 40
16.0
 40
16.0
 40
16.0
 40
16.0
 10
76.24754229864645
 20
-88.56100258202642
 10
76.24754229864645
 20
-88.64437389276947
 10
76.23066133076873
 20
-88.75323891010336
 10
76.16727157384013
 20
-88.86141490834021
 10
76.05737302786066
 20
-89.04710555499517
 10
75.92611488987264
 20
-89.0694986756493
 10
75.81828340118432
 20
-89.08982473901227
 10
75.81828340118432
 20
-89.08982473901227
 10
75.81828340118432
 20
-88.85245766007856
 10
75.81828340118432
 20
-88.85245766007856
 10
76.01706541068323
 20
-88.79389103682931
 10
76.04669323185638
 20
-88.65815427471047
 10
76.04669323185638
 20
-88.55859101518675
 10
76.04669323185638
 20
-88.40941838067543
 10
75.94712997233266
 20
-88.24680987377164
 10
75.7145860270783
 20
-88.24680987377164
 10
75.45861543252424
 20
-88.24680987377164
 10
75.38867999417367
 20
-88.43870169230006
 10
75.38867999417367
 20
-88.5675482634484
 10
75.38867999417367
 20
-88.60165470875236
 10
75.38867999417367
 20
-88.75323891010336
 10
75.51787107487054
 20
-88.84797903594773
 10
75.51787107487054
 20
-88.84797903594773
 10
75.49892304970166
 20
-89.03573673989385
 10
75.49892304970166
 20
-89.03573673989385
 10
75.49892304970166
 20
-89.03573673989385
 10
74.65246308897578
 20
-88.9068901687455
 10
74.65246308897578
 20
-88.9068901687455
 10
74.65246308897578
 20
-88.9068901687455
 10
74.65246308897578
 20
-88.07489960905767
 10
74.65246308897578
 20
-88.07489960905767
 10
74.65246308897578
 20
-88.07489960905767
 10
74.84711098389239
 20
-88.07489960905767
 10
74.84711098389239
 20
-88.07489960905767
 10
74.84711098389239
 20
-88.07489960905767
 10
74.84711098389239
 20
-88.73256833719186
 10
74.84711098389239
 20
-88.73256833719186
 10
74.84711098389239
 20
-88.73256833719186
 10
75.27016870948107
 20
-88.80284828509096
 10
75.27016870948107
 20
-88.80284828509096
 10
75.23640677372562
 20
-88.73739147087122
 10
75.1960991565482
 20
-88.64919702644882
 10
75.1960991565482
 20
-88.52241751259162
 10
75.1960991565482
 20
-88.25128849790246
 10
75.38247882230021
 20
-87.9980739797366
 10
75.69563800190943
 20
-87.9980739797366
 10
76.01293129610093
 20
-87.9980739797366
 10
76.24754229864645
 20
-88.23750811596146
 10
76.24754229864645
 20
-88.56100258202642
 97
        0
 97
        0
 75
     2
 76
     1
 98
        0
  0
ENDBLK
  5
56
330
53
100
AcDbEntity
  8
0
100
AcDbBlockEnd
  0
BLOCK
  5
65
330
63
100
AcDbEntity
  8
0
100
AcDbBlockBegin
  2
block 4
 70
     0
 10
0.0
 20
0.0
 30
0.0
  3
block 4
  1

  0
SPLINE
  5
67
330
63
100
AcDbEntity
  8
_U+30EC_U+30A4_U+30E4_U+30FC 1
370
     0
100
AcDbSpline
210
0.0
220
0.0
230
1.0
 70
    11
 71
     3
 72
    62
 73
    58
 74
     0
 42
0.0000000001
 43
0.0000000001
 12
1.0
 22
0.0
 32
0.0
 13
1.0
 23
0.0
 33
0.0
 40
0.0
 40
0.0
 40
0.0
 40
0.0
 40
1.0
 40
1.0
 40
1.0
 40
2.0
 40
2.0
 40
2.0
 40
3.0
 40
3.0
 40
3.0
 40
4.0
 40
4.0
 40
4.0
 40
5.0
 40
5.0
 40
5.0
 40
6.0
 40
6.0
 40
6.0
 40
7.0
 40
7.0
 40
7.0
 40
8.0
 40
8.0
 40
8.0
 40
9.0
 40
9.0
 40
9.0
 40
10.0
 40
10.0
 40
10.0
 40
11.0
 40
11.0
 40
11.0
 40
12.0
 40
12.0
 40
12.0
 40
13.0
 40
13.0
 40
13.0
 40
14.0
 40
14.0
 40
14.0
 40
15.0
 40
15.0
 40
15.0
 40
16.0
 40
16.0
 40
16.0
 40
17.0
 40
17.0
 40
17.0
 40
18.0
 40
18.0
 40
18.0
 40
19.0
 40
19.0
 40
19.0
 40
19.0
 10
76.36502005469347
 20
-93.72175561893067
 30
0.0
 10
76.36502005469347
 20
-93.82338593574555
 30
0.0
 10
76.34400497223345
 20
-94.05627439054844
 30
0.0
 10
76.15796981602996
 20
-94.18959958582761
 30
0.0
 10
76.04565970321082
 20
-94.26883678198836
 30
0.0
 10
75.94644095323561
 20
-94.27331540611918
 30
0.0
 10
75.86169160429847
 20
-94.27779403025
 30
0.0
 10
75.86169160429847
 20
-94.27779403025
 30
0.0
 10
75.86169160429847
 20
-94.04283851815596
 30
0.0
 10
75.86169160429847
 20
-94.04283851815596
 30
0.0
 10
75.93576115723134
 20
-94.04042695131629
 30
0.0
 10
76.17037215977686
 20
-94.02905813621496
 30
0.0
 10
76.17037215977686
 20
-93.7262342430615
 30
0.0
 10
76.17037215977686
 20
-93.57912866584134
 30
0.0
 10
76.1007812309748
 20
-93.41652015893754
 30
0.0
 10
75.87237140030274
 20
-93.41652015893754
 30
0.0
 10
75.7559271729013
 20
-93.41652015893754
 30
0.0
 10
75.70735132655928
 20
-93.45717228566349
 30
0.0
 10
75.67565644809498
 20
-93.49093422141894
 30
0.0
 10
75.6015868951621
 20
-93.57017141757969
 30
0.0
 10
75.58884004186669
 20
-93.6945393645972
 30
0.0
 10
75.58884004186669
 20
-93.75345049739498
 30
0.0
 10
75.58884004186669
 20
-93.77377656075795
 30
0.0
 10
75.59090709915783
 20
-93.81201712064423
 30
0.0
 10
75.59504121374013
 20
-93.84164494181736
 30
0.0
 10
75.59504121374013
 20
-93.84164494181736
 30
0.0
 10
75.40039331882352
 20
-93.84164494181736
 30
0.0
 10
75.40039331882352
 20
-93.84164494181736
 30
0.0
 10
75.40693900024549
 20
-93.80099281509142
 30
0.0
 10
75.40900605753664
 20
-93.75551755468612
 30
0.0
 10
75.40900605753664
 20
-93.74897187326415
 30
0.0
 10
75.40900605753664
 20
-93.67869192536506
 30
0.0
 10
75.38764646552809
 20
-93.46612953392514
 30
0.0
 10
75.15096840569143
 20
-93.46612953392514
 30
0.0
 10
74.97320147865254
 20
-93.46612953392514
 30
0.0
 10
74.91807995088854
 20
-93.6063449201748
 30
0.0
 10
74.91807995088854
 20
-93.72382267622183
 30
0.0
 10
74.91807995088854
 20
-94.00666501556084
 30
0.0
 10
75.15096840569143
 20
-94.0156222638225
 30
0.0
 10
75.22262639178463
 20
-94.02010088795332
 30
0.0
 10
75.22262639178463
 20
-94.02010088795332
 30
0.0
 10
75.22262639178463
 20
-94.23714190352405
 30
0.0
 10
75.22262639178463
 20
-94.23714190352405
 30
0.0
 10
75.09791393521859
 20
-94.2281846552624
 30
0.0
 10
74.72136499868077
 20
-94.19890134363779
 30
0.0
 10
74.72136499868077
 20
-93.71038680382935
 30
0.0
 10
74.72136499868077
 20
-93.47060815805597
 30
0.0
 10
74.8484890220865
 20
-93.21291501575928
 30
0.0
 10
75.14442272426945
 20
-93.21291501575928
 30
0.0
 10
75.33080239002147
 20
-93.21291501575928
 30
0.0
 10
75.41314017211894
 20
-93.31488984212267
 30
0.0
 10
75.47446287175639
 20
-93.42099878306837
 30
0.0
 10
75.50202363563838
 20
-93.35554196884861
 30
0.0
 10
75.5822943604447
 20
-93.160894073932
 30
0.0
 10
75.85962454700731
 20
-93.160894073932
 30
0.0
 10
76.19793292365885
 20
-93.160894073932
 30
0.0
 10
76.36502005469347
 20
-93.4254774071992
 30
0.0
 10
76.36502005469347
 20
-93.72175561893067
 30
0.0
  0
HATCH
  5
68
330
63
100
AcDbEntity
  8
_U+30EC_U+30A4_U+30E4_U+30FC 1
 62
     7
420
 16777215
100
AcDbHatch
 10
0.0
 20
0.0
 30
0.0
210
0.0
220
0.0
230
1.0
  2
SOLID
 70
     1
 71
     0
 91
        1
 92
        1
 93
        1
 72
     4
 94
        3
 73
     0
 74
     1
 95
       62
 96
       58
 40
0.0
 40
0.0
 40
0.0
 40
0.0
 40
1.0
 40
1.0
 40
1.0
 40
2.0
 40
2.0
 40
2.0
 40
3.0
 40
3.0
 40
3.0
 40
4.0
 40
4.0
 40
4.0
 40
5.0
 40
5.0
 40
5.0
 40
6.0
 40
6.0
 40
6.0
 40
7.0
 40
7.0
 40
7.0
 40
8.0
 40
8.0
 40
8.0
 40
9.0
 40
9.0
 40
9.0
 40
10.0
 40
10.0
 40
10.0
 40
11.0
 40
11.0
 40
11.0
 40
12.0
 40
12.0
 40
12.0
 40
13.0
 40
13.0
 40
13.0
 40
14.0
 40
14.0
 40
14.0
 40
15.0
 40
15.0
 40
15.0
 40
16.0
 40
16.0
 40
16.0
 40
17.0
 40
17.0
 40
17.0
 40
18.0
 40
18.0
 40
18.0
 40
19.0
 40
19.0
 40
19.0
 40
19.0
 10
76.36502005469347
 20
-93.72175561893067
 10
76.36502005469347
 20
-93.82338593574555
 10
76.34400497223345
 20
-94.05627439054844
 10
76.15796981602996
 20
-94.18959958582761
 10
76.04565970321082
 20
-94.26883678198836
 10
75.94644095323561
 20
-94.27331540611918
 10
75.86169160429847
 20
-94.27779403025
 10
75.86169160429847
 20
-94.27779403025
 10
75.86169160429847
 20
-94.04283851815596
 10
75.86169160429847
 20
-94.04283851815596
 10
75.93576115723134
 20
-94.04042695131629
 10
76.17037215977686
 20
-94.02905813621496
 10
76.17037215977686
 20
-93.7262342430615
 10
76.17037215977686
 20
-93.57912866584134
 10
76.1007812309748
 20
-93.41652015893754
 10
75.87237140030274
 20
-93.41652015893754
 10
75.7559271729013
 20
-93.41652015893754
 10
75.70735132655928
 20
-93.45717228566349
 10
75.67565644809498
 20
-93.49093422141894
 10
75.6015868951621
 20
-93.57017141757969
 10
75.58884004186669
 20
-93.6945393645972
 10
75.58884004186669
 20
-93.75345049739498
 10
75.58884004186669
 20
-93.77377656075795
 10
75.59090709915783
 20
-93.81201712064423
 10
75.59504121374013
 20
-93.84164494181736
 10
75.59504121374013
 20
-93.84164494181736
 10
75.40039331882352
 20
-93.84164494181736
 10
75.40039331882352
 20
-93.84164494181736
 10
75.40693900024549
 20
-93.80099281509142
 10
75.40900605753664
 20
-93.75551755468612
 10
75.40900605753664
 20
-93.74897187326415
 10
75.40900605753664
 20
-93.67869192536506
 10
75.38764646552809
 20
-93.46612953392514
 10
75.15096840569143
 20
-93.46612953392514
 10
74.97320147865254
 20
-93.46612953392514
 10
74.91807995088854
 20
-93.6063449201748
 10
74.91807995088854
 20
-93.72382267622183
 10
74.91807995088854
 20
-94.00666501556084
 10
75.15096840569143
 20
-94.0156222638225
 10
75.22262639178463
 20
-94.02010088795332
 10
75.22262639178463
 20
-94.02010088795332
 10
75.22262639178463
 20
-94.23714190352405
 10
75.22262639178463
 20
-94.23714190352405
 10
75.09791393521859
 20
-94.2281846552624
 10
74.72136499868077
 20
-94.19890134363779
 10
74.72136499868077
 20
-93.71038680382935
 10
74.72136499868077
 20
-93.47060815805597
 10
74.8484890220865
 20
-93.21291501575928
 10
75.14442272426945
 20
-93.21291501575928
 10
75.33080239002147
 20
-93.21291501575928
 10
75.41314017211894
 20
-93.31488984212267
 10
75.47446287175639
 20
-93.42099878306837
 10
75.50202363563838
 20
-93.35554196884861
 10
75.5822943604447
 20
-93.160894073932
 10
75.85962454700731
 20
-93.160894073932
 10
76.19793292365885
 20
-93.160894073932
 10
76.36502005469347
 20
-93.4254774071992
 10
76.36502005469347
 20
-93.72175561893067
 97
        0
 97
        0
 75
     2
 76
     1
 98
        0
  0
ENDBLK
  5
66
330
63
100
AcDbEntity
  8
0
100
AcDbBlockEnd
  0
BLOCK
  5
6B
330
69
100
AcDbEntity
  8
0
100
AcDbBlockBegin
  2
block 5
 70
     0
 10
0.0
 20
0.0
 30
0.0
  3
block 5
  1

  0
SPLINE
  5
6D
330
69
100
AcDbEntity
  8
_U+30EC_U+30A4_U+30E4_U+30FC 1
370
     0
100
AcDbSpline
210
0.0
220
0.0
230
1.0
 70
    11
 71
     3
 72
    26
 73
    22
 74
     0
 42
0.0000000001
 43
0.0000000001
 12
1.0
 22
0.0
 32
0.0
 13
1.0
 23
0.0
 33
0.0
 40
0.0
 40
0.0
 40
0.0
 40
0.0
 40
1.0
 40
1.0
 40
1.0
 40
2.0
 40
2.0
 40
2.0
 40
3.0
 40
3.0
 40
3.0
 40
4.0
 40
4.0
 40
4.0
 40
5.0
 40
5.0
 40
5.0
 40
6.0
 40
6.0
 40
6.0
 40
7.0
 40
7.0
 40
7.0
 40
7.0
 10
52.51462401030884
 20
-97.8617268635554
 30
0.0
 10
52.51462401030884
 20
-97.8617268635554
 30
0.0
 10
52.51462401030884
 20
-96.75757376053284
 30
0.0
 10
52.51462401030884
 20
-96.75757376053284
 30
0.0
 10
52.51462401030884
 20
-96.75757376053284
 30
0.0
 10
52.16184623261926
 20
-96.75757376053284
 30
0.0
 10
52.16184623261926
 20
-96.75757376053284
 30
0.0
 10
52.16184623261926
 20
-96.75757376053284
 30
0.0
 10
52.16184623261926
 20
-96.60943465466708
 30
0.0
 10
52.16184623261926
 20
-96.60943465466708
 30
0.0
 10
52.51686332237426
 20
-96.59462074408052
 30
0.0
 10
52.56664495213612
 20
-96.4316677276282
 30
0.0
 10
52.59816757582615
 20
-96.31729055751791
 30
0.0
 10
52.59816757582615
 20
-96.31729055751791
 30
0.0
 10
52.75423040130797
 20
-96.31729055751791
 30
0.0
 10
52.75423040130797
 20
-96.31729055751791
 30
0.0
 10
52.75423040130797
 20
-96.31729055751791
 30
0.0
 10
52.75423040130797
 20
-97.8617268635554
 30
0.0
 10
52.75423040130797
 20
-97.8617268635554
 30
0.0
 10
52.75423040130797
 20
-97.8617268635554
 30
0.0
 10
52.51462401030884
 20
-97.8617268635554
 30
0.0
 10
52.51462401030884
 20
-97.8617268635554
 30
0.0
  0
HATCH
  5
6E
330
69
100
AcDbEntity
  8
_U+30EC_U+30A4_U+30E4_U+30FC 1
 62
     7
420
 16777215
100
AcDbHatch
 10
0.0
 20
0.0
 30
0.0
210
0.0
220
0.0
230
1.0
  2
SOLID
 70
     1
 71
     0
 91
        1
 92
        1
 93
        1
 72
     4
 94
        3
 73
     0
 74
     1
 95
       26
 96
       22
 40
0.0
 40
0.0
 40
0.0
 40
0.0
 40
1.0
 40
1.0
 40
1.0
 40
2.0
 40
2.0
 40
2.0
 40
3.0
 40
3.0
 40
3.0
 40
4.0
 40
4.0
 40
4.0
 40
5.0
 40
5.0
 40
5.0
 40
6.0
 40
6.0
 40
6.0
 40
7.0
 40
7.0
 40
7.0
 40
7.0
 10
52.51462401030884
 20
-97.8617268635554
 10
52.51462401030884
 20
-97.8617268635554
 10
52.51462401030884
 20
-96.75757376053284
 10
52.51462401030884
 20
-96.75757376053284
 10
52.51462401030884
 20
-96.75757376053284
 10
52.16184623261926
 20
-96.75757376053284
 10
52.16184623261926
 20
-96.75757376053284
 10
52.16184623261926
 20
-96.75757376053284
 10
52.16184623261926
 20
-96.60943465466708
 10
52.16184623261926
 20
-96.60943465466708
 10
52.51686332237426
 20
-96.59462074408052
 10
52.56664495213612
 20
-96.4316677276282
 10
52.59816757582615
 20
-96.31729055751791
 10
52.59816757582615
 20
-96.31729055751791
 10
52.75423040130797
 20
-96.31729055751791
 10
52.75423040130797
 20
-96.31729055751791
 10
52.75423040130797
 20
-96.31729055751791
 10
52.75423040130797
 20
-97.8617268635554
 10
52.75423040130797
 20
-97.8617268635554
 10
52.75423040130797
 20
-97.8617268635554
 10
52.51462401030884
 20
-97.8617268635554
 10
52.51462401030884
 20
-97.8617268635554
 97
        0
 97
        0
 75
     2
 76
     1
 98
        0
  0
SPLINE
  5
6F
330
69
100
AcDbEntity
  8
_U+30EC_U+30A4_U+30E4_U+30FC 1
370
     0
100
AcDbSpline
210
0.0
220
0.0
230
1.0
 70
    11
 71
     3
 72
    29
 73
    25
 74
     0
 42
0.0000000001
 43
0.0000000001
 12
1.0
 22
0.0
 32
0.0
 13
1.0
 23
0.0
 33
0.0
 40
0.0
 40
0.0
 40
0.0
 40
0.0
 40
1.0
 40
1.0
 40
1.0
 40
2.0
 40
2.0
 40
2.0
 40
3.0
 40
3.0
 40
3.0
 40
4.0
 40
4.0
 40
4.0
 40
5.0
 40
5.0
 40
5.0
 40
6.0
 40
6.0
 40
6.0
 40
7.0
 40
7.0
 40
7.0
 40
8.0
 40
8.0
 40
8.0
 40
8.0
 10
54.2494018419064
 20
-97.68395993651652
 30
0.0
 10
54.13416339792479
 20
-97.89342174201971
 30
0.0
 10
53.94881726081835
 20
-97.91236976718858
 30
0.0
 10
53.82444931380083
 20
-97.91236976718858
 30
0.0
 10
53.65253904908687
 20
-97.91236976718858
 30
0.0
 10
53.50112710251014
 20
-97.8658609781377
 30
0.0
 10
53.39932453092101
 20
-97.68395993651652
 30
0.0
 10
53.28856471107022
 20
-97.4893120415999
 30
0.0
 10
53.26823864770725
 20
-97.25228947221471
 30
0.0
 10
53.26823864770725
 20
-97.08968096531092
 30
0.0
 10
53.26823864770725
 20
-96.94567597402748
 30
0.0
 10
53.28632539900481
 20
-96.69383949405571
 30
0.0
 10
53.39932453092101
 20
-96.4950574845568
 30
0.0
 10
53.51473522967687
 20
-96.29214136047558
 30
0.0
 10
53.68647323961658
 20
-96.26871471117587
 30
0.0
 10
53.82444931380083
 20
-96.26871471117587
 30
0.0
 10
53.99394801167513
 20
-96.26871471117587
 30
0.0
 10
54.14777152509154
 20
-96.31315644293561
 30
0.0
 10
54.2494018419064
 20
-96.4950574845568
 30
0.0
 10
54.35568303762636
 20
-96.68763832218227
 30
0.0
 10
54.38065997989442
 20
-96.91604815285433
 30
0.0
 10
54.38065997989442
 20
-97.08968096531092
 30
0.0
 10
54.38065997989442
 20
-97.26090221092784
 30
0.0
 10
54.35792234969177
 20
-97.49137909889104
 30
0.0
 10
54.2494018419064
 20
-97.68395993651652
 30
0.0
  0
SPLINE
  5
70
330
69
100
AcDbEntity
  8
_U+30EC_U+30A4_U+30E4_U+30FC 1
370
     0
100
AcDbSpline
210
0.0
220
0.0
230
1.0
 70
    11
 71
     3
 72
    17
 73
    13
 74
     0
 42
0.0000000001
 43
0.0000000001
 12
1.0
 22
0.0
 32
0.0
 13
1.0
 23
0.0
 33
0.0
 40
0.0
 40
0.0
 40
0.0
 40
0.0
 40
1.0
 40
1.0
 40
1.0
 40
2.0
 40
2.0
 40
2.0
 40
3.0
 40
3.0
 40
3.0
 40
4.0
 40
4.0
 40
4.0
 40
4.0
 10
53.82444931380083
 20
-96.46129554880135
 30
0.0
 10
53.55762666846824
 20
-96.46129554880135
 30
0.0
 10
53.50784503870637
 20
-96.74482690723741
 30
0.0
 10
53.50784503870637
 20
-97.08968096531092
 30
0.0
 10
53.50784503870637
 20
-97.40904131679358
 30
0.0
 10
53.54625785336691
 20
-97.71772187227197
 30
0.0
 10
53.82444931380083
 20
-97.71772187227197
 30
0.0
 10
54.08886039229376
 20
-97.71772187227197
 30
0.0
 10
54.14088133412103
 20
-97.43660208067557
 30
0.0
 10
54.14088133412103
 20
-97.08968096531092
 30
0.0
 10
54.14088133412103
 20
-96.76997610427973
 30
0.0
 10
54.10022920739508
 20
-96.46129554880135
 30
0.0
 10
53.82444931380083
 20
-96.46129554880135
 30
0.0
  0
HATCH
  5
71
330
69
100
AcDbEntity
  8
_U+30EC_U+30A4_U+30E4_U+30FC 1
 62
     7
420
 16777215
100
AcDbHatch
 10
0.0
 20
0.0
 30
0.0
210
0.0
220
0.0
230
1.0
  2
SOLID
 70
     1
 71
     0
 91
        2
 92
        1
 93
        1
 72
     4
 94
        3
 73
     0
 74
     1
 95
       29
 96
       25
 40
0.0
 40
0.0
 40
0.0
 40
0.0
 40
1.0
 40
1.0
 40
1.0
 40
2.0
 40
2.0
 40
2.0
 40
3.0
 40
3.0
 40
3.0
 40
4.0
 40
4.0
 40
4.0
 40
5.0
 40
5.0
 40
5.0
 40
6.0
 40
6.0
 40
6.0
 40
7.0
 40
7.0
 40
7.0
 40
8.0
 40
8.0
 40
8.0
 40
8.0
 10
54.2494018419064
 20
-97.68395993651652
 10
54.13416339792479
 20
-97.89342174201971
 10
53.94881726081835
 20
-97.91236976718858
 10
53.82444931380083
 20
-97.91236976718858
 10
53.65253904908687
 20
-97.91236976718858
 10
53.50112710251014
 20
-97.8658609781377
 10
53.39932453092101
 20
-97.68395993651652
 10
53.28856471107022
 20
-97.4893120415999
 10
53.26823864770725
 20
-97.25228947221471
 10
53.26823864770725
 20
-97.08968096531092
 10
53.26823864770725
 20
-96.94567597402748
 10
53.28632539900481
 20
-96.69383949405571
 10
53.39932453092101
 20
-96.4950574845568
 10
53.51473522967687
 20
-96.29214136047558
 10
53.68647323961658
 20
-96.26871471117587
 10
53.82444931380083
 20
-96.26871471117587
 10
53.99394801167513
 20
-96.26871471117587
 10
54.14777152509154
 20
-96.31315644293561
 10
54.2494018419064
 20
-96.4950574845568
 10
54.35568303762636
 20
-96.68763832218227
 10
54.38065997989442
 20
-96.91604815285433
 10
54.38065997989442
 20
-97.08968096531092
 10
54.38065997989442
 20
-97.26090221092784
 10
54.35792234969177
 20
-97.49137909889104
 10
54.2494018419064
 20
-97.68395993651652
 97
        0
 97
        0
 92
        1
 93
        1
 72
     4
 94
        3
 73
     0
 74
     1
 95
       17
 96
       13
 40
0.0
 40
0.0
 40
0.0
 40
0.0
 40
1.0
 40
1.0
 40
1.0
 40
2.0
 40
2.0
 40
2.0
 40
3.0
 40
3.0
 40
3.0
 40
4.0
 40
4.0
 40
4.0
 40
4.0
 10
53.82444931380083
 20
-96.46129554880135
 10
53.55762666846824
 20
-96.46129554880135
 10
53.50784503870637
 20
-96.74482690723741
 10
53.50784503870637
 20
-97.08968096531092
 10
53.50784503870637
 20
-97.40904131679358
 10
53.54625785336691
 20
-97.71772187227197
 10
53.82444931380083
 20
-97.71772187227197
 10
54.08886039229376
 20
-97.71772187227197
 10
54.14088133412103
 20
-97.43660208067557
 10
54.14088133412103
 20
-97.08968096531092
 10
54.14088133412103
 20
-96.76997610427973
 10
54.10022920739508
 20
-96.46129554880135
 10
53.82444931380083
 20
-96.46129554880135
 97
        0
 97
        0
 75
     2
 76
     1
 98
        0
  0
ENDBLK
  5
6C
330
69
100
AcDbEntity
  8
0
100
AcDbBlockEnd
  0
BLOCK
  5
C8
330
C6
100
AcDbEntity
  8
0
100
AcDbBlockBegin
  2
block 6
 70
     0
 10
0.0
 20
0.0
 30
0.0
  3
block 6
  1

  0
SPLINE
  5
CA
330
C6
100
AcDbEntity
  8
_U+30EC_U+30A4_U+30E4_U+30FC 1
370
     0
100
AcDbSpline
210
0.0
220
0.0
230
1.0
 70
    11
 71
     3
 72
    44
 73
    40
 74
     0
 42
0.0000000001
 43
0.0000000001
 12
1.0
 22
0.0
 32
0.0
 13
1.0
 23
0.0
 33
0.0
 40
0.0
 40
0.0
 40
0.0
 40
0.0
 40
1.0
 40
1.0
 40
1.0
 40
2.0
 40
2.0
 40
2.0
 40
3.0
 40
3.0
 40
3.0
 40
4.0
 40
4.0
 40
4.0
 40
5.0
 40
5.0
 40
5.0
 40
6.0
 40
6.0
 40
6.0
 40
7.0
 40
7.0
 40
7.0
 40
8.0
 40
8.0
 40
8.0
 40
9.0
 40
9.0
 40
9.0
 40
10.0
 40
10.0
 40
10.0
 40
11.0
 40
11.0
 40
11.0
 40
12.0
 40
12.0
 40
12.0
 40
13.0
 40
13.0
 40
13.0
 40
13.0
 10
60.08711614166225
 20
-79.87798392100272
 30
0.0
 10
59.85422768685936
 20
-80.03680282287274
 30
0.0
 10
59.7548366821099
 20
-80.11087237580561
 30
0.0
 10
59.70281574028263
 20
-80.25453285754054
 30
0.0
 10
59.70281574028263
 20
-80.25453285754054
 30
0.0
 10
60.53480629997047
 20
-80.25453285754054
 30
0.0
 10
60.53480629997047
 20
-80.25453285754054
 30
0.0
 10
60.53480629997047
 20
-80.25453285754054
 30
0.0
 10
60.53480629997047
 20
-80.45986054846142
 30
0.0
 10
60.53480629997047
 20
-80.45986054846142
 30
0.0
 10
60.53480629997047
 20
-80.45986054846142
 30
0.0
 10
59.43599309495004
 20
-80.45986054846142
 30
0.0
 10
59.43599309495004
 20
-80.45986054846142
 30
0.0
 10
59.46992728547974
 20
-80.10225963709249
 30
0.0
 10
59.54003497860458
 20
-80.02405596957732
 30
0.0
 10
59.95155163431767
 20
-79.72571070055469
 30
0.0
 10
60.22509221584651
 20
-79.52692869105577
 30
0.0
 10
60.29519990897134
 20
-79.45906030999635
 30
0.0
 10
60.29519990897134
 20
-79.32160100013488
 30
0.0
 10
60.29519990897134
 20
-79.20308971544229
 30
0.0
 10
60.21820202487601
 20
-79.07217608700279
 30
0.0
 10
60.00805120027577
 20
-79.07217608700279
 30
0.0
 10
59.73003199461611
 20
-79.07217608700279
 30
0.0
 10
59.72090249158019
 20
-79.30265297496601
 30
0.0
 10
59.71642386744937
 20
-79.41909720236745
 30
0.0
 10
59.71642386744937
 20
-79.41909720236745
 30
0.0
 10
59.47681747645024
 20
-79.41909720236745
 30
0.0
 10
59.47681747645024
 20
-79.41909720236745
 30
0.0
 10
59.4857747247119
 20
-79.29197317896173
 30
0.0
 10
59.49714353981322
 20
-79.1800075756911
 30
0.0
 10
59.58292641739594
 20
-79.06149629099852
 30
0.0
 10
59.70057642821722
 20
-78.90061033183736
 30
0.0
 10
59.89953069249039
 20
-78.8668483960819
 30
0.0
 10
60.02389863950792
 20
-78.8668483960819
 30
0.0
 10
60.32000459646514
 20
-78.8668483960819
 30
0.0
 10
60.54152423616671
 20
-79.05081649499424
 30
0.0
 10
60.54152423616671
 20
-79.32366805742603
 30
0.0
 10
60.54152423616671
 20
-79.55242239764662
 30
0.0
 10
60.41732854392345
 20
-79.65164114762182
 30
0.0
 10
60.08711614166225
 20
-79.87798392100272
 30
0.0
  0
HATCH
  5
CB
330
C6
100
AcDbEntity
  8
_U+30EC_U+30A4_U+30E4_U+30FC 1
 62
     7
420
 16777215
100
AcDbHatch
 10
0.0
 20
0.0
 30
0.0
210
0.0
220
0.0
230
1.0
  2
SOLID
 70
     1
 71
     0
 91
        1
 92
        1
 93
        1
 72
     4
 94
        3
 73
     0
 74
     1
 95
       44
 96
       40
 40
0.0
 40
0.0
 40
0.0
 40
0.0
 40
1.0
 40
1.0
 40
1.0
 40
2.0
 40
2.0
 40
2.0
 40
3.0
 40
3.0
 40
3.0
 40
4.0
 40
4.0
 40
4.0
 40
5.0
 40
5.0
 40
5.0
 40
6.0
 40
6.0
 40
6.0
 40
7.0
 40
7.0
 40
7.0
 40
8.0
 40
8.0
 40
8.0
 40
9.0
 40
9.0
 40
9.0
 40
10.0
 40
10.0
 40
10.0
 40
11.0
 40
11.0
 40
11.0
 40
12.0
 40
12.0
 40
12.0
 40
13.0
 40
13.0
 40
13.0
 40
13.0
 10
60.08711614166225
 20
-79.87798392100272
 10
59.85422768685936
 20
-80.03680282287274
 10
59.7548366821099
 20
-80.11087237580561
 10
59.70281574028263
 20
-80.25453285754054
 10
59.70281574028263
 20
-80.25453285754054
 10
60.53480629997047
 20
-80.25453285754054
 10
60.53480629997047
 20
-80.25453285754054
 10
60.53480629997047
 20
-80.25453285754054
 10
60.53480629997047
 20
-80.45986054846142
 10
60.53480629997047
 20
-80.45986054846142
 10
60.53480629997047
 20
-80.45986054846142
 10
59.43599309495004
 20
-80.45986054846142
 10
59.43599309495004
 20
-80.45986054846142
 10
59.46992728547974
 20
-80.10225963709249
 10
59.54003497860458
 20
-80.02405596957732
 10
59.95155163431767
 20
-79.72571070055469
 10
60.22509221584651
 20
-79.52692869105577
 10
60.29519990897134
 20
-79.45906030999635
 10
60.29519990897134
 20
-79.32160100013488
 10
60.29519990897134
 20
-79.20308971544229
 10
60.21820202487601
 20
-79.07217608700279
 10
60.00805120027577
 20
-79.07217608700279
 10
59.73003199461611
 20
-79.07217608700279
 10
59.72090249158019
 20
-79.30265297496601
 10
59.71642386744937
 20
-79.41909720236745
 10
59.71642386744937
 20
-79.41909720236745
 10
59.47681747645024
 20
-79.41909720236745
 10
59.47681747645024
 20
-79.41909720236745
 10
59.4857747247119
 20
-79.29197317896173
 10
59.49714353981322
 20
-79.1800075756911
 10
59.58292641739594
 20
-79.06149629099852
 10
59.70057642821722
 20
-78.90061033183736
 10
59.89953069249039
 20
-78.8668483960819
 10
60.02389863950792
 20
-78.8668483960819
 10
60.32000459646514
 20
-78.8668483960819
 10
60.54152423616671
 20
-79.05081649499424
 10
60.54152423616671
 20
-79.32366805742603
 10
60.54152423616671
 20
-79.55242239764662
 10
60.41732854392345
 20
-79.65164114762182
 10
60.08711614166225
 20
-79.87798392100272
 97
        0
 97
        0
 75
     2
 76
     1
 98
        0
  0
SPLINE
  5
CC
330
C6
100
AcDbEntity
  8
_U+30EC_U+30A4_U+30E4_U+30FC 1
370
     0
100
AcDbSpline
210
0.0
220
0.0
230
1.0
 70
    11
 71
     3
 72
    53
 73
    49
 74
     0
 42
0.0000000001
 43
0.0000000001
 12
1.0
 22
0.0
 32
0.0
 13
1.0
 23
0.0
 33
0.0
 40
0.0
 40
0.0
 40
0.0
 40
0.0
 40
1.0
 40
1.0
 40
1.0
 40
2.0
 40
2.0
 40
2.0
 40
3.0
 40
3.0
 40
3.0
 40
4.0
 40
4.0
 40
4.0
 40
5.0
 40
5.0
 40
5.0
 40
6.0
 40
6.0
 40
6.0
 40
7.0
 40
7.0
 40
7.0
 40
8.0
 40
8.0
 40
8.0
 40
9.0
 40
9.0
 40
9.0
 40
10.0
 40
10.0
 40
10.0
 40
11.0
 40
11.0
 40
11.0
 40
12.0
 40
12.0
 40
12.0
 40
13.0
 40
13.0
 40
13.0
 40
14.0
 40
14.0
 40
14.0
 40
15.0
 40
15.0
 40
15.0
 40
16.0
 40
16.0
 40
16.0
 40
16.0
 10
61.22520343521454
 20
-80.5105034520946
 30
0.0
 10
61.14148761492297
 20
-80.5105034520946
 30
0.0
 10
61.03296710713759
 20
-80.49362248421687
 30
0.0
 10
60.92444659935222
 20
-80.43023272728828
 30
0.0
 10
60.73910046224578
 20
-80.32033418130881
 30
0.0
 10
60.71636283204313
 20
-80.1890760433208
 30
0.0
 10
60.69603676868016
 20
-80.08124455463248
 30
0.0
 10
60.69603676868016
 20
-80.08124455463248
 30
0.0
 10
60.93340384761387
 20
-80.08124455463248
 30
0.0
 10
60.93340384761387
 20
-80.08124455463248
 30
0.0
 10
60.99231498041165
 20
-80.28002656413139
 30
0.0
 10
61.12787948775622
 20
-80.30965438530454
 30
0.0
 10
61.22744274727994
 20
-80.30965438530454
 30
0.0
 10
61.37661538179127
 20
-80.30965438530454
 30
0.0
 10
61.53939614346932
 20
-80.21009112578082
 30
0.0
 10
61.53939614346932
 20
-79.97754718052646
 30
0.0
 10
61.53939614346932
 20
-79.72157658597239
 30
0.0
 10
61.34715981539238
 20
-79.65164114762182
 30
0.0
 10
61.21831324424404
 20
-79.65164114762182
 30
0.0
 10
61.18437905371432
 20
-79.65164114762182
 30
0.0
 10
61.03296710713759
 20
-79.65164114762182
 30
0.0
 10
60.93805472651896
 20
-79.78083222831869
 30
0.0
 10
60.93805472651896
 20
-79.78083222831869
 30
0.0
 10
60.75029702257284
 20
-79.7618842031498
 30
0.0
 10
60.75029702257284
 20
-79.7618842031498
 30
0.0
 10
60.75029702257284
 20
-79.7618842031498
 30
0.0
 10
60.87931584849545
 20
-78.91542424242392
 30
0.0
 10
60.87931584849545
 20
-78.91542424242392
 30
0.0
 10
60.87931584849545
 20
-78.91542424242392
 30
0.0
 10
61.71130640818329
 20
-78.91542424242392
 30
0.0
 10
61.71130640818329
 20
-78.91542424242392
 30
0.0
 10
61.71130640818329
 20
-78.91542424242392
 30
0.0
 10
61.71130640818329
 20
-79.11007213734054
 30
0.0
 10
61.71130640818329
 20
-79.11007213734054
 30
0.0
 10
61.71130640818329
 20
-79.11007213734054
 30
0.0
 10
61.05329317050057
 20
-79.11007213734054
 30
0.0
 10
61.05329317050057
 20
-79.11007213734054
 30
0.0
 10
61.05329317050057
 20
-79.11007213734054
 30
0.0
 10
60.98318547737573
 20
-79.53312986292921
 30
0.0
 10
60.98318547737573
 20
-79.53312986292921
 30
0.0
 10
61.04881454636974
 20
-79.49936792717378
 30
0.0
 10
61.13700899079214
 20
-79.45906030999635
 30
0.0
 10
61.26361624987507
 20
-79.45906030999635
 30
0.0
 10
61.53491751933849
 20
-79.45906030999635
 30
0.0
 10
61.78813203750436
 20
-79.64543997574836
 30
0.0
 10
61.78813203750436
 20
-79.95859915535758
 30
0.0
 10
61.78813203750436
 20
-80.27589244954909
 30
0.0
 10
61.54835339173097
 20
-80.5105034520946
 30
0.0
 10
61.22520343521454
 20
-80.5105034520946
 30
0.0
  0
HATCH
  5
CD
330
C6
100
AcDbEntity
  8
_U+30EC_U+30A4_U+30E4_U+30FC 1
 62
     7
420
 16777215
100
AcDbHatch
 10
0.0
 20
0.0
 30
0.0
210
0.0
220
0.0
230
1.0
  2
SOLID
 70
     1
 71
     0
 91
        1
 92
        1
 93
        1
 72
     4
 94
        3
 73
     0
 74
     1
 95
       53
 96
       49
 40
0.0
 40
0.0
 40
0.0
 40
0.0
 40
1.0
 40
1.0
 40
1.0
 40
2.0
 40
2.0
 40
2.0
 40
3.0
 40
3.0
 40
3.0
 40
4.0
 40
4.0
 40
4.0
 40
5.0
 40
5.0
 40
5.0
 40
6.0
 40
6.0
 40
6.0
 40
7.0
 40
7.0
 40
7.0
 40
8.0
 40
8.0
 40
8.0
 40
9.0
 40
9.0
 40
9.0
 40
10.0
 40
10.0
 40
10.0
 40
11.0
 40
11.0
 40
11.0
 40
12.0
 40
12.0
 40
12.0
 40
13.0
 40
13.0
 40
13.0
 40
14.0
 40
14.0
 40
14.0
 40
15.0
 40
15.0
 40
15.0
 40
16.0
 40
16.0
 40
16.0
 40
16.0
 10
61.22520343521454
 20
-80.5105034520946
 10
61.14148761492297
 20
-80.5105034520946
 10
61.03296710713759
 20
-80.49362248421687
 10
60.92444659935222
 20
-80.43023272728828
 10
60.73910046224578
 20
-80.32033418130881
 10
60.71636283204313
 20
-80.1890760433208
 10
60.69603676868016
 20
-80.08124455463248
 10
60.69603676868016
 20
-80.08124455463248
 10
60.93340384761387
 20
-80.08124455463248
 10
60.93340384761387
 20
-80.08124455463248
 10
60.99231498041165
 20
-80.28002656413139
 10
61.12787948775622
 20
-80.30965438530454
 10
61.22744274727994
 20
-80.30965438530454
 10
61.37661538179127
 20
-80.30965438530454
 10
61.53939614346932
 20
-80.21009112578082
 10
61.53939614346932
 20
-79.97754718052646
 10
61.53939614346932
 20
-79.72157658597239
 10
61.34715981539238
 20
-79.65164114762182
 10
61.21831324424404
 20
-79.65164114762182
 10
61.18437905371432
 20
-79.65164114762182
 10
61.03296710713759
 20
-79.65164114762182
 10
60.93805472651896
 20
-79.78083222831869
 10
60.93805472651896
 20
-79.78083222831869
 10
60.75029702257284
 20
-79.7618842031498
 10
60.75029702257284
 20
-79.7618842031498
 10
60.75029702257284
 20
-79.7618842031498
 10
60.87931584849545
 20
-78.91542424242392
 10
60.87931584849545
 20
-78.91542424242392
 10
60.87931584849545
 20
-78.91542424242392
 10
61.71130640818329
 20
-78.91542424242392
 10
61.71130640818329
 20
-78.91542424242392
 10
61.71130640818329
 20
-78.91542424242392
 10
61.71130640818329
 20
-79.11007213734054
 10
61.71130640818329
 20
-79.11007213734054
 10
61.71130640818329
 20
-79.11007213734054
 10
61.05329317050057
 20
-79.11007213734054
 10
61.05329317050057
 20
-79.11007213734054
 10
61.05329317050057
 20
-79.11007213734054
 10
60.98318547737573
 20
-79.53312986292921
 10
60.98318547737573
 20
-79.53312986292921
 10
61.04881454636974
 20
-79.49936792717378
 10
61.13700899079214
 20
-79.45906030999635
 10
61.26361624987507
 20
-79.45906030999635
 10
61.53491751933849
 20
-79.45906030999635
 10
61.78813203750436
 20
-79.64543997574836
 10
61.78813203750436
 20
-79.95859915535758
 10
61.78813203750436
 20
-80.27589244954909
 10
61.54835339173097
 20
-80.5105034520946
 10
61.22520343521454
 20
-80.5105034520946
 97
        0
 97
        0
 75
     2
 76
     1
 98
        0
  0
ENDBLK
  5
C9
330
C6
100
AcDbEntity
  8
0
100
AcDbBlockEnd
  0
ENDSEC
  0
SECTION
  2
ENTITIES
  0
INSERT
  5
42
330
1F
100
AcDbEntity
  8
_U+30EC_U+30A4_U+30E4_U+30FC 1
100
AcDbBlockReference
  2
block 2
 10
0.0
 20
0.0
 30
0.0
  0
INSERT
  5
54
330
1F
100
AcDbEntity
  8
_U+30EC_U+30A4_U+30E4_U+30FC 1
100
AcDbBlockReference
  2
block 3
 10
0.0
 20
0.0
 30
0.0
  0
INSERT
  5
64
330
1F
100
AcDbEntity
  8
_U+30EC_U+30A4_U+30E4_U+30FC 1
100
AcDbBlockReference
  2
block 4
 10
0.0
 20
0.0
 30
0.0
  0
INSERT
  5
6A
330
1F
100
AcDbEntity
  8
_U+30EC_U+30A4_U+30E4_U+30FC 1
100
AcDbBlockReference
  2
block 5
 10
0.0
 20
0.0
 30
0.0
  0
POLYLINE
  5
72
330
1F
100
AcDbEntity
  8
_U+30EC_U+30A4_U+30E4_U+30FC 1
 62
     7
420
 16777215
370
    25
100
AcDb2dPolyline
 66
     1
 10
0.0
 20
0.0
 30
0.0
  0
VERTEX
  5
73
330
72
100
AcDbEntity
  8
_U+30EC_U+30A4_U+30E4_U+30FC 1
 62
     7
420
 16777215
370
    25
100
AcDbVertex
100
AcDb2dVertex
 10
54.1172738971311
 20
-93.01275386563566
 30
0.0
  0
VERTEX
  5
74
330
72
100
AcDbEntity
  8
_U+30EC_U+30A4_U+30E4_U+30FC 1
 62
     7
420
 16777215
370
    25
100
AcDbVertex
100
AcDb2dVertex
 10
57.31707409327517
 20
-93.01275386563566
 30
0.0
  0
VERTEX
  5
75
330
72
100
AcDbEntity
  8
_U+30EC_U+30A4_U+30E4_U+30FC 1
 62
     7
420
 16777215
370
    25
100
AcDbVertex
100
AcDb2dVertex
 10
57.31707409327517
 20
-94.41285830973027
 30
0.0
  0
VERTEX
  5
76
330
72
100
AcDbEntity
  8
_U+30EC_U+30A4_U+30E4_U+30FC 1
 62
     7
420
 16777215
370
    25
100
AcDbVertex
100
AcDb2dVertex
 10
48.91725902979453
 20
-94.41285830973027
 30
0.0
  0
SEQEND
  5
77
330
72
100
AcDbEntity
  8
_U+30EC_U+30A4_U+30E4_U+30FC 1
 62
     7
420
 16777215
370
    25
  0
POLYLINE
  5
78
330
1F
100
AcDbEntity
  8
_U+30EC_U+30A4_U+30E4_U+30FC 1
 62
     7
420
 16777215
370
    25
100
AcDb2dPolyline
 66
     1
 10
0.0
 20
0.0
 30
0.0
  0
VERTEX
  5
79
330
78
100
AcDbEntity
  8
_U+30EC_U+30A4_U+30E4_U+30FC 1
 62
     7
420
 16777215
370
    25
100
AcDbVertex
100
AcDb2dVertex
 10
54.1172738971311
 20
-93.01275386563566
 30
0.0
  0
VERTEX
  5
7A
330
78
100
AcDbEntity
  8
_U+30EC_U+30A4_U+30E4_U+30FC 1
 62
     7
420
 16777215
370
    25
100
AcDbVertex
100
AcDb2dVertex
 10
54.1172738971311
 20
-92.21279497694702
 30
0.0
  0
VERTEX
  5
7B
330
78
100
AcDbEntity
  8
_U+30EC_U+30A4_U+30E4_U+30FC 1
 62
     7
420
 16777215
370
    25
100
AcDbVertex
100
AcDb2dVertex
 10
58.11703296175541
 20
-92.21279497694702
 30
0.0
  0
VERTEX
  5
7C
330
78
100
AcDbEntity
  8
_U+30EC_U+30A4_U+30E4_U+30FC 1
 62
     7
420
 16777215
370
    25
100
AcDbVertex
100
AcDb2dVertex
 10
58.11703296175541
 20
-95.21278192064138
 30
0.0
  0
VERTEX
  5
7D
330
78
100
AcDbEntity
  8
_U+30EC_U+30A4_U+30E4_U+30FC 1
 62
     7
420
 16777215
370
    25
100
AcDbVertex
100
AcDb2dVertex
 10
48.11730016131429
 20
-95.21278192064138
 30
0.0
  0
VERTEX
  5
7E
330
78
100
AcDbEntity
  8
_U+30EC_U+30A4_U+30E4_U+30FC 1
 62
     7
420
 16777215
370
    25
100
AcDbVertex
100
AcDb2dVertex
 10
48.11730016131429
 20
-85.8142174785466
 30
0.0
  0
VERTEX
  5
7F
330
78
100
AcDbEntity
  8
_U+30EC_U+30A4_U+30E4_U+30FC 1
 62
     7
420
 16777215
370
    25
100
AcDbVertex
100
AcDb2dVertex
 10
48.11730016131429
 20
-85.81284164521338
 30
0.0
  0
VERTEX
  5
80
330
78
100
AcDbEntity
  8
_U+30EC_U+30A4_U+30E4_U+30FC 1
 62
     7
420
 16777215
370
    25
100
AcDbVertex
100
AcDb2dVertex
 10
73.11696730129742
 20
-85.81284164521338
 30
0.0
  0
VERTEX
  5
81
330
78
100
AcDbEntity
  8
_U+30EC_U+30A4_U+30E4_U+30FC 1
 62
     7
420
 16777215
370
    25
100
AcDbVertex
100
AcDb2dVertex
 10
73.11696730129742
 20
-86.71235442276621
 30
0.0
  0
VERTEX
  5
82
330
78
100
AcDbEntity
  8
_U+30EC_U+30A4_U+30E4_U+30FC 1
 62
     7
420
 16777215
370
    25
100
AcDbVertex
100
AcDb2dVertex
 10
48.91725902979453
 20
-86.71235442276621
 30
0.0
  0
VERTEX
  5
83
330
78
100
AcDbEntity
  8
_U+30EC_U+30A4_U+30E4_U+30FC 1
 62
     7
420
 16777215
370
    25
100
AcDbVertex
100
AcDb2dVertex
 10
48.91725902979453
 20
-86.71373025609941
 30
0.0
  0
VERTEX
  5
84
330
78
100
AcDbEntity
  8
_U+30EC_U+30A4_U+30E4_U+30FC 1
 62
     7
420
 16777215
370
    25
100
AcDbVertex
100
AcDb2dVertex
 10
48.91725902979453
 20
-94.41285830973027
 30
0.0
  0
SEQEND
  5
85
330
78
100
AcDbEntity
  8
_U+30EC_U+30A4_U+30E4_U+30FC 1
 62
     7
420
 16777215
370
    25
  0
SPLINE
  5
86
330
1F
100
AcDbEntity
  8
_U+30EC_U+30A4_U+30E4_U+30FC 1
 62
     7
420
 16777215
370
     9
100
AcDbSpline
210
0.0
220
0.0
230
1.0
 70
    11
 71
     3
 72
    17
 73
    13
 74
     0
 42
0.0000000001
 43
0.0000000001
 12
1.0
 22
0.0
 32
0.0
 13
1.0
 23
0.0
 33
0.0
 40
0.0
 40
0.0
 40
0.0
 40
0.0
 40
1.0
 40
1.0
 40
1.0
 40
2.0
 40
2.0
 40
2.0
 40
3.0
 40
3.0
 40
3.0
 40
4.0
 40
4.0
 40
4.0
 40
4.0
 10
77.21698580780836
 20
-85.81284164521338
 30
0.0
 10
77.21698580780836
 20
-85.75703220078294
 30
0.0
 10
77.17221830895046
 20
-85.71293497857175
 30
0.0
 10
77.11707914369052
 20
-85.71293497857175
 30
0.0
 10
77.06197525620745
 20
-85.71293497857175
 30
0.0
 10
77.01717247957268
 20
-85.75703220078294
 30
0.0
 10
77.01717247957268
 20
-85.81284164521338
 30
0.0
 10
77.01717247957268
 20
-85.86798081186646
 30
0.0
 10
77.06197525620745
 20
-85.91274831185503
 30
0.0
 10
77.11707914369052
 20
-85.91274831185503
 30
0.0
 10
77.17221830895046
 20
-85.91274831185503
 30
0.0
 10
77.21698580780836
 20
-85.86798081186646
 30
0.0
 10
77.21698580780836
 20
-85.81284164521338
 30
0.0
  0
SPLINE
  5
87
330
1F
100
AcDbEntity
  8
_U+30EC_U+30A4_U+30E4_U+30FC 1
 62
     7
420
 16777215
370
     9
100
AcDbSpline
210
0.0
220
0.0
230
1.0
 70
    11
 71
     3
 72
    17
 73
    13
 74
     0
 42
0.0000000001
 43
0.0000000001
 12
1.0
 22
0.0
 32
0.0
 13
1.0
 23
0.0
 33
0.0
 40
0.0
 40
0.0
 40
0.0
 40
0.0
 40
1.0
 40
1.0
 40
1.0
 40
2.0
 40
2.0
 40
2.0
 40
3.0
 40
3.0
 40
3.0
 40
4.0
 40
4.0
 40
4.0
 40
4.0
 10
77.21698580780836
 20
-86.71235442276621
 30
0.0
 10
77.21698580780836
 20
-86.65725053389129
 30
0.0
 10
77.17221830895046
 20
-86.61244775612457
 30
0.0
 10
77.11707914369052
 20
-86.61244775612457
 30
0.0
 10
77.06197525620745
 20
-86.61244775612457
 30
0.0
 10
77.01717247957268
 20
-86.65725053389129
 30
0.0
 10
77.01717247957268
 20
-86.71235442276621
 30
0.0
 10
77.01717247957268
 20
-86.76749358941929
 30
0.0
 10
77.06197525620745
 20
-86.81226108940817
 30
0.0
 10
77.11707914369052
 20
-86.81226108940817
 30
0.0
 10
77.17221830895046
 20
-86.81226108940817
 30
0.0
 10
77.21698580780836
 20
-86.76749358941929
 30
0.0
 10
77.21698580780836
 20
-86.71235442276621
 30
0.0
  0
SPLINE
  5
88
330
1F
100
AcDbEntity
  8
_U+30EC_U+30A4_U+30E4_U+30FC 1
 62
     7
420
 16777215
370
     9
100
AcDbSpline
210
0.0
220
0.0
230
1.0
 70
    11
 71
     3
 72
    17
 73
    13
 74
     0
 42
0.0000000001
 43
0.0000000001
 12
1.0
 22
0.0
 32
0.0
 13
1.0
 23
0.0
 33
0.0
 40
0.0
 40
0.0
 40
0.0
 40
0.0
 40
1.0
 40
1.0
 40
1.0
 40
2.0
 40
2.0
 40
2.0
 40
3.0
 40
3.0
 40
3.0
 40
4.0
 40
4.0
 40
4.0
 40
4.0
 10
73.21722674318404
 20
-81.81241220176915
 30
0.0
 10
73.21722674318404
 20
-81.75727303511638
 30
0.0
 10
73.17246109281788
 20
-81.7125055351275
 30
0.0
 10
73.11696730129742
 20
-81.7125055351275
 30
0.0
 10
73.06186341381435
 20
-81.7125055351275
 30
0.0
 10
73.0170606371796
 20
-81.75727303511638
 30
0.0
 10
73.0170606371796
 20
-81.81241220176915
 30
0.0
 10
73.0170606371796
 20
-81.86751609064439
 30
0.0
 10
73.06186341381435
 20
-81.91231886841078
 30
0.0
 10
73.11696730129742
 20
-81.91231886841078
 30
0.0
 10
73.17246109281788
 20
-81.91231886841078
 30
0.0
 10
73.21722674318404
 20
-81.86751609064439
 30
0.0
 10
73.21722674318404
 20
-81.81241220176915
 30
0.0
  0
SPLINE
  5
89
330
1F
100
AcDbEntity
  8
_U+30EC_U+30A4_U+30E4_U+30FC 1
 62
     7
420
 16777215
370
     9
100
AcDbSpline
210
0.0
220
0.0
230
1.0
 70
    11
 71
     3
 72
    17
 73
    13
 74
     0
 42
0.0000000001
 43
0.0000000001
 12
1.0
 22
0.0
 32
0.0
 13
1.0
 23
0.0
 33
0.0
 40
0.0
 40
0.0
 40
0.0
 40
0.0
 40
1.0
 40
1.0
 40
1.0
 40
2.0
 40
2.0
 40
2.0
 40
3.0
 40
3.0
 40
3.0
 40
4.0
 40
4.0
 40
4.0
 40
4.0
 10
58.21729240364202
 20
-99.21289386408537
 30
0.0
 10
58.21729240364202
 20
-99.1574371974327
 30
0.0
 10
58.17248962700726
 20
-99.11263441966598
 30
0.0
 10
58.11703296175541
 20
-99.11263441966598
 30
0.0
 10
58.06193054104009
 20
-99.11263441966598
 30
0.0
 10
58.01712776327336
 20
-99.1574371974327
 30
0.0
 10
58.01712776327336
 20
-99.21289386408537
 30
0.0
 10
58.01712776327336
 20
-99.26799775296094
 30
0.0
 10
58.06193054104009
 20
-99.31280053072766
 30
0.0
 10
58.11703296175541
 20
-99.31280053072766
 30
0.0
 10
58.17248962700726
 20
-99.31280053072766
 30
0.0
 10
58.21729240364202
 20
-99.26799775296094
 30
0.0
 10
58.21729240364202
 20
-99.21289386408537
 30
0.0
  0
SPLINE
  5
8A
330
1F
100
AcDbEntity
  8
_U+30EC_U+30A4_U+30E4_U+30FC 1
 62
     7
420
 16777215
370
     9
100
AcDbSpline
210
0.0
220
0.0
230
1.0
 70
    11
 71
     3
 72
    17
 73
    13
 74
     0
 42
0.0000000001
 43
0.0000000001
 12
1.0
 22
0.0
 32
0.0
 13
1.0
 23
0.0
 33
0.0
 40
0.0
 40
0.0
 40
0.0
 40
0.0
 40
1.0
 40
1.0
 40
1.0
 40
2.0
 40
2.0
 40
2.0
 40
3.0
 40
3.0
 40
3.0
 40
4.0
 40
4.0
 40
4.0
 40
4.0
 10
77.21698580780836
 20
-95.21278192064138
 30
0.0
 10
77.21698580780836
 20
-95.15767803176645
 30
0.0
 10
77.17221830895046
 20
-95.11287525399973
 30
0.0
 10
77.11707914369052
 20
-95.11287525399973
 30
0.0
 10
77.06197525620745
 20
-95.11287525399973
 30
0.0
 10
77.01717247957268
 20
-95.15767803176645
 30
0.0
 10
77.01717247957268
 20
-95.21278192064138
 30
0.0
 10
77.01717247957268
 20
-95.26792108729445
 30
0.0
 10
77.06197525620745
 20
-95.312688587283
 30
0.0
 10
77.11707914369052
 20
-95.312688587283
 30
0.0
 10
77.17221830895046
 20
-95.312688587283
 30
0.0
 10
77.21698580780836
 20
-95.26792108729445
 30
0.0
 10
77.21698580780836
 20
-95.21278192064138
 30
0.0
  0
SPLINE
  5
8B
330
1F
100
AcDbEntity
  8
_U+30EC_U+30A4_U+30E4_U+30FC 1
 62
     7
420
 16777215
370
     9
100
AcDbSpline
210
0.0
220
0.0
230
1.0
 70
    11
 71
     3
 72
    17
 73
    13
 74
     0
 42
0.0000000001
 43
0.0000000001
 12
1.0
 22
0.0
 32
0.0
 13
1.0
 23
0.0
 33
0.0
 40
0.0
 40
0.0
 40
0.0
 40
0.0
 40
1.0
 40
1.0
 40
1.0
 40
2.0
 40
2.0
 40
2.0
 40
3.0
 40
3.0
 40
3.0
 40
4.0
 40
4.0
 40
4.0
 40
4.0
 10
77.21698580780836
 20
-92.21279497694702
 30
0.0
 10
77.21698580780836
 20
-92.15769108807147
 30
0.0
 10
77.17221830895046
 20
-92.1128883103054
 30
0.0
 10
77.11707914369052
 20
-92.1128883103054
 30
0.0
 10
77.06197525620745
 20
-92.1128883103054
 30
0.0
 10
77.01717247957268
 20
-92.15769108807147
 30
0.0
 10
77.01717247957268
 20
-92.21279497694702
 30
0.0
 10
77.01717247957268
 20
-92.26793414359946
 30
0.0
 10
77.06197525620745
 20
-92.31270164358867
 30
0.0
 10
77.11707914369052
 20
-92.31270164358867
 30
0.0
 10
77.17221830895046
 20
-92.31270164358867
 30
0.0
 10
77.21698580780836
 20
-92.26793414359946
 30
0.0
 10
77.21698580780836
 20
-92.21279497694702
 30
0.0
  0
SPLINE
  5
8C
330
1F
100
AcDbEntity
  8
_U+30EC_U+30A4_U+30E4_U+30FC 1
 62
     7
420
 16777215
370
     9
100
AcDbSpline
210
0.0
220
0.0
230
1.0
 70
    11
 71
     3
 72
    17
 73
    13
 74
     0
 42
0.0000000001
 43
0.0000000001
 12
1.0
 22
0.0
 32
0.0
 13
1.0
 23
0.0
 33
0.0
 40
0.0
 40
0.0
 40
0.0
 40
0.0
 40
1.0
 40
1.0
 40
1.0
 40
2.0
 40
2.0
 40
2.0
 40
3.0
 40
3.0
 40
3.0
 40
4.0
 40
4.0
 40
4.0
 40
4.0
 10
48.21720682543213
 20
-81.81241220176915
 30
0.0
 10
48.21720682543213
 20
-81.75727303511638
 30
0.0
 10
48.17243932657424
 20
-81.7125055351275
 30
0.0
 10
48.11730016131429
 20
-81.7125055351275
 30
0.0
 10
48.06219627383122
 20
-81.7125055351275
 30
0.0
 10
48.01739349719646
 20
-81.75727303511638
 30
0.0
 10
48.01739349719646
 20
-81.81241220176915
 30
0.0
 10
48.01739349719646
 20
-81.86751609064439
 30
0.0
 10
48.06219627383122
 20
-81.91231886841078
 30
0.0
 10
48.11730016131429
 20
-81.91231886841078
 30
0.0
 10
48.17243932657424
 20
-81.91231886841078
 30
0.0
 10
48.21720682543213
 20
-81.86751609064439
 30
0.0
 10
48.21720682543213
 20
-81.81241220176915
 30
0.0
  0
SPLINE
  5
8D
330
1F
100
AcDbEntity
  8
_U+30EC_U+30A4_U+30E4_U+30FC 1
 62
     7
420
 16777215
370
     9
100
AcDbSpline
210
0.0
220
0.0
230
1.0
 70
    11
 71
     3
 72
    17
 73
    13
 74
     0
 42
0.0000000001
 43
0.0000000001
 12
1.0
 22
0.0
 32
0.0
 13
1.0
 23
0.0
 33
0.0
 40
0.0
 40
0.0
 40
0.0
 40
0.0
 40
1.0
 40
1.0
 40
1.0
 40
2.0
 40
2.0
 40
2.0
 40
3.0
 40
3.0
 40
3.0
 40
4.0
 40
4.0
 40
4.0
 40
4.0
 10
48.21720682543213
 20
-99.21289386408537
 30
0.0
 10
48.21720682543213
 20
-99.1574371974327
 30
0.0
 10
48.17243932657424
 20
-99.11263441966598
 30
0.0
 10
48.11730016131429
 20
-99.11263441966598
 30
0.0
 10
48.06219627383122
 20
-99.11263441966598
 30
0.0
 10
48.01739349719646
 20
-99.1574371974327
 30
0.0
 10
48.01739349719646
 20
-99.21289386408537
 30
0.0
 10
48.01739349719646
 20
-99.26799775296094
 30
0.0
 10
48.06219627383122
 20
-99.31280053072766
 30
0.0
 10
48.11730016131429
 20
-99.31280053072766
 30
0.0
 10
48.17243932657424
 20
-99.31280053072766
 30
0.0
 10
48.21720682543213
 20
-99.26799775296094
 30
0.0
 10
48.21720682543213
 20
-99.21289386408537
 30
0.0
  0
POLYLINE
  5
8E
330
1F
100
AcDbEntity
  8
_U+30EC_U+30A4_U+30E4_U+30FC 1
 62
     7
420
 16777215
370
     9
100
AcDb2dPolyline
 66
     1
 10
0.0
 20
0.0
 30
0.0
  0
VERTEX
  5
8F
330
8E
100
AcDbEntity
  8
_U+30EC_U+30A4_U+30E4_U+30FC 1
 62
     7
420
 16777215
370
     9
100
AcDbVertex
100
AcDb2dVertex
 10
77.11707914369052
 20
-85.81284164521338
 30
0.0
  0
VERTEX
  5
90
330
8E
100
AcDbEntity
  8
_U+30EC_U+30A4_U+30E4_U+30FC 1
 62
     7
420
 16777215
370
     9
100
AcDbVertex
100
AcDb2dVertex
 10
77.11707914369052
 20
-80.55493581319448
 30
0.0
  0
SEQEND
  5
91
330
8E
100
AcDbEntity
  8
_U+30EC_U+30A4_U+30E4_U+30FC 1
 62
     7
420
 16777215
370
     9
  0
POLYLINE
  5
92
330
1F
100
AcDbEntity
  8
_U+30EC_U+30A4_U+30E4_U+30FC 1
 62
     7
420
 16777215
370
     9
100
AcDb2dPolyline
 66
     1
 10
0.0
 20
0.0
 30
0.0
  0
VERTEX
  5
93
330
92
100
AcDbEntity
  8
_U+30EC_U+30A4_U+30E4_U+30FC 1
 62
     7
420
 16777215
370
     9
100
AcDbVertex
100
AcDb2dVertex
 10
77.11707914369052
 20
-85.81284164521338
 30
0.0
  0
VERTEX
  5
94
330
92
100
AcDbEntity
  8
_U+30EC_U+30A4_U+30E4_U+30FC 1
 62
     7
420
 16777215
370
     9
100
AcDbVertex
100
AcDb2dVertex
 10
77.11707914369052
 20
-86.71235442276621
 30
0.0
  0
SEQEND
  5
95
330
92
100
AcDbEntity
  8
_U+30EC_U+30A4_U+30E4_U+30FC 1
 62
     7
420
 16777215
370
     9
  0
POLYLINE
  5
96
330
1F
100
AcDbEntity
  8
_U+30EC_U+30A4_U+30E4_U+30FC 1
 62
     7
420
 16777215
370
     9
100
AcDb2dPolyline
 66
     1
 10
0.0
 20
0.0
 30
0.0
  0
VERTEX
  5
97
330
96
100
AcDbEntity
  8
_U+30EC_U+30A4_U+30E4_U+30FC 1
 62
     7
420
 16777215
370
     9
100
AcDbVertex
100
AcDb2dVertex
 10
75.65703779205039
 20
-85.81284164521338
 30
0.0
  0
VERTEX
  5
98
330
96
100
AcDbEntity
  8
_U+30EC_U+30A4_U+30E4_U+30FC 1
 62
     7
420
 16777215
370
     9
100
AcDbVertex
100
AcDb2dVertex
 10
78.1172041181752
 20
-85.81284164521338
 30
0.0
  0
SEQEND
  5
99
330
96
100
AcDbEntity
  8
_U+30EC_U+30A4_U+30E4_U+30FC 1
 62
     7
420
 16777215
370
     9
  0
POLYLINE
  5
9A
330
1F
100
AcDbEntity
  8
_U+30EC_U+30A4_U+30E4_U+30FC 1
 62
     7
420
 16777215
370
     9
100
AcDb2dPolyline
 66
     1
 10
0.0
 20
0.0
 30
0.0
  0
VERTEX
  5
9B
330
9A
100
AcDbEntity
  8
_U+30EC_U+30A4_U+30E4_U+30FC 1
 62
     7
420
 16777215
370
     9
100
AcDbVertex
100
AcDb2dVertex
 10
75.65703779205039
 20
-86.71235442276621
 30
0.0
  0
VERTEX
  5
9C
330
9A
100
AcDbEntity
  8
_U+30EC_U+30A4_U+30E4_U+30FC 1
 62
     7
420
 16777215
370
     9
100
AcDbVertex
100
AcDb2dVertex
 10
78.1172041181752
 20
-86.71235442276621
 30
0.0
  0
SEQEND
  5
9D
330
9A
100
AcDbEntity
  8
_U+30EC_U+30A4_U+30E4_U+30FC 1
 62
     7
420
 16777215
370
     9
  0
POLYLINE
  5
9E
330
1F
100
AcDbEntity
  8
_U+30EC_U+30A4_U+30E4_U+30FC 1
 62
     7
420
 16777215
370
     9
100
AcDb2dPolyline
 66
     1
 10
0.0
 20
0.0
 30
0.0
  0
VERTEX
  5
9F
330
9E
100
AcDbEntity
  8
_U+30EC_U+30A4_U+30E4_U+30FC 1
 62
     7
420
 16777215
370
     9
100
AcDbVertex
100
AcDb2dVertex
 10
77.11707914369052
 20
-92.21279497694702
 30
0.0
  0
VERTEX
  5
A0
330
9E
100
AcDbEntity
  8
_U+30EC_U+30A4_U+30E4_U+30FC 1
 62
     7
420
 16777215
370
     9
100
AcDbVertex
100
AcDb2dVertex
 10
77.11707914369052
 20
-86.71270720054397
 30
0.0
  0
SEQEND
  5
A1
330
9E
100
AcDbEntity
  8
_U+30EC_U+30A4_U+30E4_U+30FC 1
 62
     7
420
 16777215
370
     9
  0
POLYLINE
  5
A2
330
1F
100
AcDbEntity
  8
_U+30EC_U+30A4_U+30E4_U+30FC 1
 62
     7
420
 16777215
370
     9
100
AcDb2dPolyline
 66
     1
 10
0.0
 20
0.0
 30
0.0
  0
VERTEX
  5
A3
330
A2
100
AcDbEntity
  8
_U+30EC_U+30A4_U+30E4_U+30FC 1
 62
     7
420
 16777215
370
     9
100
AcDbVertex
100
AcDb2dVertex
 10
60.65710345250837
 20
-92.21279497694702
 30
0.0
  0
VERTEX
  5
A4
330
A2
100
AcDbEntity
  8
_U+30EC_U+30A4_U+30E4_U+30FC 1
 62
     7
420
 16777215
370
     9
100
AcDbVertex
100
AcDb2dVertex
 10
78.1172041181752
 20
-92.21279497694702
 30
0.0
  0
SEQEND
  5
A5
330
A2
100
AcDbEntity
  8
_U+30EC_U+30A4_U+30E4_U+30FC 1
 62
     7
420
 16777215
370
     9
  0
POLYLINE
  5
A6
330
1F
100
AcDbEntity
  8
_U+30EC_U+30A4_U+30E4_U+30FC 1
 62
     7
420
 16777215
370
     9
100
AcDb2dPolyline
 66
     1
 10
0.0
 20
0.0
 30
0.0
  0
VERTEX
  5
A7
330
A6
100
AcDbEntity
  8
_U+30EC_U+30A4_U+30E4_U+30FC 1
 62
     7
420
 16777215
370
     9
100
AcDbVertex
100
AcDb2dVertex
 10
77.11707914369052
 20
-92.21279497694702
 30
0.0
  0
VERTEX
  5
A8
330
A6
100
AcDbEntity
  8
_U+30EC_U+30A4_U+30E4_U+30FC 1
 62
     7
420
 16777215
370
     9
100
AcDbVertex
100
AcDb2dVertex
 10
77.11707914369052
 20
-95.21278192064138
 30
0.0
  0
SEQEND
  5
A9
330
A6
100
AcDbEntity
  8
_U+30EC_U+30A4_U+30E4_U+30FC 1
 62
     7
420
 16777215
370
     9
  0
POLYLINE
  5
AA
330
1F
100
AcDbEntity
  8
_U+30EC_U+30A4_U+30E4_U+30FC 1
 62
     7
420
 16777215
370
     9
100
AcDb2dPolyline
 66
     1
 10
0.0
 20
0.0
 30
0.0
  0
VERTEX
  5
AB
330
AA
100
AcDbEntity
  8
_U+30EC_U+30A4_U+30E4_U+30FC 1
 62
     7
420
 16777215
370
     9
100
AcDbVertex
100
AcDb2dVertex
 10
60.65710345250837
 20
-95.21278192064138
 30
0.0
  0
VERTEX
  5
AC
330
AA
100
AcDbEntity
  8
_U+30EC_U+30A4_U+30E4_U+30FC 1
 62
     7
420
 16777215
370
     9
100
AcDbVertex
100
AcDb2dVertex
 10
78.1172041181752
 20
-95.21278192064138
 30
0.0
  0
SEQEND
  5
AD
330
AA
100
AcDbEntity
  8
_U+30EC_U+30A4_U+30E4_U+30FC 1
 62
     7
420
 16777215
370
     9
  0
POLYLINE
  5
AE
330
1F
100
AcDbEntity
  8
_U+30EC_U+30A4_U+30E4_U+30FC 1
 62
     7
420
 16777215
370
     9
100
AcDb2dPolyline
 66
     1
 10
0.0
 20
0.0
 30
0.0
  0
VERTEX
  5
AF
330
AE
100
AcDbEntity
  8
_U+30EC_U+30A4_U+30E4_U+30FC 1
 62
     7
420
 16777215
370
     9
100
AcDbVertex
100
AcDb2dVertex
 10
48.11730016131429
 20
-99.21289386408537
 30
0.0
  0
VERTEX
  5
B0
330
AE
100
AcDbEntity
  8
_U+30EC_U+30A4_U+30E4_U+30FC 1
 62
     7
420
 16777215
370
     9
100
AcDbVertex
100
AcDb2dVertex
 10
58.11703296175541
 20
-99.21289386408537
 30
0.0
  0
SEQEND
  5
B1
330
AE
100
AcDbEntity
  8
_U+30EC_U+30A4_U+30E4_U+30FC 1
 62
     7
420
 16777215
370
     9
  0
POLYLINE
  5
B2
330
1F
100
AcDbEntity
  8
_U+30EC_U+30A4_U+30E4_U+30FC 1
 62
     7
420
 16777215
370
     9
100
AcDb2dPolyline
 66
     1
 10
0.0
 20
0.0
 30
0.0
  0
VERTEX
  5
B3
330
B2
100
AcDbEntity
  8
_U+30EC_U+30A4_U+30E4_U+30FC 1
 62
     7
420
 16777215
370
     9
100
AcDbVertex
100
AcDb2dVertex
 10
48.11730016131429
 20
-97.75285247556167
 30
0.0
  0
VERTEX
  5
B4
330
B2
100
AcDbEntity
  8
_U+30EC_U+30A4_U+30E4_U+30FC 1
 62
     7
420
 16777215
370
     9
100
AcDbVertex
100
AcDb2dVertex
 10
48.11730016131429
 20
-100.2126660860579
 30
0.0
  0
SEQEND
  5
B5
330
B2
100
AcDbEntity
  8
_U+30EC_U+30A4_U+30E4_U+30FC 1
 62
     7
420
 16777215
370
     9
  0
POLYLINE
  5
B6
330
1F
100
AcDbEntity
  8
_U+30EC_U+30A4_U+30E4_U+30FC 1
 62
     7
420
 16777215
370
     9
100
AcDb2dPolyline
 66
     1
 10
0.0
 20
0.0
 30
0.0
  0
VERTEX
  5
B7
330
B6
100
AcDbEntity
  8
_U+30EC_U+30A4_U+30E4_U+30FC 1
 62
     7
420
 16777215
370
     9
100
AcDbVertex
100
AcDb2dVertex
 10
58.11703296175541
 20
-97.75285247556167
 30
0.0
  0
VERTEX
  5
B8
330
B6
100
AcDbEntity
  8
_U+30EC_U+30A4_U+30E4_U+30FC 1
 62
     7
420
 16777215
370
     9
100
AcDbVertex
100
AcDb2dVertex
 10
58.11703296175541
 20
-100.2126660860579
 30
0.0
  0
SEQEND
  5
B9
330
B6
100
AcDbEntity
  8
_U+30EC_U+30A4_U+30E4_U+30FC 1
 62
     7
420
 16777215
370
     9
  0
POLYLINE
  5
BA
330
1F
100
AcDbEntity
  8
_U+30EC_U+30A4_U+30E4_U+30FC 1
 62
     7
420
 16777215
370
     9
100
AcDb2dPolyline
 66
     1
 10
0.0
 20
0.0
 30
0.0
  0
VERTEX
  5
BB
330
BA
100
AcDbEntity
  8
_U+30EC_U+30A4_U+30E4_U+30FC 1
 62
     7
420
 16777215
370
     9
100
AcDbVertex
100
AcDb2dVertex
 10
48.11730016131429
 20
-81.81241220176915
 30
0.0
  0
VERTEX
  5
BC
330
BA
100
AcDbEntity
  8
_U+30EC_U+30A4_U+30E4_U+30FC 1
 62
     7
420
 16777215
370
     9
100
AcDbVertex
100
AcDb2dVertex
 10
73.11696730129742
 20
-81.81241220176915
 30
0.0
  0
SEQEND
  5
BD
330
BA
100
AcDbEntity
  8
_U+30EC_U+30A4_U+30E4_U+30FC 1
 62
     7
420
 16777215
370
     9
  0
POLYLINE
  5
BE
330
1F
100
AcDbEntity
  8
_U+30EC_U+30A4_U+30E4_U+30FC 1
 62
     7
420
 16777215
370
     9
100
AcDb2dPolyline
 66
     1
 10
0.0
 20
0.0
 30
0.0
  0
VERTEX
  5
BF
330
BE
100
AcDbEntity
  8
_U+30EC_U+30A4_U+30E4_U+30FC 1
 62
     7
420
 16777215
370
     9
100
AcDbVertex
100
AcDb2dVertex
 10
48.11730016131429
 20
-83.27245359029286
 30
0.0
  0
VERTEX
  5
C0
330
BE
100
AcDbEntity
  8
_U+30EC_U+30A4_U+30E4_U+30FC 1
 62
     7
420
 16777215
370
     9
100
AcDbVertex
100
AcDb2dVertex
 10
48.11730016131429
 20
-80.81263997979693
 30
0.0
  0
SEQEND
  5
C1
330
BE
100
AcDbEntity
  8
_U+30EC_U+30A4_U+30E4_U+30FC 1
 62
     7
420
 16777215
370
     9
  0
POLYLINE
  5
C2
330
1F
100
AcDbEntity
  8
_U+30EC_U+30A4_U+30E4_U+30FC 1
 62
     7
420
 16777215
370
     9
100
AcDb2dPolyline
 66
     1
 10
0.0
 20
0.0
 30
0.0
  0
VERTEX
  5
C3
330
C2
100
AcDbEntity
  8
_U+30EC_U+30A4_U+30E4_U+30FC 1
 62
     7
420
 16777215
370
     9
100
AcDbVertex
100
AcDb2dVertex
 10
73.11696730129742
 20
-83.27245359029286
 30
0.0
  0
VERTEX
  5
C4
330
C2
100
AcDbEntity
  8
_U+30EC_U+30A4_U+30E4_U+30FC 1
 62
     7
420
 16777215
370
     9
100
AcDbVertex
100
AcDb2dVertex
 10
73.11696730129742
 20
-80.81263997979693
 30
0.0
  0
SEQEND
  5
C5
330
C2
100
AcDbEntity
  8
_U+30EC_U+30A4_U+30E4_U+30FC 1
 62
     7
420
 16777215
370
     9
  0
INSERT
  5
C7
330
1F
100
AcDbEntity
  8
_U+30EC_U+30A4_U+30E4_U+30FC 1
100
AcDbBlockReference
  2
block 6
 10
0.0
 20
0.0
 30
0.0
  0
ENDSEC
  0
SECTION
  2
OBJECTS
  0
DICTIONARY
  5
C
330
0
100
AcDbDictionary
281
     1
  3
ACAD_GROUP
350
D
  3
ACAD_LAYOUT
350
1A
  3
ACAD_MATERIAL
350
3B
  3
ACAD_MLEADERSTYLE
350
CF
  3
ACAD_MLINESTYLE
350
17
  3
ACAD_PLOTSETTINGS
350
19
  3
ACAD_PLOTSTYLENAME
350
E
  3
ACAD_TABLESTYLE
350
CE
  3
ACAD_VISUALSTYLE
350
2A
  0
SUN
  5
3F
330
29
100
AcDbSun
 90
        1
290
     0
 63
     7
421
 16777215
 40
1.0
291
     1
 91
  2455826
 92
 54000000
292
     0
 70
     2
 71
   256
280
     1
  0
DICTIONARY
  5
D
102
{ACAD_REACTORS
330
C
102
}
330
C
100
AcDbDictionary
281
     1
  0
DICTIONARY
  5
1A
102
{ACAD_REACTORS
330
C
102
}
330
C
100
AcDbDictionary
281
     1
  3
Layout1
350
1E
  3
Layout2
350
26
  3
Model
350
22
  0
DICTIONARY
  5
3B
102
{ACAD_REACTORS
330
C
102
}
330
C
100
AcDbDictionary
281
     1
  3
ByBlock
350
3D
  3
ByLayer
350
3C
  3
Global
350
3E
  0
DICTIONARY
  5
CF
102
{ACAD_REACTORS
330
C
102
}
330
C
100
AcDbDictionary
281
     1
  0
DICTIONARY
  5
17
102
{ACAD_REACTORS
330
C
102
}
330
C
100
AcDbDictionary
281
     1
  3
Standard
350
18
  0
DICTIONARY
  5
19
102
{ACAD_REACTORS
330
C
102
}
330
C
100
AcDbDictionary
281
     1
  0
ACDBDICTIONARYWDFLT
  5
E
102
{ACAD_REACTORS
330
C
102
}
330
C
100
AcDbDictionary
281
     1
  3
Normal
350
F
100
AcDbDictionaryWithDefault
340
F
  0
DICTIONARY
  5
CE
102
{ACAD_REACTORS
330
C
102
}
330
C
100
AcDbDictionary
281
     1
  0
DICTIONARY
  5
2A
102
{ACAD_REACTORS
330
C
102
}
330
C
100
AcDbDictionary
281
     1
  3
2dWireframe
350
2F
  3
3D Hidden
350
31
  3
3dWireframe
350
30
  3
Basic
350
32
  3
Brighten
350
36
  3
ColorChange
350
3A
  3
Conceptual
350
34
  3
Dim
350
35
  3
Facepattern
350
39
  3
Flat
350
2B
  3
FlatWithEdges
350
2C
  3
Gouraud
350
2D
  3
GouraudWithEdges
350
2E
  3
Linepattern
350
38
  3
Realistic
350
33
  3
Thicken
350
37
  0
LAYOUT
  5
1E
102
{ACAD_REACTORS
330
1A
102
}
330
1A
100
AcDbPlotSettings
  1

  2
none_device
  4

  6

 40
0.0
 41
0.0
 42
0.0
 43
0.0
 44
0.0
 45
0.0
 46
0.0
 47
0.0
 48
0.0
 49
0.0
140
0.0
141
0.0
142
1.0
143
1.0
 70
   688
 72
     0
 73
     0
 74
     5
  7

 75
    16
 76
     0
 77
     2
 78
   300
147
1.0
148
0.0
149
0.0
100
AcDbLayout
  1
Layout1
 70
     1
 71
     1
 10
0.0
 20
0.0
 11
12.0
 21
9.0
 12
0.0
 22
0.0
 32
0.0
 14
1.000000000000000E+20
 24
1.000000000000000E+20
 34
1.000000000000000E+20
 15
-1.000000000000000E+20
 25
-1.000000000000000E+20
 35
-1.000000000000000E+20
146
0.0
 13
0.0
 23
0.0
 33
0.0
 16
1.0
 26
0.0
 36
0.0
 17
0.0
 27
1.0
 37
0.0
 76
     0
330
1B
  0
LAYOUT
  5
26
102
{ACAD_REACTORS
330
1A
102
}
330
1A
100
AcDbPlotSettings
  1

  2
none_device
  4

  6

 40
0.0
 41
0.0
 42
0.0
 43
0.0
 44
0.0
 45
0.0
 46
0.0
 47
0.0
 48
0.0
 49
0.0
140
0.0
141
0.0
142
1.0
143
1.0
 70
   688
 72
     0
 73
     0
 74
     5
  7

 75
    16
 76
     0
 77
     2
 78
   300
147
1.0
148
0.0
149
0.0
100
AcDbLayout
  1
Layout2
 70
     1
 71
     2
 10
0.0
 20
0.0
 11
0.0
 21
0.0
 12
0.0
 22
0.0
 32
0.0
 14
0.0
 24
0.0
 34
0.0
 15
0.0
 25
0.0
 35
0.0
146
0.0
 13
0.0
 23
0.0
 33
0.0
 16
1.0
 26
0.0
 36
0.0
 17
0.0
 27
1.0
 37
0.0
 76
     0
330
23
  0
LAYOUT
  5
22
102
{ACAD_REACTORS
330
1A
102
}
330
1A
100
AcDbPlotSettings
  1

  2
none_device
  4

  6

 40
0.0
 41
0.0
 42
0.0
 43
0.0
 44
0.0
 45
0.0
 46
0.0
 47
0.0
 48
0.0
 49
0.0
140
0.0
141
0.0
142
1.0
143
1.0
 70
  1712
 72
     0
 73
     0
 74
     0
  7

 75
     0
 76
     0
 77
     2
 78
   300
147
1.0
148
0.0
149
0.0
100
AcDbLayout
  1
Model
 70
     1
 71
     0
 10
0.0
 20
0.0
 11
12.0
 21
9.0
 12
0.0
 22
0.0
 32
0.0
 14
1.000000000000000E+20
 24
1.000000000000000E+20
 34
1.000000000000000E+20
 15
-1.000000000000000E+20
 25
-1.000000000000000E+20
 35
-1.000000000000000E+20
146
0.0
 13
0.0
 23
0.0
 33
0.0
 16
1.0
 26
0.0
 36
0.0
 17
0.0
 27
1.0
 37
0.0
 76
     0
330
1F
331
29
  0
MATERIAL
  5
3D
102
{ACAD_REACTORS
330
3B
102
}
330
3B
100
AcDbMaterial
  1
ByBlock
 72
     1
 94
      127
  0
MATERIAL
  5
3C
102
{ACAD_REACTORS
330
3B
102
}
330
3B
100
AcDbMaterial
  1
ByLayer
 72
     1
 94
      127
  0
MATERIAL
  5
3E
102
{ACAD_REACTORS
330
3B
102
}
330
3B
100
AcDbMaterial
  1
Global
 72
     1
 94
      127
  0
MLINESTYLE
  5
18
102
{ACAD_REACTORS
330
17
102
}
330
17
100
AcDbMlineStyle
  2
Standard
 70
     0
  3

 62
   256
 51
90.0
 52
90.0
 71
     2
 49
0.5
 62
   256
  6
BYLAYER
 49
-0.5
 62
   256
  6
BYLAYER
  0
ACDBPLACEHOLDER
  5
F
102
{ACAD_REACTORS
330
E
102
}
330
E
  0
VISUALSTYLE
  5
2F
102
{ACAD_REACTORS
330
2A
102
}
330
2A
100
AcDbVisualStyle
  2
2dWireframe
 70
     4
177
     2
291
     0
 71
     0
176
     1
 72
     2
176
     1
 73
     0
176
     1
 90
        0
176
     1
 40
-0.6
176
     1
 41
-30.0
176
     1
 62
     5
 63
     7
421
 16777215
176
     1
 74
     1
176
     1
 91
        4
176
     1
 64
     7
176
     1
 65
   257
176
     1
 75
     1
176
     1
175
     1
176
     1
 42
1.0
176
     1
 92
        0
176
     1
 66
   257
176
     1
 43
1.0
176
     1
 76
     1
176
     1
 77
     6
176
     1
 78
     2
176
     1
 67
     7
176
     1
 79
     5
176
     1
170
     0
176
     1
171
     0
176
     1
290
     0
176
     1
 93
        1
176
     1
 44
0.0
176
     1
173
     0
176
     1
  0
VISUALSTYLE
  5
31
102
{ACAD_REACTORS
330
2A
102
}
330
2A
100
AcDbVisualStyle
  2
3D Hidden
 70
     6
177
     2
291
     0
 71
     1
176
     1
 72
     2
176
     1
 73
     2
176
     1
 90
        0
176
     1
 40
-0.6
176
     1
 41
-30.0
176
     1
 62
     5
 63
     7
421
 16777215
176
     1
 74
     2
176
     1
 91
        2
176
     1
 64
     7
176
     1
 65
   257
176
     1
 75
     2
176
     1
175
     1
176
     1
 42
40.0
176
     1
 92
        0
176
     1
 66
   257
176
     1
 43
1.0
176
     1
 76
     1
176
     1
 77
     6
176
     1
 78
     2
176
     1
 67
     7
176
     1
 79
     3
176
     1
170
     0
176
     1
171
     0
176
     1
290
     0
176
     1
 93
        1
176
     1
 44
0.0
176
     1
173
     0
176
     1
  0
VISUALSTYLE
  5
30
102
{ACAD_REACTORS
330
2A
102
}
330
2A
100
AcDbVisualStyle
  2
3dWireframe
 70
     5
177
     2
291
     0
 71
     0
176
     1
 72
     2
176
     1
 73
     0
176
     1
 90
        0
176
     1
 40
-0.6
176
     1
 41
-30.0
176
     1
 62
     5
 63
     7
421
 16777215
176
     1
 74
     1
176
     1
 91
        4
176
     1
 64
     7
176
     1
 65
   257
176
     1
 75
     1
176
     1
175
     1
176
     1
 42
1.0
176
     1
 92
        0
176
     1
 66
   257
176
     1
 43
1.0
176
     1
 76
     1
176
     1
 77
     6
176
     1
 78
     2
176
     1
 67
     7
176
     1
 79
     5
176
     1
170
     0
176
     1
171
     0
176
     1
290
     0
176
     1
 93
        1
176
     1
 44
0.0
176
     1
173
     0
176
     1
  0
VISUALSTYLE
  5
32
102
{ACAD_REACTORS
330
2A
102
}
330
2A
100
AcDbVisualStyle
  2
Basic
 70
     7
177
     2
291
     1
 71
     1
176
     1
 72
     0
176
     1
 73
     1
176
     1
 90
        0
176
     1
 40
-0.6
176
     1
 41
-30.0
176
     1
 62
     5
 63
     7
421
 16777215
176
     1
 74
     0
176
     1
 91
        4
176
     1
 64
     7
176
     1
 65
   257
176
     1
 75
     1
176
     1
175
     1
176
     1
 42
1.0
176
     1
 92
        8
176
     1
 66
     7
176
     1
 43
1.0
176
     1
 76
     1
176
     1
 77
     6
176
     1
 78
     2
176
     1
 67
     7
176
     1
 79
     5
176
     1
170
     0
176
     1
171
     0
176
     1
290
     0
176
     1
 93
        1
176
     1
 44
0.0
176
     1
173
     0
176
     1
  0
VISUALSTYLE
  5
36
102
{ACAD_REACTORS
330
2A
102
}
330
2A
100
AcDbVisualStyle
  2
Brighten
 70
    12
177
     2
291
     1
 71
     2
176
     1
 72
     2
176
     1
 73
     0
176
     1
 90
        0
176
     1
 40
-0.6
176
     1
 41
-30.0
176
     1
 62
     5
 63
     7
421
 16777215
176
     1
 74
     1
176
     1
 91
        4
176
     1
 64
     7
176
     1
 65
   257
176
     1
 75
     1
176
     1
175
     1
176
     1
 42
1.0
176
     1
 92
        8
176
     1
 66
     7
176
     1
 43
1.0
176
     1
 76
     1
176
     1
 77
     6
176
     1
 78
     2
176
     1
 67
     7
176
     1
 79
     5
176
     1
170
     0
176
     1
171
     0
176
     1
290
     0
176
     1
 93
        1
176
     1
 44
50.0
176
     1
173
     0
176
     1
  0
VISUALSTYLE
  5
3A
102
{ACAD_REACTORS
330
2A
102
}
330
2A
100
AcDbVisualStyle
  2
ColorChange
 70
    16
177
     2
291
     1
 71
     2
176
     1
 72
     2
176
     1
 73
     3
176
     1
 90
        0
176
     1
 40
-0.6
176
     1
 41
-30.0
176
     1
 62
     5
 63
     8
421
  8421504
176
     1
 74
     1
176
     1
 91
        4
176
     1
 64
     7
176
     1
 65
   257
176
     1
 75
     1
176
     1
175
     1
176
     1
 42
1.0
176
     1
 92
        8
176
     1
 66
     8
424
  8421504
176
     1
 43
1.0
176
     1
 76
     1
176
     1
 77
     6
176
     1
 78
     2
176
     1
 67
     7
176
     1
 79
     5
176
     1
170
     0
176
     1
171
     0
176
     1
290
     0
176
     1
 93
        1
176
     1
 44
0.0
176
     1
173
     0
176
     1
  0
VISUALSTYLE
  5
34
102
{ACAD_REACTORS
330
2A
102
}
330
2A
100
AcDbVisualStyle
  2
Conceptual
 70
     9
177
     2
291
     0
 71
     3
176
     1
 72
     2
176
     1
 73
     0
176
     1
 90
        0
176
     1
 40
-0.6
176
     1
 41
-30.0
176
     1
 62
     5
 63
     7
421
 16777215
176
     1
 74
     2
176
     1
 91
        2
176
     1
 64
     7
176
     1
 65
   257
176
     1
 75
     1
176
     1
175
     1
176
     1
 42
40.0
176
     1
 92
        8
176
     1
 66
     7
176
     1
 43
1.0
176
     1
 76
     1
176
     1
 77
     6
176
     1
 78
     2
176
     1
 67
     7
176
     1
 79
     3
176
     1
170
     0
176
     1
171
     0
176
     1
290
     0
176
     1
 93
        1
176
     1
 44
0.0
176
     1
173
     0
176
     1
  0
VISUALSTYLE
  5
35
102
{ACAD_REACTORS
330
2A
102
}
330
2A
100
AcDbVisualStyle
  2
Dim
 70
    11
177
     2
291
     1
 71
     2
176
     1
 72
     2
176
     1
 73
     0
176
     1
 90
        0
176
     1
 40
-0.6
176
     1
 41
-30.0
176
     1
 62
     5
 63
     7
421
 16777215
176
     1
 74
     1
176
     1
 91
        4
176
     1
 64
     7
176
     1
 65
   257
176
     1
 75
     1
176
     1
175
     1
176
     1
 42
1.0
176
     1
 92
        8
176
     1
 66
     7
176
     1
 43
1.0
176
     1
 76
     1
176
     1
 77
     6
176
     1
 78
     2
176
     1
 67
     7
176
     1
 79
     5
176
     1
170
     0
176
     1
171
     0
176
     1
290
     0
176
     1
 93
        1
176
     1
 44
-50.0
176
     1
173
     0
176
     1
  0
VISUALSTYLE
  5
39
102
{ACAD_REACTORS
330
2A
102
}
330
2A
100
AcDbVisualStyle
  2
Facepattern
 70
    15
177
     2
291
     1
 71
     2
176
     1
 72
     2
176
     1
 73
     0
176
     1
 90
        0
176
     1
 40
-0.6
176
     1
 41
-30.0
176
     1
 62
     5
 63
     7
421
 16777215
176
     1
 74
     1
176
     1
 91
        4
176
     1
 64
     7
176
     1
 65
   257
176
     1
 75
     1
176
     1
175
     1
176
     1
 42
1.0
176
     1
 92
        8
176
     1
 66
     7
176
     1
 43
1.0
176
     1
 76
     1
176
     1
 77
     6
176
     1
 78
     2
176
     1
 67
     7
176
     1
 79
     5
176
     1
170
     0
176
     1
171
     0
176
     1
290
     0
176
     1
 93
        1
176
     1
 44
0.0
176
     1
173
     0
176
     1
  0
VISUALSTYLE
  5
2B
102
{ACAD_REACTORS
330
2A
102
}
330
2A
100
AcDbVisualStyle
  2
Flat
 70
     0
177
     2
291
     1
 71
     2
176
     1
 72
     1
176
     1
 73
     1
176
     1
 90
        2
176
     1
 40
-0.6
176
     1
 41
30.0
176
     1
 62
     5
 63
     7
421
 16777215
176
     1
 74
     0
176
     1
 91
        4
176
     1
 64
     7
176
     1
 65
   257
176
     1
 75
     1
176
     1
175
     1
176
     1
 42
1.0
176
     1
 92
        8
176
     1
 66
     7
176
     1
 43
1.0
176
     1
 76
     1
176
     1
 77
     6
176
     1
 78
     2
176
     1
 67
     7
176
     1
 79
     5
176
     1
170
     0
176
     1
171
     0
176
     1
290
     0
176
     1
 93
       13
176
     1
 44
0.0
176
     1
173
     0
176
     1
  0
VISUALSTYLE
  5
2C
102
{ACAD_REACTORS
330
2A
102
}
330
2A
100
AcDbVisualStyle
  2
FlatWithEdges
 70
     1
177
     2
291
     1
 71
     2
176
     1
 72
     1
176
     1
 73
     1
176
     1
 90
        2
176
     1
 40
-0.6
176
     1
 41
30.0
176
     1
 62
     5
 63
     7
421
 16777215
176
     1
 74
     1
176
     1
 91
        4
176
     1
 64
     7
176
     1
 65
   257
176
     1
 75
     1
176
     1
175
     1
176
     1
 42
1.0
176
     1
 92
        0
176
     1
 66
   257
176
     1
 43
1.0
176
     1
 76
     1
176
     1
 77
     6
176
     1
 78
     2
176
     1
 67
     7
176
     1
 79
     5
176
     1
170
     0
176
     1
171
     0
176
     1
290
     0
176
     1
 93
       13
176
     1
 44
0.0
176
     1
173
     0
176
     1
  0
VISUALSTYLE
  5
2D
102
{ACAD_REACTORS
330
2A
102
}
330
2A
100
AcDbVisualStyle
  2
Gouraud
 70
     2
177
     2
291
     1
 71
     2
176
     1
 72
     2
176
     1
 73
     1
176
     1
 90
        2
176
     1
 40
-0.6
176
     1
 41
30.0
176
     1
 62
     5
 63
     7
421
 16777215
176
     1
 74
     0
176
     1
 91
        4
176
     1
 64
     7
176
     1
 65
   257
176
     1
 75
     1
176
     1
175
     1
176
     1
 42
1.0
176
     1
 92
        0
176
     1
 66
     7
176
     1
 43
1.0
176
     1
 76
     1
176
     1
 77
     6
176
     1
 78
     2
176
     1
 67
     7
176
     1
 79
     5
176
     1
170
     0
176
     1
171
     0
176
     1
290
     0
176
     1
 93
       13
176
     1
 44
0.0
176
     1
173
     0
176
     1
  0
VISUALSTYLE
  5
2E
102
{ACAD_REACTORS
330
2A
102
}
330
2A
100
AcDbVisualStyle
  2
GouraudWithEdges
 70
     3
177
     2
291
     1
 71
     2
176
     1
 72
     2
176
     1
 73
     1
176
     1
 90
        2
176
     1
 40
-0.6
176
     1
 41
30.0
176
     1
 62
     5
 63
     7
421
 16777215
176
     1
 74
     1
176
     1
 91
        4
176
     1
 64
     7
176
     1
 65
   257
176
     1
 75
     1
176
     1
175
     1
176
     1
 42
1.0
176
     1
 92
        0
176
     1
 66
   257
176
     1
 43
1.0
176
     1
 76
     1
176
     1
 77
     6
176
     1
 78
     2
176
     1
 67
     7
176
     1
 79
     5
176
     1
170
     0
176
     1
171
     0
176
     1
290
     0
176
     1
 93
       13
176
     1
 44
0.0
176
     1
173
     0
176
     1
  0
VISUALSTYLE
  5
38
102
{ACAD_REACTORS
330
2A
102
}
330
2A
100
AcDbVisualStyle
  2
Linepattern
 70
    14
177
     2
291
     1
 71
     2
176
     1
 72
     2
176
     1
 73
     0
176
     1
 90
        0
176
     1
 40
-0.6
176
     1
 41
-30.0
176
     1
 62
     5
 63
     7
421
 16777215
176
     1
 74
     1
176
     1
 91
        4
176
     1
 64
     7
176
     1
 65
   257
176
     1
 75
     7
176
     1
175
     7
176
     1
 42
1.0
176
     1
 92
        8
176
     1
 66
     7
176
     1
 43
1.0
176
     1
 76
     1
176
     1
 77
     6
176
     1
 78
     2
176
     1
 67
     7
176
     1
 79
     5
176
     1
170
     0
176
     1
171
     0
176
     1
290
     0
176
     1
 93
        1
176
     1
 44
0.0
176
     1
173
     0
176
     1
  0
VISUALSTYLE
  5
33
102
{ACAD_REACTORS
330
2A
102
}
330
2A
100
AcDbVisualStyle
  2
Realistic
 70
     8
177
     2
291
     0
 71
     2
176
     1
 72
     2
176
     1
 73
     0
176
     1
 90
        0
176
     1
 40
-0.6
176
     1
 41
-30.0
176
     1
 62
     5
 63
     7
421
 16777215
176
     1
 74
     1
176
     1
 91
        0
176
     1
 64
     7
176
     1
 65
   257
176
     1
 75
     1
176
     1
175
     1
176
     1
 42
1.0
176
     1
 92
        8
176
     1
 66
     8
424
  7895160
176
     1
 43
1.0
176
     1
 76
     1
176
     1
 77
     6
176
     1
 78
     2
176
     1
 67
     7
176
     1
 79
     5
176
     1
170
     0
176
     1
171
     0
176
     1
290
     0
176
     1
 93
       13
176
     1
 44
0.0
176
     1
173
     0
176
     1
  0
VISUALSTYLE
  5
37
102
{ACAD_REACTORS
330
2A
102
}
330
2A
100
AcDbVisualStyle
  2
Thicken
 70
    13
177
     2
291
     1
 71
     2
176
     1
 72
     2
176
     1
 73
     0
176
     1
 90
        0
176
     1
 40
-0.6
176
     1
 41
-30.0
176
     1
 62
     5
 63
     7
421
 16777215
176
     1
 74
     1
176
     1
 91
        4
176
     1
 64
     7
176
     1
 65
   257
176
     1
 75
     1
176
     1
175
     1
176
     1
 42
1.0
176
     1
 92
       12
176
     1
 66
     7
176
     1
 43
1.0
176
     1
 76
     1
176
     1
 77
     6
176
     1
 78
     2
176
     1
 67
     7
176
     1
 79
     5
176
     1
170
     0
176
     1
171
     0
176
     1
290
     0
176
     1
 93
        1
176
     1
 44
0.0
176
     1
173
     0
176
     1
  0
ENDSEC
  0
EOF
