  0
SECTION
  2
HEADER
  9
$ACADVER
  1
AC1024
  9
$ACADMAINTVER
 70
     6
  9
$DWGCODEPAGE
  3
UNDEFINED
  9
$INSBASE
 10
0.0
 20
0.0
 30
0.0
  9
$EXTMIN
 10
1.000000000000000E+20
 20
1.000000000000000E+20
 30
1.000000000000000E+20
  9
$EXTMAX
 10
-1.000000000000000E+20
 20
-1.000000000000000E+20
 30
-1.000000000000000E+20
  9
$LIMMIN
 10
0.0
 20
0.0
  9
$LIMMAX
 10
12.0
 20
9.0
  9
$ORTHOMODE
 70
     0
  9
$REGENMODE
 70
     1
  9
$FILLMODE
 70
     1
  9
$QTEXTMODE
 70
     0
  9
$MIRRTEXT
 70
     1
  9
$LTSCALE
 40
1.0
  9
$ATTMODE
 70
     1
  9
$TEXTSIZE
 40
0.2
  9
$TRACEWID
 40
0.05
  9
$TEXTSTYLE
  7
Standard
  9
$CLAYER
  8
0
  9
$CELTYPE
  6
ByLayer
  9
$CECOLOR
 62
   256
  9
$CELTSCALE
 40
1.0
  9
$DISPSILH
 70
     0
  9
$DIMSCALE
 40
1.0
  9
$DIMASZ
 40
0.18
  9
$DIMEXO
 40
0.0625
  9
$DIMDLI
 40
0.38
  9
$DIMRND
 40
0.0
  9
$DIMDLE
 40
0.0
  9
$DIMEXE
 40
0.18
  9
$DIMTP
 40
0.0
  9
$DIMTM
 40
0.0
  9
$DIMTXT
 40
0.18
  9
$DIMCEN
 40
0.09
  9
$DIMTSZ
 40
0.0
  9
$DIMTOL
 70
     0
  9
$DIMLIM
 70
     0
  9
$DIMTIH
 70
     1
  9
$DIMTOH
 70
     1
  9
$DIMSE1
 70
     0
  9
$DIMSE2
 70
     0
  9
$DIMTAD
 70
     0
  9
$DIMZIN
 70
     0
  9
$DIMBLK
  1

  9
$DIMASO
 70
     1
  9
$DIMSHO
 70
     1
  9
$DIMPOST
  1

  9
$DIMAPOST
  1

  9
$DIMALT
 70
     0
  9
$DIMALTD
 70
     2
  9
$DIMALTF
 40
25.4
  9
$DIMLFAC
 40
1.0
  9
$DIMTOFL
 70
     0
  9
$DIMTVP
 40
0.0
  9
$DIMTIX
 70
     0
  9
$DIMSOXD
 70
     0
  9
$DIMSAH
 70
     0
  9
$DIMBLK1
  1

  9
$DIMBLK2
  1

  9
$DIMSTYLE
  2
Standard
  9
$DIMCLRD
 70
     0
  9
$DIMCLRE
 70
     0
  9
$DIMCLRT
 70
     0
  9
$DIMTFAC
 40
1.0
  9
$DIMGAP
 40
0.09
  9
$DIMJUST
 70
     0
  9
$DIMSD1
 70
     0
  9
$DIMSD2
 70
     0
  9
$DIMTOLJ
 70
     1
  9
$DIMTZIN
 70
     0
  9
$DIMALTZ
 70
     0
  9
$DIMALTTZ
 70
     0
  9
$DIMUPT
 70
     0
  9
$DIMDEC
 70
     4
  9
$DIMTDEC
 70
     4
  9
$DIMALTU
 70
     2
  9
$DIMALTTD
 70
     2
  9
$DIMTXSTY
  7
Standard
  9
$DIMAUNIT
 70
     0
  9
$DIMADEC
 70
     0
  9
$DIMALTRND
 40
0.0
  9
$DIMAZIN
 70
     0
  9
$DIMDSEP
 70
    46
  9
$DIMATFIT
 70
     3
  9
$DIMFRAC
 70
     0
  9
$DIMLDRBLK
  1

  9
$DIMLUNIT
 70
     2
  9
$DIMLWD
 70
    -2
  9
$DIMLWE
 70
    -2
  9
$DIMTMOVE
 70
     0
  9
$DIMFXL
 40
1.0
  9
$DIMFXLON
 70
     0
  9
$DIMJOGANG
 40
0.7853981633974483
  9
$DIMTFILL
 70
     0
  9
$DIMTFILLCLR
 70
     0
  9
$DIMARCSYM
 70
     0
  9
$DIMLTYPE
  6

  9
$DIMLTEX1
  6

  9
$DIMLTEX2
  6

  9
$DIMTXTDIRECTION
 70
     0
  9
$LUNITS
 70
     2
  9
$LUPREC
 70
     4
  9
$SKETCHINC
 40
0.1
  9
$FILLETRAD
 40
0.5
  9
$AUNITS
 70
     0
  9
$AUPREC
 70
     0
  9
$MENU
  1
.
  9
$ELEVATION
 40
0.0
  9
$PELEVATION
 40
0.0
  9
$THICKNESS
 40
0.0
  9
$LIMCHECK
 70
     0
  9
$CHAMFERA
 40
0.5
  9
$CHAMFERB
 40
0.5
  9
$CHAMFERC
 40
1.0
  9
$CHAMFERD
 40
0.0
  9
$SKPOLY
 70
     0
  9
$TDCREATE
 40
2457917.589050914
  9
$TDUCREATE
 40
2457917.214050926
  9
$TDUPDATE
 40
2457917.589050914
  9
$TDUUPDATE
 40
2457917.214050926
  9
$TDINDWG
 40
0.0000000116
  9
$TDUSRTIMER
 40
0.0000000116
  9
$USRTIMER
 70
     1
  9
$ANGBASE
 50
0.0
  9
$ANGDIR
 70
     0
  9
$PDMODE
 70
     0
  9
$PDSIZE
 40
0.0
  9
$PLINEWID
 40
0.0
  9
$SPLFRAME
 70
     0
  9
$SPLINETYPE
 70
     6
  9
$SPLINESEGS
 70
     8
  9
$HANDSEED
  5
F3
  9
$SURFTAB1
 70
     6
  9
$SURFTAB2
 70
     6
  9
$SURFTYPE
 70
     6
  9
$SURFU
 70
     6
  9
$SURFV
 70
     6
  9
$UCSBASE
  2

  9
$UCSNAME
  2

  9
$UCSORG
 10
0.0
 20
0.0
 30
0.0
  9
$UCSXDIR
 10
1.0
 20
0.0
 30
0.0
  9
$UCSYDIR
 10
0.0
 20
1.0
 30
0.0
  9
$UCSORTHOREF
  2

  9
$UCSORTHOVIEW
 70
     0
  9
$UCSORGTOP
 10
0.0
 20
0.0
 30
0.0
  9
$UCSORGBOTTOM
 10
0.0
 20
0.0
 30
0.0
  9
$UCSORGLEFT
 10
0.0
 20
0.0
 30
0.0
  9
$UCSORGRIGHT
 10
0.0
 20
0.0
 30
0.0
  9
$UCSORGFRONT
 10
0.0
 20
0.0
 30
0.0
  9
$UCSORGBACK
 10
0.0
 20
0.0
 30
0.0
  9
$PUCSBASE
  2

  9
$PUCSNAME
  2

  9
$PUCSORG
 10
0.0
 20
0.0
 30
0.0
  9
$PUCSXDIR
 10
1.0
 20
0.0
 30
0.0
  9
$PUCSYDIR
 10
0.0
 20
1.0
 30
0.0
  9
$PUCSORTHOREF
  2

  9
$PUCSORTHOVIEW
 70
     0
  9
$PUCSORGTOP
 10
0.0
 20
0.0
 30
0.0
  9
$PUCSORGBOTTOM
 10
0.0
 20
0.0
 30
0.0
  9
$PUCSORGLEFT
 10
0.0
 20
0.0
 30
0.0
  9
$PUCSORGRIGHT
 10
0.0
 20
0.0
 30
0.0
  9
$PUCSORGFRONT
 10
0.0
 20
0.0
 30
0.0
  9
$PUCSORGBACK
 10
0.0
 20
0.0
 30
0.0
  9
$USERI1
 70
     0
  9
$USERI2
 70
     0
  9
$USERI3
 70
     0
  9
$USERI4
 70
     0
  9
$USERI5
 70
     0
  9
$USERR1
 40
0.0
  9
$USERR2
 40
0.0
  9
$USERR3
 40
0.0
  9
$USERR4
 40
0.0
  9
$USERR5
 40
0.0
  9
$WORLDVIEW
 70
     1
  9
$SHADEDGE
 70
     3
  9
$SHADEDIF
 70
    70
  9
$TILEMODE
 70
     1
  9
$MAXACTVP
 70
    64
  9
$PINSBASE
 10
0.0
 20
0.0
 30
0.0
  9
$PLIMCHECK
 70
     0
  9
$PEXTMIN
 10
1.000000000000000E+20
 20
1.000000000000000E+20
 30
1.000000000000000E+20
  9
$PEXTMAX
 10
-1.000000000000000E+20
 20
-1.000000000000000E+20
 30
-1.000000000000000E+20
  9
$PLIMMIN
 10
0.0
 20
0.0
  9
$PLIMMAX
 10
12.0
 20
9.0
  9
$UNITMODE
 70
     0
  9
$VISRETAIN
 70
     1
  9
$PLINEGEN
 70
     0
  9
$PSLTSCALE
 70
     1
  9
$TREEDEPTH
 70
  3020
  9
$CMLSTYLE
  2
Standard
  9
$CMLJUST
 70
     0
  9
$CMLSCALE
 40
1.0
  9
$PROXYGRAPHICS
 70
     1
  9
$MEASUREMENT
 70
     0
  9
$CELWEIGHT
370
    -1
  9
$ENDCAPS
280
     0
  9
$JOINSTYLE
280
     0
  9
$LWDISPLAY
290
     1
  9
$INSUNITS
 70
     1
  9
$HYPERLINKBASE
  1

  9
$STYLESHEET
  1

  9
$XEDIT
290
     1
  9
$CEPSNTYPE
380
     0
  9
$PSTYLEMODE
290
     1
  9
$FINGERPRINTGUID
  2
{4D7EE6F5-E2A8-5A13-68A9-414D421F1ABC}
  9
$VERSIONGUID
  2
{FAEB1C32-E019-11D5-929B-00C0DF256EC4}
  9
$EXTNAMES
290
     1
  9
$PSVPSCALE
 40
0.0
  9
$OLESTARTUP
290
     0
  9
$SORTENTS
280
   127
  9
$INDEXCTL
280
     0
  9
$HIDETEXT
280
     1
  9
$XCLIPFRAME
280
     2
  9
$HALOGAP
280
     0
  9
$OBSCOLOR
 70
   257
  9
$OBSLTYPE
280
     0
  9
$INTERSECTIONDISPLAY
280
     0
  9
$INTERSECTIONCOLOR
 70
   257
  9
$DIMASSOC
280
     2
  9
$PROJECTNAME
  1

  9
$CAMERADISPLAY
290
     0
  9
$LENSLENGTH
 40
50.0
  9
$CAMERAHEIGHT
 40
0.0
  9
$STEPSPERSEC
 40
2.0
  9
$STEPSIZE
 40
6.0
  9
$3DDWFPREC
 40
2.0
  9
$PSOLWIDTH
 40
0.25
  9
$PSOLHEIGHT
 40
4.0
  9
$LOFTANG1
 40
1.570796326794897
  9
$LOFTANG2
 40
1.570796326794897
  9
$LOFTMAG1
 40
0.0
  9
$LOFTMAG2
 40
0.0
  9
$LOFTPARAM
 70
     7
  9
$LOFTNORMALS
280
     1
  9
$LATITUDE
 40
37.795
  9
$LONGITUDE
 40
-122.394
  9
$NORTHDIRECTION
 40
0.0
  9
$TIMEZONE
 70
 -8000
  9
$LIGHTGLYPHDISPLAY
280
     1
  9
$TILEMODELIGHTSYNCH
280
     1
  9
$CMATERIAL
347
3C
  9
$SOLIDHIST
280
     1
  9
$SHOWHIST
280
     1
  9
$DWFFRAME
280
     2
  9
$DGNFRAME
280
     2
  9
$REALWORLDSCALE
290
     1
  9
$INTERFERECOLOR
 62
   256
  9
$CSHADOW
280
     0
  9
$SHADOWPLANELOCATION
 40
0.0
  0
ENDSEC
  0
SECTION
  2
CLASSES
  0
CLASS
  1
ACDBDICTIONARYWDFLT
  2
AcDbDictionaryWithDefault
  3
ObjectDBX Classes
 90
        0
 91
        4
280
     0
281
     0
  0
CLASS
  1
VISUALSTYLE
  2
AcDbVisualStyle
  3
ObjectDBX Classes
 90
     4095
 91
        4
280
     0
281
     0
  0
CLASS
  1
MATERIAL
  2
AcDbMaterial
  3
ObjectDBX Classes
 90
     1153
 91
        4
280
     0
281
     0
  0
CLASS
  1
SUN
  2
AcDbSun
  3
SCENEOE
 90
     1024
 91
        4
280
     0
281
     0
  0
ENDSEC
  0
SECTION
  2
TABLES
  0
TABLE
  2
VPORT
  5
8
330
0
100
AcDbSymbolTable
 70
     1
  0
VPORT
  5
29
330
8
100
AcDbSymbolTableRecord
100
AcDbViewportTableRecord
  2
*Active
 70
     0
 10
0.0
 20
0.0
 11
1.0
 21
1.0
 12
0.0
 22
0.0
 13
0.0
 23
0.0
 14
0.5
 24
0.5
 15
0.5
 25
0.5
 16
0.0
 26
0.0
 36
1.0
 17
63.499999984125
 27
-89.00059456108309
 37
0.0
 40
178.0011891221662
 41
0.7134783795241226
 42
50.0
 43
0.0
 44
0.0
 50
0.0
 51
0.0
 71
     0
 72
   100
 73
     1
 74
     3
 75
     0
 76
     0
 77
     0
 78
     0
281
     0
 65
     1
110
0.0
120
0.0
130
0.0
111
1.0
121
0.0
131
0.0
112
0.0
122
1.0
132
0.0
 79
     0
146
0.0
 60
     3
 61
     5
292
     1
282
     1
141
0.0
142
0.0
 63
   250
361
3F
  0
ENDTAB
  0
TABLE
  2
LTYPE
  5
5
330
0
100
AcDbSymbolTable
 70
     1
  0
LTYPE
  5
14
330
5
100
AcDbSymbolTableRecord
100
AcDbLinetypeTableRecord
  2
ByBlock
 70
     0
  3

 72
    65
 73
     0
 40
0.0
  0
LTYPE
  5
15
330
5
100
AcDbSymbolTableRecord
100
AcDbLinetypeTableRecord
  2
ByLayer
 70
     0
  3

 72
    65
 73
     0
 40
0.0
  0
LTYPE
  5
16
330
5
100
AcDbSymbolTableRecord
100
AcDbLinetypeTableRecord
  2
Continuous
 70
     0
  3
Solid line
 72
    65
 73
     0
 40
0.0
  0
ENDTAB
  0
TABLE
  2
LAYER
  5
2
330
0
100
AcDbSymbolTable
 70
     2
  0
LAYER
  5
10
330
2
100
AcDbSymbolTableRecord
100
AcDbLayerTableRecord
  2
0
 70
     0
 62
     7
  6
Continuous
370
    -3
390
F
347
3E
  0
LAYER
  5
40
330
2
100
AcDbSymbolTableRecord
100
AcDbLayerTableRecord
  2
_U+30EC_U+30A4_U+30E4_U+30FC 1
 70
     0
 62
     7
  6
Continuous
370
    -3
390
F
347
3E
  0
ENDTAB
  0
TABLE
  2
STYLE
  5
3
330
0
100
AcDbSymbolTable
 70
     1
  0
STYLE
  5
11
330
3
100
AcDbSymbolTableRecord
100
AcDbTextStyleTableRecord
  2
Standard
 70
     0
 40
0.0
 41
1.0
 50
0.0
 71
     0
 42
0.2
  3
txt
  4

  0
ENDTAB
  0
TABLE
  2
VIEW
  5
6
330
0
100
AcDbSymbolTable
 70
     0
  0
ENDTAB
  0
TABLE
  2
UCS
  5
7
330
0
100
AcDbSymbolTable
 70
     0
  0
ENDTAB
  0
TABLE
  2
APPID
  5
9
330
0
100
AcDbSymbolTable
 70
     1
  0
APPID
  5
12
330
9
100
AcDbSymbolTableRecord
100
AcDbRegAppTableRecord
  2
ACAD
 70
     0
  0
ENDTAB
  0
TABLE
  2
DIMSTYLE
  5
A
330
0
100
AcDbSymbolTable
 70
     1
100
AcDbDimStyleTable
  0
DIMSTYLE
105
27
330
A
100
AcDbSymbolTableRecord
100
AcDbDimStyleTableRecord
  2
Standard
 70
     0
178
     0
340
11
  0
ENDTAB
  0
TABLE
  2
BLOCK_RECORD
  5
1
330
0
100
AcDbSymbolTable
 70
     7
  0
BLOCK_RECORD
  5
1F
330
1
100
AcDbSymbolTableRecord
100
AcDbBlockTableRecord
  2
*Model_Space
340
22
 70
     0
280
     1
281
     0
  0
BLOCK_RECORD
  5
1B
330
1
100
AcDbSymbolTableRecord
100
AcDbBlockTableRecord
  2
*Paper_Space
340
1E
 70
     0
280
     1
281
     0
  0
BLOCK_RECORD
  5
23
330
1
100
AcDbSymbolTableRecord
100
AcDbBlockTableRecord
  2
*Paper_Space0
340
26
 70
     0
280
     1
281
     0
  0
BLOCK_RECORD
  5
41
330
1
100
AcDbSymbolTableRecord
100
AcDbBlockTableRecord
  2
block 2
340
0
102
{BLKREFS
331
42
102
}
 70
     0
280
     1
281
     0
  0
BLOCK_RECORD
  5
8D
330
1
100
AcDbSymbolTableRecord
100
AcDbBlockTableRecord
  2
block 3
340
0
102
{BLKREFS
331
8E
102
}
 70
     0
280
     1
281
     0
  0
BLOCK_RECORD
  5
A8
330
1
100
AcDbSymbolTableRecord
100
AcDbBlockTableRecord
  2
block 4
340
0
102
{BLKREFS
331
A9
102
}
 70
     0
280
     1
281
     0
  0
BLOCK_RECORD
  5
BA
330
1
100
AcDbSymbolTableRecord
100
AcDbBlockTableRecord
  2
block 5
340
0
102
{BLKREFS
331
BB
102
}
 70
     0
280
     1
281
     0
  0
BLOCK_RECORD
  5
CF
330
1
100
AcDbSymbolTableRecord
100
AcDbBlockTableRecord
  2
block 6
340
0
102
{BLKREFS
331
D0
102
}
 70
     0
280
     1
281
     0
  0
BLOCK_RECORD
  5
DF
330
1
100
AcDbSymbolTableRecord
100
AcDbBlockTableRecord
  2
block 7
340
0
102
{BLKREFS
331
E0
102
}
 70
     0
280
     1
281
     0
  0
ENDTAB
  0
ENDSEC
  0
SECTION
  2
BLOCKS
  0
BLOCK
  5
20
330
1F
100
AcDbEntity
  8
0
100
AcDbBlockBegin
  2
*Model_Space
 70
     0
 10
0.0
 20
0.0
 30
0.0
  3
*Model_Space
  1

  0
ENDBLK
  5
21
330
1F
100
AcDbEntity
  8
0
100
AcDbBlockEnd
  0
BLOCK
  5
1C
330
1B
100
AcDbEntity
 67
     1
  8
0
100
AcDbBlockBegin
  2
*Paper_Space
 70
     0
 10
0.0
 20
0.0
 30
0.0
  3
*Paper_Space
  1

  0
ENDBLK
  5
1D
330
1B
100
AcDbEntity
 67
     1
  8
0
100
AcDbBlockEnd
  0
BLOCK
  5
24
330
23
100
AcDbEntity
  8
0
100
AcDbBlockBegin
  2
*Paper_Space0
 70
     0
 10
0.0
 20
0.0
 30
0.0
  3
*Paper_Space0
  1

  0
ENDBLK
  5
25
330
23
100
AcDbEntity
  8
0
100
AcDbBlockEnd
  0
BLOCK
  5
43
330
41
100
AcDbEntity
  8
0
100
AcDbBlockBegin
  2
block 2
 70
     0
 10
0.0
 20
0.0
 30
0.0
  3
block 2
  1

  0
POLYLINE
  5
45
330
41
100
AcDbEntity
  8
_U+30EC_U+30A4_U+30E4_U+30FC 1
 62
   179
420
  2234388
370
    25
100
AcDb2dPolyline
 66
     1
 10
0.0
 20
0.0
 30
0.0
  0
VERTEX
  5
46
330
45
100
AcDbEntity
  8
_U+30EC_U+30A4_U+30E4_U+30FC 1
 62
   179
420
  2234388
370
    25
100
AcDbVertex
100
AcDb2dVertex
 10
49.59438067918639
 20
-82.95290747926178
 30
0.0
  0
VERTEX
  5
47
330
45
100
AcDbEntity
  8
_U+30EC_U+30A4_U+30E4_U+30FC 1
 62
   179
420
  2234388
370
    25
100
AcDbVertex
100
AcDb2dVertex
 10
72.59436231463019
 20
-82.95290747926178
 30
0.0
  0
SEQEND
  5
48
330
45
100
AcDbEntity
  8
_U+30EC_U+30A4_U+30E4_U+30FC 1
 62
   179
420
  2234388
370
    25
  0
POLYLINE
  5
49
330
41
100
AcDbEntity
  8
_U+30EC_U+30A4_U+30E4_U+30FC 1
 62
   179
420
  2234388
370
    25
100
AcDb2dPolyline
 66
     1
 10
0.0
 20
0.0
 30
0.0
  0
VERTEX
  5
4A
330
49
100
AcDbEntity
  8
_U+30EC_U+30A4_U+30E4_U+30FC 1
 62
   179
420
  2234388
370
    25
100
AcDbVertex
100
AcDb2dVertex
 10
50.39433954766662
 20
-83.75286636795073
 30
0.0
  0
VERTEX
  5
4B
330
49
100
AcDbEntity
  8
_U+30EC_U+30A4_U+30E4_U+30FC 1
 62
   179
420
  2234388
370
    25
100
AcDbVertex
100
AcDb2dVertex
 10
72.59436231463019
 20
-83.75286636795073
 30
0.0
  0
SEQEND
  5
4C
330
49
100
AcDbEntity
  8
_U+30EC_U+30A4_U+30E4_U+30FC 1
 62
   179
420
  2234388
370
    25
  0
POLYLINE
  5
4D
330
41
100
AcDbEntity
  8
_U+30EC_U+30A4_U+30E4_U+30FC 1
 62
   179
420
  2234388
370
    25
100
AcDb2dPolyline
 66
     1
 10
0.0
 20
0.0
 30
0.0
  0
VERTEX
  5
4E
330
4D
100
AcDbEntity
  8
_U+30EC_U+30A4_U+30E4_U+30FC 1
 62
   179
420
  2234388
370
    25
100
AcDbVertex
100
AcDb2dVertex
 10
72.59436231463019
 20
-82.95290747926178
 30
0.0
  0
VERTEX
  5
4F
330
4D
100
AcDbEntity
  8
_U+30EC_U+30A4_U+30E4_U+30FC 1
 62
   179
420
  2234388
370
    25
100
AcDbVertex
100
AcDb2dVertex
 10
72.59436231463019
 20
-83.75286636795073
 30
0.0
  0
SEQEND
  5
50
330
4D
100
AcDbEntity
  8
_U+30EC_U+30A4_U+30E4_U+30FC 1
 62
   179
420
  2234388
370
    25
  0
POLYLINE
  5
51
330
41
100
AcDbEntity
  8
_U+30EC_U+30A4_U+30E4_U+30FC 1
 62
   179
420
  2234388
370
    25
100
AcDb2dPolyline
 66
     1
 10
0.0
 20
0.0
 30
0.0
  0
VERTEX
  5
52
330
51
100
AcDbEntity
  8
_U+30EC_U+30A4_U+30E4_U+30FC 1
 62
   179
420
  2234388
370
    25
100
AcDbVertex
100
AcDb2dVertex
 10
55.5781619154163
 20
-96.25252386482582
 30
0.0
  0
VERTEX
  5
53
330
51
100
AcDbEntity
  8
_U+30EC_U+30A4_U+30E4_U+30FC 1
 62
   179
420
  2234388
370
    25
100
AcDbVertex
100
AcDb2dVertex
 10
59.5941134796275
 20
-96.25252386482582
 30
0.0
  0
SEQEND
  5
54
330
51
100
AcDbEntity
  8
_U+30EC_U+30A4_U+30E4_U+30FC 1
 62
   179
420
  2234388
370
    25
  0
POLYLINE
  5
55
330
41
100
AcDbEntity
  8
_U+30EC_U+30A4_U+30E4_U+30FC 1
 62
   179
420
  2234388
370
    25
100
AcDb2dPolyline
 66
     1
 10
0.0
 20
0.0
 30
0.0
  0
VERTEX
  5
56
330
55
100
AcDbEntity
  8
_U+30EC_U+30A4_U+30E4_U+30FC 1
 62
   179
420
  2234388
370
    25
100
AcDbVertex
100
AcDb2dVertex
 10
49.59438067918639
 20
-99.25251080852016
 30
0.0
  0
VERTEX
  5
57
330
55
100
AcDbEntity
  8
_U+30EC_U+30A4_U+30E4_U+30FC 1
 62
   179
420
  2234388
370
    25
100
AcDbVertex
100
AcDb2dVertex
 10
59.5941134796275
 20
-99.25251080852016
 30
0.0
  0
SEQEND
  5
58
330
55
100
AcDbEntity
  8
_U+30EC_U+30A4_U+30E4_U+30FC 1
 62
   179
420
  2234388
370
    25
  0
POLYLINE
  5
59
330
41
100
AcDbEntity
  8
_U+30EC_U+30A4_U+30E4_U+30FC 1
 62
   179
420
  2234388
370
    25
100
AcDb2dPolyline
 66
     1
 10
0.0
 20
0.0
 30
0.0
  0
VERTEX
  5
5A
330
59
100
AcDbEntity
  8
_U+30EC_U+30A4_U+30E4_U+30FC 1
 62
   179
420
  2234388
370
    25
100
AcDbVertex
100
AcDb2dVertex
 10
59.5941134796275
 20
-96.25252386482582
 30
0.0
  0
VERTEX
  5
5B
330
59
100
AcDbEntity
  8
_U+30EC_U+30A4_U+30E4_U+30FC 1
 62
   179
420
  2234388
370
    25
100
AcDbVertex
100
AcDb2dVertex
 10
59.5941134796275
 20
-99.25251080852016
 30
0.0
  0
SEQEND
  5
5C
330
59
100
AcDbEntity
  8
_U+30EC_U+30A4_U+30E4_U+30FC 1
 62
   179
420
  2234388
370
    25
  0
POLYLINE
  5
5D
330
41
100
AcDbEntity
  8
_U+30EC_U+30A4_U+30E4_U+30FC 1
 62
   179
420
  2234388
370
    25
100
AcDb2dPolyline
 66
     1
 10
0.0
 20
0.0
 30
0.0
  0
VERTEX
  5
5E
330
5D
100
AcDbEntity
  8
_U+30EC_U+30A4_U+30E4_U+30FC 1
 62
   179
420
  2234388
370
    25
100
AcDbVertex
100
AcDb2dVertex
 10
55.5781619154163
 20
-96.25252386482582
 30
0.0
  0
VERTEX
  5
5F
330
5D
100
AcDbEntity
  8
_U+30EC_U+30A4_U+30E4_U+30FC 1
 62
   179
420
  2234388
370
    25
100
AcDbVertex
100
AcDb2dVertex
 10
55.5781619154163
 20
-97.05248275351444
 30
0.0
  0
SEQEND
  5
60
330
5D
100
AcDbEntity
  8
_U+30EC_U+30A4_U+30E4_U+30FC 1
 62
   179
420
  2234388
370
    25
  0
POLYLINE
  5
61
330
41
100
AcDbEntity
  8
_U+30EC_U+30A4_U+30E4_U+30FC 1
 62
   179
420
  2234388
370
    25
100
AcDb2dPolyline
 66
     1
 10
0.0
 20
0.0
 30
0.0
  0
VERTEX
  5
62
330
61
100
AcDbEntity
  8
_U+30EC_U+30A4_U+30E4_U+30FC 1
 62
   179
420
  2234388
370
    25
100
AcDbVertex
100
AcDb2dVertex
 10
50.39433954766662
 20
-98.45255191983154
 30
0.0
  0
VERTEX
  5
63
330
61
100
AcDbEntity
  8
_U+30EC_U+30A4_U+30E4_U+30FC 1
 62
   179
420
  2234388
370
    25
100
AcDbVertex
100
AcDb2dVertex
 10
58.79415461114726
 20
-98.45255191983154
 30
0.0
  0
SEQEND
  5
64
330
61
100
AcDbEntity
  8
_U+30EC_U+30A4_U+30E4_U+30FC 1
 62
   179
420
  2234388
370
    25
  0
POLYLINE
  5
65
330
41
100
AcDbEntity
  8
_U+30EC_U+30A4_U+30E4_U+30FC 1
 62
   179
420
  2234388
370
    25
100
AcDb2dPolyline
 66
     1
 10
0.0
 20
0.0
 30
0.0
  0
VERTEX
  5
66
330
65
100
AcDbEntity
  8
_U+30EC_U+30A4_U+30E4_U+30FC 1
 62
   179
420
  2234388
370
    25
100
AcDbVertex
100
AcDb2dVertex
 10
58.79415461114726
 20
-97.05248275351444
 30
0.0
  0
VERTEX
  5
67
330
65
100
AcDbEntity
  8
_U+30EC_U+30A4_U+30E4_U+30FC 1
 62
   179
420
  2234388
370
    25
100
AcDbVertex
100
AcDb2dVertex
 10
58.79415461114726
 20
-98.45255191983154
 30
0.0
  0
SEQEND
  5
68
330
65
100
AcDbEntity
  8
_U+30EC_U+30A4_U+30E4_U+30FC 1
 62
   179
420
  2234388
370
    25
  0
POLYLINE
  5
69
330
41
100
AcDbEntity
  8
_U+30EC_U+30A4_U+30E4_U+30FC 1
 62
   179
420
  2234388
370
    25
100
AcDb2dPolyline
 66
     1
 10
0.0
 20
0.0
 30
0.0
  0
VERTEX
  5
6A
330
69
100
AcDbEntity
  8
_U+30EC_U+30A4_U+30E4_U+30FC 1
 62
   179
420
  2234388
370
    25
100
AcDbVertex
100
AcDb2dVertex
 10
55.5781619154163
 20
-97.05248275351444
 30
0.0
  0
VERTEX
  5
6B
330
69
100
AcDbEntity
  8
_U+30EC_U+30A4_U+30E4_U+30FC 1
 62
   179
420
  2234388
370
    25
100
AcDbVertex
100
AcDb2dVertex
 10
58.79415461114726
 20
-97.05248275351444
 30
0.0
  0
SEQEND
  5
6C
330
69
100
AcDbEntity
  8
_U+30EC_U+30A4_U+30E4_U+30FC 1
 62
   179
420
  2234388
370
    25
  0
POLYLINE
  5
6D
330
41
100
AcDbEntity
  8
_U+30EC_U+30A4_U+30E4_U+30FC 1
 62
   179
420
  2234388
370
    25
100
AcDb2dPolyline
 66
     1
 10
0.0
 20
0.0
 30
0.0
  0
VERTEX
  5
6E
330
6D
100
AcDbEntity
  8
_U+30EC_U+30A4_U+30E4_U+30FC 1
 62
   179
420
  2234388
370
    25
100
AcDbVertex
100
AcDb2dVertex
 10
49.59438067918639
 20
-82.95290747926178
 30
0.0
  0
VERTEX
  5
6F
330
6D
100
AcDbEntity
  8
_U+30EC_U+30A4_U+30E4_U+30FC 1
 62
   179
420
  2234388
370
    25
100
AcDbVertex
100
AcDb2dVertex
 10
49.59438067918639
 20
-99.25251080852016
 30
0.0
  0
SEQEND
  5
70
330
6D
100
AcDbEntity
  8
_U+30EC_U+30A4_U+30E4_U+30FC 1
 62
   179
420
  2234388
370
    25
  0
POLYLINE
  5
71
330
41
100
AcDbEntity
  8
_U+30EC_U+30A4_U+30E4_U+30FC 1
 62
   179
420
  2234388
370
    25
100
AcDb2dPolyline
 66
     1
 10
0.0
 20
0.0
 30
0.0
  0
VERTEX
  5
72
330
71
100
AcDbEntity
  8
_U+30EC_U+30A4_U+30E4_U+30FC 1
 62
   179
420
  2234388
370
    25
100
AcDbVertex
100
AcDb2dVertex
 10
50.39433954766662
 20
-83.75286636795073
 30
0.0
  0
VERTEX
  5
73
330
71
100
AcDbEntity
  8
_U+30EC_U+30A4_U+30E4_U+30FC 1
 62
   179
420
  2234388
370
    25
100
AcDbVertex
100
AcDb2dVertex
 10
50.39433954766662
 20
-98.45255191983154
 30
0.0
  0
SEQEND
  5
74
330
71
100
AcDbEntity
  8
_U+30EC_U+30A4_U+30E4_U+30FC 1
 62
   179
420
  2234388
370
    25
  0
SPLINE
  5
75
330
41
100
AcDbEntity
  8
_U+30EC_U+30A4_U+30E4_U+30FC 1
 62
   179
420
  2234388
370
     9
100
AcDbSpline
210
0.0
220
0.0
230
1.0
 70
    11
 71
     3
 72
    17
 73
    13
 74
     0
 42
0.0000000001
 43
0.0000000001
 12
1.0
 22
0.0
 32
0.0
 13
1.0
 23
0.0
 33
0.0
 40
0.0
 40
0.0
 40
0.0
 40
0.0
 40
1.0
 40
1.0
 40
1.0
 40
2.0
 40
2.0
 40
2.0
 40
3.0
 40
3.0
 40
3.0
 40
4.0
 40
4.0
 40
4.0
 40
4.0
 10
76.69402804337234
 20
-82.95290747926178
 30
0.0
 10
76.69402804337234
 20
-82.89709803483134
 30
0.0
 10
76.64922526673757
 20
-82.85229525706463
 30
0.0
 10
76.5941213792545
 20
-82.85229525706463
 30
0.0
 10
76.53898221399456
 20
-82.85229525706463
 30
0.0
 10
76.49421664754338
 20
-82.89709803483134
 30
0.0
 10
76.49421664754338
 20
-82.95290747926178
 30
0.0
 10
76.49421664754338
 20
-83.00801136813702
 30
0.0
 10
76.53898221399456
 20
-83.05281414590343
 30
0.0
 10
76.5941213792545
 20
-83.05281414590343
 30
0.0
 10
76.64922526673757
 20
-83.05281414590343
 30
0.0
 10
76.69402804337234
 20
-83.00801136813702
 30
0.0
 10
76.69402804337234
 20
-82.95290747926178
 30
0.0
  0
SPLINE
  5
76
330
41
100
AcDbEntity
  8
_U+30EC_U+30A4_U+30E4_U+30FC 1
 62
   179
420
  2234388
370
     9
100
AcDbSpline
210
0.0
220
0.0
230
1.0
 70
    11
 71
     3
 72
    17
 73
    13
 74
     0
 42
0.0000000001
 43
0.0000000001
 12
1.0
 22
0.0
 32
0.0
 13
1.0
 23
0.0
 33
0.0
 40
0.0
 40
0.0
 40
0.0
 40
0.0
 40
1.0
 40
1.0
 40
1.0
 40
2.0
 40
2.0
 40
2.0
 40
3.0
 40
3.0
 40
3.0
 40
4.0
 40
4.0
 40
4.0
 40
4.0
 10
76.69402804337234
 20
-83.75286636795073
 30
0.0
 10
76.69402804337234
 20
-83.69772720129765
 30
0.0
 10
76.64922526673757
 20
-83.6529597013091
 30
0.0
 10
76.5941213792545
 20
-83.6529597013091
 30
0.0
 10
76.53898221399456
 20
-83.6529597013091
 30
0.0
 10
76.49421664754338
 20
-83.69772720129765
 30
0.0
 10
76.49421664754338
 20
-83.75286636795073
 30
0.0
 10
76.49421664754338
 20
-83.80797025682566
 30
0.0
 10
76.53898221399456
 20
-83.85277303459237
 30
0.0
 10
76.5941213792545
 20
-83.85277303459237
 30
0.0
 10
76.64922526673757
 20
-83.85277303459237
 30
0.0
 10
76.69402804337234
 20
-83.80797025682566
 30
0.0
 10
76.69402804337234
 20
-83.75286636795073
 30
0.0
  0
SPLINE
  5
77
330
41
100
AcDbEntity
  8
_U+30EC_U+30A4_U+30E4_U+30FC 1
 62
   179
420
  2234388
370
     9
100
AcDbSpline
210
0.0
220
0.0
230
1.0
 70
    11
 71
     3
 72
    17
 73
    13
 74
     0
 42
0.0000000001
 43
0.0000000001
 12
1.0
 22
0.0
 32
0.0
 13
1.0
 23
0.0
 33
0.0
 40
0.0
 40
0.0
 40
0.0
 40
0.0
 40
1.0
 40
1.0
 40
1.0
 40
2.0
 40
2.0
 40
2.0
 40
3.0
 40
3.0
 40
3.0
 40
4.0
 40
4.0
 40
4.0
 40
4.0
 10
72.69426897874803
 20
-78.9524427580397
 30
0.0
 10
72.69426897874803
 20
-78.89733886916446
 30
0.0
 10
72.64946620211326
 20
-78.85253609139806
 30
0.0
 10
72.59436231463019
 20
-78.85253609139806
 30
0.0
 10
72.53922498186505
 20
-78.85253609139806
 30
0.0
 10
72.49445565051235
 20
-78.89733886916446
 30
0.0
 10
72.49445565051235
 20
-78.9524427580397
 30
0.0
 10
72.49445565051235
 20
-79.00758192469246
 30
0.0
 10
72.53922498186505
 20
-79.05234942468134
 30
0.0
 10
72.59436231463019
 20
-79.05234942468134
 30
0.0
 10
72.64946620211326
 20
-79.05234942468134
 30
0.0
 10
72.69426897874803
 20
-79.00758192469246
 30
0.0
 10
72.69426897874803
 20
-78.9524427580397
 30
0.0
  0
SPLINE
  5
78
330
41
100
AcDbEntity
  8
_U+30EC_U+30A4_U+30E4_U+30FC 1
 62
   179
420
  2234388
370
     9
100
AcDbSpline
210
0.0
220
0.0
230
1.0
 70
    11
 71
     3
 72
    17
 73
    13
 74
     0
 42
0.0000000001
 43
0.0000000001
 12
1.0
 22
0.0
 32
0.0
 13
1.0
 23
0.0
 33
0.0
 40
0.0
 40
0.0
 40
0.0
 40
0.0
 40
1.0
 40
1.0
 40
1.0
 40
2.0
 40
2.0
 40
2.0
 40
3.0
 40
3.0
 40
3.0
 40
4.0
 40
4.0
 40
4.0
 40
4.0
 10
59.69437292151412
 20
-103.2529402519644
 30
0.0
 10
59.69437292151412
 20
-103.197130807534
 30
0.0
 10
59.64957014487935
 20
-103.1523633075454
 30
0.0
 10
59.5941134796275
 20
-103.1523633075454
 30
0.0
 10
59.53901109622634
 20
-103.1523633075454
 30
0.0
 10
59.49420831845994
 20
-103.197130807534
 30
0.0
 10
59.49420831845994
 20
-103.2529402519644
 30
0.0
 10
59.49420831845994
 20
-103.3080794186175
 30
0.0
 10
59.53901109622634
 20
-103.3528821963842
 30
0.0
 10
59.5941134796275
 20
-103.3528821963842
 30
0.0
 10
59.64957014487935
 20
-103.3528821963842
 30
0.0
 10
59.69437292151412
 20
-103.3080794186175
 30
0.0
 10
59.69437292151412
 20
-103.2529402519644
 30
0.0
  0
SPLINE
  5
79
330
41
100
AcDbEntity
  8
_U+30EC_U+30A4_U+30E4_U+30FC 1
 62
   179
420
  2234388
370
     9
100
AcDbSpline
210
0.0
220
0.0
230
1.0
 70
    11
 71
     3
 72
    17
 73
    13
 74
     0
 42
0.0000000001
 43
0.0000000001
 12
1.0
 22
0.0
 32
0.0
 13
1.0
 23
0.0
 33
0.0
 40
0.0
 40
0.0
 40
0.0
 40
0.0
 40
1.0
 40
1.0
 40
1.0
 40
2.0
 40
2.0
 40
2.0
 40
3.0
 40
3.0
 40
3.0
 40
4.0
 40
4.0
 40
4.0
 40
4.0
 10
76.69402804337234
 20
-99.25251080852016
 30
0.0
 10
76.69402804337234
 20
-99.19740691964525
 30
0.0
 10
76.64922526673757
 20
-99.15260414187853
 30
0.0
 10
76.5941213792545
 20
-99.15260414187853
 30
0.0
 10
76.53898221399456
 20
-99.15260414187853
 30
0.0
 10
76.49421664754338
 20
-99.19740691964525
 30
0.0
 10
76.49421664754338
 20
-99.25251080852016
 30
0.0
 10
76.49421664754338
 20
-99.30764997517323
 30
0.0
 10
76.53898221399456
 20
-99.3524174751618
 30
0.0
 10
76.5941213792545
 20
-99.3524174751618
 30
0.0
 10
76.64922526673757
 20
-99.3524174751618
 30
0.0
 10
76.69402804337234
 20
-99.30764997517323
 30
0.0
 10
76.69402804337234
 20
-99.25251080852016
 30
0.0
  0
SPLINE
  5
7A
330
41
100
AcDbEntity
  8
_U+30EC_U+30A4_U+30E4_U+30FC 1
 62
   179
420
  2234388
370
     9
100
AcDbSpline
210
0.0
220
0.0
230
1.0
 70
    11
 71
     3
 72
    17
 73
    13
 74
     0
 42
0.0000000001
 43
0.0000000001
 12
1.0
 22
0.0
 32
0.0
 13
1.0
 23
0.0
 33
0.0
 40
0.0
 40
0.0
 40
0.0
 40
0.0
 40
1.0
 40
1.0
 40
1.0
 40
2.0
 40
2.0
 40
2.0
 40
3.0
 40
3.0
 40
3.0
 40
4.0
 40
4.0
 40
4.0
 40
4.0
 10
76.69402804337234
 20
-96.25252386482582
 30
0.0
 10
76.69402804337234
 20
-96.19738469817274
 30
0.0
 10
76.64922526673757
 20
-96.15261719818417
 30
0.0
 10
76.5941213792545
 20
-96.15261719818417
 30
0.0
 10
76.53898221399456
 20
-96.15261719818417
 30
0.0
 10
76.49421664754338
 20
-96.19738469817274
 30
0.0
 10
76.49421664754338
 20
-96.25252386482582
 30
0.0
 10
76.49421664754338
 20
-96.30762775370073
 30
0.0
 10
76.53898221399456
 20
-96.35243053146745
 30
0.0
 10
76.5941213792545
 20
-96.35243053146745
 30
0.0
 10
76.64922526673757
 20
-96.35243053146745
 30
0.0
 10
76.69402804337234
 20
-96.30762775370073
 30
0.0
 10
76.69402804337234
 20
-96.25252386482582
 30
0.0
  0
SPLINE
  5
7B
330
41
100
AcDbEntity
  8
_U+30EC_U+30A4_U+30E4_U+30FC 1
 62
   179
420
  2234388
370
     9
100
AcDbSpline
210
0.0
220
0.0
230
1.0
 70
    11
 71
     3
 72
    17
 73
    13
 74
     0
 42
0.0000000001
 43
0.0000000001
 12
1.0
 22
0.0
 32
0.0
 13
1.0
 23
0.0
 33
0.0
 40
0.0
 40
0.0
 40
0.0
 40
0.0
 40
1.0
 40
1.0
 40
1.0
 40
2.0
 40
2.0
 40
2.0
 40
3.0
 40
3.0
 40
3.0
 40
4.0
 40
4.0
 40
4.0
 40
4.0
 10
49.69428734330422
 20
-78.9524427580397
 30
0.0
 10
49.69428734330422
 20
-78.89733886916446
 30
0.0
 10
49.64951984444633
 20
-78.85253609139806
 30
0.0
 10
49.59438067918639
 20
-78.85253609139806
 30
0.0
 10
49.53927679170332
 20
-78.85253609139806
 30
0.0
 10
49.49447401506855
 20
-78.89733886916446
 30
0.0
 10
49.49447401506855
 20
-78.9524427580397
 30
0.0
 10
49.49447401506855
 20
-79.00758192469246
 30
0.0
 10
49.53927679170332
 20
-79.05234942468134
 30
0.0
 10
49.59438067918639
 20
-79.05234942468134
 30
0.0
 10
49.64951984444633
 20
-79.05234942468134
 30
0.0
 10
49.69428734330422
 20
-79.00758192469246
 30
0.0
 10
49.69428734330422
 20
-78.9524427580397
 30
0.0
  0
SPLINE
  5
7C
330
41
100
AcDbEntity
  8
_U+30EC_U+30A4_U+30E4_U+30FC 1
 62
   179
420
  2234388
370
     9
100
AcDbSpline
210
0.0
220
0.0
230
1.0
 70
    11
 71
     3
 72
    17
 73
    13
 74
     0
 42
0.0000000001
 43
0.0000000001
 12
1.0
 22
0.0
 32
0.0
 13
1.0
 23
0.0
 33
0.0
 40
0.0
 40
0.0
 40
0.0
 40
0.0
 40
1.0
 40
1.0
 40
1.0
 40
2.0
 40
2.0
 40
2.0
 40
3.0
 40
3.0
 40
3.0
 40
4.0
 40
4.0
 40
4.0
 40
4.0
 10
49.69428734330422
 20
-103.2529402519644
 30
0.0
 10
49.69428734330422
 20
-103.197130807534
 30
0.0
 10
49.64951984444633
 20
-103.1523633075454
 30
0.0
 10
49.59438067918639
 20
-103.1523633075454
 30
0.0
 10
49.53927679170332
 20
-103.1523633075454
 30
0.0
 10
49.49447401506855
 20
-103.197130807534
 30
0.0
 10
49.49447401506855
 20
-103.2529402519644
 30
0.0
 10
49.49447401506855
 20
-103.3080794186175
 30
0.0
 10
49.53927679170332
 20
-103.3528821963842
 30
0.0
 10
49.59438067918639
 20
-103.3528821963842
 30
0.0
 10
49.64951984444633
 20
-103.3528821963842
 30
0.0
 10
49.69428734330422
 20
-103.3080794186175
 30
0.0
 10
49.69428734330422
 20
-103.2529402519644
 30
0.0
  0
POLYLINE
  5
7D
330
41
100
AcDbEntity
  8
_U+30EC_U+30A4_U+30E4_U+30FC 1
 62
   179
420
  2234388
370
     9
100
AcDb2dPolyline
 66
     1
 10
0.0
 20
0.0
 30
0.0
  0
VERTEX
  5
7E
330
7D
100
AcDbEntity
  8
_U+30EC_U+30A4_U+30E4_U+30FC 1
 62
   179
420
  2234388
370
     9
100
AcDbVertex
100
AcDb2dVertex
 10
76.5941213792545
 20
-82.95290747926178
 30
0.0
  0
VERTEX
  5
7F
330
7D
100
AcDbEntity
  8
_U+30EC_U+30A4_U+30E4_U+30FC 1
 62
   179
420
  2234388
370
     9
100
AcDbVertex
100
AcDb2dVertex
 10
76.5941213792545
 20
-77.69500164724288
 30
0.0
  0
SEQEND
  5
80
330
7D
100
AcDbEntity
  8
_U+30EC_U+30A4_U+30E4_U+30FC 1
 62
   179
420
  2234388
370
     9
  0
POLYLINE
  5
81
330
41
100
AcDbEntity
  8
_U+30EC_U+30A4_U+30E4_U+30FC 1
 62
   179
420
  2234388
370
     9
100
AcDb2dPolyline
 66
     1
 10
0.0
 20
0.0
 30
0.0
  0
VERTEX
  5
82
330
81
100
AcDbEntity
  8
_U+30EC_U+30A4_U+30E4_U+30FC 1
 62
   179
420
  2234388
370
     9
100
AcDbVertex
100
AcDb2dVertex
 10
76.5941213792545
 20
-82.95290747926178
 30
0.0
  0
VERTEX
  5
83
330
81
100
AcDbEntity
  8
_U+30EC_U+30A4_U+30E4_U+30FC 1
 62
   179
420
  2234388
370
     9
100
AcDbVertex
100
AcDb2dVertex
 10
76.5941213792545
 20
-83.75286636795073
 30
0.0
  0
SEQEND
  5
84
330
81
100
AcDbEntity
  8
_U+30EC_U+30A4_U+30E4_U+30FC 1
 62
   179
420
  2234388
370
     9
  0
POLYLINE
  5
85
330
41
100
AcDbEntity
  8
_U+30EC_U+30A4_U+30E4_U+30FC 1
 62
   179
420
  2234388
370
     9
100
AcDb2dPolyline
 66
     1
 10
0.0
 20
0.0
 30
0.0
  0
VERTEX
  5
86
330
85
100
AcDbEntity
  8
_U+30EC_U+30A4_U+30E4_U+30FC 1
 62
   179
420
  2234388
370
     9
100
AcDbVertex
100
AcDb2dVertex
 10
75.13408002761437
 20
-82.95290747926178
 30
0.0
  0
VERTEX
  5
87
330
85
100
AcDbEntity
  8
_U+30EC_U+30A4_U+30E4_U+30FC 1
 62
   179
420
  2234388
370
     9
100
AcDbVertex
100
AcDb2dVertex
 10
77.59456385373109
 20
-82.95290747926178
 30
0.0
  0
SEQEND
  5
88
330
85
100
AcDbEntity
  8
_U+30EC_U+30A4_U+30E4_U+30FC 1
 62
   179
420
  2234388
370
     9
  0
POLYLINE
  5
89
330
41
100
AcDbEntity
  8
_U+30EC_U+30A4_U+30E4_U+30FC 1
 62
   179
420
  2234388
370
     9
100
AcDb2dPolyline
 66
     1
 10
0.0
 20
0.0
 30
0.0
  0
VERTEX
  5
8A
330
89
100
AcDbEntity
  8
_U+30EC_U+30A4_U+30E4_U+30FC 1
 62
   179
420
  2234388
370
     9
100
AcDbVertex
100
AcDb2dVertex
 10
75.13408002761437
 20
-83.75286636795073
 30
0.0
  0
VERTEX
  5
8B
330
89
100
AcDbEntity
  8
_U+30EC_U+30A4_U+30E4_U+30FC 1
 62
   179
420
  2234388
370
     9
100
AcDbVertex
100
AcDb2dVertex
 10
77.59456385373109
 20
-83.75286636795073
 30
0.0
  0
SEQEND
  5
8C
330
89
100
AcDbEntity
  8
_U+30EC_U+30A4_U+30E4_U+30FC 1
 62
   179
420
  2234388
370
     9
  0
INSERT
  5
8E
330
41
100
AcDbEntity
  8
_U+30EC_U+30A4_U+30E4_U+30FC 1
100
AcDbBlockReference
  2
block 3
 10
0.0
 20
0.0
 30
0.0
  0
POLYLINE
  5
A0
330
41
100
AcDbEntity
  8
_U+30EC_U+30A4_U+30E4_U+30FC 1
 62
   179
420
  2234388
370
     9
100
AcDb2dPolyline
 66
     1
 10
0.0
 20
0.0
 30
0.0
  0
VERTEX
  5
A1
330
A0
100
AcDbEntity
  8
_U+30EC_U+30A4_U+30E4_U+30FC 1
 62
   179
420
  2234388
370
     9
100
AcDbVertex
100
AcDb2dVertex
 10
76.5941213792545
 20
-96.25252386482582
 30
0.0
  0
VERTEX
  5
A2
330
A0
100
AcDbEntity
  8
_U+30EC_U+30A4_U+30E4_U+30FC 1
 62
   179
420
  2234388
370
     9
100
AcDbVertex
100
AcDb2dVertex
 10
76.5941213792545
 20
-99.25251080852016
 30
0.0
  0
SEQEND
  5
A3
330
A0
100
AcDbEntity
  8
_U+30EC_U+30A4_U+30E4_U+30FC 1
 62
   179
420
  2234388
370
     9
  0
POLYLINE
  5
A4
330
41
100
AcDbEntity
  8
_U+30EC_U+30A4_U+30E4_U+30FC 1
 62
   179
420
  2234388
370
     9
100
AcDb2dPolyline
 66
     1
 10
0.0
 20
0.0
 30
0.0
  0
VERTEX
  5
A5
330
A4
100
AcDbEntity
  8
_U+30EC_U+30A4_U+30E4_U+30FC 1
 62
   179
420
  2234388
370
     9
100
AcDbVertex
100
AcDb2dVertex
 10
62.13418397038046
 20
-99.25251080852016
 30
0.0
  0
VERTEX
  5
A6
330
A4
100
AcDbEntity
  8
_U+30EC_U+30A4_U+30E4_U+30FC 1
 62
   179
420
  2234388
370
     9
100
AcDbVertex
100
AcDb2dVertex
 10
77.59456385373109
 20
-99.25251080852016
 30
0.0
  0
SEQEND
  5
A7
330
A4
100
AcDbEntity
  8
_U+30EC_U+30A4_U+30E4_U+30FC 1
 62
   179
420
  2234388
370
     9
  0
INSERT
  5
A9
330
41
100
AcDbEntity
  8
_U+30EC_U+30A4_U+30E4_U+30FC 1
100
AcDbBlockReference
  2
block 4
 10
0.0
 20
0.0
 30
0.0
  0
POLYLINE
  5
AE
330
41
100
AcDbEntity
  8
_U+30EC_U+30A4_U+30E4_U+30FC 1
 62
   179
420
  2234388
370
     9
100
AcDb2dPolyline
 66
     1
 10
0.0
 20
0.0
 30
0.0
  0
VERTEX
  5
AF
330
AE
100
AcDbEntity
  8
_U+30EC_U+30A4_U+30E4_U+30FC 1
 62
   179
420
  2234388
370
     9
100
AcDbVertex
100
AcDb2dVertex
 10
49.59438067918639
 20
-103.2529402519644
 30
0.0
  0
VERTEX
  5
B0
330
AE
100
AcDbEntity
  8
_U+30EC_U+30A4_U+30E4_U+30FC 1
 62
   179
420
  2234388
370
     9
100
AcDbVertex
100
AcDb2dVertex
 10
59.5941134796275
 20
-103.2529402519644
 30
0.0
  0
SEQEND
  5
B1
330
AE
100
AcDbEntity
  8
_U+30EC_U+30A4_U+30E4_U+30FC 1
 62
   179
420
  2234388
370
     9
  0
POLYLINE
  5
B2
330
41
100
AcDbEntity
  8
_U+30EC_U+30A4_U+30E4_U+30FC 1
 62
   179
420
  2234388
370
     9
100
AcDb2dPolyline
 66
     1
 10
0.0
 20
0.0
 30
0.0
  0
VERTEX
  5
B3
330
B2
100
AcDbEntity
  8
_U+30EC_U+30A4_U+30E4_U+30FC 1
 62
   179
420
  2234388
370
     9
100
AcDbVertex
100
AcDb2dVertex
 10
49.59438067918639
 20
-101.7929341412182
 30
0.0
  0
VERTEX
  5
B4
330
B2
100
AcDbEntity
  8
_U+30EC_U+30A4_U+30E4_U+30FC 1
 62
   179
420
  2234388
370
     9
100
AcDbVertex
100
AcDb2dVertex
 10
49.59438067918639
 20
-104.2527124739369
 30
0.0
  0
SEQEND
  5
B5
330
B2
100
AcDbEntity
  8
_U+30EC_U+30A4_U+30E4_U+30FC 1
 62
   179
420
  2234388
370
     9
  0
POLYLINE
  5
B6
330
41
100
AcDbEntity
  8
_U+30EC_U+30A4_U+30E4_U+30FC 1
 62
   179
420
  2234388
370
     9
100
AcDb2dPolyline
 66
     1
 10
0.0
 20
0.0
 30
0.0
  0
VERTEX
  5
B7
330
B6
100
AcDbEntity
  8
_U+30EC_U+30A4_U+30E4_U+30FC 1
 62
   179
420
  2234388
370
     9
100
AcDbVertex
100
AcDb2dVertex
 10
59.5941134796275
 20
-101.7929341412182
 30
0.0
  0
VERTEX
  5
B8
330
B6
100
AcDbEntity
  8
_U+30EC_U+30A4_U+30E4_U+30FC 1
 62
   179
420
  2234388
370
     9
100
AcDbVertex
100
AcDb2dVertex
 10
59.5941134796275
 20
-104.2527124739369
 30
0.0
  0
SEQEND
  5
B9
330
B6
100
AcDbEntity
  8
_U+30EC_U+30A4_U+30E4_U+30FC 1
 62
   179
420
  2234388
370
     9
  0
INSERT
  5
BB
330
41
100
AcDbEntity
  8
_U+30EC_U+30A4_U+30E4_U+30FC 1
100
AcDbBlockReference
  2
block 5
 10
0.0
 20
0.0
 30
0.0
  0
POLYLINE
  5
C3
330
41
100
AcDbEntity
  8
_U+30EC_U+30A4_U+30E4_U+30FC 1
 62
   179
420
  2234388
370
     9
100
AcDb2dPolyline
 66
     1
 10
0.0
 20
0.0
 30
0.0
  0
VERTEX
  5
C4
330
C3
100
AcDbEntity
  8
_U+30EC_U+30A4_U+30E4_U+30FC 1
 62
   179
420
  2234388
370
     9
100
AcDbVertex
100
AcDb2dVertex
 10
49.59438067918639
 20
-78.9524427580397
 30
0.0
  0
VERTEX
  5
C5
330
C3
100
AcDbEntity
  8
_U+30EC_U+30A4_U+30E4_U+30FC 1
 62
   179
420
  2234388
370
     9
100
AcDbVertex
100
AcDb2dVertex
 10
72.59436231463019
 20
-78.9524427580397
 30
0.0
  0
SEQEND
  5
C6
330
C3
100
AcDbEntity
  8
_U+30EC_U+30A4_U+30E4_U+30FC 1
 62
   179
420
  2234388
370
     9
  0
POLYLINE
  5
C7
330
41
100
AcDbEntity
  8
_U+30EC_U+30A4_U+30E4_U+30FC 1
 62
   179
420
  2234388
370
     9
100
AcDb2dPolyline
 66
     1
 10
0.0
 20
0.0
 30
0.0
  0
VERTEX
  5
C8
330
C7
100
AcDbEntity
  8
_U+30EC_U+30A4_U+30E4_U+30FC 1
 62
   179
420
  2234388
370
     9
100
AcDbVertex
100
AcDb2dVertex
 10
49.59438067918639
 20
-80.41248414656341
 30
0.0
  0
VERTEX
  5
C9
330
C7
100
AcDbEntity
  8
_U+30EC_U+30A4_U+30E4_U+30FC 1
 62
   179
420
  2234388
370
     9
100
AcDbVertex
100
AcDb2dVertex
 10
49.59438067918639
 20
-77.95270581384533
 30
0.0
  0
SEQEND
  5
CA
330
C7
100
AcDbEntity
  8
_U+30EC_U+30A4_U+30E4_U+30FC 1
 62
   179
420
  2234388
370
     9
  0
POLYLINE
  5
CB
330
41
100
AcDbEntity
  8
_U+30EC_U+30A4_U+30E4_U+30FC 1
 62
   179
420
  2234388
370
     9
100
AcDb2dPolyline
 66
     1
 10
0.0
 20
0.0
 30
0.0
  0
VERTEX
  5
CC
330
CB
100
AcDbEntity
  8
_U+30EC_U+30A4_U+30E4_U+30FC 1
 62
   179
420
  2234388
370
     9
100
AcDbVertex
100
AcDb2dVertex
 10
72.59436231463019
 20
-80.41248414656341
 30
0.0
  0
VERTEX
  5
CD
330
CB
100
AcDbEntity
  8
_U+30EC_U+30A4_U+30E4_U+30FC 1
 62
   179
420
  2234388
370
     9
100
AcDbVertex
100
AcDb2dVertex
 10
72.59436231463019
 20
-77.95270581384533
 30
0.0
  0
SEQEND
  5
CE
330
CB
100
AcDbEntity
  8
_U+30EC_U+30A4_U+30E4_U+30FC 1
 62
   179
420
  2234388
370
     9
  0
INSERT
  5
D0
330
41
100
AcDbEntity
  8
_U+30EC_U+30A4_U+30E4_U+30FC 1
100
AcDbBlockReference
  2
block 6
 10
0.0
 20
0.0
 30
0.0
  0
POLYLINE
  5
D7
330
41
100
AcDbEntity
  8
_U+30EC_U+30A4_U+30E4_U+30FC 1
 62
   179
420
  2234388
370
     9
100
AcDb2dPolyline
 66
     1
 10
0.0
 20
0.0
 30
0.0
  0
VERTEX
  5
D8
330
D7
100
AcDbEntity
  8
_U+30EC_U+30A4_U+30E4_U+30FC 1
 62
   179
420
  2234388
370
     9
100
AcDbVertex
100
AcDb2dVertex
 10
76.5941213792545
 20
-96.25252386482582
 30
0.0
  0
VERTEX
  5
D9
330
D7
100
AcDbEntity
  8
_U+30EC_U+30A4_U+30E4_U+30FC 1
 62
   179
420
  2234388
370
     9
100
AcDbVertex
100
AcDb2dVertex
 10
76.5941213792545
 20
-83.75286636795073
 30
0.0
  0
SEQEND
  5
DA
330
D7
100
AcDbEntity
  8
_U+30EC_U+30A4_U+30E4_U+30FC 1
 62
   179
420
  2234388
370
     9
  0
POLYLINE
  5
DB
330
41
100
AcDbEntity
  8
_U+30EC_U+30A4_U+30E4_U+30FC 1
 62
   179
420
  2234388
370
     9
100
AcDb2dPolyline
 66
     1
 10
0.0
 20
0.0
 30
0.0
  0
VERTEX
  5
DC
330
DB
100
AcDbEntity
  8
_U+30EC_U+30A4_U+30E4_U+30FC 1
 62
   179
420
  2234388
370
     9
100
AcDbVertex
100
AcDb2dVertex
 10
62.13418397038046
 20
-96.25252386482582
 30
0.0
  0
VERTEX
  5
DD
330
DB
100
AcDbEntity
  8
_U+30EC_U+30A4_U+30E4_U+30FC 1
 62
   179
420
  2234388
370
     9
100
AcDbVertex
100
AcDb2dVertex
 10
77.59456385373109
 20
-96.25252386482582
 30
0.0
  0
SEQEND
  5
DE
330
DB
100
AcDbEntity
  8
_U+30EC_U+30A4_U+30E4_U+30FC 1
 62
   179
420
  2234388
370
     9
  0
INSERT
  5
E0
330
41
100
AcDbEntity
  8
_U+30EC_U+30A4_U+30E4_U+30FC 1
100
AcDbBlockReference
  2
block 7
 10
0.0
 20
0.0
 30
0.0
  0
ENDBLK
  5
44
330
41
100
AcDbEntity
  8
0
100
AcDbBlockEnd
  0
BLOCK
  5
8F
330
8D
100
AcDbEntity
  8
0
100
AcDbBlockBegin
  2
block 3
 70
     0
 10
0.0
 20
0.0
 30
0.0
  3
block 3
  1

  0
SPLINE
  5
91
330
8D
100
AcDbEntity
  8
_U+30EC_U+30A4_U+30E4_U+30FC 1
370
     0
100
AcDbSpline
210
0.0
220
0.0
230
1.0
 70
    11
 71
     3
 72
    29
 73
    25
 74
     0
 42
0.0000000001
 43
0.0000000001
 12
1.0
 22
0.0
 32
0.0
 13
1.0
 23
0.0
 33
0.0
 40
0.0
 40
0.0
 40
0.0
 40
0.0
 40
1.0
 40
1.0
 40
1.0
 40
2.0
 40
2.0
 40
2.0
 40
3.0
 40
3.0
 40
3.0
 40
4.0
 40
4.0
 40
4.0
 40
5.0
 40
5.0
 40
5.0
 40
6.0
 40
6.0
 40
6.0
 40
7.0
 40
7.0
 40
7.0
 40
8.0
 40
8.0
 40
8.0
 40
8.0
 10
75.06415199946314
 20
-80.4498697715542
 30
0.0
 10
75.27361380496632
 20
-80.56528047031007
 30
0.0
 10
75.2925618301352
 20
-80.7506266074165
 30
0.0
 10
75.2925618301352
 20
-80.87499455443404
 30
0.0
 10
75.2925618301352
 20
-81.04656030959947
 30
0.0
 10
75.24605304108432
 20
-81.19814451095047
 30
0.0
 10
75.06415199946314
 20
-81.29977482776533
 30
0.0
 10
74.86950410454652
 20
-81.41070690239039
 30
0.0
 10
74.63248153516133
 20
-81.43103296575336
 30
0.0
 10
74.46987302825754
 20
-81.43103296575336
 30
0.0
 10
74.32586803697409
 20
-81.43103296575336
 30
0.0
 10
74.07403155700233
 20
-81.41311846923006
 30
0.0
 10
73.87524954750342
 20
-81.29977482776533
 30
0.0
 10
73.6723334234222
 20
-81.18470863855799
 30
0.0
 10
73.6489067741225
 20
-81.01279837384402
 30
0.0
 10
73.6489067741225
 20
-80.87499455443404
 30
0.0
 10
73.6489067741225
 20
-80.70515134701121
 30
0.0
 10
73.69334850588223
 20
-80.55150008836907
 30
0.0
 10
73.87524954750342
 20
-80.4498697715542
 30
0.0
 10
74.06783038512889
 20
-80.34341632105998
 30
0.0
 10
74.29624021580095
 20
-80.31861163356618
 30
0.0
 10
74.46987302825754
 20
-80.31861163356618
 30
0.0
 10
74.64109427387446
 20
-80.31861163356618
 30
0.0
 10
74.87157116183766
 20
-80.34134926376883
 30
0.0
 10
75.06415199946314
 20
-80.4498697715542
 30
0.0
  0
SPLINE
  5
92
330
8D
100
AcDbEntity
  8
_U+30EC_U+30A4_U+30E4_U+30FC 1
370
     0
100
AcDbSpline
210
0.0
220
0.0
230
1.0
 70
    11
 71
     3
 72
    17
 73
    13
 74
     0
 42
0.0000000001
 43
0.0000000001
 12
1.0
 22
0.0
 32
0.0
 13
1.0
 23
0.0
 33
0.0
 40
0.0
 40
0.0
 40
0.0
 40
0.0
 40
1.0
 40
1.0
 40
1.0
 40
2.0
 40
2.0
 40
2.0
 40
3.0
 40
3.0
 40
3.0
 40
4.0
 40
4.0
 40
4.0
 40
4.0
 10
73.84148761174797
 20
-80.87499455443404
 30
0.0
 10
73.84148761174797
 20
-81.14164494499236
 30
0.0
 10
74.12501897018403
 20
-81.19125431997996
 30
0.0
 10
74.46987302825754
 20
-81.19125431997996
 30
0.0
 10
74.7892333797402
 20
-81.19125431997996
 30
0.0
 10
75.09791393521859
 20
-81.1530137600937
 30
0.0
 10
75.09791393521859
 20
-80.87499455443404
 30
0.0
 10
75.09791393521859
 20
-80.61041122116684
 30
0.0
 10
74.81679414362219
 20
-80.55839027933958
 30
0.0
 10
74.46987302825754
 20
-80.55839027933958
 30
0.0
 10
74.15016816722635
 20
-80.55839027933958
 30
0.0
 10
73.84148761174797
 20
-80.59904240606552
 30
0.0
 10
73.84148761174797
 20
-80.87499455443404
 30
0.0
  0
HATCH
  5
93
330
8D
100
AcDbEntity
  8
_U+30EC_U+30A4_U+30E4_U+30FC 1
 62
   179
420
  2234388
100
AcDbHatch
 10
0.0
 20
0.0
 30
0.0
210
0.0
220
0.0
230
1.0
  2
SOLID
 70
     1
 71
     0
 91
        2
 92
        1
 93
        1
 72
     4
 94
        3
 73
     0
 74
     1
 95
       29
 96
       25
 40
0.0
 40
0.0
 40
0.0
 40
0.0
 40
1.0
 40
1.0
 40
1.0
 40
2.0
 40
2.0
 40
2.0
 40
3.0
 40
3.0
 40
3.0
 40
4.0
 40
4.0
 40
4.0
 40
5.0
 40
5.0
 40
5.0
 40
6.0
 40
6.0
 40
6.0
 40
7.0
 40
7.0
 40
7.0
 40
8.0
 40
8.0
 40
8.0
 40
8.0
 10
75.06415199946314
 20
-80.4498697715542
 10
75.27361380496632
 20
-80.56528047031007
 10
75.2925618301352
 20
-80.7506266074165
 10
75.2925618301352
 20
-80.87499455443404
 10
75.2925618301352
 20
-81.04656030959947
 10
75.24605304108432
 20
-81.19814451095047
 10
75.06415199946314
 20
-81.29977482776533
 10
74.86950410454652
 20
-81.41070690239039
 10
74.63248153516133
 20
-81.43103296575336
 10
74.46987302825754
 20
-81.43103296575336
 10
74.32586803697409
 20
-81.43103296575336
 10
74.07403155700233
 20
-81.41311846923006
 10
73.87524954750342
 20
-81.29977482776533
 10
73.6723334234222
 20
-81.18470863855799
 10
73.6489067741225
 20
-81.01279837384402
 10
73.6489067741225
 20
-80.87499455443404
 10
73.6489067741225
 20
-80.70515134701121
 10
73.69334850588223
 20
-80.55150008836907
 10
73.87524954750342
 20
-80.4498697715542
 10
74.06783038512889
 20
-80.34341632105998
 10
74.29624021580095
 20
-80.31861163356618
 10
74.46987302825754
 20
-80.31861163356618
 10
74.64109427387446
 20
-80.31861163356618
 10
74.87157116183766
 20
-80.34134926376883
 10
75.06415199946314
 20
-80.4498697715542
 97
        0
 97
        0
 92
        1
 93
        1
 72
     4
 94
        3
 73
     0
 74
     1
 95
       17
 96
       13
 40
0.0
 40
0.0
 40
0.0
 40
0.0
 40
1.0
 40
1.0
 40
1.0
 40
2.0
 40
2.0
 40
2.0
 40
3.0
 40
3.0
 40
3.0
 40
4.0
 40
4.0
 40
4.0
 40
4.0
 10
73.84148761174797
 20
-80.87499455443404
 10
73.84148761174797
 20
-81.14164494499236
 10
74.12501897018403
 20
-81.19125431997996
 10
74.46987302825754
 20
-81.19125431997996
 10
74.7892333797402
 20
-81.19125431997996
 10
75.09791393521859
 20
-81.1530137600937
 10
75.09791393521859
 20
-80.87499455443404
 10
75.09791393521859
 20
-80.61041122116684
 10
74.81679414362219
 20
-80.55839027933958
 10
74.46987302825754
 20
-80.55839027933958
 10
74.15016816722635
 20
-80.55839027933958
 10
73.84148761174797
 20
-80.59904240606552
 10
73.84148761174797
 20
-80.87499455443404
 97
        0
 97
        0
 75
     2
 76
     1
 98
        0
  0
POLYLINE
  5
94
330
8D
100
AcDbEntity
  8
_U+30EC_U+30A4_U+30E4_U+30FC 1
370
     0
100
AcDb2dPolyline
 66
     1
 10
0.0
 20
0.0
 30
0.0
  0
VERTEX
  5
95
330
94
100
AcDbEntity
  8
_U+30EC_U+30A4_U+30E4_U+30FC 1
370
     0
100
AcDbVertex
100
AcDb2dVertex
 10
75.24191892650202
 20
-80.08744572650592
 30
0.0
  0
VERTEX
  5
96
330
94
100
AcDbEntity
  8
_U+30EC_U+30A4_U+30E4_U+30FC 1
370
     0
100
AcDbVertex
100
AcDb2dVertex
 10
74.99008244653027
 20
-80.08744572650592
 30
0.0
  0
VERTEX
  5
97
330
94
100
AcDbEntity
  8
_U+30EC_U+30A4_U+30E4_U+30FC 1
370
     0
100
AcDbVertex
100
AcDb2dVertex
 10
74.99008244653027
 20
-79.81838376910791
 30
0.0
  0
VERTEX
  5
98
330
94
100
AcDbEntity
  8
_U+30EC_U+30A4_U+30E4_U+30FC 1
370
     0
100
AcDbVertex
100
AcDb2dVertex
 10
75.24191892650202
 20
-79.81838376910791
 30
0.0
  0
VERTEX
  5
99
330
94
100
AcDbEntity
  8
_U+30EC_U+30A4_U+30E4_U+30FC 1
370
     0
100
AcDbVertex
100
AcDb2dVertex
 10
75.24191892650202
 20
-80.08744572650592
 30
0.0
  0
SEQEND
  5
9A
330
94
100
AcDbEntity
  8
_U+30EC_U+30A4_U+30E4_U+30FC 1
370
     0
  0
HATCH
  5
9B
330
8D
100
AcDbEntity
  8
_U+30EC_U+30A4_U+30E4_U+30FC 1
 62
   179
420
  2234388
100
AcDbHatch
 10
0.0
 20
0.0
 30
0.0
210
0.0
220
0.0
230
1.0
  2
SOLID
 70
     1
 71
     0
 91
        1
 92
        1
 93
        4
 72
     1
 10
75.24191892650202
 20
-80.08744572650592
 11
74.99008244653027
 21
-80.08744572650592
 72
     1
 10
74.99008244653027
 20
-80.08744572650592
 11
74.99008244653027
 21
-79.81838376910791
 72
     1
 10
74.99008244653027
 20
-79.81838376910791
 11
75.24191892650202
 21
-79.81838376910791
 72
     1
 10
75.24191892650202
 20
-79.81838376910791
 11
75.24191892650202
 21
-80.08744572650592
 97
        0
 75
     2
 76
     1
 98
        0
  0
SPLINE
  5
9C
330
8D
100
AcDbEntity
  8
_U+30EC_U+30A4_U+30E4_U+30FC 1
370
     0
100
AcDbSpline
210
0.0
220
0.0
230
1.0
 70
    11
 71
     3
 72
    29
 73
    25
 74
     0
 42
0.0000000001
 43
0.0000000001
 12
1.0
 22
0.0
 32
0.0
 13
1.0
 23
0.0
 33
0.0
 40
0.0
 40
0.0
 40
0.0
 40
0.0
 40
1.0
 40
1.0
 40
1.0
 40
2.0
 40
2.0
 40
2.0
 40
3.0
 40
3.0
 40
3.0
 40
4.0
 40
4.0
 40
4.0
 40
5.0
 40
5.0
 40
5.0
 40
6.0
 40
6.0
 40
6.0
 40
7.0
 40
7.0
 40
7.0
 40
8.0
 40
8.0
 40
8.0
 40
8.0
 10
75.2925618301352
 20
-79.03117945072832
 30
0.0
 10
75.2925618301352
 20
-79.31574433780996
 30
0.0
 10
75.15510252027373
 20
-79.58721786204764
 30
0.0
 10
74.80611434761792
 20
-79.58721786204764
 30
0.0
 10
74.55014375306385
 20
-79.58721786204764
 30
0.0
 10
74.45505911767096
 20
-79.43563366069665
 30
0.0
 10
74.39373641803351
 20
-79.32263452878045
 30
0.0
 10
74.33448077568721
 20
-79.45595972405962
 30
0.0
 10
74.22010360557692
 20
-79.53760848706004
 30
0.0
 10
74.05921764641576
 20
-79.53760848706004
 30
0.0
 10
73.78429902669282
 20
-79.53760848706004
 30
0.0
 10
73.6489067741225
 20
-79.32504609562014
 30
0.0
 10
73.6489067741225
 20
-79.03117945072832
 30
0.0
 10
73.6489067741225
 20
-78.72801104802633
 30
0.0
 10
73.79291176540595
 20
-78.52475041439659
 30
0.0
 10
74.05921764641576
 20
-78.52475041439659
 30
0.0
 10
74.22010360557692
 20
-78.52475041439659
 30
0.0
 10
74.33448077568721
 20
-78.60812172513964
 30
0.0
 10
74.39373641803351
 20
-78.74179142996734
 30
0.0
 10
74.44437932166669
 20
-78.64670679457444
 30
0.0
 10
74.53946395705958
 20
-78.47720809670015
 30
0.0
 10
74.80198023303562
 20
-78.47720809670015
 30
0.0
 10
75.17646211228228
 20
-78.47720809670015
 30
0.0
 10
75.2925618301352
 20
-78.77555336572279
 30
0.0
 10
75.2925618301352
 20
-79.03117945072832
 30
0.0
  0
SPLINE
  5
9D
330
8D
100
AcDbEntity
  8
_U+30EC_U+30A4_U+30E4_U+30FC 1
370
     0
100
AcDbSpline
210
0.0
220
0.0
230
1.0
 70
    11
 71
     3
 72
    17
 73
    13
 74
     0
 42
0.0000000001
 43
0.0000000001
 12
1.0
 22
0.0
 32
0.0
 13
1.0
 23
0.0
 33
0.0
 40
0.0
 40
0.0
 40
0.0
 40
0.0
 40
1.0
 40
1.0
 40
1.0
 40
2.0
 40
2.0
 40
2.0
 40
3.0
 40
3.0
 40
3.0
 40
4.0
 40
4.0
 40
4.0
 40
4.0
 10
73.84148761174797
 20
-79.03117945072832
 30
0.0
 10
73.84148761174797
 20
-79.20756833957311
 30
0.0
 10
73.93657224714086
 20
-79.29782984128666
 30
0.0
 10
74.07196449971119
 20
-79.29782984128666
 30
0.0
 10
74.19460989898607
 20
-79.29782984128666
 30
0.0
 10
74.31312118367866
 20
-79.22100421196559
 30
0.0
 10
74.31312118367866
 20
-79.03117945072832
 30
0.0
 10
74.31312118367866
 20
-78.84101017994253
 30
0.0
 10
74.19460989898607
 20
-78.76418455062145
 30
0.0
 10
74.07196449971119
 20
-78.76418455062145
 30
0.0
 10
73.93657224714086
 20
-78.76418455062145
 30
0.0
 10
73.84148761174797
 20
-78.85685761917468
 30
0.0
 10
73.84148761174797
 20
-79.03117945072832
 30
0.0
  0
SPLINE
  5
9E
330
8D
100
AcDbEntity
  8
_U+30EC_U+30A4_U+30E4_U+30FC 1
370
     0
100
AcDbSpline
210
0.0
220
0.0
230
1.0
 70
    11
 71
     3
 72
    17
 73
    13
 74
     0
 42
0.0000000001
 43
0.0000000001
 12
1.0
 22
0.0
 32
0.0
 13
1.0
 23
0.0
 33
0.0
 40
0.0
 40
0.0
 40
0.0
 40
0.0
 40
1.0
 40
1.0
 40
1.0
 40
2.0
 40
2.0
 40
2.0
 40
3.0
 40
3.0
 40
3.0
 40
4.0
 40
4.0
 40
4.0
 40
4.0
 10
74.50156790672183
 20
-79.03117945072832
 30
0.0
 10
74.50156790672183
 20
-79.18483070937046
 30
0.0
 10
74.58838431295013
 20
-79.34743921627425
 30
0.0
 10
74.79130043703134
 20
-79.34743921627425
 30
0.0
 10
74.99662812795223
 20
-79.34743921627425
 30
0.0
 10
75.09791393521859
 20
-79.21204696370394
 30
0.0
 10
75.09791393521859
 20
-79.03117945072832
 30
0.0
 10
75.09791393521859
 20
-78.83205293168088
 30
0.0
 10
74.97526853594368
 20
-78.71457517563385
 30
0.0
 10
74.7975016089048
 20
-78.71457517563385
 30
0.0
 10
74.5756374596547
 20
-78.71457517563385
 30
0.0
 10
74.50156790672183
 20
-78.88855249763898
 30
0.0
 10
74.50156790672183
 20
-79.03117945072832
 30
0.0
  0
HATCH
  5
9F
330
8D
100
AcDbEntity
  8
_U+30EC_U+30A4_U+30E4_U+30FC 1
 62
   179
420
  2234388
100
AcDbHatch
 10
0.0
 20
0.0
 30
0.0
210
0.0
220
0.0
230
1.0
  2
SOLID
 70
     1
 71
     0
 91
        3
 92
        1
 93
        1
 72
     4
 94
        3
 73
     0
 74
     1
 95
       29
 96
       25
 40
0.0
 40
0.0
 40
0.0
 40
0.0
 40
1.0
 40
1.0
 40
1.0
 40
2.0
 40
2.0
 40
2.0
 40
3.0
 40
3.0
 40
3.0
 40
4.0
 40
4.0
 40
4.0
 40
5.0
 40
5.0
 40
5.0
 40
6.0
 40
6.0
 40
6.0
 40
7.0
 40
7.0
 40
7.0
 40
8.0
 40
8.0
 40
8.0
 40
8.0
 10
75.2925618301352
 20
-79.03117945072832
 10
75.2925618301352
 20
-79.31574433780996
 10
75.15510252027373
 20
-79.58721786204764
 10
74.80611434761792
 20
-79.58721786204764
 10
74.55014375306385
 20
-79.58721786204764
 10
74.45505911767096
 20
-79.43563366069665
 10
74.39373641803351
 20
-79.32263452878045
 10
74.33448077568721
 20
-79.45595972405962
 10
74.22010360557692
 20
-79.53760848706004
 10
74.05921764641576
 20
-79.53760848706004
 10
73.78429902669282
 20
-79.53760848706004
 10
73.6489067741225
 20
-79.32504609562014
 10
73.6489067741225
 20
-79.03117945072832
 10
73.6489067741225
 20
-78.72801104802633
 10
73.79291176540595
 20
-78.52475041439659
 10
74.05921764641576
 20
-78.52475041439659
 10
74.22010360557692
 20
-78.52475041439659
 10
74.33448077568721
 20
-78.60812172513964
 10
74.39373641803351
 20
-78.74179142996734
 10
74.44437932166669
 20
-78.64670679457444
 10
74.53946395705958
 20
-78.47720809670015
 10
74.80198023303562
 20
-78.47720809670015
 10
75.17646211228228
 20
-78.47720809670015
 10
75.2925618301352
 20
-78.77555336572279
 10
75.2925618301352
 20
-79.03117945072832
 97
        0
 97
        0
 92
        1
 93
        1
 72
     4
 94
        3
 73
     0
 74
     1
 95
       17
 96
       13
 40
0.0
 40
0.0
 40
0.0
 40
0.0
 40
1.0
 40
1.0
 40
1.0
 40
2.0
 40
2.0
 40
2.0
 40
3.0
 40
3.0
 40
3.0
 40
4.0
 40
4.0
 40
4.0
 40
4.0
 10
73.84148761174797
 20
-79.03117945072832
 10
73.84148761174797
 20
-79.20756833957311
 10
73.93657224714086
 20
-79.29782984128666
 10
74.07196449971119
 20
-79.29782984128666
 10
74.19460989898607
 20
-79.29782984128666
 10
74.31312118367866
 20
-79.22100421196559
 10
74.31312118367866
 20
-79.03117945072832
 10
74.31312118367866
 20
-78.84101017994253
 10
74.19460989898607
 20
-78.76418455062145
 10
74.07196449971119
 20
-78.76418455062145
 10
73.93657224714086
 20
-78.76418455062145
 10
73.84148761174797
 20
-78.85685761917468
 10
73.84148761174797
 20
-79.03117945072832
 97
        0
 97
        0
 92
        1
 93
        1
 72
     4
 94
        3
 73
     0
 74
     1
 95
       17
 96
       13
 40
0.0
 40
0.0
 40
0.0
 40
0.0
 40
1.0
 40
1.0
 40
1.0
 40
2.0
 40
2.0
 40
2.0
 40
3.0
 40
3.0
 40
3.0
 40
4.0
 40
4.0
 40
4.0
 40
4.0
 10
74.50156790672183
 20
-79.03117945072832
 10
74.50156790672183
 20
-79.18483070937046
 10
74.58838431295013
 20
-79.34743921627425
 10
74.79130043703134
 20
-79.34743921627425
 10
74.99662812795223
 20
-79.34743921627425
 10
75.09791393521859
 20
-79.21204696370394
 10
75.09791393521859
 20
-79.03117945072832
 10
75.09791393521859
 20
-78.83205293168088
 10
74.97526853594368
 20
-78.71457517563385
 10
74.7975016089048
 20
-78.71457517563385
 10
74.5756374596547
 20
-78.71457517563385
 10
74.50156790672183
 20
-78.88855249763898
 10
74.50156790672183
 20
-79.03117945072832
 97
        0
 97
        0
 75
     2
 76
     1
 98
        0
  0
ENDBLK
  5
90
330
8D
100
AcDbEntity
  8
0
100
AcDbBlockEnd
  0
BLOCK
  5
AA
330
A8
100
AcDbEntity
  8
0
100
AcDbBlockBegin
  2
block 4
 70
     0
 10
0.0
 20
0.0
 30
0.0
  3
block 4
  1

  0
SPLINE
  5
AC
330
A8
100
AcDbEntity
  8
_U+30EC_U+30A4_U+30E4_U+30FC 1
370
     0
100
AcDbSpline
210
0.0
220
0.0
230
1.0
 70
    11
 71
     3
 72
    62
 73
    58
 74
     0
 42
0.0000000001
 43
0.0000000001
 12
1.0
 22
0.0
 32
0.0
 13
1.0
 23
0.0
 33
0.0
 40
0.0
 40
0.0
 40
0.0
 40
0.0
 40
1.0
 40
1.0
 40
1.0
 40
2.0
 40
2.0
 40
2.0
 40
3.0
 40
3.0
 40
3.0
 40
4.0
 40
4.0
 40
4.0
 40
5.0
 40
5.0
 40
5.0
 40
6.0
 40
6.0
 40
6.0
 40
7.0
 40
7.0
 40
7.0
 40
8.0
 40
8.0
 40
8.0
 40
9.0
 40
9.0
 40
9.0
 40
10.0
 40
10.0
 40
10.0
 40
11.0
 40
11.0
 40
11.0
 40
12.0
 40
12.0
 40
12.0
 40
13.0
 40
13.0
 40
13.0
 40
14.0
 40
14.0
 40
14.0
 40
15.0
 40
15.0
 40
15.0
 40
16.0
 40
16.0
 40
16.0
 40
17.0
 40
17.0
 40
17.0
 40
18.0
 40
18.0
 40
18.0
 40
19.0
 40
19.0
 40
19.0
 40
19.0
 10
75.2925618301352
 20
-97.76216360403168
 30
0.0
 10
75.2925618301352
 20
-97.86379392084656
 30
0.0
 10
75.27154674767517
 20
-98.09668237564945
 30
0.0
 10
75.08551159147169
 20
-98.23000757092862
 30
0.0
 10
74.97320147865254
 20
-98.30924476708935
 30
0.0
 10
74.87398272867735
 20
-98.31372339122018
 30
0.0
 10
74.7892333797402
 20
-98.318202015351
 30
0.0
 10
74.7892333797402
 20
-98.318202015351
 30
0.0
 10
74.7892333797402
 20
-98.08324650325697
 30
0.0
 10
74.7892333797402
 20
-98.08324650325697
 30
0.0
 10
74.86330293267307
 20
-98.08083493641729
 30
0.0
 10
75.09791393521859
 20
-98.06946612131597
 30
0.0
 10
75.09791393521859
 20
-97.76664222816251
 30
0.0
 10
75.09791393521859
 20
-97.61953665094234
 30
0.0
 10
75.02832300641653
 20
-97.45692814403856
 30
0.0
 10
74.79991317574446
 20
-97.45692814403856
 30
0.0
 10
74.68346894834302
 20
-97.45692814403856
 30
0.0
 10
74.634893102001
 20
-97.4975802707645
 30
0.0
 10
74.60319822353671
 20
-97.53134220651995
 30
0.0
 10
74.52912867060384
 20
-97.6105794026807
 30
0.0
 10
74.51638181730841
 20
-97.73494734969822
 30
0.0
 10
74.51638181730841
 20
-97.79385848249598
 30
0.0
 10
74.51638181730841
 20
-97.81418454585896
 30
0.0
 10
74.51844887459956
 20
-97.85242510574523
 30
0.0
 10
74.52258298918186
 20
-97.88205292691838
 30
0.0
 10
74.52258298918186
 20
-97.88205292691838
 30
0.0
 10
74.32793509426524
 20
-97.88205292691838
 30
0.0
 10
74.32793509426524
 20
-97.88205292691838
 30
0.0
 10
74.33448077568721
 20
-97.84140080019243
 30
0.0
 10
74.33654783297837
 20
-97.79592553978713
 30
0.0
 10
74.33654783297837
 20
-97.78937985836517
 30
0.0
 10
74.33654783297837
 20
-97.71909991046606
 30
0.0
 10
74.31518824096982
 20
-97.50653751902615
 30
0.0
 10
74.07851018113315
 20
-97.50653751902615
 30
0.0
 10
73.90074325409427
 20
-97.50653751902615
 30
0.0
 10
73.84562172633026
 20
-97.64675290527582
 30
0.0
 10
73.84562172633026
 20
-97.76423066132284
 30
0.0
 10
73.84562172633026
 20
-98.04707300066185
 30
0.0
 10
74.07851018113315
 20
-98.05603024892349
 30
0.0
 10
74.15016816722635
 20
-98.06050887305432
 30
0.0
 10
74.15016816722635
 20
-98.06050887305432
 30
0.0
 10
74.15016816722635
 20
-98.27754988862506
 30
0.0
 10
74.15016816722635
 20
-98.27754988862506
 30
0.0
 10
74.02545571066031
 20
-98.26859264036341
 30
0.0
 10
73.6489067741225
 20
-98.23930932873878
 30
0.0
 10
73.6489067741225
 20
-97.75079478893036
 30
0.0
 10
73.6489067741225
 20
-97.51101614315698
 30
0.0
 10
73.77603079752822
 20
-97.25332300086029
 30
0.0
 10
74.07196449971119
 20
-97.25332300086029
 30
0.0
 10
74.2583441654632
 20
-97.25332300086029
 30
0.0
 10
74.34068194756067
 20
-97.35529782722368
 30
0.0
 10
74.40200464719811
 20
-97.46140676816937
 30
0.0
 10
74.4295654110801
 20
-97.39594995394962
 30
0.0
 10
74.50983613588643
 20
-97.20130205903301
 30
0.0
 10
74.78716632244904
 20
-97.20130205903301
 30
0.0
 10
75.12547469910058
 20
-97.20130205903301
 30
0.0
 10
75.2925618301352
 20
-97.4658853923002
 30
0.0
 10
75.2925618301352
 20
-97.76216360403168
 30
0.0
  0
HATCH
  5
AD
330
A8
100
AcDbEntity
  8
_U+30EC_U+30A4_U+30E4_U+30FC 1
 62
   179
420
  2234388
100
AcDbHatch
 10
0.0
 20
0.0
 30
0.0
210
0.0
220
0.0
230
1.0
  2
SOLID
 70
     1
 71
     0
 91
        1
 92
        1
 93
        1
 72
     4
 94
        3
 73
     0
 74
     1
 95
       62
 96
       58
 40
0.0
 40
0.0
 40
0.0
 40
0.0
 40
1.0
 40
1.0
 40
1.0
 40
2.0
 40
2.0
 40
2.0
 40
3.0
 40
3.0
 40
3.0
 40
4.0
 40
4.0
 40
4.0
 40
5.0
 40
5.0
 40
5.0
 40
6.0
 40
6.0
 40
6.0
 40
7.0
 40
7.0
 40
7.0
 40
8.0
 40
8.0
 40
8.0
 40
9.0
 40
9.0
 40
9.0
 40
10.0
 40
10.0
 40
10.0
 40
11.0
 40
11.0
 40
11.0
 40
12.0
 40
12.0
 40
12.0
 40
13.0
 40
13.0
 40
13.0
 40
14.0
 40
14.0
 40
14.0
 40
15.0
 40
15.0
 40
15.0
 40
16.0
 40
16.0
 40
16.0
 40
17.0
 40
17.0
 40
17.0
 40
18.0
 40
18.0
 40
18.0
 40
19.0
 40
19.0
 40
19.0
 40
19.0
 10
75.2925618301352
 20
-97.76216360403168
 10
75.2925618301352
 20
-97.86379392084656
 10
75.27154674767517
 20
-98.09668237564945
 10
75.08551159147169
 20
-98.23000757092862
 10
74.97320147865254
 20
-98.30924476708935
 10
74.87398272867735
 20
-98.31372339122018
 10
74.7892333797402
 20
-98.318202015351
 10
74.7892333797402
 20
-98.318202015351
 10
74.7892333797402
 20
-98.08324650325697
 10
74.7892333797402
 20
-98.08324650325697
 10
74.86330293267307
 20
-98.08083493641729
 10
75.09791393521859
 20
-98.06946612131597
 10
75.09791393521859
 20
-97.76664222816251
 10
75.09791393521859
 20
-97.61953665094234
 10
75.02832300641653
 20
-97.45692814403856
 10
74.79991317574446
 20
-97.45692814403856
 10
74.68346894834302
 20
-97.45692814403856
 10
74.634893102001
 20
-97.4975802707645
 10
74.60319822353671
 20
-97.53134220651995
 10
74.52912867060384
 20
-97.6105794026807
 10
74.51638181730841
 20
-97.73494734969822
 10
74.51638181730841
 20
-97.79385848249598
 10
74.51638181730841
 20
-97.81418454585896
 10
74.51844887459956
 20
-97.85242510574523
 10
74.52258298918186
 20
-97.88205292691838
 10
74.52258298918186
 20
-97.88205292691838
 10
74.32793509426524
 20
-97.88205292691838
 10
74.32793509426524
 20
-97.88205292691838
 10
74.33448077568721
 20
-97.84140080019243
 10
74.33654783297837
 20
-97.79592553978713
 10
74.33654783297837
 20
-97.78937985836517
 10
74.33654783297837
 20
-97.71909991046606
 10
74.31518824096982
 20
-97.50653751902615
 10
74.07851018113315
 20
-97.50653751902615
 10
73.90074325409427
 20
-97.50653751902615
 10
73.84562172633026
 20
-97.64675290527582
 10
73.84562172633026
 20
-97.76423066132284
 10
73.84562172633026
 20
-98.04707300066185
 10
74.07851018113315
 20
-98.05603024892349
 10
74.15016816722635
 20
-98.06050887305432
 10
74.15016816722635
 20
-98.06050887305432
 10
74.15016816722635
 20
-98.27754988862506
 10
74.15016816722635
 20
-98.27754988862506
 10
74.02545571066031
 20
-98.26859264036341
 10
73.6489067741225
 20
-98.23930932873878
 10
73.6489067741225
 20
-97.75079478893036
 10
73.6489067741225
 20
-97.51101614315698
 10
73.77603079752822
 20
-97.25332300086029
 10
74.07196449971119
 20
-97.25332300086029
 10
74.2583441654632
 20
-97.25332300086029
 10
74.34068194756067
 20
-97.35529782722368
 10
74.40200464719811
 20
-97.46140676816937
 10
74.4295654110801
 20
-97.39594995394962
 10
74.50983613588643
 20
-97.20130205903301
 10
74.78716632244904
 20
-97.20130205903301
 10
75.12547469910058
 20
-97.20130205903301
 10
75.2925618301352
 20
-97.4658853923002
 10
75.2925618301352
 20
-97.76216360403168
 97
        0
 97
        0
 75
     2
 76
     1
 98
        0
  0
ENDBLK
  5
AB
330
A8
100
AcDbEntity
  8
0
100
AcDbBlockEnd
  0
BLOCK
  5
BC
330
BA
100
AcDbEntity
  8
0
100
AcDbBlockBegin
  2
block 5
 70
     0
 10
0.0
 20
0.0
 30
0.0
  3
block 5
  1

  0
SPLINE
  5
BE
330
BA
100
AcDbEntity
  8
_U+30EC_U+30A4_U+30E4_U+30FC 1
370
     0
100
AcDbSpline
210
0.0
220
0.0
230
1.0
 70
    11
 71
     3
 72
    26
 73
    22
 74
     0
 42
0.0000000001
 43
0.0000000001
 12
1.0
 22
0.0
 32
0.0
 13
1.0
 23
0.0
 33
0.0
 40
0.0
 40
0.0
 40
0.0
 40
0.0
 40
1.0
 40
1.0
 40
1.0
 40
2.0
 40
2.0
 40
2.0
 40
3.0
 40
3.0
 40
3.0
 40
4.0
 40
4.0
 40
4.0
 40
5.0
 40
5.0
 40
5.0
 40
6.0
 40
6.0
 40
6.0
 40
7.0
 40
7.0
 40
7.0
 40
7.0
 10
53.91298826777176
 20
-101.9011013200108
 30
0.0
 10
53.91298826777176
 20
-101.9011013200108
 30
0.0
 10
53.91298826777176
 20
-100.7969482169883
 30
0.0
 10
53.91298826777176
 20
-100.7969482169883
 30
0.0
 10
53.91298826777176
 20
-100.7969482169883
 30
0.0
 10
53.56021049008217
 20
-100.7969482169883
 30
0.0
 10
53.56021049008217
 20
-100.7969482169883
 30
0.0
 10
53.56021049008217
 20
-100.7969482169883
 30
0.0
 10
53.56021049008217
 20
-100.6488091111225
 30
0.0
 10
53.56021049008217
 20
-100.6488091111225
 30
0.0
 10
53.91522757983716
 20
-100.6339952005359
 30
0.0
 10
53.96500920959902
 20
-100.4710421840836
 30
0.0
 10
53.99670408806332
 20
-100.3566650139733
 30
0.0
 10
53.99670408806332
 20
-100.3566650139733
 30
0.0
 10
54.15259465877088
 20
-100.3566650139733
 30
0.0
 10
54.15259465877088
 20
-100.3566650139733
 30
0.0
 10
54.15259465877088
 20
-100.3566650139733
 30
0.0
 10
54.15259465877088
 20
-101.9011013200108
 30
0.0
 10
54.15259465877088
 20
-101.9011013200108
 30
0.0
 10
54.15259465877088
 20
-101.9011013200108
 30
0.0
 10
53.91298826777176
 20
-101.9011013200108
 30
0.0
 10
53.91298826777176
 20
-101.9011013200108
 30
0.0
  0
HATCH
  5
BF
330
BA
100
AcDbEntity
  8
_U+30EC_U+30A4_U+30E4_U+30FC 1
 62
   179
420
  2234388
100
AcDbHatch
 10
0.0
 20
0.0
 30
0.0
210
0.0
220
0.0
230
1.0
  2
SOLID
 70
     1
 71
     0
 91
        1
 92
        1
 93
        1
 72
     4
 94
        3
 73
     0
 74
     1
 95
       26
 96
       22
 40
0.0
 40
0.0
 40
0.0
 40
0.0
 40
1.0
 40
1.0
 40
1.0
 40
2.0
 40
2.0
 40
2.0
 40
3.0
 40
3.0
 40
3.0
 40
4.0
 40
4.0
 40
4.0
 40
5.0
 40
5.0
 40
5.0
 40
6.0
 40
6.0
 40
6.0
 40
7.0
 40
7.0
 40
7.0
 40
7.0
 10
53.91298826777176
 20
-101.9011013200108
 10
53.91298826777176
 20
-101.9011013200108
 10
53.91298826777176
 20
-100.7969482169883
 10
53.91298826777176
 20
-100.7969482169883
 10
53.91298826777176
 20
-100.7969482169883
 10
53.56021049008217
 20
-100.7969482169883
 10
53.56021049008217
 20
-100.7969482169883
 10
53.56021049008217
 20
-100.7969482169883
 10
53.56021049008217
 20
-100.6488091111225
 10
53.56021049008217
 20
-100.6488091111225
 10
53.91522757983716
 20
-100.6339952005359
 10
53.96500920959902
 20
-100.4710421840836
 10
53.99670408806332
 20
-100.3566650139733
 10
53.99670408806332
 20
-100.3566650139733
 10
54.15259465877088
 20
-100.3566650139733
 10
54.15259465877088
 20
-100.3566650139733
 10
54.15259465877088
 20
-100.3566650139733
 10
54.15259465877088
 20
-101.9011013200108
 10
54.15259465877088
 20
-101.9011013200108
 10
54.15259465877088
 20
-101.9011013200108
 10
53.91298826777176
 20
-101.9011013200108
 10
53.91298826777176
 20
-101.9011013200108
 97
        0
 97
        0
 75
     2
 76
     1
 98
        0
  0
SPLINE
  5
C0
330
BA
100
AcDbEntity
  8
_U+30EC_U+30A4_U+30E4_U+30FC 1
370
     0
100
AcDbSpline
210
0.0
220
0.0
230
1.0
 70
    11
 71
     3
 72
    29
 73
    25
 74
     0
 42
0.0000000001
 43
0.0000000001
 12
1.0
 22
0.0
 32
0.0
 13
1.0
 23
0.0
 33
0.0
 40
0.0
 40
0.0
 40
0.0
 40
0.0
 40
1.0
 40
1.0
 40
1.0
 40
2.0
 40
2.0
 40
2.0
 40
3.0
 40
3.0
 40
3.0
 40
4.0
 40
4.0
 40
4.0
 40
5.0
 40
5.0
 40
5.0
 40
6.0
 40
6.0
 40
6.0
 40
7.0
 40
7.0
 40
7.0
 40
8.0
 40
8.0
 40
8.0
 40
8.0
 10
55.64776609936931
 20
-101.7233343929719
 30
0.0
 10
55.5325276553877
 20
-101.9327961984751
 30
0.0
 10
55.34718151828126
 20
-101.951744223644
 30
0.0
 10
55.22281357126374
 20
-101.951744223644
 30
0.0
 10
55.05090330654978
 20
-101.951744223644
 30
0.0
 10
54.89949135997305
 20
-101.9052354345931
 30
0.0
 10
54.79768878838392
 20
-101.7233343929719
 30
0.0
 10
54.68692896853313
 20
-101.5286864980553
 30
0.0
 10
54.66660290517016
 20
-101.2920084382187
 30
0.0
 10
54.66660290517016
 20
-101.1290554217664
 30
0.0
 10
54.66660290517016
 20
-100.9850504304829
 30
0.0
 10
54.68468965646772
 20
-100.7332139505111
 30
0.0
 10
54.79768878838392
 20
-100.5344319410122
 30
0.0
 10
54.91309948713978
 20
-100.331515816931
 30
0.0
 10
55.08483749707949
 20
-100.3080891676313
 30
0.0
 10
55.22281357126374
 20
-100.3080891676313
 30
0.0
 10
55.39231226913804
 20
-100.3080891676313
 30
0.0
 10
55.54613578255444
 20
-100.352530899391
 30
0.0
 10
55.64776609936931
 20
-100.5344319410122
 30
0.0
 10
55.75404729508927
 20
-100.7270127786377
 30
0.0
 10
55.77885198258307
 20
-100.9554226093098
 30
0.0
 10
55.77885198258307
 20
-101.1290554217664
 30
0.0
 10
55.77885198258307
 20
-101.3002766673833
 30
0.0
 10
55.75628660715468
 20
-101.5307535553465
 30
0.0
 10
55.64776609936931
 20
-101.7233343929719
 30
0.0
  0
SPLINE
  5
C1
330
BA
100
AcDbEntity
  8
_U+30EC_U+30A4_U+30E4_U+30FC 1
370
     0
100
AcDbSpline
210
0.0
220
0.0
230
1.0
 70
    11
 71
     3
 72
    17
 73
    13
 74
     0
 42
0.0000000001
 43
0.0000000001
 12
1.0
 22
0.0
 32
0.0
 13
1.0
 23
0.0
 33
0.0
 40
0.0
 40
0.0
 40
0.0
 40
0.0
 40
1.0
 40
1.0
 40
1.0
 40
2.0
 40
2.0
 40
2.0
 40
3.0
 40
3.0
 40
3.0
 40
4.0
 40
4.0
 40
4.0
 40
4.0
 10
55.22281357126374
 20
-100.5006700052568
 30
0.0
 10
54.95599092593115
 20
-100.5006700052568
 30
0.0
 10
54.90620929616929
 20
-100.7842013636928
 30
0.0
 10
54.90620929616929
 20
-101.1290554217664
 30
0.0
 10
54.90620929616929
 20
-101.448415773249
 30
0.0
 10
54.94462211082982
 20
-101.7570963287274
 30
0.0
 10
55.22281357126374
 20
-101.7570963287274
 30
0.0
 10
55.48722464975667
 20
-101.7570963287274
 30
0.0
 10
55.53924559158394
 20
-101.475976537131
 30
0.0
 10
55.53924559158394
 20
-101.1290554217664
 30
0.0
 10
55.53924559158394
 20
-100.8093505607352
 30
0.0
 10
55.49859346485799
 20
-100.5006700052568
 30
0.0
 10
55.22281357126374
 20
-100.5006700052568
 30
0.0
  0
HATCH
  5
C2
330
BA
100
AcDbEntity
  8
_U+30EC_U+30A4_U+30E4_U+30FC 1
 62
   179
420
  2234388
100
AcDbHatch
 10
0.0
 20
0.0
 30
0.0
210
0.0
220
0.0
230
1.0
  2
SOLID
 70
     1
 71
     0
 91
        2
 92
        1
 93
        1
 72
     4
 94
        3
 73
     0
 74
     1
 95
       29
 96
       25
 40
0.0
 40
0.0
 40
0.0
 40
0.0
 40
1.0
 40
1.0
 40
1.0
 40
2.0
 40
2.0
 40
2.0
 40
3.0
 40
3.0
 40
3.0
 40
4.0
 40
4.0
 40
4.0
 40
5.0
 40
5.0
 40
5.0
 40
6.0
 40
6.0
 40
6.0
 40
7.0
 40
7.0
 40
7.0
 40
8.0
 40
8.0
 40
8.0
 40
8.0
 10
55.64776609936931
 20
-101.7233343929719
 10
55.5325276553877
 20
-101.9327961984751
 10
55.34718151828126
 20
-101.951744223644
 10
55.22281357126374
 20
-101.951744223644
 10
55.05090330654978
 20
-101.951744223644
 10
54.89949135997305
 20
-101.9052354345931
 10
54.79768878838392
 20
-101.7233343929719
 10
54.68692896853313
 20
-101.5286864980553
 10
54.66660290517016
 20
-101.2920084382187
 10
54.66660290517016
 20
-101.1290554217664
 10
54.66660290517016
 20
-100.9850504304829
 10
54.68468965646772
 20
-100.7332139505111
 10
54.79768878838392
 20
-100.5344319410122
 10
54.91309948713978
 20
-100.331515816931
 10
55.08483749707949
 20
-100.3080891676313
 10
55.22281357126374
 20
-100.3080891676313
 10
55.39231226913804
 20
-100.3080891676313
 10
55.54613578255444
 20
-100.352530899391
 10
55.64776609936931
 20
-100.5344319410122
 10
55.75404729508927
 20
-100.7270127786377
 10
55.77885198258307
 20
-100.9554226093098
 10
55.77885198258307
 20
-101.1290554217664
 10
55.77885198258307
 20
-101.3002766673833
 10
55.75628660715468
 20
-101.5307535553465
 10
55.64776609936931
 20
-101.7233343929719
 97
        0
 97
        0
 92
        1
 93
        1
 72
     4
 94
        3
 73
     0
 74
     1
 95
       17
 96
       13
 40
0.0
 40
0.0
 40
0.0
 40
0.0
 40
1.0
 40
1.0
 40
1.0
 40
2.0
 40
2.0
 40
2.0
 40
3.0
 40
3.0
 40
3.0
 40
4.0
 40
4.0
 40
4.0
 40
4.0
 10
55.22281357126374
 20
-100.5006700052568
 10
54.95599092593115
 20
-100.5006700052568
 10
54.90620929616929
 20
-100.7842013636928
 10
54.90620929616929
 20
-101.1290554217664
 10
54.90620929616929
 20
-101.448415773249
 10
54.94462211082982
 20
-101.7570963287274
 10
55.22281357126374
 20
-101.7570963287274
 10
55.48722464975667
 20
-101.7570963287274
 10
55.53924559158394
 20
-101.475976537131
 10
55.53924559158394
 20
-101.1290554217664
 10
55.53924559158394
 20
-100.8093505607352
 10
55.49859346485799
 20
-100.5006700052568
 10
55.22281357126374
 20
-100.5006700052568
 97
        0
 97
        0
 75
     2
 76
     1
 98
        0
  0
ENDBLK
  5
BD
330
BA
100
AcDbEntity
  8
0
100
AcDbBlockEnd
  0
BLOCK
  5
D1
330
CF
100
AcDbEntity
  8
0
100
AcDbBlockBegin
  2
block 6
 70
     0
 10
0.0
 20
0.0
 30
0.0
  3
block 6
  1

  0
SPLINE
  5
D3
330
CF
100
AcDbEntity
  8
_U+30EC_U+30A4_U+30E4_U+30FC 1
370
     0
100
AcDbSpline
210
0.0
220
0.0
230
1.0
 70
    11
 71
     3
 72
    44
 73
    40
 74
     0
 42
0.0000000001
 43
0.0000000001
 12
1.0
 22
0.0
 32
0.0
 13
1.0
 23
0.0
 33
0.0
 40
0.0
 40
0.0
 40
0.0
 40
0.0
 40
1.0
 40
1.0
 40
1.0
 40
2.0
 40
2.0
 40
2.0
 40
3.0
 40
3.0
 40
3.0
 40
4.0
 40
4.0
 40
4.0
 40
5.0
 40
5.0
 40
5.0
 40
6.0
 40
6.0
 40
6.0
 40
7.0
 40
7.0
 40
7.0
 40
8.0
 40
8.0
 40
8.0
 40
9.0
 40
9.0
 40
9.0
 40
10.0
 40
10.0
 40
10.0
 40
11.0
 40
11.0
 40
11.0
 40
12.0
 40
12.0
 40
12.0
 40
13.0
 40
13.0
 40
13.0
 40
13.0
 10
60.56443412114362
 20
-77.01907143256815
 30
0.0
 10
60.33154566634073
 20
-77.1777180796639
 30
0.0
 10
60.23198240681701
 20
-77.25178763259677
 30
0.0
 10
60.17996146498974
 20
-77.39562036910596
 30
0.0
 10
60.17996146498974
 20
-77.39562036910596
 30
0.0
 10
61.0122965342261
 20
-77.39562036910596
 30
0.0
 10
61.0122965342261
 20
-77.39562036910596
 30
0.0
 10
61.0122965342261
 20
-77.39562036910596
 30
0.0
 10
61.0122965342261
 20
-77.60077580525258
 30
0.0
 10
61.0122965342261
 20
-77.60077580525258
 30
0.0
 10
61.0122965342261
 20
-77.60077580525258
 30
0.0
 10
59.9133110744314
 20
-77.60077580525258
 30
0.0
 10
59.9133110744314
 20
-77.60077580525258
 30
0.0
 10
59.94741751973537
 20
-77.24317489388365
 30
0.0
 10
60.01735295808594
 20
-77.16497122636848
 30
0.0
 10
60.42869735902477
 20
-76.86662595734585
 30
0.0
 10
60.70223794055361
 20
-76.66784394784693
 30
0.0
 10
60.7725178884527
 20
-76.60014782156178
 30
0.0
 10
60.7725178884527
 20
-76.4626885117003
 30
0.0
 10
60.7725178884527
 20
-76.3441772270077
 30
0.0
 10
60.69569225913163
 20
-76.21309134379395
 30
0.0
 10
60.48519692498287
 20
-76.21309134379395
 30
0.0
 10
60.20717771932321
 20
-76.21309134379395
 30
0.0
 10
60.19822047106156
 20
-76.44356823175717
 30
0.0
 10
60.19374184693073
 20
-76.56001245915861
 30
0.0
 10
60.19374184693073
 20
-76.56001245915861
 30
0.0
 10
59.95396320115734
 20
-76.56001245915861
 30
0.0
 10
59.95396320115734
 20
-76.56001245915861
 30
0.0
 10
59.96292044941899
 20
-76.43306069052716
 30
0.0
 10
59.97428926452032
 20
-76.32092283248227
 30
0.0
 10
60.06041665165156
 20
-76.20241154778968
 30
0.0
 10
60.17789440769859
 20
-76.04169784340277
 30
0.0
 10
60.3766764171975
 20
-76.00776365287307
 30
0.0
 10
60.50104436421502
 20
-76.00776365287307
 30
0.0
 10
60.7973225759465
 20
-76.00776365287307
 30
0.0
 10
61.01884221564807
 20
-76.19190400655967
 30
0.0
 10
61.01884221564807
 20
-76.46475556899145
 30
0.0
 10
61.01884221564807
 20
-76.69316539966351
 30
0.0
 10
60.89447426863055
 20
-76.79272865918723
 30
0.0
 10
60.56443412114362
 20
-77.01907143256815
 30
0.0
  0
HATCH
  5
D4
330
CF
100
AcDbEntity
  8
_U+30EC_U+30A4_U+30E4_U+30FC 1
 62
   179
420
  2234388
100
AcDbHatch
 10
0.0
 20
0.0
 30
0.0
210
0.0
220
0.0
230
1.0
  2
SOLID
 70
     1
 71
     0
 91
        1
 92
        1
 93
        1
 72
     4
 94
        3
 73
     0
 74
     1
 95
       44
 96
       40
 40
0.0
 40
0.0
 40
0.0
 40
0.0
 40
1.0
 40
1.0
 40
1.0
 40
2.0
 40
2.0
 40
2.0
 40
3.0
 40
3.0
 40
3.0
 40
4.0
 40
4.0
 40
4.0
 40
5.0
 40
5.0
 40
5.0
 40
6.0
 40
6.0
 40
6.0
 40
7.0
 40
7.0
 40
7.0
 40
8.0
 40
8.0
 40
8.0
 40
9.0
 40
9.0
 40
9.0
 40
10.0
 40
10.0
 40
10.0
 40
11.0
 40
11.0
 40
11.0
 40
12.0
 40
12.0
 40
12.0
 40
13.0
 40
13.0
 40
13.0
 40
13.0
 10
60.56443412114362
 20
-77.01907143256815
 10
60.33154566634073
 20
-77.1777180796639
 10
60.23198240681701
 20
-77.25178763259677
 10
60.17996146498974
 20
-77.39562036910596
 10
60.17996146498974
 20
-77.39562036910596
 10
61.0122965342261
 20
-77.39562036910596
 10
61.0122965342261
 20
-77.39562036910596
 10
61.0122965342261
 20
-77.39562036910596
 10
61.0122965342261
 20
-77.60077580525258
 10
61.0122965342261
 20
-77.60077580525258
 10
61.0122965342261
 20
-77.60077580525258
 10
59.9133110744314
 20
-77.60077580525258
 10
59.9133110744314
 20
-77.60077580525258
 10
59.94741751973537
 20
-77.24317489388365
 10
60.01735295808594
 20
-77.16497122636848
 10
60.42869735902477
 20
-76.86662595734585
 10
60.70223794055361
 20
-76.66784394784693
 10
60.7725178884527
 20
-76.60014782156178
 10
60.7725178884527
 20
-76.4626885117003
 10
60.7725178884527
 20
-76.3441772270077
 10
60.69569225913163
 20
-76.21309134379395
 10
60.48519692498287
 20
-76.21309134379395
 10
60.20717771932321
 20
-76.21309134379395
 10
60.19822047106156
 20
-76.44356823175717
 10
60.19374184693073
 20
-76.56001245915861
 10
60.19374184693073
 20
-76.56001245915861
 10
59.95396320115734
 20
-76.56001245915861
 10
59.95396320115734
 20
-76.56001245915861
 10
59.96292044941899
 20
-76.43306069052716
 10
59.97428926452032
 20
-76.32092283248227
 10
60.06041665165156
 20
-76.20241154778968
 10
60.17789440769859
 20
-76.04169784340277
 10
60.3766764171975
 20
-76.00776365287307
 10
60.50104436421502
 20
-76.00776365287307
 10
60.7973225759465
 20
-76.00776365287307
 10
61.01884221564807
 20
-76.19190400655967
 10
61.01884221564807
 20
-76.46475556899145
 10
61.01884221564807
 20
-76.69316539966351
 10
60.89447426863055
 20
-76.79272865918723
 10
60.56443412114362
 20
-77.01907143256815
 97
        0
 97
        0
 75
     2
 76
     1
 98
        0
  0
SPLINE
  5
D5
330
CF
100
AcDbEntity
  8
_U+30EC_U+30A4_U+30E4_U+30FC 1
370
     0
100
AcDbSpline
210
0.0
220
0.0
230
1.0
 70
    11
 71
     3
 72
    62
 73
    58
 74
     0
 42
0.0000000001
 43
0.0000000001
 12
1.0
 22
0.0
 32
0.0
 13
1.0
 23
0.0
 33
0.0
 40
0.0
 40
0.0
 40
0.0
 40
0.0
 40
1.0
 40
1.0
 40
1.0
 40
2.0
 40
2.0
 40
2.0
 40
3.0
 40
3.0
 40
3.0
 40
4.0
 40
4.0
 40
4.0
 40
5.0
 40
5.0
 40
5.0
 40
6.0
 40
6.0
 40
6.0
 40
7.0
 40
7.0
 40
7.0
 40
8.0
 40
8.0
 40
8.0
 40
9.0
 40
9.0
 40
9.0
 40
10.0
 40
10.0
 40
10.0
 40
11.0
 40
11.0
 40
11.0
 40
12.0
 40
12.0
 40
12.0
 40
13.0
 40
13.0
 40
13.0
 40
14.0
 40
14.0
 40
14.0
 40
15.0
 40
15.0
 40
15.0
 40
16.0
 40
16.0
 40
16.0
 40
17.0
 40
17.0
 40
17.0
 40
18.0
 40
18.0
 40
18.0
 40
19.0
 40
19.0
 40
19.0
 40
19.0
 10
61.71371797502296
 20
-77.65159096366003
 30
0.0
 10
61.61208765820809
 20
-77.65159096366003
 30
0.0
 10
61.3791992034052
 20
-77.63040362642573
 30
0.0
 10
61.24587400812604
 20
-77.44419621544799
 30
0.0
 10
61.16663681196529
 20
-77.3320583574031
 30
0.0
 10
61.16215818783446
 20
-77.23266735265364
 30
0.0
 10
61.15767956370364
 20
-77.14809025849075
 30
0.0
 10
61.15767956370364
 20
-77.14809025849075
 30
0.0
 10
61.39263507579768
 20
-77.14809025849075
 30
0.0
 10
61.39263507579768
 20
-77.14809025849075
 30
0.0
 10
61.39504664263735
 20
-77.22215981142364
 30
0.0
 10
61.40641545773867
 20
-77.45694306874341
 30
0.0
 10
61.70923935089214
 20
-77.45694306874341
 30
0.0
 10
61.85634492811231
 20
-77.45694306874341
 30
0.0
 10
62.0189534350161
 20
-77.3871798851671
 30
0.0
 10
62.0189534350161
 20
-77.15859779972077
 30
0.0
 10
62.0189534350161
 20
-77.04232582709359
 30
0.0
 10
61.97830130829015
 20
-76.9935777259773
 30
0.0
 10
61.9445393725347
 20
-76.96188284751301
 30
0.0
 10
61.86530217637395
 20
-76.88781329458013
 30
0.0
 10
61.74093422935643
 20
-76.87523869605897
 30
0.0
 10
61.68202309655867
 20
-76.87523869605897
 30
0.0
 10
61.66169703319569
 20
-76.87523869605897
 30
0.0
 10
61.62345647330942
 20
-76.87730575335011
 30
0.0
 10
61.59382865213627
 20
-76.88143986793241
 30
0.0
 10
61.59382865213627
 20
-76.88143986793241
 30
0.0
 10
61.59382865213627
 20
-76.6867919730158
 30
0.0
 10
61.59382865213627
 20
-76.6867919730158
 30
0.0
 10
61.63448077886222
 20
-76.69316539966351
 30
0.0
 10
61.67995603926752
 20
-76.69540471172893
 30
0.0
 10
61.68650172068949
 20
-76.69540471172893
 30
0.0
 10
61.75678166858859
 20
-76.69540471172893
 30
0.0
 10
61.9693440600285
 20
-76.67421737449465
 30
0.0
 10
61.9693440600285
 20
-76.43719480510946
 30
0.0
 10
61.9693440600285
 20
-76.25960013284482
 30
0.0
 10
61.82912867377883
 20
-76.20447860508082
 30
0.0
 10
61.71165091773181
 20
-76.20447860508082
 30
0.0
 10
61.4288085783928
 20
-76.20447860508082
 30
0.0
 10
61.41985133013115
 20
-76.43719480510946
 30
0.0
 10
61.41537270600033
 20
-76.50919730075118
 30
0.0
 10
61.41537270600033
 20
-76.50919730075118
 30
0.0
 10
61.19833169042958
 20
-76.50919730075118
 30
0.0
 10
61.19833169042958
 20
-76.50919730075118
 30
0.0
 10
61.20728893869124
 20
-76.38431258941087
 30
0.0
 10
61.23657225031586
 20
-76.00776365287307
 30
0.0
 10
61.72508679012429
 20
-76.00776365287307
 30
0.0
 10
61.96486543589768
 20
-76.00776365287307
 30
0.0
 10
62.22255857819437
 20
-76.13471542150452
 30
0.0
 10
62.22255857819437
 20
-76.43082137846174
 30
0.0
 10
62.22255857819437
 20
-76.6170287894395
 30
0.0
 10
62.12058375183097
 20
-76.69953882631123
 30
0.0
 10
62.01447481088528
 20
-76.76086152594868
 30
0.0
 10
62.07993162510502
 20
-76.78842228983068
 30
0.0
 10
62.27457952002164
 20
-76.86886526941126
 30
0.0
 10
62.27457952002164
 20
-77.14602320119961
 30
0.0
 10
62.27457952002164
 20
-77.4845038326254
 30
0.0
 10
62.00999618675445
 20
-77.65159096366003
 30
0.0
 10
61.71371797502296
 20
-77.65159096366003
 30
0.0
  0
HATCH
  5
D6
330
CF
100
AcDbEntity
  8
_U+30EC_U+30A4_U+30E4_U+30FC 1
 62
   179
420
  2234388
100
AcDbHatch
 10
0.0
 20
0.0
 30
0.0
210
0.0
220
0.0
230
1.0
  2
SOLID
 70
     1
 71
     0
 91
        1
 92
        1
 93
        1
 72
     4
 94
        3
 73
     0
 74
     1
 95
       62
 96
       58
 40
0.0
 40
0.0
 40
0.0
 40
0.0
 40
1.0
 40
1.0
 40
1.0
 40
2.0
 40
2.0
 40
2.0
 40
3.0
 40
3.0
 40
3.0
 40
4.0
 40
4.0
 40
4.0
 40
5.0
 40
5.0
 40
5.0
 40
6.0
 40
6.0
 40
6.0
 40
7.0
 40
7.0
 40
7.0
 40
8.0
 40
8.0
 40
8.0
 40
9.0
 40
9.0
 40
9.0
 40
10.0
 40
10.0
 40
10.0
 40
11.0
 40
11.0
 40
11.0
 40
12.0
 40
12.0
 40
12.0
 40
13.0
 40
13.0
 40
13.0
 40
14.0
 40
14.0
 40
14.0
 40
15.0
 40
15.0
 40
15.0
 40
16.0
 40
16.0
 40
16.0
 40
17.0
 40
17.0
 40
17.0
 40
18.0
 40
18.0
 40
18.0
 40
19.0
 40
19.0
 40
19.0
 40
19.0
 10
61.71371797502296
 20
-77.65159096366003
 10
61.61208765820809
 20
-77.65159096366003
 10
61.3791992034052
 20
-77.63040362642573
 10
61.24587400812604
 20
-77.44419621544799
 10
61.16663681196529
 20
-77.3320583574031
 10
61.16215818783446
 20
-77.23266735265364
 10
61.15767956370364
 20
-77.14809025849075
 10
61.15767956370364
 20
-77.14809025849075
 10
61.39263507579768
 20
-77.14809025849075
 10
61.39263507579768
 20
-77.14809025849075
 10
61.39504664263735
 20
-77.22215981142364
 10
61.40641545773867
 20
-77.45694306874341
 10
61.70923935089214
 20
-77.45694306874341
 10
61.85634492811231
 20
-77.45694306874341
 10
62.0189534350161
 20
-77.3871798851671
 10
62.0189534350161
 20
-77.15859779972077
 10
62.0189534350161
 20
-77.04232582709359
 10
61.97830130829015
 20
-76.9935777259773
 10
61.9445393725347
 20
-76.96188284751301
 10
61.86530217637395
 20
-76.88781329458013
 10
61.74093422935643
 20
-76.87523869605897
 10
61.68202309655867
 20
-76.87523869605897
 10
61.66169703319569
 20
-76.87523869605897
 10
61.62345647330942
 20
-76.87730575335011
 10
61.59382865213627
 20
-76.88143986793241
 10
61.59382865213627
 20
-76.88143986793241
 10
61.59382865213627
 20
-76.6867919730158
 10
61.59382865213627
 20
-76.6867919730158
 10
61.63448077886222
 20
-76.69316539966351
 10
61.67995603926752
 20
-76.69540471172893
 10
61.68650172068949
 20
-76.69540471172893
 10
61.75678166858859
 20
-76.69540471172893
 10
61.9693440600285
 20
-76.67421737449465
 10
61.9693440600285
 20
-76.43719480510946
 10
61.9693440600285
 20
-76.25960013284482
 10
61.82912867377883
 20
-76.20447860508082
 10
61.71165091773181
 20
-76.20447860508082
 10
61.4288085783928
 20
-76.20447860508082
 10
61.41985133013115
 20
-76.43719480510946
 10
61.41537270600033
 20
-76.50919730075118
 10
61.41537270600033
 20
-76.50919730075118
 10
61.19833169042958
 20
-76.50919730075118
 10
61.19833169042958
 20
-76.50919730075118
 10
61.20728893869124
 20
-76.38431258941087
 10
61.23657225031586
 20
-76.00776365287307
 10
61.72508679012429
 20
-76.00776365287307
 10
61.96486543589768
 20
-76.00776365287307
 10
62.22255857819437
 20
-76.13471542150452
 10
62.22255857819437
 20
-76.43082137846174
 10
62.22255857819437
 20
-76.6170287894395
 10
62.12058375183097
 20
-76.69953882631123
 10
62.01447481088528
 20
-76.76086152594868
 10
62.07993162510502
 20
-76.78842228983068
 10
62.27457952002164
 20
-76.86886526941126
 10
62.27457952002164
 20
-77.14602320119961
 10
62.27457952002164
 20
-77.4845038326254
 10
62.00999618675445
 20
-77.65159096366003
 10
61.71371797502296
 20
-77.65159096366003
 97
        0
 97
        0
 75
     2
 76
     1
 98
        0
  0
ENDBLK
  5
D2
330
CF
100
AcDbEntity
  8
0
100
AcDbBlockEnd
  0
BLOCK
  5
E1
330
DF
100
AcDbEntity
  8
0
100
AcDbBlockBegin
  2
block 7
 70
     0
 10
0.0
 20
0.0
 30
0.0
  3
block 7
  1

  0
SPLINE
  5
E3
330
DF
100
AcDbEntity
  8
_U+30EC_U+30A4_U+30E4_U+30FC 1
370
     0
100
AcDbSpline
210
0.0
220
0.0
230
1.0
 70
    11
 71
     3
 72
    26
 73
    22
 74
     0
 42
0.0000000001
 43
0.0000000001
 12
1.0
 22
0.0
 32
0.0
 13
1.0
 23
0.0
 33
0.0
 40
0.0
 40
0.0
 40
0.0
 40
0.0
 40
1.0
 40
1.0
 40
1.0
 40
2.0
 40
2.0
 40
2.0
 40
3.0
 40
3.0
 40
3.0
 40
4.0
 40
4.0
 40
4.0
 40
5.0
 40
5.0
 40
5.0
 40
6.0
 40
6.0
 40
6.0
 40
7.0
 40
7.0
 40
7.0
 40
7.0
 10
75.24191892650202
 20
-91.6068115005358
 30
0.0
 10
75.24191892650202
 20
-91.6068115005358
 30
0.0
 10
74.13776582347946
 20
-91.6068115005358
 30
0.0
 10
74.13776582347946
 20
-91.6068115005358
 30
0.0
 10
74.13776582347946
 20
-91.6068115005358
 30
0.0
 10
74.13776582347946
 20
-91.95924476867685
 30
0.0
 10
74.13776582347946
 20
-91.95924476867685
 30
0.0
 10
74.13776582347946
 20
-91.95924476867685
 30
0.0
 10
73.9896267176137
 20
-91.95924476867685
 30
0.0
 10
73.9896267176137
 20
-91.95924476867685
 30
0.0
 10
73.97481280702713
 20
-91.60439993369613
 30
0.0
 10
73.81185979057481
 20
-91.55479055870853
 30
0.0
 10
73.69748262046453
 20
-91.52309568024423
 30
0.0
 10
73.69748262046453
 20
-91.52309568024423
 30
0.0
 10
73.69748262046453
 20
-91.36703285476241
 30
0.0
 10
73.69748262046453
 20
-91.36703285476241
 30
0.0
 10
73.69748262046453
 20
-91.36703285476241
 30
0.0
 10
75.24191892650202
 20
-91.36703285476241
 30
0.0
 10
75.24191892650202
 20
-91.36703285476241
 30
0.0
 10
75.24191892650202
 20
-91.36703285476241
 30
0.0
 10
75.24191892650202
 20
-91.6068115005358
 30
0.0
 10
75.24191892650202
 20
-91.6068115005358
 30
0.0
  0
HATCH
  5
E4
330
DF
100
AcDbEntity
  8
_U+30EC_U+30A4_U+30E4_U+30FC 1
 62
   179
420
  2234388
100
AcDbHatch
 10
0.0
 20
0.0
 30
0.0
210
0.0
220
0.0
230
1.0
  2
SOLID
 70
     1
 71
     0
 91
        1
 92
        1
 93
        1
 72
     4
 94
        3
 73
     0
 74
     1
 95
       26
 96
       22
 40
0.0
 40
0.0
 40
0.0
 40
0.0
 40
1.0
 40
1.0
 40
1.0
 40
2.0
 40
2.0
 40
2.0
 40
3.0
 40
3.0
 40
3.0
 40
4.0
 40
4.0
 40
4.0
 40
5.0
 40
5.0
 40
5.0
 40
6.0
 40
6.0
 40
6.0
 40
7.0
 40
7.0
 40
7.0
 40
7.0
 10
75.24191892650202
 20
-91.6068115005358
 10
75.24191892650202
 20
-91.6068115005358
 10
74.13776582347946
 20
-91.6068115005358
 10
74.13776582347946
 20
-91.6068115005358
 10
74.13776582347946
 20
-91.6068115005358
 10
74.13776582347946
 20
-91.95924476867685
 10
74.13776582347946
 20
-91.95924476867685
 10
74.13776582347946
 20
-91.95924476867685
 10
73.9896267176137
 20
-91.95924476867685
 10
73.9896267176137
 20
-91.95924476867685
 10
73.97481280702713
 20
-91.60439993369613
 10
73.81185979057481
 20
-91.55479055870853
 10
73.69748262046453
 20
-91.52309568024423
 10
73.69748262046453
 20
-91.52309568024423
 10
73.69748262046453
 20
-91.36703285476241
 10
73.69748262046453
 20
-91.36703285476241
 10
73.69748262046453
 20
-91.36703285476241
 10
75.24191892650202
 20
-91.36703285476241
 10
75.24191892650202
 20
-91.36703285476241
 10
75.24191892650202
 20
-91.36703285476241
 10
75.24191892650202
 20
-91.6068115005358
 10
75.24191892650202
 20
-91.6068115005358
 97
        0
 97
        0
 75
     2
 76
     1
 98
        0
  0
SPLINE
  5
E5
330
DF
100
AcDbEntity
  8
_U+30EC_U+30A4_U+30E4_U+30FC 1
370
     0
100
AcDbSpline
210
0.0
220
0.0
230
1.0
 70
    11
 71
     3
 72
    44
 73
    40
 74
     0
 42
0.0000000001
 43
0.0000000001
 12
1.0
 22
0.0
 32
0.0
 13
1.0
 23
0.0
 33
0.0
 40
0.0
 40
0.0
 40
0.0
 40
0.0
 40
1.0
 40
1.0
 40
1.0
 40
2.0
 40
2.0
 40
2.0
 40
3.0
 40
3.0
 40
3.0
 40
4.0
 40
4.0
 40
4.0
 40
5.0
 40
5.0
 40
5.0
 40
6.0
 40
6.0
 40
6.0
 40
7.0
 40
7.0
 40
7.0
 40
8.0
 40
8.0
 40
8.0
 40
9.0
 40
9.0
 40
9.0
 40
10.0
 40
10.0
 40
10.0
 40
11.0
 40
11.0
 40
11.0
 40
12.0
 40
12.0
 40
12.0
 40
13.0
 40
13.0
 40
13.0
 40
13.0
 10
74.66004229904333
 20
-90.19742293752009
 30
0.0
 10
74.81886120091335
 20
-90.43031139232298
 30
0.0
 10
74.89293075384622
 20
-90.5298746518467
 30
0.0
 10
75.03659123558113
 20
-90.58189559367398
 30
0.0
 10
75.03659123558113
 20
-90.58189559367398
 30
0.0
 10
75.03659123558113
 20
-89.74956052443761
 30
0.0
 10
75.03659123558113
 20
-89.74956052443761
 30
0.0
 10
75.03659123558113
 20
-89.74956052443761
 30
0.0
 10
75.24191892650202
 20
-89.74956052443761
 30
0.0
 10
75.24191892650202
 20
-89.74956052443761
 30
0.0
 10
75.24191892650202
 20
-89.74956052443761
 30
0.0
 10
75.24191892650202
 20
-90.84854598423232
 30
0.0
 10
75.24191892650202
 20
-90.84854598423232
 30
0.0
 10
74.88431801513309
 20
-90.81443953892834
 30
0.0
 10
74.80611434761792
 20
-90.74450410057777
 30
0.0
 10
74.50776907859529
 20
-90.33315969963894
 30
0.0
 10
74.30898706909636
 20
-90.0596191181101
 30
0.0
 10
74.24111868803695
 20
-89.989339170211
 30
0.0
 10
74.10365937817548
 20
-89.989339170211
 30
0.0
 10
73.98514809348288
 20
-89.989339170211
 30
0.0
 10
73.85423446504339
 20
-90.06616479953207
 30
0.0
 10
73.85423446504339
 20
-90.27666013368083
 30
0.0
 10
73.85423446504339
 20
-90.5546793393405
 30
0.0
 10
74.0847113530066
 20
-90.56363658760215
 30
0.0
 10
74.20115558040804
 20
-90.56811521173297
 30
0.0
 10
74.20115558040804
 20
-90.56811521173297
 30
0.0
 10
74.20115558040804
 20
-90.80789385750636
 30
0.0
 10
74.20115558040804
 20
-90.80789385750636
 30
0.0
 10
74.07403155700233
 20
-90.79893660924472
 30
0.0
 10
73.96206595373171
 20
-90.78756779414338
 30
0.0
 10
73.84355466903911
 20
-90.70144040701214
 30
0.0
 10
73.68266870987794
 20
-90.58396265096512
 30
0.0
 10
73.6489067741225
 20
-90.3851806414662
 30
0.0
 10
73.6489067741225
 20
-90.26081269444869
 30
0.0
 10
73.6489067741225
 20
-89.9645344827172
 30
0.0
 10
73.83287487303484
 20
-89.74301484301564
 30
0.0
 10
74.10572643546662
 20
-89.74301484301564
 30
0.0
 10
74.33448077568721
 20
-89.74301484301564
 30
0.0
 10
74.4336995256624
 20
-89.86738279003316
 30
0.0
 10
74.66004229904333
 20
-90.19742293752009
 30
0.0
  0
HATCH
  5
E6
330
DF
100
AcDbEntity
  8
_U+30EC_U+30A4_U+30E4_U+30FC 1
 62
   179
420
  2234388
100
AcDbHatch
 10
0.0
 20
0.0
 30
0.0
210
0.0
220
0.0
230
1.0
  2
SOLID
 70
     1
 71
     0
 91
        1
 92
        1
 93
        1
 72
     4
 94
        3
 73
     0
 74
     1
 95
       44
 96
       40
 40
0.0
 40
0.0
 40
0.0
 40
0.0
 40
1.0
 40
1.0
 40
1.0
 40
2.0
 40
2.0
 40
2.0
 40
3.0
 40
3.0
 40
3.0
 40
4.0
 40
4.0
 40
4.0
 40
5.0
 40
5.0
 40
5.0
 40
6.0
 40
6.0
 40
6.0
 40
7.0
 40
7.0
 40
7.0
 40
8.0
 40
8.0
 40
8.0
 40
9.0
 40
9.0
 40
9.0
 40
10.0
 40
10.0
 40
10.0
 40
11.0
 40
11.0
 40
11.0
 40
12.0
 40
12.0
 40
12.0
 40
13.0
 40
13.0
 40
13.0
 40
13.0
 10
74.66004229904333
 20
-90.19742293752009
 10
74.81886120091335
 20
-90.43031139232298
 10
74.89293075384622
 20
-90.5298746518467
 10
75.03659123558113
 20
-90.58189559367398
 10
75.03659123558113
 20
-90.58189559367398
 10
75.03659123558113
 20
-89.74956052443761
 10
75.03659123558113
 20
-89.74956052443761
 10
75.03659123558113
 20
-89.74956052443761
 10
75.24191892650202
 20
-89.74956052443761
 10
75.24191892650202
 20
-89.74956052443761
 10
75.24191892650202
 20
-89.74956052443761
 10
75.24191892650202
 20
-90.84854598423232
 10
75.24191892650202
 20
-90.84854598423232
 10
74.88431801513309
 20
-90.81443953892834
 10
74.80611434761792
 20
-90.74450410057777
 10
74.50776907859529
 20
-90.33315969963894
 10
74.30898706909636
 20
-90.0596191181101
 10
74.24111868803695
 20
-89.989339170211
 10
74.10365937817548
 20
-89.989339170211
 10
73.98514809348288
 20
-89.989339170211
 10
73.85423446504339
 20
-90.06616479953207
 10
73.85423446504339
 20
-90.27666013368083
 10
73.85423446504339
 20
-90.5546793393405
 10
74.0847113530066
 20
-90.56363658760215
 10
74.20115558040804
 20
-90.56811521173297
 10
74.20115558040804
 20
-90.56811521173297
 10
74.20115558040804
 20
-90.80789385750636
 10
74.20115558040804
 20
-90.80789385750636
 10
74.07403155700233
 20
-90.79893660924472
 10
73.96206595373171
 20
-90.78756779414338
 10
73.84355466903911
 20
-90.70144040701214
 10
73.68266870987794
 20
-90.58396265096512
 10
73.6489067741225
 20
-90.3851806414662
 10
73.6489067741225
 20
-90.26081269444869
 10
73.6489067741225
 20
-89.9645344827172
 10
73.83287487303484
 20
-89.74301484301564
 10
74.10572643546662
 20
-89.74301484301564
 10
74.33448077568721
 20
-89.74301484301564
 10
74.4336995256624
 20
-89.86738279003316
 10
74.66004229904333
 20
-90.19742293752009
 97
        0
 97
        0
 75
     2
 76
     1
 98
        0
  0
POLYLINE
  5
E7
330
DF
100
AcDbEntity
  8
_U+30EC_U+30A4_U+30E4_U+30FC 1
370
     0
100
AcDb2dPolyline
 66
     1
 10
0.0
 20
0.0
 30
0.0
  0
VERTEX
  5
E8
330
E7
100
AcDbEntity
  8
_U+30EC_U+30A4_U+30E4_U+30FC 1
370
     0
100
AcDbVertex
100
AcDb2dVertex
 10
75.24191892650202
 20
-89.5094373691157
 30
0.0
  0
VERTEX
  5
E9
330
E7
100
AcDbEntity
  8
_U+30EC_U+30A4_U+30E4_U+30FC 1
370
     0
100
AcDbVertex
100
AcDb2dVertex
 10
74.99008244653027
 20
-89.5094373691157
 30
0.0
  0
VERTEX
  5
EA
330
E7
100
AcDbEntity
  8
_U+30EC_U+30A4_U+30E4_U+30FC 1
370
     0
100
AcDbVertex
100
AcDb2dVertex
 10
74.99008244653027
 20
-89.2403754117177
 30
0.0
  0
VERTEX
  5
EB
330
E7
100
AcDbEntity
  8
_U+30EC_U+30A4_U+30E4_U+30FC 1
370
     0
100
AcDbVertex
100
AcDb2dVertex
 10
75.24191892650202
 20
-89.2403754117177
 30
0.0
  0
VERTEX
  5
EC
330
E7
100
AcDbEntity
  8
_U+30EC_U+30A4_U+30E4_U+30FC 1
370
     0
100
AcDbVertex
100
AcDb2dVertex
 10
75.24191892650202
 20
-89.5094373691157
 30
0.0
  0
SEQEND
  5
ED
330
E7
100
AcDbEntity
  8
_U+30EC_U+30A4_U+30E4_U+30FC 1
370
     0
  0
HATCH
  5
EE
330
DF
100
AcDbEntity
  8
_U+30EC_U+30A4_U+30E4_U+30FC 1
 62
   179
420
  2234388
100
AcDbHatch
 10
0.0
 20
0.0
 30
0.0
210
0.0
220
0.0
230
1.0
  2
SOLID
 70
     1
 71
     0
 91
        1
 92
        1
 93
        4
 72
     1
 10
75.24191892650202
 20
-89.5094373691157
 11
74.99008244653027
 21
-89.5094373691157
 72
     1
 10
74.99008244653027
 20
-89.5094373691157
 11
74.99008244653027
 21
-89.2403754117177
 72
     1
 10
74.99008244653027
 20
-89.2403754117177
 11
75.24191892650202
 21
-89.2403754117177
 72
     1
 10
75.24191892650202
 20
-89.2403754117177
 11
75.24191892650202
 21
-89.5094373691157
 97
        0
 75
     2
 76
     1
 98
        0
  0
SPLINE
  5
EF
330
DF
100
AcDbEntity
  8
_U+30EC_U+30A4_U+30E4_U+30FC 1
370
     0
100
AcDbSpline
210
0.0
220
0.0
230
1.0
 70
    11
 71
     3
 72
    53
 73
    49
 74
     0
 42
0.0000000001
 43
0.0000000001
 12
1.0
 22
0.0
 32
0.0
 13
1.0
 23
0.0
 33
0.0
 40
0.0
 40
0.0
 40
0.0
 40
0.0
 40
1.0
 40
1.0
 40
1.0
 40
2.0
 40
2.0
 40
2.0
 40
3.0
 40
3.0
 40
3.0
 40
4.0
 40
4.0
 40
4.0
 40
5.0
 40
5.0
 40
5.0
 40
6.0
 40
6.0
 40
6.0
 40
7.0
 40
7.0
 40
7.0
 40
8.0
 40
8.0
 40
8.0
 40
9.0
 40
9.0
 40
9.0
 40
10.0
 40
10.0
 40
10.0
 40
11.0
 40
11.0
 40
11.0
 40
12.0
 40
12.0
 40
12.0
 40
13.0
 40
13.0
 40
13.0
 40
14.0
 40
14.0
 40
14.0
 40
15.0
 40
15.0
 40
15.0
 40
16.0
 40
16.0
 40
16.0
 40
16.0
 10
75.2925618301352
 20
-88.47349715670107
 30
0.0
 10
75.2925618301352
 20
-88.55686846744412
 30
0.0
 10
75.27568086225747
 20
-88.66573348477802
 30
0.0
 10
75.21229110532887
 20
-88.77390948301486
 30
0.0
 10
75.10239255934941
 20
-88.95960012966982
 30
0.0
 10
74.97113442136138
 20
-88.98199325032395
 30
0.0
 10
74.86330293267307
 20
-89.00231931368693
 30
0.0
 10
74.86330293267307
 20
-89.00231931368693
 30
0.0
 10
74.86330293267307
 20
-88.76495223475321
 30
0.0
 10
74.86330293267307
 20
-88.76495223475321
 30
0.0
 10
75.06208494217198
 20
-88.70638561150396
 30
0.0
 10
75.09171276334513
 20
-88.57064884938512
 30
0.0
 10
75.09171276334513
 20
-88.4710855898614
 30
0.0
 10
75.09171276334513
 20
-88.32191295535009
 30
0.0
 10
74.99214950382141
 20
-88.15930444844629
 30
0.0
 10
74.75960555856705
 20
-88.15930444844629
 30
0.0
 10
74.50363496401299
 20
-88.15930444844629
 30
0.0
 10
74.4336995256624
 20
-88.35119626697471
 30
0.0
 10
74.4336995256624
 20
-88.48004283812305
 30
0.0
 10
74.4336995256624
 20
-88.51414928342702
 30
0.0
 10
74.4336995256624
 20
-88.66573348477802
 30
0.0
 10
74.56289060635928
 20
-88.76047361062238
 30
0.0
 10
74.56289060635928
 20
-88.76047361062238
 30
0.0
 10
74.54394258119041
 20
-88.9482313145685
 30
0.0
 10
74.54394258119041
 20
-88.9482313145685
 30
0.0
 10
74.54394258119041
 20
-88.9482313145685
 30
0.0
 10
73.69748262046453
 20
-88.81938474342016
 30
0.0
 10
73.69748262046453
 20
-88.81938474342016
 30
0.0
 10
73.69748262046453
 20
-88.81938474342016
 30
0.0
 10
73.69748262046453
 20
-87.98739418373232
 30
0.0
 10
73.69748262046453
 20
-87.98739418373232
 30
0.0
 10
73.69748262046453
 20
-87.98739418373232
 30
0.0
 10
73.89213051538114
 20
-87.98739418373232
 30
0.0
 10
73.89213051538114
 20
-87.98739418373232
 30
0.0
 10
73.89213051538114
 20
-87.98739418373232
 30
0.0
 10
73.89213051538114
 20
-88.64506291186652
 30
0.0
 10
73.89213051538114
 20
-88.64506291186652
 30
0.0
 10
73.89213051538114
 20
-88.64506291186652
 30
0.0
 10
74.31518824096982
 20
-88.71534285976561
 30
0.0
 10
74.31518824096982
 20
-88.71534285976561
 30
0.0
 10
74.28142630521437
 20
-88.64988604554587
 30
0.0
 10
74.24111868803695
 20
-88.56169160112347
 30
0.0
 10
74.24111868803695
 20
-88.43491208726627
 30
0.0
 10
74.24111868803695
 20
-88.16378307257712
 30
0.0
 10
74.42749835378896
 20
-87.91056855441126
 30
0.0
 10
74.74065753339818
 20
-87.91056855441126
 30
0.0
 10
75.05795082758968
 20
-87.91056855441126
 30
0.0
 10
75.2925618301352
 20
-88.15000269063611
 30
0.0
 10
75.2925618301352
 20
-88.47349715670107
 30
0.0
  0
HATCH
  5
F0
330
DF
100
AcDbEntity
  8
_U+30EC_U+30A4_U+30E4_U+30FC 1
 62
   179
420
  2234388
100
AcDbHatch
 10
0.0
 20
0.0
 30
0.0
210
0.0
220
0.0
230
1.0
  2
SOLID
 70
     1
 71
     0
 91
        1
 92
        1
 93
        1
 72
     4
 94
        3
 73
     0
 74
     1
 95
       53
 96
       49
 40
0.0
 40
0.0
 40
0.0
 40
0.0
 40
1.0
 40
1.0
 40
1.0
 40
2.0
 40
2.0
 40
2.0
 40
3.0
 40
3.0
 40
3.0
 40
4.0
 40
4.0
 40
4.0
 40
5.0
 40
5.0
 40
5.0
 40
6.0
 40
6.0
 40
6.0
 40
7.0
 40
7.0
 40
7.0
 40
8.0
 40
8.0
 40
8.0
 40
9.0
 40
9.0
 40
9.0
 40
10.0
 40
10.0
 40
10.0
 40
11.0
 40
11.0
 40
11.0
 40
12.0
 40
12.0
 40
12.0
 40
13.0
 40
13.0
 40
13.0
 40
14.0
 40
14.0
 40
14.0
 40
15.0
 40
15.0
 40
15.0
 40
16.0
 40
16.0
 40
16.0
 40
16.0
 10
75.2925618301352
 20
-88.47349715670107
 10
75.2925618301352
 20
-88.55686846744412
 10
75.27568086225747
 20
-88.66573348477802
 10
75.21229110532887
 20
-88.77390948301486
 10
75.10239255934941
 20
-88.95960012966982
 10
74.97113442136138
 20
-88.98199325032395
 10
74.86330293267307
 20
-89.00231931368693
 10
74.86330293267307
 20
-89.00231931368693
 10
74.86330293267307
 20
-88.76495223475321
 10
74.86330293267307
 20
-88.76495223475321
 10
75.06208494217198
 20
-88.70638561150396
 10
75.09171276334513
 20
-88.57064884938512
 10
75.09171276334513
 20
-88.4710855898614
 10
75.09171276334513
 20
-88.32191295535009
 10
74.99214950382141
 20
-88.15930444844629
 10
74.75960555856705
 20
-88.15930444844629
 10
74.50363496401299
 20
-88.15930444844629
 10
74.4336995256624
 20
-88.35119626697471
 10
74.4336995256624
 20
-88.48004283812305
 10
74.4336995256624
 20
-88.51414928342702
 10
74.4336995256624
 20
-88.66573348477802
 10
74.56289060635928
 20
-88.76047361062238
 10
74.56289060635928
 20
-88.76047361062238
 10
74.54394258119041
 20
-88.9482313145685
 10
74.54394258119041
 20
-88.9482313145685
 10
74.54394258119041
 20
-88.9482313145685
 10
73.69748262046453
 20
-88.81938474342016
 10
73.69748262046453
 20
-88.81938474342016
 10
73.69748262046453
 20
-88.81938474342016
 10
73.69748262046453
 20
-87.98739418373232
 10
73.69748262046453
 20
-87.98739418373232
 10
73.69748262046453
 20
-87.98739418373232
 10
73.89213051538114
 20
-87.98739418373232
 10
73.89213051538114
 20
-87.98739418373232
 10
73.89213051538114
 20
-87.98739418373232
 10
73.89213051538114
 20
-88.64506291186652
 10
73.89213051538114
 20
-88.64506291186652
 10
73.89213051538114
 20
-88.64506291186652
 10
74.31518824096982
 20
-88.71534285976561
 10
74.31518824096982
 20
-88.71534285976561
 10
74.28142630521437
 20
-88.64988604554587
 10
74.24111868803695
 20
-88.56169160112347
 10
74.24111868803695
 20
-88.43491208726627
 10
74.24111868803695
 20
-88.16378307257712
 10
74.42749835378896
 20
-87.91056855441126
 10
74.74065753339818
 20
-87.91056855441126
 10
75.05795082758968
 20
-87.91056855441126
 10
75.2925618301352
 20
-88.15000269063611
 10
75.2925618301352
 20
-88.47349715670107
 97
        0
 97
        0
 75
     2
 76
     1
 98
        0
  0
ENDBLK
  5
E2
330
DF
100
AcDbEntity
  8
0
100
AcDbBlockEnd
  0
ENDSEC
  0
SECTION
  2
ENTITIES
  0
INSERT
  5
42
330
1F
100
AcDbEntity
  8
_U+30EC_U+30A4_U+30E4_U+30FC 1
100
AcDbBlockReference
  2
block 2
 10
0.0
 20
0.0
 30
0.0
  0
ENDSEC
  0
SECTION
  2
OBJECTS
  0
DICTIONARY
  5
C
330
0
100
AcDbDictionary
281
     1
  3
ACAD_GROUP
350
D
  3
ACAD_LAYOUT
350
1A
  3
ACAD_MATERIAL
350
3B
  3
ACAD_MLEADERSTYLE
350
F2
  3
ACAD_MLINESTYLE
350
17
  3
ACAD_PLOTSETTINGS
350
19
  3
ACAD_PLOTSTYLENAME
350
E
  3
ACAD_TABLESTYLE
350
F1
  3
ACAD_VISUALSTYLE
350
2A
  0
SUN
  5
3F
330
29
100
AcDbSun
 90
        1
290
     0
 63
     7
421
 16777215
 40
1.0
291
     1
 91
  2455826
 92
 54000000
292
     0
 70
     2
 71
   256
280
     1
  0
DICTIONARY
  5
D
102
{ACAD_REACTORS
330
C
102
}
330
C
100
AcDbDictionary
281
     1
  0
DICTIONARY
  5
1A
102
{ACAD_REACTORS
330
C
102
}
330
C
100
AcDbDictionary
281
     1
  3
Layout1
350
1E
  3
Layout2
350
26
  3
Model
350
22
  0
DICTIONARY
  5
3B
102
{ACAD_REACTORS
330
C
102
}
330
C
100
AcDbDictionary
281
     1
  3
ByBlock
350
3D
  3
ByLayer
350
3C
  3
Global
350
3E
  0
DICTIONARY
  5
F2
102
{ACAD_REACTORS
330
C
102
}
330
C
100
AcDbDictionary
281
     1
  0
DICTIONARY
  5
17
102
{ACAD_REACTORS
330
C
102
}
330
C
100
AcDbDictionary
281
     1
  3
Standard
350
18
  0
DICTIONARY
  5
19
102
{ACAD_REACTORS
330
C
102
}
330
C
100
AcDbDictionary
281
     1
  0
ACDBDICTIONARYWDFLT
  5
E
102
{ACAD_REACTORS
330
C
102
}
330
C
100
AcDbDictionary
281
     1
  3
Normal
350
F
100
AcDbDictionaryWithDefault
340
F
  0
DICTIONARY
  5
F1
102
{ACAD_REACTORS
330
C
102
}
330
C
100
AcDbDictionary
281
     1
  0
DICTIONARY
  5
2A
102
{ACAD_REACTORS
330
C
102
}
330
C
100
AcDbDictionary
281
     1
  3
2dWireframe
350
2F
  3
3D Hidden
350
31
  3
3dWireframe
350
30
  3
Basic
350
32
  3
Brighten
350
36
  3
ColorChange
350
3A
  3
Conceptual
350
34
  3
Dim
350
35
  3
Facepattern
350
39
  3
Flat
350
2B
  3
FlatWithEdges
350
2C
  3
Gouraud
350
2D
  3
GouraudWithEdges
350
2E
  3
Linepattern
350
38
  3
Realistic
350
33
  3
Thicken
350
37
  0
LAYOUT
  5
1E
102
{ACAD_REACTORS
330
1A
102
}
330
1A
100
AcDbPlotSettings
  1

  2
none_device
  4

  6

 40
0.0
 41
0.0
 42
0.0
 43
0.0
 44
0.0
 45
0.0
 46
0.0
 47
0.0
 48
0.0
 49
0.0
140
0.0
141
0.0
142
1.0
143
1.0
 70
   688
 72
     0
 73
     0
 74
     5
  7

 75
    16
 76
     0
 77
     2
 78
   300
147
1.0
148
0.0
149
0.0
100
AcDbLayout
  1
Layout1
 70
     1
 71
     1
 10
0.0
 20
0.0
 11
12.0
 21
9.0
 12
0.0
 22
0.0
 32
0.0
 14
1.000000000000000E+20
 24
1.000000000000000E+20
 34
1.000000000000000E+20
 15
-1.000000000000000E+20
 25
-1.000000000000000E+20
 35
-1.000000000000000E+20
146
0.0
 13
0.0
 23
0.0
 33
0.0
 16
1.0
 26
0.0
 36
0.0
 17
0.0
 27
1.0
 37
0.0
 76
     0
330
1B
  0
LAYOUT
  5
26
102
{ACAD_REACTORS
330
1A
102
}
330
1A
100
AcDbPlotSettings
  1

  2
none_device
  4

  6

 40
0.0
 41
0.0
 42
0.0
 43
0.0
 44
0.0
 45
0.0
 46
0.0
 47
0.0
 48
0.0
 49
0.0
140
0.0
141
0.0
142
1.0
143
1.0
 70
   688
 72
     0
 73
     0
 74
     5
  7

 75
    16
 76
     0
 77
     2
 78
   300
147
1.0
148
0.0
149
0.0
100
AcDbLayout
  1
Layout2
 70
     1
 71
     2
 10
0.0
 20
0.0
 11
0.0
 21
0.0
 12
0.0
 22
0.0
 32
0.0
 14
0.0
 24
0.0
 34
0.0
 15
0.0
 25
0.0
 35
0.0
146
0.0
 13
0.0
 23
0.0
 33
0.0
 16
1.0
 26
0.0
 36
0.0
 17
0.0
 27
1.0
 37
0.0
 76
     0
330
23
  0
LAYOUT
  5
22
102
{ACAD_REACTORS
330
1A
102
}
330
1A
100
AcDbPlotSettings
  1

  2
none_device
  4

  6

 40
0.0
 41
0.0
 42
0.0
 43
0.0
 44
0.0
 45
0.0
 46
0.0
 47
0.0
 48
0.0
 49
0.0
140
0.0
141
0.0
142
1.0
143
1.0
 70
  1712
 72
     0
 73
     0
 74
     0
  7

 75
     0
 76
     0
 77
     2
 78
   300
147
1.0
148
0.0
149
0.0
100
AcDbLayout
  1
Model
 70
     1
 71
     0
 10
0.0
 20
0.0
 11
12.0
 21
9.0
 12
0.0
 22
0.0
 32
0.0
 14
1.000000000000000E+20
 24
1.000000000000000E+20
 34
1.000000000000000E+20
 15
-1.000000000000000E+20
 25
-1.000000000000000E+20
 35
-1.000000000000000E+20
146
0.0
 13
0.0
 23
0.0
 33
0.0
 16
1.0
 26
0.0
 36
0.0
 17
0.0
 27
1.0
 37
0.0
 76
     0
330
1F
331
29
  0
MATERIAL
  5
3D
102
{ACAD_REACTORS
330
3B
102
}
330
3B
100
AcDbMaterial
  1
ByBlock
 72
     1
 94
      127
  0
MATERIAL
  5
3C
102
{ACAD_REACTORS
330
3B
102
}
330
3B
100
AcDbMaterial
  1
ByLayer
 72
     1
 94
      127
  0
MATERIAL
  5
3E
102
{ACAD_REACTORS
330
3B
102
}
330
3B
100
AcDbMaterial
  1
Global
 72
     1
 94
      127
  0
MLINESTYLE
  5
18
102
{ACAD_REACTORS
330
17
102
}
330
17
100
AcDbMlineStyle
  2
Standard
 70
     0
  3

 62
   256
 51
90.0
 52
90.0
 71
     2
 49
0.5
 62
   256
  6
BYLAYER
 49
-0.5
 62
   256
  6
BYLAYER
  0
ACDBPLACEHOLDER
  5
F
102
{ACAD_REACTORS
330
E
102
}
330
E
  0
VISUALSTYLE
  5
2F
102
{ACAD_REACTORS
330
2A
102
}
330
2A
100
AcDbVisualStyle
  2
2dWireframe
 70
     4
177
     2
291
     0
 71
     0
176
     1
 72
     2
176
     1
 73
     0
176
     1
 90
        0
176
     1
 40
-0.6
176
     1
 41
-30.0
176
     1
 62
     5
 63
     7
421
 16777215
176
     1
 74
     1
176
     1
 91
        4
176
     1
 64
     7
176
     1
 65
   257
176
     1
 75
     1
176
     1
175
     1
176
     1
 42
1.0
176
     1
 92
        0
176
     1
 66
   257
176
     1
 43
1.0
176
     1
 76
     1
176
     1
 77
     6
176
     1
 78
     2
176
     1
 67
     7
176
     1
 79
     5
176
     1
170
     0
176
     1
171
     0
176
     1
290
     0
176
     1
 93
        1
176
     1
 44
0.0
176
     1
173
     0
176
     1
  0
VISUALSTYLE
  5
31
102
{ACAD_REACTORS
330
2A
102
}
330
2A
100
AcDbVisualStyle
  2
3D Hidden
 70
     6
177
     2
291
     0
 71
     1
176
     1
 72
     2
176
     1
 73
     2
176
     1
 90
        0
176
     1
 40
-0.6
176
     1
 41
-30.0
176
     1
 62
     5
 63
     7
421
 16777215
176
     1
 74
     2
176
     1
 91
        2
176
     1
 64
     7
176
     1
 65
   257
176
     1
 75
     2
176
     1
175
     1
176
     1
 42
40.0
176
     1
 92
        0
176
     1
 66
   257
176
     1
 43
1.0
176
     1
 76
     1
176
     1
 77
     6
176
     1
 78
     2
176
     1
 67
     7
176
     1
 79
     3
176
     1
170
     0
176
     1
171
     0
176
     1
290
     0
176
     1
 93
        1
176
     1
 44
0.0
176
     1
173
     0
176
     1
  0
VISUALSTYLE
  5
30
102
{ACAD_REACTORS
330
2A
102
}
330
2A
100
AcDbVisualStyle
  2
3dWireframe
 70
     5
177
     2
291
     0
 71
     0
176
     1
 72
     2
176
     1
 73
     0
176
     1
 90
        0
176
     1
 40
-0.6
176
     1
 41
-30.0
176
     1
 62
     5
 63
     7
421
 16777215
176
     1
 74
     1
176
     1
 91
        4
176
     1
 64
     7
176
     1
 65
   257
176
     1
 75
     1
176
     1
175
     1
176
     1
 42
1.0
176
     1
 92
        0
176
     1
 66
   257
176
     1
 43
1.0
176
     1
 76
     1
176
     1
 77
     6
176
     1
 78
     2
176
     1
 67
     7
176
     1
 79
     5
176
     1
170
     0
176
     1
171
     0
176
     1
290
     0
176
     1
 93
        1
176
     1
 44
0.0
176
     1
173
     0
176
     1
  0
VISUALSTYLE
  5
32
102
{ACAD_REACTORS
330
2A
102
}
330
2A
100
AcDbVisualStyle
  2
Basic
 70
     7
177
     2
291
     1
 71
     1
176
     1
 72
     0
176
     1
 73
     1
176
     1
 90
        0
176
     1
 40
-0.6
176
     1
 41
-30.0
176
     1
 62
     5
 63
     7
421
 16777215
176
     1
 74
     0
176
     1
 91
        4
176
     1
 64
     7
176
     1
 65
   257
176
     1
 75
     1
176
     1
175
     1
176
     1
 42
1.0
176
     1
 92
        8
176
     1
 66
     7
176
     1
 43
1.0
176
     1
 76
     1
176
     1
 77
     6
176
     1
 78
     2
176
     1
 67
     7
176
     1
 79
     5
176
     1
170
     0
176
     1
171
     0
176
     1
290
     0
176
     1
 93
        1
176
     1
 44
0.0
176
     1
173
     0
176
     1
  0
VISUALSTYLE
  5
36
102
{ACAD_REACTORS
330
2A
102
}
330
2A
100
AcDbVisualStyle
  2
Brighten
 70
    12
177
     2
291
     1
 71
     2
176
     1
 72
     2
176
     1
 73
     0
176
     1
 90
        0
176
     1
 40
-0.6
176
     1
 41
-30.0
176
     1
 62
     5
 63
     7
421
 16777215
176
     1
 74
     1
176
     1
 91
        4
176
     1
 64
     7
176
     1
 65
   257
176
     1
 75
     1
176
     1
175
     1
176
     1
 42
1.0
176
     1
 92
        8
176
     1
 66
     7
176
     1
 43
1.0
176
     1
 76
     1
176
     1
 77
     6
176
     1
 78
     2
176
     1
 67
     7
176
     1
 79
     5
176
     1
170
     0
176
     1
171
     0
176
     1
290
     0
176
     1
 93
        1
176
     1
 44
50.0
176
     1
173
     0
176
     1
  0
VISUALSTYLE
  5
3A
102
{ACAD_REACTORS
330
2A
102
}
330
2A
100
AcDbVisualStyle
  2
ColorChange
 70
    16
177
     2
291
     1
 71
     2
176
     1
 72
     2
176
     1
 73
     3
176
     1
 90
        0
176
     1
 40
-0.6
176
     1
 41
-30.0
176
     1
 62
     5
 63
     8
421
  8421504
176
     1
 74
     1
176
     1
 91
        4
176
     1
 64
     7
176
     1
 65
   257
176
     1
 75
     1
176
     1
175
     1
176
     1
 42
1.0
176
     1
 92
        8
176
     1
 66
     8
424
  8421504
176
     1
 43
1.0
176
     1
 76
     1
176
     1
 77
     6
176
     1
 78
     2
176
     1
 67
     7
176
     1
 79
     5
176
     1
170
     0
176
     1
171
     0
176
     1
290
     0
176
     1
 93
        1
176
     1
 44
0.0
176
     1
173
     0
176
     1
  0
VISUALSTYLE
  5
34
102
{ACAD_REACTORS
330
2A
102
}
330
2A
100
AcDbVisualStyle
  2
Conceptual
 70
     9
177
     2
291
     0
 71
     3
176
     1
 72
     2
176
     1
 73
     0
176
     1
 90
        0
176
     1
 40
-0.6
176
     1
 41
-30.0
176
     1
 62
     5
 63
     7
421
 16777215
176
     1
 74
     2
176
     1
 91
        2
176
     1
 64
     7
176
     1
 65
   257
176
     1
 75
     1
176
     1
175
     1
176
     1
 42
40.0
176
     1
 92
        8
176
     1
 66
     7
176
     1
 43
1.0
176
     1
 76
     1
176
     1
 77
     6
176
     1
 78
     2
176
     1
 67
     7
176
     1
 79
     3
176
     1
170
     0
176
     1
171
     0
176
     1
290
     0
176
     1
 93
        1
176
     1
 44
0.0
176
     1
173
     0
176
     1
  0
VISUALSTYLE
  5
35
102
{ACAD_REACTORS
330
2A
102
}
330
2A
100
AcDbVisualStyle
  2
Dim
 70
    11
177
     2
291
     1
 71
     2
176
     1
 72
     2
176
     1
 73
     0
176
     1
 90
        0
176
     1
 40
-0.6
176
     1
 41
-30.0
176
     1
 62
     5
 63
     7
421
 16777215
176
     1
 74
     1
176
     1
 91
        4
176
     1
 64
     7
176
     1
 65
   257
176
     1
 75
     1
176
     1
175
     1
176
     1
 42
1.0
176
     1
 92
        8
176
     1
 66
     7
176
     1
 43
1.0
176
     1
 76
     1
176
     1
 77
     6
176
     1
 78
     2
176
     1
 67
     7
176
     1
 79
     5
176
     1
170
     0
176
     1
171
     0
176
     1
290
     0
176
     1
 93
        1
176
     1
 44
-50.0
176
     1
173
     0
176
     1
  0
VISUALSTYLE
  5
39
102
{ACAD_REACTORS
330
2A
102
}
330
2A
100
AcDbVisualStyle
  2
Facepattern
 70
    15
177
     2
291
     1
 71
     2
176
     1
 72
     2
176
     1
 73
     0
176
     1
 90
        0
176
     1
 40
-0.6
176
     1
 41
-30.0
176
     1
 62
     5
 63
     7
421
 16777215
176
     1
 74
     1
176
     1
 91
        4
176
     1
 64
     7
176
     1
 65
   257
176
     1
 75
     1
176
     1
175
     1
176
     1
 42
1.0
176
     1
 92
        8
176
     1
 66
     7
176
     1
 43
1.0
176
     1
 76
     1
176
     1
 77
     6
176
     1
 78
     2
176
     1
 67
     7
176
     1
 79
     5
176
     1
170
     0
176
     1
171
     0
176
     1
290
     0
176
     1
 93
        1
176
     1
 44
0.0
176
     1
173
     0
176
     1
  0
VISUALSTYLE
  5
2B
102
{ACAD_REACTORS
330
2A
102
}
330
2A
100
AcDbVisualStyle
  2
Flat
 70
     0
177
     2
291
     1
 71
     2
176
     1
 72
     1
176
     1
 73
     1
176
     1
 90
        2
176
     1
 40
-0.6
176
     1
 41
30.0
176
     1
 62
     5
 63
     7
421
 16777215
176
     1
 74
     0
176
     1
 91
        4
176
     1
 64
     7
176
     1
 65
   257
176
     1
 75
     1
176
     1
175
     1
176
     1
 42
1.0
176
     1
 92
        8
176
     1
 66
     7
176
     1
 43
1.0
176
     1
 76
     1
176
     1
 77
     6
176
     1
 78
     2
176
     1
 67
     7
176
     1
 79
     5
176
     1
170
     0
176
     1
171
     0
176
     1
290
     0
176
     1
 93
       13
176
     1
 44
0.0
176
     1
173
     0
176
     1
  0
VISUALSTYLE
  5
2C
102
{ACAD_REACTORS
330
2A
102
}
330
2A
100
AcDbVisualStyle
  2
FlatWithEdges
 70
     1
177
     2
291
     1
 71
     2
176
     1
 72
     1
176
     1
 73
     1
176
     1
 90
        2
176
     1
 40
-0.6
176
     1
 41
30.0
176
     1
 62
     5
 63
     7
421
 16777215
176
     1
 74
     1
176
     1
 91
        4
176
     1
 64
     7
176
     1
 65
   257
176
     1
 75
     1
176
     1
175
     1
176
     1
 42
1.0
176
     1
 92
        0
176
     1
 66
   257
176
     1
 43
1.0
176
     1
 76
     1
176
     1
 77
     6
176
     1
 78
     2
176
     1
 67
     7
176
     1
 79
     5
176
     1
170
     0
176
     1
171
     0
176
     1
290
     0
176
     1
 93
       13
176
     1
 44
0.0
176
     1
173
     0
176
     1
  0
VISUALSTYLE
  5
2D
102
{ACAD_REACTORS
330
2A
102
}
330
2A
100
AcDbVisualStyle
  2
Gouraud
 70
     2
177
     2
291
     1
 71
     2
176
     1
 72
     2
176
     1
 73
     1
176
     1
 90
        2
176
     1
 40
-0.6
176
     1
 41
30.0
176
     1
 62
     5
 63
     7
421
 16777215
176
     1
 74
     0
176
     1
 91
        4
176
     1
 64
     7
176
     1
 65
   257
176
     1
 75
     1
176
     1
175
     1
176
     1
 42
1.0
176
     1
 92
        0
176
     1
 66
     7
176
     1
 43
1.0
176
     1
 76
     1
176
     1
 77
     6
176
     1
 78
     2
176
     1
 67
     7
176
     1
 79
     5
176
     1
170
     0
176
     1
171
     0
176
     1
290
     0
176
     1
 93
       13
176
     1
 44
0.0
176
     1
173
     0
176
     1
  0
VISUALSTYLE
  5
2E
102
{ACAD_REACTORS
330
2A
102
}
330
2A
100
AcDbVisualStyle
  2
GouraudWithEdges
 70
     3
177
     2
291
     1
 71
     2
176
     1
 72
     2
176
     1
 73
     1
176
     1
 90
        2
176
     1
 40
-0.6
176
     1
 41
30.0
176
     1
 62
     5
 63
     7
421
 16777215
176
     1
 74
     1
176
     1
 91
        4
176
     1
 64
     7
176
     1
 65
   257
176
     1
 75
     1
176
     1
175
     1
176
     1
 42
1.0
176
     1
 92
        0
176
     1
 66
   257
176
     1
 43
1.0
176
     1
 76
     1
176
     1
 77
     6
176
     1
 78
     2
176
     1
 67
     7
176
     1
 79
     5
176
     1
170
     0
176
     1
171
     0
176
     1
290
     0
176
     1
 93
       13
176
     1
 44
0.0
176
     1
173
     0
176
     1
  0
VISUALSTYLE
  5
38
102
{ACAD_REACTORS
330
2A
102
}
330
2A
100
AcDbVisualStyle
  2
Linepattern
 70
    14
177
     2
291
     1
 71
     2
176
     1
 72
     2
176
     1
 73
     0
176
     1
 90
        0
176
     1
 40
-0.6
176
     1
 41
-30.0
176
     1
 62
     5
 63
     7
421
 16777215
176
     1
 74
     1
176
     1
 91
        4
176
     1
 64
     7
176
     1
 65
   257
176
     1
 75
     7
176
     1
175
     7
176
     1
 42
1.0
176
     1
 92
        8
176
     1
 66
     7
176
     1
 43
1.0
176
     1
 76
     1
176
     1
 77
     6
176
     1
 78
     2
176
     1
 67
     7
176
     1
 79
     5
176
     1
170
     0
176
     1
171
     0
176
     1
290
     0
176
     1
 93
        1
176
     1
 44
0.0
176
     1
173
     0
176
     1
  0
VISUALSTYLE
  5
33
102
{ACAD_REACTORS
330
2A
102
}
330
2A
100
AcDbVisualStyle
  2
Realistic
 70
     8
177
     2
291
     0
 71
     2
176
     1
 72
     2
176
     1
 73
     0
176
     1
 90
        0
176
     1
 40
-0.6
176
     1
 41
-30.0
176
     1
 62
     5
 63
     7
421
 16777215
176
     1
 74
     1
176
     1
 91
        0
176
     1
 64
     7
176
     1
 65
   257
176
     1
 75
     1
176
     1
175
     1
176
     1
 42
1.0
176
     1
 92
        8
176
     1
 66
     8
424
  7895160
176
     1
 43
1.0
176
     1
 76
     1
176
     1
 77
     6
176
     1
 78
     2
176
     1
 67
     7
176
     1
 79
     5
176
     1
170
     0
176
     1
171
     0
176
     1
290
     0
176
     1
 93
       13
176
     1
 44
0.0
176
     1
173
     0
176
     1
  0
VISUALSTYLE
  5
37
102
{ACAD_REACTORS
330
2A
102
}
330
2A
100
AcDbVisualStyle
  2
Thicken
 70
    13
177
     2
291
     1
 71
     2
176
     1
 72
     2
176
     1
 73
     0
176
     1
 90
        0
176
     1
 40
-0.6
176
     1
 41
-30.0
176
     1
 62
     5
 63
     7
421
 16777215
176
     1
 74
     1
176
     1
 91
        4
176
     1
 64
     7
176
     1
 65
   257
176
     1
 75
     1
176
     1
175
     1
176
     1
 42
1.0
176
     1
 92
       12
176
     1
 66
     7
176
     1
 43
1.0
176
     1
 76
     1
176
     1
 77
     6
176
     1
 78
     2
176
     1
 67
     7
176
     1
 79
     5
176
     1
170
     0
176
     1
171
     0
176
     1
290
     0
176
     1
 93
        1
176
     1
 44
0.0
176
     1
173
     0
176
     1
  0
ENDSEC
  0
EOF
