  0
SECTION
  2
HEADER
  9
$ACADVER
  1
AC1024
  9
$ACADMAINTVER
 70
     6
  9
$DWGCODEPAGE
  3
UNDEFINED
  9
$INSBASE
 10
0.0
 20
0.0
 30
0.0
  9
$EXTMIN
 10
1.000000000000000E+20
 20
1.000000000000000E+20
 30
1.000000000000000E+20
  9
$EXTMAX
 10
-1.000000000000000E+20
 20
-1.000000000000000E+20
 30
-1.000000000000000E+20
  9
$LIMMIN
 10
0.0
 20
0.0
  9
$LIMMAX
 10
12.0
 20
9.0
  9
$ORTHOMODE
 70
     0
  9
$REGENMODE
 70
     1
  9
$FILLMODE
 70
     1
  9
$QTEXTMODE
 70
     0
  9
$MIRRTEXT
 70
     1
  9
$LTSCALE
 40
1.0
  9
$ATTMODE
 70
     1
  9
$TEXTSIZE
 40
0.2
  9
$TRACEWID
 40
0.05
  9
$TEXTSTYLE
  7
Standard
  9
$CLAYER
  8
0
  9
$CELTYPE
  6
ByLayer
  9
$CECOLOR
 62
   256
  9
$CELTSCALE
 40
1.0
  9
$DISPSILH
 70
     0
  9
$DIMSCALE
 40
1.0
  9
$DIMASZ
 40
0.18
  9
$DIMEXO
 40
0.0625
  9
$DIMDLI
 40
0.38
  9
$DIMRND
 40
0.0
  9
$DIMDLE
 40
0.0
  9
$DIMEXE
 40
0.18
  9
$DIMTP
 40
0.0
  9
$DIMTM
 40
0.0
  9
$DIMTXT
 40
0.18
  9
$DIMCEN
 40
0.09
  9
$DIMTSZ
 40
0.0
  9
$DIMTOL
 70
     0
  9
$DIMLIM
 70
     0
  9
$DIMTIH
 70
     1
  9
$DIMTOH
 70
     1
  9
$DIMSE1
 70
     0
  9
$DIMSE2
 70
     0
  9
$DIMTAD
 70
     0
  9
$DIMZIN
 70
     0
  9
$DIMBLK
  1

  9
$DIMASO
 70
     1
  9
$DIMSHO
 70
     1
  9
$DIMPOST
  1

  9
$DIMAPOST
  1

  9
$DIMALT
 70
     0
  9
$DIMALTD
 70
     2
  9
$DIMALTF
 40
25.4
  9
$DIMLFAC
 40
1.0
  9
$DIMTOFL
 70
     0
  9
$DIMTVP
 40
0.0
  9
$DIMTIX
 70
     0
  9
$DIMSOXD
 70
     0
  9
$DIMSAH
 70
     0
  9
$DIMBLK1
  1

  9
$DIMBLK2
  1

  9
$DIMSTYLE
  2
Standard
  9
$DIMCLRD
 70
     0
  9
$DIMCLRE
 70
     0
  9
$DIMCLRT
 70
     0
  9
$DIMTFAC
 40
1.0
  9
$DIMGAP
 40
0.09
  9
$DIMJUST
 70
     0
  9
$DIMSD1
 70
     0
  9
$DIMSD2
 70
     0
  9
$DIMTOLJ
 70
     1
  9
$DIMTZIN
 70
     0
  9
$DIMALTZ
 70
     0
  9
$DIMALTTZ
 70
     0
  9
$DIMUPT
 70
     0
  9
$DIMDEC
 70
     4
  9
$DIMTDEC
 70
     4
  9
$DIMALTU
 70
     2
  9
$DIMALTTD
 70
     2
  9
$DIMTXSTY
  7
Standard
  9
$DIMAUNIT
 70
     0
  9
$DIMADEC
 70
     0
  9
$DIMALTRND
 40
0.0
  9
$DIMAZIN
 70
     0
  9
$DIMDSEP
 70
    46
  9
$DIMATFIT
 70
     3
  9
$DIMFRAC
 70
     0
  9
$DIMLDRBLK
  1

  9
$DIMLUNIT
 70
     2
  9
$DIMLWD
 70
    -2
  9
$DIMLWE
 70
    -2
  9
$DIMTMOVE
 70
     0
  9
$DIMFXL
 40
1.0
  9
$DIMFXLON
 70
     0
  9
$DIMJOGANG
 40
0.7853981633974483
  9
$DIMTFILL
 70
     0
  9
$DIMTFILLCLR
 70
     0
  9
$DIMARCSYM
 70
     0
  9
$DIMLTYPE
  6

  9
$DIMLTEX1
  6

  9
$DIMLTEX2
  6

  9
$DIMTXTDIRECTION
 70
     0
  9
$LUNITS
 70
     2
  9
$LUPREC
 70
     4
  9
$SKETCHINC
 40
0.1
  9
$FILLETRAD
 40
0.5
  9
$AUNITS
 70
     0
  9
$AUPREC
 70
     0
  9
$MENU
  1
.
  9
$ELEVATION
 40
0.0
  9
$PELEVATION
 40
0.0
  9
$THICKNESS
 40
0.0
  9
$LIMCHECK
 70
     0
  9
$CHAMFERA
 40
0.5
  9
$CHAMFERB
 40
0.5
  9
$CHAMFERC
 40
1.0
  9
$CHAMFERD
 40
0.0
  9
$SKPOLY
 70
     0
  9
$TDCREATE
 40
2457917.589027778
  9
$TDUCREATE
 40
2457917.214027778
  9
$TDUPDATE
 40
2457917.589027778
  9
$TDUUPDATE
 40
2457917.214027778
  9
$TDINDWG
 40
0.0000000116
  9
$TDUSRTIMER
 40
0.0000000116
  9
$USRTIMER
 70
     1
  9
$ANGBASE
 50
0.0
  9
$ANGDIR
 70
     0
  9
$PDMODE
 70
     0
  9
$PDSIZE
 40
0.0
  9
$PLINEWID
 40
0.0
  9
$SPLFRAME
 70
     0
  9
$SPLINETYPE
 70
     6
  9
$SPLINESEGS
 70
     8
  9
$HANDSEED
  5
F2
  9
$SURFTAB1
 70
     6
  9
$SURFTAB2
 70
     6
  9
$SURFTYPE
 70
     6
  9
$SURFU
 70
     6
  9
$SURFV
 70
     6
  9
$UCSBASE
  2

  9
$UCSNAME
  2

  9
$UCSORG
 10
0.0
 20
0.0
 30
0.0
  9
$UCSXDIR
 10
1.0
 20
0.0
 30
0.0
  9
$UCSYDIR
 10
0.0
 20
1.0
 30
0.0
  9
$UCSORTHOREF
  2

  9
$UCSORTHOVIEW
 70
     0
  9
$UCSORGTOP
 10
0.0
 20
0.0
 30
0.0
  9
$UCSORGBOTTOM
 10
0.0
 20
0.0
 30
0.0
  9
$UCSORGLEFT
 10
0.0
 20
0.0
 30
0.0
  9
$UCSORGRIGHT
 10
0.0
 20
0.0
 30
0.0
  9
$UCSORGFRONT
 10
0.0
 20
0.0
 30
0.0
  9
$UCSORGBACK
 10
0.0
 20
0.0
 30
0.0
  9
$PUCSBASE
  2

  9
$PUCSNAME
  2

  9
$PUCSORG
 10
0.0
 20
0.0
 30
0.0
  9
$PUCSXDIR
 10
1.0
 20
0.0
 30
0.0
  9
$PUCSYDIR
 10
0.0
 20
1.0
 30
0.0
  9
$PUCSORTHOREF
  2

  9
$PUCSORTHOVIEW
 70
     0
  9
$PUCSORGTOP
 10
0.0
 20
0.0
 30
0.0
  9
$PUCSORGBOTTOM
 10
0.0
 20
0.0
 30
0.0
  9
$PUCSORGLEFT
 10
0.0
 20
0.0
 30
0.0
  9
$PUCSORGRIGHT
 10
0.0
 20
0.0
 30
0.0
  9
$PUCSORGFRONT
 10
0.0
 20
0.0
 30
0.0
  9
$PUCSORGBACK
 10
0.0
 20
0.0
 30
0.0
  9
$USERI1
 70
     0
  9
$USERI2
 70
     0
  9
$USERI3
 70
     0
  9
$USERI4
 70
     0
  9
$USERI5
 70
     0
  9
$USERR1
 40
0.0
  9
$USERR2
 40
0.0
  9
$USERR3
 40
0.0
  9
$USERR4
 40
0.0
  9
$USERR5
 40
0.0
  9
$WORLDVIEW
 70
     1
  9
$SHADEDGE
 70
     3
  9
$SHADEDIF
 70
    70
  9
$TILEMODE
 70
     1
  9
$MAXACTVP
 70
    64
  9
$PINSBASE
 10
0.0
 20
0.0
 30
0.0
  9
$PLIMCHECK
 70
     0
  9
$PEXTMIN
 10
1.000000000000000E+20
 20
1.000000000000000E+20
 30
1.000000000000000E+20
  9
$PEXTMAX
 10
-1.000000000000000E+20
 20
-1.000000000000000E+20
 30
-1.000000000000000E+20
  9
$PLIMMIN
 10
0.0
 20
0.0
  9
$PLIMMAX
 10
12.0
 20
9.0
  9
$UNITMODE
 70
     0
  9
$VISRETAIN
 70
     1
  9
$PLINEGEN
 70
     0
  9
$PSLTSCALE
 70
     1
  9
$TREEDEPTH
 70
  3020
  9
$CMLSTYLE
  2
Standard
  9
$CMLJUST
 70
     0
  9
$CMLSCALE
 40
1.0
  9
$PROXYGRAPHICS
 70
     1
  9
$MEASUREMENT
 70
     0
  9
$CELWEIGHT
370
    -1
  9
$ENDCAPS
280
     0
  9
$JOINSTYLE
280
     0
  9
$LWDISPLAY
290
     1
  9
$INSUNITS
 70
     1
  9
$HYPERLINKBASE
  1

  9
$STYLESHEET
  1

  9
$XEDIT
290
     1
  9
$CEPSNTYPE
380
     0
  9
$PSTYLEMODE
290
     1
  9
$FINGERPRINTGUID
  2
{0793D065-C1D1-3AB2-CAF2-1750C670A6C8}
  9
$VERSIONGUID
  2
{FAEB1C32-E019-11D5-929B-00C0DF256EC4}
  9
$EXTNAMES
290
     1
  9
$PSVPSCALE
 40
0.0
  9
$OLESTARTUP
290
     0
  9
$SORTENTS
280
   127
  9
$INDEXCTL
280
     0
  9
$HIDETEXT
280
     1
  9
$XCLIPFRAME
280
     2
  9
$HALOGAP
280
     0
  9
$OBSCOLOR
 70
   257
  9
$OBSLTYPE
280
     0
  9
$INTERSECTIONDISPLAY
280
     0
  9
$INTERSECTIONCOLOR
 70
   257
  9
$DIMASSOC
280
     2
  9
$PROJECTNAME
  1

  9
$CAMERADISPLAY
290
     0
  9
$LENSLENGTH
 40
50.0
  9
$CAMERAHEIGHT
 40
0.0
  9
$STEPSPERSEC
 40
2.0
  9
$STEPSIZE
 40
6.0
  9
$3DDWFPREC
 40
2.0
  9
$PSOLWIDTH
 40
0.25
  9
$PSOLHEIGHT
 40
4.0
  9
$LOFTANG1
 40
1.570796326794897
  9
$LOFTANG2
 40
1.570796326794897
  9
$LOFTMAG1
 40
0.0
  9
$LOFTMAG2
 40
0.0
  9
$LOFTPARAM
 70
     7
  9
$LOFTNORMALS
280
     1
  9
$LATITUDE
 40
37.795
  9
$LONGITUDE
 40
-122.394
  9
$NORTHDIRECTION
 40
0.0
  9
$TIMEZONE
 70
 -8000
  9
$LIGHTGLYPHDISPLAY
280
     1
  9
$TILEMODELIGHTSYNCH
280
     1
  9
$CMATERIAL
347
3C
  9
$SOLIDHIST
280
     1
  9
$SHOWHIST
280
     1
  9
$DWFFRAME
280
     2
  9
$DGNFRAME
280
     2
  9
$REALWORLDSCALE
290
     1
  9
$INTERFERECOLOR
 62
   256
  9
$CSHADOW
280
     0
  9
$SHADOWPLANELOCATION
 40
0.0
  0
ENDSEC
  0
SECTION
  2
CLASSES
  0
CLASS
  1
ACDBDICTIONARYWDFLT
  2
AcDbDictionaryWithDefault
  3
ObjectDBX Classes
 90
        0
 91
        4
280
     0
281
     0
  0
CLASS
  1
VISUALSTYLE
  2
AcDbVisualStyle
  3
ObjectDBX Classes
 90
     4095
 91
        4
280
     0
281
     0
  0
CLASS
  1
MATERIAL
  2
AcDbMaterial
  3
ObjectDBX Classes
 90
     1153
 91
        4
280
     0
281
     0
  0
CLASS
  1
SUN
  2
AcDbSun
  3
SCENEOE
 90
     1024
 91
        4
280
     0
281
     0
  0
ENDSEC
  0
SECTION
  2
TABLES
  0
TABLE
  2
VPORT
  5
8
330
0
100
AcDbSymbolTable
 70
     1
  0
VPORT
  5
29
330
8
100
AcDbSymbolTableRecord
100
AcDbViewportTableRecord
  2
*Active
 70
     0
 10
0.0
 20
0.0
 11
1.0
 21
1.0
 12
0.0
 22
0.0
 13
0.0
 23
0.0
 14
0.5
 24
0.5
 15
0.5
 25
0.5
 16
0.0
 26
0.0
 36
1.0
 17
63.499999984125
 27
-89.00059456108309
 37
0.0
 40
178.0011891221662
 41
0.7134783795241226
 42
50.0
 43
0.0
 44
0.0
 50
0.0
 51
0.0
 71
     0
 72
   100
 73
     1
 74
     3
 75
     0
 76
     0
 77
     0
 78
     0
281
     0
 65
     1
110
0.0
120
0.0
130
0.0
111
1.0
121
0.0
131
0.0
112
0.0
122
1.0
132
0.0
 79
     0
146
0.0
 60
     3
 61
     5
292
     1
282
     1
141
0.0
142
0.0
 63
   250
361
3F
  0
ENDTAB
  0
TABLE
  2
LTYPE
  5
5
330
0
100
AcDbSymbolTable
 70
     1
  0
LTYPE
  5
14
330
5
100
AcDbSymbolTableRecord
100
AcDbLinetypeTableRecord
  2
ByBlock
 70
     0
  3

 72
    65
 73
     0
 40
0.0
  0
LTYPE
  5
15
330
5
100
AcDbSymbolTableRecord
100
AcDbLinetypeTableRecord
  2
ByLayer
 70
     0
  3

 72
    65
 73
     0
 40
0.0
  0
LTYPE
  5
16
330
5
100
AcDbSymbolTableRecord
100
AcDbLinetypeTableRecord
  2
Continuous
 70
     0
  3
Solid line
 72
    65
 73
     0
 40
0.0
  0
ENDTAB
  0
TABLE
  2
LAYER
  5
2
330
0
100
AcDbSymbolTable
 70
     2
  0
LAYER
  5
10
330
2
100
AcDbSymbolTableRecord
100
AcDbLayerTableRecord
  2
0
 70
     0
 62
     7
  6
Continuous
370
    -3
390
F
347
3E
  0
LAYER
  5
40
330
2
100
AcDbSymbolTableRecord
100
AcDbLayerTableRecord
  2
_U+30EC_U+30A4_U+30E4_U+30FC 1
 70
     0
 62
     7
  6
Continuous
370
    -3
390
F
347
3E
  0
ENDTAB
  0
TABLE
  2
STYLE
  5
3
330
0
100
AcDbSymbolTable
 70
     1
  0
STYLE
  5
11
330
3
100
AcDbSymbolTableRecord
100
AcDbTextStyleTableRecord
  2
Standard
 70
     0
 40
0.0
 41
1.0
 50
0.0
 71
     0
 42
0.2
  3
txt
  4

  0
ENDTAB
  0
TABLE
  2
VIEW
  5
6
330
0
100
AcDbSymbolTable
 70
     0
  0
ENDTAB
  0
TABLE
  2
UCS
  5
7
330
0
100
AcDbSymbolTable
 70
     0
  0
ENDTAB
  0
TABLE
  2
APPID
  5
9
330
0
100
AcDbSymbolTable
 70
     1
  0
APPID
  5
12
330
9
100
AcDbSymbolTableRecord
100
AcDbRegAppTableRecord
  2
ACAD
 70
     0
  0
ENDTAB
  0
TABLE
  2
DIMSTYLE
  5
A
330
0
100
AcDbSymbolTable
 70
     1
100
AcDbDimStyleTable
  0
DIMSTYLE
105
27
330
A
100
AcDbSymbolTableRecord
100
AcDbDimStyleTableRecord
  2
Standard
 70
     0
178
     0
340
11
  0
ENDTAB
  0
TABLE
  2
BLOCK_RECORD
  5
1
330
0
100
AcDbSymbolTable
 70
     7
  0
BLOCK_RECORD
  5
1F
330
1
100
AcDbSymbolTableRecord
100
AcDbBlockTableRecord
  2
*Model_Space
340
22
 70
     0
280
     1
281
     0
  0
BLOCK_RECORD
  5
1B
330
1
100
AcDbSymbolTableRecord
100
AcDbBlockTableRecord
  2
*Paper_Space
340
1E
 70
     0
280
     1
281
     0
  0
BLOCK_RECORD
  5
23
330
1
100
AcDbSymbolTableRecord
100
AcDbBlockTableRecord
  2
*Paper_Space0
340
26
 70
     0
280
     1
281
     0
  0
BLOCK_RECORD
  5
41
330
1
100
AcDbSymbolTableRecord
100
AcDbBlockTableRecord
  2
block 2
340
0
102
{BLKREFS
331
42
102
}
 70
     0
280
     1
281
     0
  0
BLOCK_RECORD
  5
8D
330
1
100
AcDbSymbolTableRecord
100
AcDbBlockTableRecord
  2
block 3
340
0
102
{BLKREFS
331
8E
102
}
 70
     0
280
     1
281
     0
  0
BLOCK_RECORD
  5
A8
330
1
100
AcDbSymbolTableRecord
100
AcDbBlockTableRecord
  2
block 4
340
0
102
{BLKREFS
331
A9
102
}
 70
     0
280
     1
281
     0
  0
BLOCK_RECORD
  5
BA
330
1
100
AcDbSymbolTableRecord
100
AcDbBlockTableRecord
  2
block 5
340
0
102
{BLKREFS
331
BB
102
}
 70
     0
280
     1
281
     0
  0
BLOCK_RECORD
  5
CF
330
1
100
AcDbSymbolTableRecord
100
AcDbBlockTableRecord
  2
block 6
340
0
102
{BLKREFS
331
D0
102
}
 70
     0
280
     1
281
     0
  0
BLOCK_RECORD
  5
DF
330
1
100
AcDbSymbolTableRecord
100
AcDbBlockTableRecord
  2
block 7
340
0
102
{BLKREFS
331
E0
102
}
 70
     0
280
     1
281
     0
  0
ENDTAB
  0
ENDSEC
  0
SECTION
  2
BLOCKS
  0
BLOCK
  5
20
330
1F
100
AcDbEntity
  8
0
100
AcDbBlockBegin
  2
*Model_Space
 70
     0
 10
0.0
 20
0.0
 30
0.0
  3
*Model_Space
  1

  0
ENDBLK
  5
21
330
1F
100
AcDbEntity
  8
0
100
AcDbBlockEnd
  0
BLOCK
  5
1C
330
1B
100
AcDbEntity
 67
     1
  8
0
100
AcDbBlockBegin
  2
*Paper_Space
 70
     0
 10
0.0
 20
0.0
 30
0.0
  3
*Paper_Space
  1

  0
ENDBLK
  5
1D
330
1B
100
AcDbEntity
 67
     1
  8
0
100
AcDbBlockEnd
  0
BLOCK
  5
24
330
23
100
AcDbEntity
  8
0
100
AcDbBlockBegin
  2
*Paper_Space0
 70
     0
 10
0.0
 20
0.0
 30
0.0
  3
*Paper_Space0
  1

  0
ENDBLK
  5
25
330
23
100
AcDbEntity
  8
0
100
AcDbBlockEnd
  0
BLOCK
  5
43
330
41
100
AcDbEntity
  8
0
100
AcDbBlockBegin
  2
block 2
 70
     0
 10
0.0
 20
0.0
 30
0.0
  3
block 2
  1

  0
POLYLINE
  5
45
330
41
100
AcDbEntity
  8
_U+30EC_U+30A4_U+30E4_U+30FC 1
 62
   179
420
  2234388
370
    25
100
AcDb2dPolyline
 66
     1
 10
0.0
 20
0.0
 30
0.0
  0
VERTEX
  5
46
330
45
100
AcDbEntity
  8
_U+30EC_U+30A4_U+30E4_U+30FC 1
 62
   179
420
  2234388
370
    25
100
AcDbVertex
100
AcDb2dVertex
 10
49.47930457101111
 20
-84.28527859003968
 30
0.0
  0
VERTEX
  5
47
330
45
100
AcDbEntity
  8
_U+30EC_U+30A4_U+30E4_U+30FC 1
 62
   179
420
  2234388
370
    25
100
AcDbVertex
100
AcDb2dVertex
 10
72.47928620645492
 20
-84.28527859003968
 30
0.0
  0
SEQEND
  5
48
330
45
100
AcDbEntity
  8
_U+30EC_U+30A4_U+30E4_U+30FC 1
 62
   179
420
  2234388
370
    25
  0
POLYLINE
  5
49
330
41
100
AcDbEntity
  8
_U+30EC_U+30A4_U+30E4_U+30FC 1
 62
   179
420
  2234388
370
    25
100
AcDb2dPolyline
 66
     1
 10
0.0
 20
0.0
 30
0.0
  0
VERTEX
  5
4A
330
49
100
AcDbEntity
  8
_U+30EC_U+30A4_U+30E4_U+30FC 1
 62
   179
420
  2234388
370
    25
100
AcDbVertex
100
AcDb2dVertex
 10
50.27926343949134
 20
-85.08523747872863
 30
0.0
  0
VERTEX
  5
4B
330
49
100
AcDbEntity
  8
_U+30EC_U+30A4_U+30E4_U+30FC 1
 62
   179
420
  2234388
370
    25
100
AcDbVertex
100
AcDb2dVertex
 10
72.47928620645492
 20
-85.08523747872863
 30
0.0
  0
SEQEND
  5
4C
330
49
100
AcDbEntity
  8
_U+30EC_U+30A4_U+30E4_U+30FC 1
 62
   179
420
  2234388
370
    25
  0
POLYLINE
  5
4D
330
41
100
AcDbEntity
  8
_U+30EC_U+30A4_U+30E4_U+30FC 1
 62
   179
420
  2234388
370
    25
100
AcDb2dPolyline
 66
     1
 10
0.0
 20
0.0
 30
0.0
  0
VERTEX
  5
4E
330
4D
100
AcDbEntity
  8
_U+30EC_U+30A4_U+30E4_U+30FC 1
 62
   179
420
  2234388
370
    25
100
AcDbVertex
100
AcDb2dVertex
 10
72.47928620645492
 20
-84.28527859003968
 30
0.0
  0
VERTEX
  5
4F
330
4D
100
AcDbEntity
  8
_U+30EC_U+30A4_U+30E4_U+30FC 1
 62
   179
420
  2234388
370
    25
100
AcDbVertex
100
AcDb2dVertex
 10
72.47928620645492
 20
-85.08523747872863
 30
0.0
  0
SEQEND
  5
50
330
4D
100
AcDbEntity
  8
_U+30EC_U+30A4_U+30E4_U+30FC 1
 62
   179
420
  2234388
370
    25
  0
POLYLINE
  5
51
330
41
100
AcDbEntity
  8
_U+30EC_U+30A4_U+30E4_U+30FC 1
 62
   179
420
  2234388
370
    25
100
AcDb2dPolyline
 66
     1
 10
0.0
 20
0.0
 30
0.0
  0
VERTEX
  5
52
330
51
100
AcDbEntity
  8
_U+30EC_U+30A4_U+30E4_U+30FC 1
 62
   179
420
  2234388
370
    25
100
AcDbVertex
100
AcDb2dVertex
 10
55.4631210850179
 20
-94.58508442079824
 30
0.0
  0
VERTEX
  5
53
330
51
100
AcDbEntity
  8
_U+30EC_U+30A4_U+30E4_U+30FC 1
 62
   179
420
  2234388
370
    25
100
AcDbVertex
100
AcDb2dVertex
 10
59.4790726492291
 20
-94.58508442079824
 30
0.0
  0
SEQEND
  5
54
330
51
100
AcDbEntity
  8
_U+30EC_U+30A4_U+30E4_U+30FC 1
 62
   179
420
  2234388
370
    25
  0
POLYLINE
  5
55
330
41
100
AcDbEntity
  8
_U+30EC_U+30A4_U+30E4_U+30FC 1
 62
   179
420
  2234388
370
    25
100
AcDb2dPolyline
 66
     1
 10
0.0
 20
0.0
 30
0.0
  0
VERTEX
  5
56
330
55
100
AcDbEntity
  8
_U+30EC_U+30A4_U+30E4_U+30FC 1
 62
   179
420
  2234388
370
    25
100
AcDbVertex
100
AcDb2dVertex
 10
49.47930457101111
 20
-97.58507136449259
 30
0.0
  0
VERTEX
  5
57
330
55
100
AcDbEntity
  8
_U+30EC_U+30A4_U+30E4_U+30FC 1
 62
   179
420
  2234388
370
    25
100
AcDbVertex
100
AcDb2dVertex
 10
59.4790726492291
 20
-97.58507136449259
 30
0.0
  0
SEQEND
  5
58
330
55
100
AcDbEntity
  8
_U+30EC_U+30A4_U+30E4_U+30FC 1
 62
   179
420
  2234388
370
    25
  0
POLYLINE
  5
59
330
41
100
AcDbEntity
  8
_U+30EC_U+30A4_U+30E4_U+30FC 1
 62
   179
420
  2234388
370
    25
100
AcDb2dPolyline
 66
     1
 10
0.0
 20
0.0
 30
0.0
  0
VERTEX
  5
5A
330
59
100
AcDbEntity
  8
_U+30EC_U+30A4_U+30E4_U+30FC 1
 62
   179
420
  2234388
370
    25
100
AcDbVertex
100
AcDb2dVertex
 10
59.4790726492291
 20
-94.58508442079824
 30
0.0
  0
VERTEX
  5
5B
330
59
100
AcDbEntity
  8
_U+30EC_U+30A4_U+30E4_U+30FC 1
 62
   179
420
  2234388
370
    25
100
AcDbVertex
100
AcDb2dVertex
 10
59.4790726492291
 20
-97.58507136449259
 30
0.0
  0
SEQEND
  5
5C
330
59
100
AcDbEntity
  8
_U+30EC_U+30A4_U+30E4_U+30FC 1
 62
   179
420
  2234388
370
    25
  0
POLYLINE
  5
5D
330
41
100
AcDbEntity
  8
_U+30EC_U+30A4_U+30E4_U+30FC 1
 62
   179
420
  2234388
370
    25
100
AcDb2dPolyline
 66
     1
 10
0.0
 20
0.0
 30
0.0
  0
VERTEX
  5
5E
330
5D
100
AcDbEntity
  8
_U+30EC_U+30A4_U+30E4_U+30FC 1
 62
   179
420
  2234388
370
    25
100
AcDbVertex
100
AcDb2dVertex
 10
55.4631210850179
 20
-94.58508442079824
 30
0.0
  0
VERTEX
  5
5F
330
5D
100
AcDbEntity
  8
_U+30EC_U+30A4_U+30E4_U+30FC 1
 62
   179
420
  2234388
370
    25
100
AcDbVertex
100
AcDb2dVertex
 10
55.4631210850179
 20
-95.38504330948686
 30
0.0
  0
SEQEND
  5
60
330
5D
100
AcDbEntity
  8
_U+30EC_U+30A4_U+30E4_U+30FC 1
 62
   179
420
  2234388
370
    25
  0
POLYLINE
  5
61
330
41
100
AcDbEntity
  8
_U+30EC_U+30A4_U+30E4_U+30FC 1
 62
   179
420
  2234388
370
    25
100
AcDb2dPolyline
 66
     1
 10
0.0
 20
0.0
 30
0.0
  0
VERTEX
  5
62
330
61
100
AcDbEntity
  8
_U+30EC_U+30A4_U+30E4_U+30FC 1
 62
   179
420
  2234388
370
    25
100
AcDbVertex
100
AcDb2dVertex
 10
50.27926343949134
 20
-96.78514775358148
 30
0.0
  0
VERTEX
  5
63
330
61
100
AcDbEntity
  8
_U+30EC_U+30A4_U+30E4_U+30FC 1
 62
   179
420
  2234388
370
    25
100
AcDbVertex
100
AcDb2dVertex
 10
58.67911378074886
 20
-96.78514775358148
 30
0.0
  0
SEQEND
  5
64
330
61
100
AcDbEntity
  8
_U+30EC_U+30A4_U+30E4_U+30FC 1
 62
   179
420
  2234388
370
    25
  0
POLYLINE
  5
65
330
41
100
AcDbEntity
  8
_U+30EC_U+30A4_U+30E4_U+30FC 1
 62
   179
420
  2234388
370
    25
100
AcDb2dPolyline
 66
     1
 10
0.0
 20
0.0
 30
0.0
  0
VERTEX
  5
66
330
65
100
AcDbEntity
  8
_U+30EC_U+30A4_U+30E4_U+30FC 1
 62
   179
420
  2234388
370
    25
100
AcDbVertex
100
AcDb2dVertex
 10
58.67911378074886
 20
-95.38504330948686
 30
0.0
  0
VERTEX
  5
67
330
65
100
AcDbEntity
  8
_U+30EC_U+30A4_U+30E4_U+30FC 1
 62
   179
420
  2234388
370
    25
100
AcDbVertex
100
AcDb2dVertex
 10
58.67911378074886
 20
-96.78514775358148
 30
0.0
  0
SEQEND
  5
68
330
65
100
AcDbEntity
  8
_U+30EC_U+30A4_U+30E4_U+30FC 1
 62
   179
420
  2234388
370
    25
  0
POLYLINE
  5
69
330
41
100
AcDbEntity
  8
_U+30EC_U+30A4_U+30E4_U+30FC 1
 62
   179
420
  2234388
370
    25
100
AcDb2dPolyline
 66
     1
 10
0.0
 20
0.0
 30
0.0
  0
VERTEX
  5
6A
330
69
100
AcDbEntity
  8
_U+30EC_U+30A4_U+30E4_U+30FC 1
 62
   179
420
  2234388
370
    25
100
AcDbVertex
100
AcDb2dVertex
 10
55.4631210850179
 20
-95.38504330948686
 30
0.0
  0
VERTEX
  5
6B
330
69
100
AcDbEntity
  8
_U+30EC_U+30A4_U+30E4_U+30FC 1
 62
   179
420
  2234388
370
    25
100
AcDbVertex
100
AcDb2dVertex
 10
58.67911378074886
 20
-95.38504330948686
 30
0.0
  0
SEQEND
  5
6C
330
69
100
AcDbEntity
  8
_U+30EC_U+30A4_U+30E4_U+30FC 1
 62
   179
420
  2234388
370
    25
  0
POLYLINE
  5
6D
330
41
100
AcDbEntity
  8
_U+30EC_U+30A4_U+30E4_U+30FC 1
 62
   179
420
  2234388
370
    25
100
AcDb2dPolyline
 66
     1
 10
0.0
 20
0.0
 30
0.0
  0
VERTEX
  5
6E
330
6D
100
AcDbEntity
  8
_U+30EC_U+30A4_U+30E4_U+30FC 1
 62
   179
420
  2234388
370
    25
100
AcDbVertex
100
AcDb2dVertex
 10
49.47930457101111
 20
-84.28527859003968
 30
0.0
  0
VERTEX
  5
6F
330
6D
100
AcDbEntity
  8
_U+30EC_U+30A4_U+30E4_U+30FC 1
 62
   179
420
  2234388
370
    25
100
AcDbVertex
100
AcDb2dVertex
 10
49.47930457101111
 20
-97.58507136449259
 30
0.0
  0
SEQEND
  5
70
330
6D
100
AcDbEntity
  8
_U+30EC_U+30A4_U+30E4_U+30FC 1
 62
   179
420
  2234388
370
    25
  0
POLYLINE
  5
71
330
41
100
AcDbEntity
  8
_U+30EC_U+30A4_U+30E4_U+30FC 1
 62
   179
420
  2234388
370
    25
100
AcDb2dPolyline
 66
     1
 10
0.0
 20
0.0
 30
0.0
  0
VERTEX
  5
72
330
71
100
AcDbEntity
  8
_U+30EC_U+30A4_U+30E4_U+30FC 1
 62
   179
420
  2234388
370
    25
100
AcDbVertex
100
AcDb2dVertex
 10
50.27926343949134
 20
-85.08523747872863
 30
0.0
  0
VERTEX
  5
73
330
71
100
AcDbEntity
  8
_U+30EC_U+30A4_U+30E4_U+30FC 1
 62
   179
420
  2234388
370
    25
100
AcDbVertex
100
AcDb2dVertex
 10
50.27926343949134
 20
-96.78514775358148
 30
0.0
  0
SEQEND
  5
74
330
71
100
AcDbEntity
  8
_U+30EC_U+30A4_U+30E4_U+30FC 1
 62
   179
420
  2234388
370
    25
  0
SPLINE
  5
75
330
41
100
AcDbEntity
  8
_U+30EC_U+30A4_U+30E4_U+30FC 1
 62
   179
420
  2234388
370
     9
100
AcDbSpline
210
0.0
220
0.0
230
1.0
 70
    11
 71
     3
 72
    17
 73
    13
 74
     0
 42
0.0000000001
 43
0.0000000001
 12
1.0
 22
0.0
 32
0.0
 13
1.0
 23
0.0
 33
0.0
 40
0.0
 40
0.0
 40
0.0
 40
0.0
 40
1.0
 40
1.0
 40
1.0
 40
2.0
 40
2.0
 40
2.0
 40
3.0
 40
3.0
 40
3.0
 40
4.0
 40
4.0
 40
4.0
 40
4.0
 10
76.57895193519707
 20
-84.28527859003968
 30
0.0
 10
76.57895193519707
 20
-84.22946914560924
 30
0.0
 10
76.53418443633917
 20
-84.18470164562035
 30
0.0
 10
76.4790472031022
 20
-84.18470164562035
 30
0.0
 10
76.42394138359616
 20
-84.18470164562035
 30
0.0
 10
76.37913860696139
 20
-84.22946914560924
 30
0.0
 10
76.37913860696139
 20
-84.28527859003968
 30
0.0
 10
76.37913860696139
 20
-84.34041775669276
 30
0.0
 10
76.42394138359616
 20
-84.38518525668164
 30
0.0
 10
76.4790472031022
 20
-84.38518525668164
 30
0.0
 10
76.53418443633917
 20
-84.38518525668164
 30
0.0
 10
76.57895193519707
 20
-84.34041775669276
 30
0.0
 10
76.57895193519707
 20
-84.28527859003968
 30
0.0
  0
SPLINE
  5
76
330
41
100
AcDbEntity
  8
_U+30EC_U+30A4_U+30E4_U+30FC 1
 62
   179
420
  2234388
370
     9
100
AcDbSpline
210
0.0
220
0.0
230
1.0
 70
    11
 71
     3
 72
    17
 73
    13
 74
     0
 42
0.0000000001
 43
0.0000000001
 12
1.0
 22
0.0
 32
0.0
 13
1.0
 23
0.0
 33
0.0
 40
0.0
 40
0.0
 40
0.0
 40
0.0
 40
1.0
 40
1.0
 40
1.0
 40
2.0
 40
2.0
 40
2.0
 40
3.0
 40
3.0
 40
3.0
 40
4.0
 40
4.0
 40
4.0
 40
4.0
 10
76.57895193519707
 20
-85.08523747872863
 30
0.0
 10
76.57895193519707
 20
-85.0301335898537
 30
0.0
 10
76.53418443633917
 20
-84.98533081208699
 30
0.0
 10
76.4790472031022
 20
-84.98533081208699
 30
0.0
 10
76.42394138359616
 20
-84.98533081208699
 30
0.0
 10
76.37913860696139
 20
-85.0301335898537
 30
0.0
 10
76.37913860696139
 20
-85.08523747872863
 30
0.0
 10
76.37913860696139
 20
-85.1403766453817
 30
0.0
 10
76.42394138359616
 20
-85.18514414537026
 30
0.0
 10
76.4790472031022
 20
-85.18514414537026
 30
0.0
 10
76.53418443633917
 20
-85.18514414537026
 30
0.0
 10
76.57895193519707
 20
-85.1403766453817
 30
0.0
 10
76.57895193519707
 20
-85.08523747872863
 30
0.0
  0
SPLINE
  5
77
330
41
100
AcDbEntity
  8
_U+30EC_U+30A4_U+30E4_U+30FC 1
 62
   179
420
  2234388
370
     9
100
AcDbSpline
210
0.0
220
0.0
230
1.0
 70
    11
 71
     3
 72
    17
 73
    13
 74
     0
 42
0.0000000001
 43
0.0000000001
 12
1.0
 22
0.0
 32
0.0
 13
1.0
 23
0.0
 33
0.0
 40
0.0
 40
0.0
 40
0.0
 40
0.0
 40
1.0
 40
1.0
 40
1.0
 40
2.0
 40
2.0
 40
2.0
 40
3.0
 40
3.0
 40
3.0
 40
4.0
 40
4.0
 40
4.0
 40
4.0
 10
72.57919287057275
 20
-80.28484914659543
 30
0.0
 10
72.57919287057275
 20
-80.2297452577202
 30
0.0
 10
72.53442537171486
 20
-80.18494247995379
 30
0.0
 10
72.47928620645492
 20
-80.18494247995379
 30
0.0
 10
72.42418231897184
 20
-80.18494247995379
 30
0.0
 10
72.37937954233708
 20
-80.2297452577202
 30
0.0
 10
72.37937954233708
 20
-80.28484914659543
 30
0.0
 10
72.37937954233708
 20
-80.33998831324818
 30
0.0
 10
72.42418231897184
 20
-80.38475581323706
 30
0.0
 10
72.47928620645492
 20
-80.38475581323706
 30
0.0
 10
72.53442537171486
 20
-80.38475581323706
 30
0.0
 10
72.57919287057275
 20
-80.33998831324818
 30
0.0
 10
72.57919287057275
 20
-80.28484914659543
 30
0.0
  0
SPLINE
  5
78
330
41
100
AcDbEntity
  8
_U+30EC_U+30A4_U+30E4_U+30FC 1
 62
   179
420
  2234388
370
     9
100
AcDbSpline
210
0.0
220
0.0
230
1.0
 70
    11
 71
     3
 72
    17
 73
    13
 74
     0
 42
0.0000000001
 43
0.0000000001
 12
1.0
 22
0.0
 32
0.0
 13
1.0
 23
0.0
 33
0.0
 40
0.0
 40
0.0
 40
0.0
 40
0.0
 40
1.0
 40
1.0
 40
1.0
 40
2.0
 40
2.0
 40
2.0
 40
3.0
 40
3.0
 40
3.0
 40
4.0
 40
4.0
 40
4.0
 40
4.0
 10
59.57929681333884
 20
-101.585536085715
 30
0.0
 10
59.57929681333884
 20
-101.5297266412846
 30
0.0
 10
59.53452931448096
 20
-101.4849238635178
 30
0.0
 10
59.4790726492291
 20
-101.4849238635178
 30
0.0
 10
59.42393348396916
 20
-101.4849238635178
 30
0.0
 10
59.37913070733439
 20
-101.5297266412846
 30
0.0
 10
59.37913070733439
 20
-101.585536085715
 30
0.0
 10
59.37913070733439
 20
-101.6406399745899
 30
0.0
 10
59.42393348396916
 20
-101.6854427523566
 30
0.0
 10
59.4790726492291
 20
-101.6854427523566
 30
0.0
 10
59.53452931448096
 20
-101.6854427523566
 30
0.0
 10
59.57929681333884
 20
-101.6406399745899
 30
0.0
 10
59.57929681333884
 20
-101.585536085715
 30
0.0
  0
SPLINE
  5
79
330
41
100
AcDbEntity
  8
_U+30EC_U+30A4_U+30E4_U+30FC 1
 62
   179
420
  2234388
370
     9
100
AcDbSpline
210
0.0
220
0.0
230
1.0
 70
    11
 71
     3
 72
    17
 73
    13
 74
     0
 42
0.0000000001
 43
0.0000000001
 12
1.0
 22
0.0
 32
0.0
 13
1.0
 23
0.0
 33
0.0
 40
0.0
 40
0.0
 40
0.0
 40
0.0
 40
1.0
 40
1.0
 40
1.0
 40
2.0
 40
2.0
 40
2.0
 40
3.0
 40
3.0
 40
3.0
 40
4.0
 40
4.0
 40
4.0
 40
4.0
 10
76.57895193519707
 20
-97.58507136449259
 30
0.0
 10
76.57895193519707
 20
-97.52996747561767
 30
0.0
 10
76.53418443633917
 20
-97.48516469785095
 30
0.0
 10
76.4790472031022
 20
-97.48516469785095
 30
0.0
 10
76.42394138359616
 20
-97.48516469785095
 30
0.0
 10
76.37913860696139
 20
-97.52996747561767
 30
0.0
 10
76.37913860696139
 20
-97.58507136449259
 30
0.0
 10
76.37913860696139
 20
-97.64021053114567
 30
0.0
 10
76.42394138359616
 20
-97.68497803113422
 30
0.0
 10
76.4790472031022
 20
-97.68497803113422
 30
0.0
 10
76.53418443633917
 20
-97.68497803113422
 30
0.0
 10
76.57895193519707
 20
-97.64021053114567
 30
0.0
 10
76.57895193519707
 20
-97.58507136449259
 30
0.0
  0
SPLINE
  5
7A
330
41
100
AcDbEntity
  8
_U+30EC_U+30A4_U+30E4_U+30FC 1
 62
   179
420
  2234388
370
     9
100
AcDbSpline
210
0.0
220
0.0
230
1.0
 70
    11
 71
     3
 72
    17
 73
    13
 74
     0
 42
0.0000000001
 43
0.0000000001
 12
1.0
 22
0.0
 32
0.0
 13
1.0
 23
0.0
 33
0.0
 40
0.0
 40
0.0
 40
0.0
 40
0.0
 40
1.0
 40
1.0
 40
1.0
 40
2.0
 40
2.0
 40
2.0
 40
3.0
 40
3.0
 40
3.0
 40
4.0
 40
4.0
 40
4.0
 40
4.0
 10
76.57895193519707
 20
-94.58508442079824
 30
0.0
 10
76.57895193519707
 20
-94.52998053192333
 30
0.0
 10
76.53418443633917
 20
-94.48517775415661
 30
0.0
 10
76.4790472031022
 20
-94.48517775415661
 30
0.0
 10
76.42394138359616
 20
-94.48517775415661
 30
0.0
 10
76.37913860696139
 20
-94.52998053192333
 30
0.0
 10
76.37913860696139
 20
-94.58508442079824
 30
0.0
 10
76.37913860696139
 20
-94.64022358745132
 30
0.0
 10
76.42394138359616
 20
-94.68499108743988
 30
0.0
 10
76.4790472031022
 20
-94.68499108743988
 30
0.0
 10
76.53418443633917
 20
-94.68499108743988
 30
0.0
 10
76.57895193519707
 20
-94.64022358745132
 30
0.0
 10
76.57895193519707
 20
-94.58508442079824
 30
0.0
  0
SPLINE
  5
7B
330
41
100
AcDbEntity
  8
_U+30EC_U+30A4_U+30E4_U+30FC 1
 62
   179
420
  2234388
370
     9
100
AcDbSpline
210
0.0
220
0.0
230
1.0
 70
    11
 71
     3
 72
    17
 73
    13
 74
     0
 42
0.0000000001
 43
0.0000000001
 12
1.0
 22
0.0
 32
0.0
 13
1.0
 23
0.0
 33
0.0
 40
0.0
 40
0.0
 40
0.0
 40
0.0
 40
1.0
 40
1.0
 40
1.0
 40
2.0
 40
2.0
 40
2.0
 40
3.0
 40
3.0
 40
3.0
 40
4.0
 40
4.0
 40
4.0
 40
4.0
 10
49.57924651290582
 20
-80.28484914659543
 30
0.0
 10
49.57924651290582
 20
-80.2297452577202
 30
0.0
 10
49.53444373627106
 20
-80.18494247995379
 30
0.0
 10
49.47930457101111
 20
-80.18494247995379
 30
0.0
 10
49.42420068352803
 20
-80.18494247995379
 30
0.0
 10
49.37939790689327
 20
-80.2297452577202
 30
0.0
 10
49.37939790689327
 20
-80.28484914659543
 30
0.0
 10
49.37939790689327
 20
-80.33998831324818
 30
0.0
 10
49.42420068352803
 20
-80.38475581323706
 30
0.0
 10
49.47930457101111
 20
-80.38475581323706
 30
0.0
 10
49.53444373627106
 20
-80.38475581323706
 30
0.0
 10
49.57924651290582
 20
-80.33998831324818
 30
0.0
 10
49.57924651290582
 20
-80.28484914659543
 30
0.0
  0
SPLINE
  5
7C
330
41
100
AcDbEntity
  8
_U+30EC_U+30A4_U+30E4_U+30FC 1
 62
   179
420
  2234388
370
     9
100
AcDbSpline
210
0.0
220
0.0
230
1.0
 70
    11
 71
     3
 72
    17
 73
    13
 74
     0
 42
0.0000000001
 43
0.0000000001
 12
1.0
 22
0.0
 32
0.0
 13
1.0
 23
0.0
 33
0.0
 40
0.0
 40
0.0
 40
0.0
 40
0.0
 40
1.0
 40
1.0
 40
1.0
 40
2.0
 40
2.0
 40
2.0
 40
3.0
 40
3.0
 40
3.0
 40
4.0
 40
4.0
 40
4.0
 40
4.0
 10
49.57924651290582
 20
-101.585536085715
 30
0.0
 10
49.57924651290582
 20
-101.5297266412846
 30
0.0
 10
49.53444373627106
 20
-101.4849238635178
 30
0.0
 10
49.47930457101111
 20
-101.4849238635178
 30
0.0
 10
49.42420068352803
 20
-101.4849238635178
 30
0.0
 10
49.37939790689327
 20
-101.5297266412846
 30
0.0
 10
49.37939790689327
 20
-101.585536085715
 30
0.0
 10
49.37939790689327
 20
-101.6406399745899
 30
0.0
 10
49.42420068352803
 20
-101.6854427523566
 30
0.0
 10
49.47930457101111
 20
-101.6854427523566
 30
0.0
 10
49.53444373627106
 20
-101.6854427523566
 30
0.0
 10
49.57924651290582
 20
-101.6406399745899
 30
0.0
 10
49.57924651290582
 20
-101.585536085715
 30
0.0
  0
POLYLINE
  5
7D
330
41
100
AcDbEntity
  8
_U+30EC_U+30A4_U+30E4_U+30FC 1
 62
   179
420
  2234388
370
     9
100
AcDb2dPolyline
 66
     1
 10
0.0
 20
0.0
 30
0.0
  0
VERTEX
  5
7E
330
7D
100
AcDbEntity
  8
_U+30EC_U+30A4_U+30E4_U+30FC 1
 62
   179
420
  2234388
370
     9
100
AcDbVertex
100
AcDb2dVertex
 10
76.4790472031022
 20
-84.28527859003968
 30
0.0
  0
VERTEX
  5
7F
330
7D
100
AcDbEntity
  8
_U+30EC_U+30A4_U+30E4_U+30FC 1
 62
   179
420
  2234388
370
     9
100
AcDbVertex
100
AcDb2dVertex
 10
76.4790472031022
 20
-79.02737275802109
 30
0.0
  0
SEQEND
  5
80
330
7D
100
AcDbEntity
  8
_U+30EC_U+30A4_U+30E4_U+30FC 1
 62
   179
420
  2234388
370
     9
  0
POLYLINE
  5
81
330
41
100
AcDbEntity
  8
_U+30EC_U+30A4_U+30E4_U+30FC 1
 62
   179
420
  2234388
370
     9
100
AcDb2dPolyline
 66
     1
 10
0.0
 20
0.0
 30
0.0
  0
VERTEX
  5
82
330
81
100
AcDbEntity
  8
_U+30EC_U+30A4_U+30E4_U+30FC 1
 62
   179
420
  2234388
370
     9
100
AcDbVertex
100
AcDb2dVertex
 10
76.4790472031022
 20
-84.28527859003968
 30
0.0
  0
VERTEX
  5
83
330
81
100
AcDbEntity
  8
_U+30EC_U+30A4_U+30E4_U+30FC 1
 62
   179
420
  2234388
370
     9
100
AcDbVertex
100
AcDb2dVertex
 10
76.4790472031022
 20
-85.08523747872863
 30
0.0
  0
SEQEND
  5
84
330
81
100
AcDbEntity
  8
_U+30EC_U+30A4_U+30E4_U+30FC 1
 62
   179
420
  2234388
370
     9
  0
POLYLINE
  5
85
330
41
100
AcDbEntity
  8
_U+30EC_U+30A4_U+30E4_U+30FC 1
 62
   179
420
  2234388
370
     9
100
AcDb2dPolyline
 66
     1
 10
0.0
 20
0.0
 30
0.0
  0
VERTEX
  5
86
330
85
100
AcDbEntity
  8
_U+30EC_U+30A4_U+30E4_U+30FC 1
 62
   179
420
  2234388
370
     9
100
AcDbVertex
100
AcDb2dVertex
 10
75.0190039194391
 20
-84.28527859003968
 30
0.0
  0
VERTEX
  5
87
330
85
100
AcDbEntity
  8
_U+30EC_U+30A4_U+30E4_U+30FC 1
 62
   179
420
  2234388
370
     9
100
AcDbVertex
100
AcDb2dVertex
 10
77.47952498063026
 20
-84.28527859003968
 30
0.0
  0
SEQEND
  5
88
330
85
100
AcDbEntity
  8
_U+30EC_U+30A4_U+30E4_U+30FC 1
 62
   179
420
  2234388
370
     9
  0
POLYLINE
  5
89
330
41
100
AcDbEntity
  8
_U+30EC_U+30A4_U+30E4_U+30FC 1
 62
   179
420
  2234388
370
     9
100
AcDb2dPolyline
 66
     1
 10
0.0
 20
0.0
 30
0.0
  0
VERTEX
  5
8A
330
89
100
AcDbEntity
  8
_U+30EC_U+30A4_U+30E4_U+30FC 1
 62
   179
420
  2234388
370
     9
100
AcDbVertex
100
AcDb2dVertex
 10
75.0190039194391
 20
-85.08523747872863
 30
0.0
  0
VERTEX
  5
8B
330
89
100
AcDbEntity
  8
_U+30EC_U+30A4_U+30E4_U+30FC 1
 62
   179
420
  2234388
370
     9
100
AcDbVertex
100
AcDb2dVertex
 10
77.47952498063026
 20
-85.08523747872863
 30
0.0
  0
SEQEND
  5
8C
330
89
100
AcDbEntity
  8
_U+30EC_U+30A4_U+30E4_U+30FC 1
 62
   179
420
  2234388
370
     9
  0
INSERT
  5
8E
330
41
100
AcDbEntity
  8
_U+30EC_U+30A4_U+30E4_U+30FC 1
100
AcDbBlockReference
  2
block 3
 10
0.0
 20
0.0
 30
0.0
  0
POLYLINE
  5
A0
330
41
100
AcDbEntity
  8
_U+30EC_U+30A4_U+30E4_U+30FC 1
 62
   179
420
  2234388
370
     9
100
AcDb2dPolyline
 66
     1
 10
0.0
 20
0.0
 30
0.0
  0
VERTEX
  5
A1
330
A0
100
AcDbEntity
  8
_U+30EC_U+30A4_U+30E4_U+30FC 1
 62
   179
420
  2234388
370
     9
100
AcDbVertex
100
AcDb2dVertex
 10
76.4790472031022
 20
-94.58508442079824
 30
0.0
  0
VERTEX
  5
A2
330
A0
100
AcDbEntity
  8
_U+30EC_U+30A4_U+30E4_U+30FC 1
 62
   179
420
  2234388
370
     9
100
AcDbVertex
100
AcDb2dVertex
 10
76.4790472031022
 20
-97.58507136449259
 30
0.0
  0
SEQEND
  5
A3
330
A0
100
AcDbEntity
  8
_U+30EC_U+30A4_U+30E4_U+30FC 1
 62
   179
420
  2234388
370
     9
  0
POLYLINE
  5
A4
330
41
100
AcDbEntity
  8
_U+30EC_U+30A4_U+30E4_U+30FC 1
 62
   179
420
  2234388
370
     9
100
AcDb2dPolyline
 66
     1
 10
0.0
 20
0.0
 30
0.0
  0
VERTEX
  5
A5
330
A4
100
AcDbEntity
  8
_U+30EC_U+30A4_U+30E4_U+30FC 1
 62
   179
420
  2234388
370
     9
100
AcDbVertex
100
AcDb2dVertex
 10
62.01910786220518
 20
-97.58507136449259
 30
0.0
  0
VERTEX
  5
A6
330
A4
100
AcDbEntity
  8
_U+30EC_U+30A4_U+30E4_U+30FC 1
 62
   179
420
  2234388
370
     9
100
AcDbVertex
100
AcDb2dVertex
 10
77.47952498063026
 20
-97.58507136449259
 30
0.0
  0
SEQEND
  5
A7
330
A4
100
AcDbEntity
  8
_U+30EC_U+30A4_U+30E4_U+30FC 1
 62
   179
420
  2234388
370
     9
  0
INSERT
  5
A9
330
41
100
AcDbEntity
  8
_U+30EC_U+30A4_U+30E4_U+30FC 1
100
AcDbBlockReference
  2
block 4
 10
0.0
 20
0.0
 30
0.0
  0
POLYLINE
  5
AE
330
41
100
AcDbEntity
  8
_U+30EC_U+30A4_U+30E4_U+30FC 1
 62
   179
420
  2234388
370
     9
100
AcDb2dPolyline
 66
     1
 10
0.0
 20
0.0
 30
0.0
  0
VERTEX
  5
AF
330
AE
100
AcDbEntity
  8
_U+30EC_U+30A4_U+30E4_U+30FC 1
 62
   179
420
  2234388
370
     9
100
AcDbVertex
100
AcDb2dVertex
 10
49.47930457101111
 20
-101.585536085715
 30
0.0
  0
VERTEX
  5
B0
330
AE
100
AcDbEntity
  8
_U+30EC_U+30A4_U+30E4_U+30FC 1
 62
   179
420
  2234388
370
     9
100
AcDbVertex
100
AcDb2dVertex
 10
59.4790726492291
 20
-101.585536085715
 30
0.0
  0
SEQEND
  5
B1
330
AE
100
AcDbEntity
  8
_U+30EC_U+30A4_U+30E4_U+30FC 1
 62
   179
420
  2234388
370
     9
  0
POLYLINE
  5
B2
330
41
100
AcDbEntity
  8
_U+30EC_U+30A4_U+30E4_U+30FC 1
 62
   179
420
  2234388
370
     9
100
AcDb2dPolyline
 66
     1
 10
0.0
 20
0.0
 30
0.0
  0
VERTEX
  5
B3
330
B2
100
AcDbEntity
  8
_U+30EC_U+30A4_U+30E4_U+30FC 1
 62
   179
420
  2234388
370
     9
100
AcDbVertex
100
AcDb2dVertex
 10
49.47930457101111
 20
-100.1254946971906
 30
0.0
  0
VERTEX
  5
B4
330
B2
100
AcDbEntity
  8
_U+30EC_U+30A4_U+30E4_U+30FC 1
 62
   179
420
  2234388
370
     9
100
AcDbVertex
100
AcDb2dVertex
 10
49.47930457101111
 20
-102.5853083076869
 30
0.0
  0
SEQEND
  5
B5
330
B2
100
AcDbEntity
  8
_U+30EC_U+30A4_U+30E4_U+30FC 1
 62
   179
420
  2234388
370
     9
  0
POLYLINE
  5
B6
330
41
100
AcDbEntity
  8
_U+30EC_U+30A4_U+30E4_U+30FC 1
 62
   179
420
  2234388
370
     9
100
AcDb2dPolyline
 66
     1
 10
0.0
 20
0.0
 30
0.0
  0
VERTEX
  5
B7
330
B6
100
AcDbEntity
  8
_U+30EC_U+30A4_U+30E4_U+30FC 1
 62
   179
420
  2234388
370
     9
100
AcDbVertex
100
AcDb2dVertex
 10
59.4790726492291
 20
-100.1254946971906
 30
0.0
  0
VERTEX
  5
B8
330
B6
100
AcDbEntity
  8
_U+30EC_U+30A4_U+30E4_U+30FC 1
 62
   179
420
  2234388
370
     9
100
AcDbVertex
100
AcDb2dVertex
 10
59.4790726492291
 20
-102.5853083076869
 30
0.0
  0
SEQEND
  5
B9
330
B6
100
AcDbEntity
  8
_U+30EC_U+30A4_U+30E4_U+30FC 1
 62
   179
420
  2234388
370
     9
  0
INSERT
  5
BB
330
41
100
AcDbEntity
  8
_U+30EC_U+30A4_U+30E4_U+30FC 1
100
AcDbBlockReference
  2
block 5
 10
0.0
 20
0.0
 30
0.0
  0
POLYLINE
  5
C3
330
41
100
AcDbEntity
  8
_U+30EC_U+30A4_U+30E4_U+30FC 1
 62
   179
420
  2234388
370
     9
100
AcDb2dPolyline
 66
     1
 10
0.0
 20
0.0
 30
0.0
  0
VERTEX
  5
C4
330
C3
100
AcDbEntity
  8
_U+30EC_U+30A4_U+30E4_U+30FC 1
 62
   179
420
  2234388
370
     9
100
AcDbVertex
100
AcDb2dVertex
 10
49.47930457101111
 20
-80.28484914659543
 30
0.0
  0
VERTEX
  5
C5
330
C3
100
AcDbEntity
  8
_U+30EC_U+30A4_U+30E4_U+30FC 1
 62
   179
420
  2234388
370
     9
100
AcDbVertex
100
AcDb2dVertex
 10
72.47928620645492
 20
-80.28484914659543
 30
0.0
  0
SEQEND
  5
C6
330
C3
100
AcDbEntity
  8
_U+30EC_U+30A4_U+30E4_U+30FC 1
 62
   179
420
  2234388
370
     9
  0
POLYLINE
  5
C7
330
41
100
AcDbEntity
  8
_U+30EC_U+30A4_U+30E4_U+30FC 1
 62
   179
420
  2234388
370
     9
100
AcDb2dPolyline
 66
     1
 10
0.0
 20
0.0
 30
0.0
  0
VERTEX
  5
C8
330
C7
100
AcDbEntity
  8
_U+30EC_U+30A4_U+30E4_U+30FC 1
 62
   179
420
  2234388
370
     9
100
AcDbVertex
100
AcDb2dVertex
 10
49.47930457101111
 20
-81.74489053511947
 30
0.0
  0
VERTEX
  5
C9
330
C7
100
AcDbEntity
  8
_U+30EC_U+30A4_U+30E4_U+30FC 1
 62
   179
420
  2234388
370
     9
100
AcDbVertex
100
AcDb2dVertex
 10
49.47930457101111
 20
-79.28507692462321
 30
0.0
  0
SEQEND
  5
CA
330
C7
100
AcDbEntity
  8
_U+30EC_U+30A4_U+30E4_U+30FC 1
 62
   179
420
  2234388
370
     9
  0
POLYLINE
  5
CB
330
41
100
AcDbEntity
  8
_U+30EC_U+30A4_U+30E4_U+30FC 1
 62
   179
420
  2234388
370
     9
100
AcDb2dPolyline
 66
     1
 10
0.0
 20
0.0
 30
0.0
  0
VERTEX
  5
CC
330
CB
100
AcDbEntity
  8
_U+30EC_U+30A4_U+30E4_U+30FC 1
 62
   179
420
  2234388
370
     9
100
AcDbVertex
100
AcDb2dVertex
 10
72.47928620645492
 20
-81.74489053511947
 30
0.0
  0
VERTEX
  5
CD
330
CB
100
AcDbEntity
  8
_U+30EC_U+30A4_U+30E4_U+30FC 1
 62
   179
420
  2234388
370
     9
100
AcDbVertex
100
AcDb2dVertex
 10
72.47928620645492
 20
-79.28507692462321
 30
0.0
  0
SEQEND
  5
CE
330
CB
100
AcDbEntity
  8
_U+30EC_U+30A4_U+30E4_U+30FC 1
 62
   179
420
  2234388
370
     9
  0
INSERT
  5
D0
330
41
100
AcDbEntity
  8
_U+30EC_U+30A4_U+30E4_U+30FC 1
100
AcDbBlockReference
  2
block 6
 10
0.0
 20
0.0
 30
0.0
  0
POLYLINE
  5
D7
330
41
100
AcDbEntity
  8
_U+30EC_U+30A4_U+30E4_U+30FC 1
 62
   179
420
  2234388
370
     9
100
AcDb2dPolyline
 66
     1
 10
0.0
 20
0.0
 30
0.0
  0
VERTEX
  5
D8
330
D7
100
AcDbEntity
  8
_U+30EC_U+30A4_U+30E4_U+30FC 1
 62
   179
420
  2234388
370
     9
100
AcDbVertex
100
AcDb2dVertex
 10
76.4790472031022
 20
-94.58508442079824
 30
0.0
  0
VERTEX
  5
D9
330
D7
100
AcDbEntity
  8
_U+30EC_U+30A4_U+30E4_U+30FC 1
 62
   179
420
  2234388
370
     9
100
AcDbVertex
100
AcDb2dVertex
 10
76.4790472031022
 20
-85.08523747872863
 30
0.0
  0
SEQEND
  5
DA
330
D7
100
AcDbEntity
  8
_U+30EC_U+30A4_U+30E4_U+30FC 1
 62
   179
420
  2234388
370
     9
  0
POLYLINE
  5
DB
330
41
100
AcDbEntity
  8
_U+30EC_U+30A4_U+30E4_U+30FC 1
 62
   179
420
  2234388
370
     9
100
AcDb2dPolyline
 66
     1
 10
0.0
 20
0.0
 30
0.0
  0
VERTEX
  5
DC
330
DB
100
AcDbEntity
  8
_U+30EC_U+30A4_U+30E4_U+30FC 1
 62
   179
420
  2234388
370
     9
100
AcDbVertex
100
AcDb2dVertex
 10
62.01910786220518
 20
-94.58508442079824
 30
0.0
  0
VERTEX
  5
DD
330
DB
100
AcDbEntity
  8
_U+30EC_U+30A4_U+30E4_U+30FC 1
 62
   179
420
  2234388
370
     9
100
AcDbVertex
100
AcDb2dVertex
 10
77.47952498063026
 20
-94.58508442079824
 30
0.0
  0
SEQEND
  5
DE
330
DB
100
AcDbEntity
  8
_U+30EC_U+30A4_U+30E4_U+30FC 1
 62
   179
420
  2234388
370
     9
  0
INSERT
  5
E0
330
41
100
AcDbEntity
  8
_U+30EC_U+30A4_U+30E4_U+30FC 1
100
AcDbBlockReference
  2
block 7
 10
0.0
 20
0.0
 30
0.0
  0
ENDBLK
  5
44
330
41
100
AcDbEntity
  8
0
100
AcDbBlockEnd
  0
BLOCK
  5
8F
330
8D
100
AcDbEntity
  8
0
100
AcDbBlockBegin
  2
block 3
 70
     0
 10
0.0
 20
0.0
 30
0.0
  3
block 3
  1

  0
SPLINE
  5
91
330
8D
100
AcDbEntity
  8
_U+30EC_U+30A4_U+30E4_U+30FC 1
370
     0
100
AcDbSpline
210
0.0
220
0.0
230
1.0
 70
    11
 71
     3
 72
    29
 73
    25
 74
     0
 42
0.0000000001
 43
0.0000000001
 12
1.0
 22
0.0
 32
0.0
 13
1.0
 23
0.0
 33
0.0
 40
0.0
 40
0.0
 40
0.0
 40
0.0
 40
1.0
 40
1.0
 40
1.0
 40
2.0
 40
2.0
 40
2.0
 40
3.0
 40
3.0
 40
3.0
 40
4.0
 40
4.0
 40
4.0
 40
5.0
 40
5.0
 40
5.0
 40
6.0
 40
6.0
 40
6.0
 40
7.0
 40
7.0
 40
7.0
 40
8.0
 40
8.0
 40
8.0
 40
8.0
 10
74.94908581025578
 20
-81.78174368615178
 30
0.0
 10
75.15854761575898
 20
-81.89715438490767
 30
0.0
 10
75.17749564092786
 20
-82.0825005220141
 30
0.0
 10
75.17749564092786
 20
-82.20686846903162
 30
0.0
 10
75.17749564092786
 20
-82.37843422419706
 30
0.0
 10
75.13098685187698
 20
-82.53001842554805
 30
0.0
 10
74.94908581025578
 20
-82.63164874236293
 30
0.0
 10
74.75443791533917
 20
-82.74258081698797
 30
0.0
 10
74.51741534595398
 20
-82.76290688035094
 30
0.0
 10
74.35480683905018
 20
-82.76290688035094
 30
0.0
 10
74.21080184776675
 20
-82.76290688035094
 30
0.0
 10
73.95896536779499
 20
-82.74499238382765
 30
0.0
 10
73.76018335829608
 20
-82.63164874236293
 30
0.0
 10
73.55726723421485
 20
-82.51658255315559
 30
0.0
 10
73.53384058491515
 20
-82.34467228844161
 30
0.0
 10
73.53384058491515
 20
-82.20686846903162
 30
0.0
 10
73.53384058491515
 20
-82.0370252616088
 30
0.0
 10
73.57828231667487
 20
-81.88337400296666
 30
0.0
 10
73.76018335829608
 20
-81.78174368615178
 30
0.0
 10
73.95276419592153
 20
-81.67529023565757
 30
0.0
 10
74.1811740265936
 20
-81.65048554816377
 30
0.0
 10
74.35480683905018
 20
-81.65048554816377
 30
0.0
 10
74.5260280846671
 20
-81.65048554816377
 30
0.0
 10
74.75650497263032
 20
-81.67322317836641
 30
0.0
 10
74.94908581025578
 20
-81.78174368615178
 30
0.0
  0
SPLINE
  5
92
330
8D
100
AcDbEntity
  8
_U+30EC_U+30A4_U+30E4_U+30FC 1
370
     0
100
AcDbSpline
210
0.0
220
0.0
230
1.0
 70
    11
 71
     3
 72
    17
 73
    13
 74
     0
 42
0.0000000001
 43
0.0000000001
 12
1.0
 22
0.0
 32
0.0
 13
1.0
 23
0.0
 33
0.0
 40
0.0
 40
0.0
 40
0.0
 40
0.0
 40
1.0
 40
1.0
 40
1.0
 40
2.0
 40
2.0
 40
2.0
 40
3.0
 40
3.0
 40
3.0
 40
4.0
 40
4.0
 40
4.0
 40
4.0
 10
73.72642142254062
 20
-82.20686846903162
 30
0.0
 10
73.72642142254062
 20
-82.47351885958996
 30
0.0
 10
74.00995278097668
 20
-82.52312823457756
 30
0.0
 10
74.35480683905018
 20
-82.52312823457756
 30
0.0
 10
74.67416719053286
 20
-82.52312823457756
 30
0.0
 10
74.98284774601123
 20
-82.48488767469128
 30
0.0
 10
74.98284774601123
 20
-82.20686846903162
 30
0.0
 10
74.98284774601123
 20
-81.94228513576444
 30
0.0
 10
74.70172795441485
 20
-81.89026419393716
 30
0.0
 10
74.35480683905018
 20
-81.89026419393716
 30
0.0
 10
74.035101978019
 20
-81.89026419393716
 30
0.0
 10
73.72642142254062
 20
-81.9309163206631
 30
0.0
 10
73.72642142254062
 20
-82.20686846903162
 30
0.0
  0
HATCH
  5
93
330
8D
100
AcDbEntity
  8
_U+30EC_U+30A4_U+30E4_U+30FC 1
 62
   179
420
  2234388
100
AcDbHatch
 10
0.0
 20
0.0
 30
0.0
210
0.0
220
0.0
230
1.0
  2
SOLID
 70
     1
 71
     0
 91
        2
 92
        1
 93
        1
 72
     4
 94
        3
 73
     0
 74
     1
 95
       29
 96
       25
 40
0.0
 40
0.0
 40
0.0
 40
0.0
 40
1.0
 40
1.0
 40
1.0
 40
2.0
 40
2.0
 40
2.0
 40
3.0
 40
3.0
 40
3.0
 40
4.0
 40
4.0
 40
4.0
 40
5.0
 40
5.0
 40
5.0
 40
6.0
 40
6.0
 40
6.0
 40
7.0
 40
7.0
 40
7.0
 40
8.0
 40
8.0
 40
8.0
 40
8.0
 10
74.94908581025578
 20
-81.78174368615178
 10
75.15854761575898
 20
-81.89715438490767
 10
75.17749564092786
 20
-82.0825005220141
 10
75.17749564092786
 20
-82.20686846903162
 10
75.17749564092786
 20
-82.37843422419706
 10
75.13098685187698
 20
-82.53001842554805
 10
74.94908581025578
 20
-82.63164874236293
 10
74.75443791533917
 20
-82.74258081698797
 10
74.51741534595398
 20
-82.76290688035094
 10
74.35480683905018
 20
-82.76290688035094
 10
74.21080184776675
 20
-82.76290688035094
 10
73.95896536779499
 20
-82.74499238382765
 10
73.76018335829608
 20
-82.63164874236293
 10
73.55726723421485
 20
-82.51658255315559
 10
73.53384058491515
 20
-82.34467228844161
 10
73.53384058491515
 20
-82.20686846903162
 10
73.53384058491515
 20
-82.0370252616088
 10
73.57828231667487
 20
-81.88337400296666
 10
73.76018335829608
 20
-81.78174368615178
 10
73.95276419592153
 20
-81.67529023565757
 10
74.1811740265936
 20
-81.65048554816377
 10
74.35480683905018
 20
-81.65048554816377
 10
74.5260280846671
 20
-81.65048554816377
 10
74.75650497263032
 20
-81.67322317836641
 10
74.94908581025578
 20
-81.78174368615178
 97
        0
 97
        0
 92
        1
 93
        1
 72
     4
 94
        3
 73
     0
 74
     1
 95
       17
 96
       13
 40
0.0
 40
0.0
 40
0.0
 40
0.0
 40
1.0
 40
1.0
 40
1.0
 40
2.0
 40
2.0
 40
2.0
 40
3.0
 40
3.0
 40
3.0
 40
4.0
 40
4.0
 40
4.0
 40
4.0
 10
73.72642142254062
 20
-82.20686846903162
 10
73.72642142254062
 20
-82.47351885958996
 10
74.00995278097668
 20
-82.52312823457756
 10
74.35480683905018
 20
-82.52312823457756
 10
74.67416719053286
 20
-82.52312823457756
 10
74.98284774601123
 20
-82.48488767469128
 10
74.98284774601123
 20
-82.20686846903162
 10
74.98284774601123
 20
-81.94228513576444
 10
74.70172795441485
 20
-81.89026419393716
 10
74.35480683905018
 20
-81.89026419393716
 10
74.035101978019
 20
-81.89026419393716
 10
73.72642142254062
 20
-81.9309163206631
 10
73.72642142254062
 20
-82.20686846903162
 97
        0
 97
        0
 75
     2
 76
     1
 98
        0
  0
POLYLINE
  5
94
330
8D
100
AcDbEntity
  8
_U+30EC_U+30A4_U+30E4_U+30FC 1
370
     0
100
AcDb2dPolyline
 66
     1
 10
0.0
 20
0.0
 30
0.0
  0
VERTEX
  5
95
330
94
100
AcDbEntity
  8
_U+30EC_U+30A4_U+30E4_U+30FC 1
370
     0
100
AcDbVertex
100
AcDb2dVertex
 10
75.12685273729468
 20
-81.41931964110351
 30
0.0
  0
VERTEX
  5
96
330
94
100
AcDbEntity
  8
_U+30EC_U+30A4_U+30E4_U+30FC 1
370
     0
100
AcDbVertex
100
AcDb2dVertex
 10
74.87501625732291
 20
-81.41931964110351
 30
0.0
  0
VERTEX
  5
97
330
94
100
AcDbEntity
  8
_U+30EC_U+30A4_U+30E4_U+30FC 1
370
     0
100
AcDbVertex
100
AcDb2dVertex
 10
74.87501625732291
 20
-81.15025768370549
 30
0.0
  0
VERTEX
  5
98
330
94
100
AcDbEntity
  8
_U+30EC_U+30A4_U+30E4_U+30FC 1
370
     0
100
AcDbVertex
100
AcDb2dVertex
 10
75.12685273729468
 20
-81.15025768370549
 30
0.0
  0
VERTEX
  5
99
330
94
100
AcDbEntity
  8
_U+30EC_U+30A4_U+30E4_U+30FC 1
370
     0
100
AcDbVertex
100
AcDb2dVertex
 10
75.12685273729468
 20
-81.41931964110351
 30
0.0
  0
SEQEND
  5
9A
330
94
100
AcDbEntity
  8
_U+30EC_U+30A4_U+30E4_U+30FC 1
370
     0
  0
HATCH
  5
9B
330
8D
100
AcDbEntity
  8
_U+30EC_U+30A4_U+30E4_U+30FC 1
 62
   179
420
  2234388
100
AcDbHatch
 10
0.0
 20
0.0
 30
0.0
210
0.0
220
0.0
230
1.0
  2
SOLID
 70
     1
 71
     0
 91
        1
 92
        1
 93
        4
 72
     1
 10
75.12685273729468
 20
-81.41931964110351
 11
74.87501625732291
 21
-81.41931964110351
 72
     1
 10
74.87501625732291
 20
-81.41931964110351
 11
74.87501625732291
 21
-81.15025768370549
 72
     1
 10
74.87501625732291
 20
-81.15025768370549
 11
75.12685273729468
 21
-81.15025768370549
 72
     1
 10
75.12685273729468
 20
-81.15025768370549
 11
75.12685273729468
 21
-81.41931964110351
 97
        0
 75
     2
 76
     1
 98
        0
  0
SPLINE
  5
9C
330
8D
100
AcDbEntity
  8
_U+30EC_U+30A4_U+30E4_U+30FC 1
370
     0
100
AcDbSpline
210
0.0
220
0.0
230
1.0
 70
    11
 71
     3
 72
    29
 73
    25
 74
     0
 42
0.0000000001
 43
0.0000000001
 12
1.0
 22
0.0
 32
0.0
 13
1.0
 23
0.0
 33
0.0
 40
0.0
 40
0.0
 40
0.0
 40
0.0
 40
1.0
 40
1.0
 40
1.0
 40
2.0
 40
2.0
 40
2.0
 40
3.0
 40
3.0
 40
3.0
 40
4.0
 40
4.0
 40
4.0
 40
5.0
 40
5.0
 40
5.0
 40
6.0
 40
6.0
 40
6.0
 40
7.0
 40
7.0
 40
7.0
 40
8.0
 40
8.0
 40
8.0
 40
8.0
 10
75.17749564092786
 20
-80.36305336532591
 30
0.0
 10
75.17749564092786
 20
-80.64761825240754
 30
0.0
 10
75.04003633106639
 20
-80.91909177664523
 30
0.0
 10
74.69104815841058
 20
-80.91909177664523
 30
0.0
 10
74.43507756385651
 20
-80.91909177664523
 30
0.0
 10
74.33999292846362
 20
-80.76750757529423
 30
0.0
 10
74.27867022882617
 20
-80.65450844337805
 30
0.0
 10
74.21941458647987
 20
-80.78783363865722
 30
0.0
 10
74.10503741636958
 20
-80.86948240165763
 30
0.0
 10
73.9441514572084
 20
-80.86948240165763
 30
0.0
 10
73.66923283748547
 20
-80.86948240165763
 30
0.0
 10
73.53384058491515
 20
-80.65692001021772
 30
0.0
 10
73.53384058491515
 20
-80.36305336532591
 30
0.0
 10
73.53384058491515
 20
-80.05988496262393
 30
0.0
 10
73.67784557619859
 20
-79.85662432899419
 30
0.0
 10
73.9441514572084
 20
-79.85662432899419
 30
0.0
 10
74.10503741636958
 20
-79.85662432899419
 30
0.0
 10
74.21941458647987
 20
-79.93999563973723
 30
0.0
 10
74.27867022882617
 20
-80.07366534456492
 30
0.0
 10
74.32931313245935
 20
-79.97858070917202
 30
0.0
 10
74.42439776785224
 20
-79.80908201129773
 30
0.0
 10
74.68691404382828
 20
-79.80908201129773
 30
0.0
 10
75.06139592307493
 20
-79.80908201129773
 30
0.0
 10
75.17749564092786
 20
-80.10742728032037
 30
0.0
 10
75.17749564092786
 20
-80.36305336532591
 30
0.0
  0
SPLINE
  5
9D
330
8D
100
AcDbEntity
  8
_U+30EC_U+30A4_U+30E4_U+30FC 1
370
     0
100
AcDbSpline
210
0.0
220
0.0
230
1.0
 70
    11
 71
     3
 72
    17
 73
    13
 74
     0
 42
0.0000000001
 43
0.0000000001
 12
1.0
 22
0.0
 32
0.0
 13
1.0
 23
0.0
 33
0.0
 40
0.0
 40
0.0
 40
0.0
 40
0.0
 40
1.0
 40
1.0
 40
1.0
 40
2.0
 40
2.0
 40
2.0
 40
3.0
 40
3.0
 40
3.0
 40
4.0
 40
4.0
 40
4.0
 40
4.0
 10
73.72642142254062
 20
-80.36305336532591
 30
0.0
 10
73.72642142254062
 20
-80.5394422541707
 30
0.0
 10
73.82150605793352
 20
-80.62970375588425
 30
0.0
 10
73.95689831050383
 20
-80.62970375588425
 30
0.0
 10
74.07954370977873
 20
-80.62970375588425
 30
0.0
 10
74.19805499447132
 20
-80.55287812656317
 30
0.0
 10
74.19805499447132
 20
-80.36305336532591
 30
0.0
 10
74.19805499447132
 20
-80.17288409454011
 30
0.0
 10
74.07954370977873
 20
-80.09605846521904
 30
0.0
 10
73.95689831050383
 20
-80.09605846521904
 30
0.0
 10
73.82150605793352
 20
-80.09605846521904
 30
0.0
 10
73.72642142254062
 20
-80.18873153377227
 30
0.0
 10
73.72642142254062
 20
-80.36305336532591
 30
0.0
  0
SPLINE
  5
9E
330
8D
100
AcDbEntity
  8
_U+30EC_U+30A4_U+30E4_U+30FC 1
370
     0
100
AcDbSpline
210
0.0
220
0.0
230
1.0
 70
    11
 71
     3
 72
    17
 73
    13
 74
     0
 42
0.0000000001
 43
0.0000000001
 12
1.0
 22
0.0
 32
0.0
 13
1.0
 23
0.0
 33
0.0
 40
0.0
 40
0.0
 40
0.0
 40
0.0
 40
1.0
 40
1.0
 40
1.0
 40
2.0
 40
2.0
 40
2.0
 40
3.0
 40
3.0
 40
3.0
 40
4.0
 40
4.0
 40
4.0
 40
4.0
 10
74.38650171751449
 20
-80.36305336532591
 30
0.0
 10
74.38650171751449
 20
-80.51670462396805
 30
0.0
 10
74.47331812374279
 20
-80.67931313087185
 30
0.0
 10
74.676234247824
 20
-80.67931313087185
 30
0.0
 10
74.8815619387449
 20
-80.67931313087185
 30
0.0
 10
74.98284774601123
 20
-80.54392087830152
 30
0.0
 10
74.98284774601123
 20
-80.36305336532591
 30
0.0
 10
74.98284774601123
 20
-80.16392684627847
 30
0.0
 10
74.86020234673634
 20
-80.04644909023145
 30
0.0
 10
74.68243541969746
 20
-80.04644909023145
 30
0.0
 10
74.46057127044736
 20
-80.04644909023145
 30
0.0
 10
74.38650171751449
 20
-80.22042641223656
 30
0.0
 10
74.38650171751449
 20
-80.36305336532591
 30
0.0
  0
HATCH
  5
9F
330
8D
100
AcDbEntity
  8
_U+30EC_U+30A4_U+30E4_U+30FC 1
 62
   179
420
  2234388
100
AcDbHatch
 10
0.0
 20
0.0
 30
0.0
210
0.0
220
0.0
230
1.0
  2
SOLID
 70
     1
 71
     0
 91
        3
 92
        1
 93
        1
 72
     4
 94
        3
 73
     0
 74
     1
 95
       29
 96
       25
 40
0.0
 40
0.0
 40
0.0
 40
0.0
 40
1.0
 40
1.0
 40
1.0
 40
2.0
 40
2.0
 40
2.0
 40
3.0
 40
3.0
 40
3.0
 40
4.0
 40
4.0
 40
4.0
 40
5.0
 40
5.0
 40
5.0
 40
6.0
 40
6.0
 40
6.0
 40
7.0
 40
7.0
 40
7.0
 40
8.0
 40
8.0
 40
8.0
 40
8.0
 10
75.17749564092786
 20
-80.36305336532591
 10
75.17749564092786
 20
-80.64761825240754
 10
75.04003633106639
 20
-80.91909177664523
 10
74.69104815841058
 20
-80.91909177664523
 10
74.43507756385651
 20
-80.91909177664523
 10
74.33999292846362
 20
-80.76750757529423
 10
74.27867022882617
 20
-80.65450844337805
 10
74.21941458647987
 20
-80.78783363865722
 10
74.10503741636958
 20
-80.86948240165763
 10
73.9441514572084
 20
-80.86948240165763
 10
73.66923283748547
 20
-80.86948240165763
 10
73.53384058491515
 20
-80.65692001021772
 10
73.53384058491515
 20
-80.36305336532591
 10
73.53384058491515
 20
-80.05988496262393
 10
73.67784557619859
 20
-79.85662432899419
 10
73.9441514572084
 20
-79.85662432899419
 10
74.10503741636958
 20
-79.85662432899419
 10
74.21941458647987
 20
-79.93999563973723
 10
74.27867022882617
 20
-80.07366534456492
 10
74.32931313245935
 20
-79.97858070917202
 10
74.42439776785224
 20
-79.80908201129773
 10
74.68691404382828
 20
-79.80908201129773
 10
75.06139592307493
 20
-79.80908201129773
 10
75.17749564092786
 20
-80.10742728032037
 10
75.17749564092786
 20
-80.36305336532591
 97
        0
 97
        0
 92
        1
 93
        1
 72
     4
 94
        3
 73
     0
 74
     1
 95
       17
 96
       13
 40
0.0
 40
0.0
 40
0.0
 40
0.0
 40
1.0
 40
1.0
 40
1.0
 40
2.0
 40
2.0
 40
2.0
 40
3.0
 40
3.0
 40
3.0
 40
4.0
 40
4.0
 40
4.0
 40
4.0
 10
73.72642142254062
 20
-80.36305336532591
 10
73.72642142254062
 20
-80.5394422541707
 10
73.82150605793352
 20
-80.62970375588425
 10
73.95689831050383
 20
-80.62970375588425
 10
74.07954370977873
 20
-80.62970375588425
 10
74.19805499447132
 20
-80.55287812656317
 10
74.19805499447132
 20
-80.36305336532591
 10
74.19805499447132
 20
-80.17288409454011
 10
74.07954370977873
 20
-80.09605846521904
 10
73.95689831050383
 20
-80.09605846521904
 10
73.82150605793352
 20
-80.09605846521904
 10
73.72642142254062
 20
-80.18873153377227
 10
73.72642142254062
 20
-80.36305336532591
 97
        0
 97
        0
 92
        1
 93
        1
 72
     4
 94
        3
 73
     0
 74
     1
 95
       17
 96
       13
 40
0.0
 40
0.0
 40
0.0
 40
0.0
 40
1.0
 40
1.0
 40
1.0
 40
2.0
 40
2.0
 40
2.0
 40
3.0
 40
3.0
 40
3.0
 40
4.0
 40
4.0
 40
4.0
 40
4.0
 10
74.38650171751449
 20
-80.36305336532591
 10
74.38650171751449
 20
-80.51670462396805
 10
74.47331812374279
 20
-80.67931313087185
 10
74.676234247824
 20
-80.67931313087185
 10
74.8815619387449
 20
-80.67931313087185
 10
74.98284774601123
 20
-80.54392087830152
 10
74.98284774601123
 20
-80.36305336532591
 10
74.98284774601123
 20
-80.16392684627847
 10
74.86020234673634
 20
-80.04644909023145
 10
74.68243541969746
 20
-80.04644909023145
 10
74.46057127044736
 20
-80.04644909023145
 10
74.38650171751449
 20
-80.22042641223656
 10
74.38650171751449
 20
-80.36305336532591
 97
        0
 97
        0
 75
     2
 76
     1
 98
        0
  0
ENDBLK
  5
90
330
8D
100
AcDbEntity
  8
0
100
AcDbBlockEnd
  0
BLOCK
  5
AA
330
A8
100
AcDbEntity
  8
0
100
AcDbBlockBegin
  2
block 4
 70
     0
 10
0.0
 20
0.0
 30
0.0
  3
block 4
  1

  0
SPLINE
  5
AC
330
A8
100
AcDbEntity
  8
_U+30EC_U+30A4_U+30E4_U+30FC 1
370
     0
100
AcDbSpline
210
0.0
220
0.0
230
1.0
 70
    11
 71
     3
 72
    62
 73
    58
 74
     0
 42
0.0000000001
 43
0.0000000001
 12
1.0
 22
0.0
 32
0.0
 13
1.0
 23
0.0
 33
0.0
 40
0.0
 40
0.0
 40
0.0
 40
0.0
 40
1.0
 40
1.0
 40
1.0
 40
2.0
 40
2.0
 40
2.0
 40
3.0
 40
3.0
 40
3.0
 40
4.0
 40
4.0
 40
4.0
 40
5.0
 40
5.0
 40
5.0
 40
6.0
 40
6.0
 40
6.0
 40
7.0
 40
7.0
 40
7.0
 40
8.0
 40
8.0
 40
8.0
 40
9.0
 40
9.0
 40
9.0
 40
10.0
 40
10.0
 40
10.0
 40
11.0
 40
11.0
 40
11.0
 40
12.0
 40
12.0
 40
12.0
 40
13.0
 40
13.0
 40
13.0
 40
14.0
 40
14.0
 40
14.0
 40
15.0
 40
15.0
 40
15.0
 40
16.0
 40
16.0
 40
16.0
 40
17.0
 40
17.0
 40
17.0
 40
18.0
 40
18.0
 40
18.0
 40
19.0
 40
19.0
 40
19.0
 40
19.0
 10
75.17749564092786
 20
-96.09404837007371
 30
0.0
 10
75.17749564092786
 20
-96.19567868688858
 30
0.0
 10
75.15648055846783
 20
-96.42856714169147
 30
0.0
 10
74.97044540226433
 20
-96.56189233697064
 30
0.0
 10
74.85813528944519
 20
-96.64112953313139
 30
0.0
 10
74.75891653947
 20
-96.64560815726222
 30
0.0
 10
74.67416719053286
 20
-96.65008678139304
 30
0.0
 10
74.67416719053286
 20
-96.65008678139304
 30
0.0
 10
74.67416719053286
 20
-96.415131269299
 30
0.0
 10
74.67416719053286
 20
-96.415131269299
 30
0.0
 10
74.74823674346572
 20
-96.41271970245933
 30
0.0
 10
74.98284774601123
 20
-96.401350887358
 30
0.0
 10
74.98284774601123
 20
-96.09852699420453
 30
0.0
 10
74.98284774601123
 20
-95.95142141698437
 30
0.0
 10
74.91325681720919
 20
-95.78881291008058
 30
0.0
 10
74.68484698653712
 20
-95.78881291008058
 30
0.0
 10
74.56840275913568
 20
-95.78881291008058
 30
0.0
 10
74.51982691279366
 20
-95.82946503680652
 30
0.0
 10
74.48813203432935
 20
-95.86322697256198
 30
0.0
 10
74.41406248139648
 20
-95.94246416872272
 30
0.0
 10
74.40131562810106
 20
-96.06683211574024
 30
0.0
 10
74.40131562810106
 20
-96.12574324853801
 30
0.0
 10
74.40131562810106
 20
-96.14606931190099
 30
0.0
 10
74.40338268539222
 20
-96.18430987178726
 30
0.0
 10
74.40751679997452
 20
-96.21393769296041
 30
0.0
 10
74.40751679997452
 20
-96.21393769296041
 30
0.0
 10
74.2128689050579
 20
-96.21393769296041
 30
0.0
 10
74.2128689050579
 20
-96.21393769296041
 30
0.0
 10
74.21941458647987
 20
-96.17328556623445
 30
0.0
 10
74.22148164377103
 20
-96.12781030582916
 30
0.0
 10
74.22148164377103
 20
-96.12126462440719
 30
0.0
 10
74.22148164377103
 20
-96.0509846765081
 30
0.0
 10
74.20012205176248
 20
-95.83842228506818
 30
0.0
 10
73.96344399192581
 20
-95.83842228506818
 30
0.0
 10
73.78567706488691
 20
-95.83842228506818
 30
0.0
 10
73.73055553712292
 20
-95.97863767131784
 30
0.0
 10
73.73055553712292
 20
-96.09611542736486
 30
0.0
 10
73.73055553712292
 20
-96.37895776670388
 30
0.0
 10
73.96344399192581
 20
-96.38791501496553
 30
0.0
 10
74.035101978019
 20
-96.39239363909635
 30
0.0
 10
74.035101978019
 20
-96.39239363909635
 30
0.0
 10
74.035101978019
 20
-96.60943465466708
 30
0.0
 10
74.035101978019
 20
-96.60943465466708
 30
0.0
 10
73.91038952145296
 20
-96.60047740640545
 30
0.0
 10
73.53384058491515
 20
-96.57119409478082
 30
0.0
 10
73.53384058491515
 20
-96.08267955497239
 30
0.0
 10
73.53384058491515
 20
-95.842900909199
 30
0.0
 10
73.66096460832087
 20
-95.58520776690231
 30
0.0
 10
73.95689831050383
 20
-95.58520776690231
 30
0.0
 10
74.14327797625585
 20
-95.58520776690231
 30
0.0
 10
74.22561575835333
 20
-95.6871825932657
 30
0.0
 10
74.28693845799077
 20
-95.7932915342114
 30
0.0
 10
74.31449922187277
 20
-95.72783471999166
 30
0.0
 10
74.39476994667909
 20
-95.53318682507503
 30
0.0
 10
74.6721001332417
 20
-95.53318682507503
 30
0.0
 10
75.01040850989324
 20
-95.53318682507503
 30
0.0
 10
75.17749564092786
 20
-95.79777015834223
 30
0.0
 10
75.17749564092786
 20
-96.09404837007371
 30
0.0
  0
HATCH
  5
AD
330
A8
100
AcDbEntity
  8
_U+30EC_U+30A4_U+30E4_U+30FC 1
 62
   179
420
  2234388
100
AcDbHatch
 10
0.0
 20
0.0
 30
0.0
210
0.0
220
0.0
230
1.0
  2
SOLID
 70
     1
 71
     0
 91
        1
 92
        1
 93
        1
 72
     4
 94
        3
 73
     0
 74
     1
 95
       62
 96
       58
 40
0.0
 40
0.0
 40
0.0
 40
0.0
 40
1.0
 40
1.0
 40
1.0
 40
2.0
 40
2.0
 40
2.0
 40
3.0
 40
3.0
 40
3.0
 40
4.0
 40
4.0
 40
4.0
 40
5.0
 40
5.0
 40
5.0
 40
6.0
 40
6.0
 40
6.0
 40
7.0
 40
7.0
 40
7.0
 40
8.0
 40
8.0
 40
8.0
 40
9.0
 40
9.0
 40
9.0
 40
10.0
 40
10.0
 40
10.0
 40
11.0
 40
11.0
 40
11.0
 40
12.0
 40
12.0
 40
12.0
 40
13.0
 40
13.0
 40
13.0
 40
14.0
 40
14.0
 40
14.0
 40
15.0
 40
15.0
 40
15.0
 40
16.0
 40
16.0
 40
16.0
 40
17.0
 40
17.0
 40
17.0
 40
18.0
 40
18.0
 40
18.0
 40
19.0
 40
19.0
 40
19.0
 40
19.0
 10
75.17749564092786
 20
-96.09404837007371
 10
75.17749564092786
 20
-96.19567868688858
 10
75.15648055846783
 20
-96.42856714169147
 10
74.97044540226433
 20
-96.56189233697064
 10
74.85813528944519
 20
-96.64112953313139
 10
74.75891653947
 20
-96.64560815726222
 10
74.67416719053286
 20
-96.65008678139304
 10
74.67416719053286
 20
-96.65008678139304
 10
74.67416719053286
 20
-96.415131269299
 10
74.67416719053286
 20
-96.415131269299
 10
74.74823674346572
 20
-96.41271970245933
 10
74.98284774601123
 20
-96.401350887358
 10
74.98284774601123
 20
-96.09852699420453
 10
74.98284774601123
 20
-95.95142141698437
 10
74.91325681720919
 20
-95.78881291008058
 10
74.68484698653712
 20
-95.78881291008058
 10
74.56840275913568
 20
-95.78881291008058
 10
74.51982691279366
 20
-95.82946503680652
 10
74.48813203432935
 20
-95.86322697256198
 10
74.41406248139648
 20
-95.94246416872272
 10
74.40131562810106
 20
-96.06683211574024
 10
74.40131562810106
 20
-96.12574324853801
 10
74.40131562810106
 20
-96.14606931190099
 10
74.40338268539222
 20
-96.18430987178726
 10
74.40751679997452
 20
-96.21393769296041
 10
74.40751679997452
 20
-96.21393769296041
 10
74.2128689050579
 20
-96.21393769296041
 10
74.2128689050579
 20
-96.21393769296041
 10
74.21941458647987
 20
-96.17328556623445
 10
74.22148164377103
 20
-96.12781030582916
 10
74.22148164377103
 20
-96.12126462440719
 10
74.22148164377103
 20
-96.0509846765081
 10
74.20012205176248
 20
-95.83842228506818
 10
73.96344399192581
 20
-95.83842228506818
 10
73.78567706488691
 20
-95.83842228506818
 10
73.73055553712292
 20
-95.97863767131784
 10
73.73055553712292
 20
-96.09611542736486
 10
73.73055553712292
 20
-96.37895776670388
 10
73.96344399192581
 20
-96.38791501496553
 10
74.035101978019
 20
-96.39239363909635
 10
74.035101978019
 20
-96.39239363909635
 10
74.035101978019
 20
-96.60943465466708
 10
74.035101978019
 20
-96.60943465466708
 10
73.91038952145296
 20
-96.60047740640545
 10
73.53384058491515
 20
-96.57119409478082
 10
73.53384058491515
 20
-96.08267955497239
 10
73.53384058491515
 20
-95.842900909199
 10
73.66096460832087
 20
-95.58520776690231
 10
73.95689831050383
 20
-95.58520776690231
 10
74.14327797625585
 20
-95.58520776690231
 10
74.22561575835333
 20
-95.6871825932657
 10
74.28693845799077
 20
-95.7932915342114
 10
74.31449922187277
 20
-95.72783471999166
 10
74.39476994667909
 20
-95.53318682507503
 10
74.6721001332417
 20
-95.53318682507503
 10
75.01040850989324
 20
-95.53318682507503
 10
75.17749564092786
 20
-95.79777015834223
 10
75.17749564092786
 20
-96.09404837007371
 97
        0
 97
        0
 75
     2
 76
     1
 98
        0
  0
ENDBLK
  5
AB
330
A8
100
AcDbEntity
  8
0
100
AcDbBlockEnd
  0
BLOCK
  5
BC
330
BA
100
AcDbEntity
  8
0
100
AcDbBlockBegin
  2
block 5
 70
     0
 10
0.0
 20
0.0
 30
0.0
  3
block 5
  1

  0
SPLINE
  5
BE
330
BA
100
AcDbEntity
  8
_U+30EC_U+30A4_U+30E4_U+30FC 1
370
     0
100
AcDbSpline
210
0.0
220
0.0
230
1.0
 70
    11
 71
     3
 72
    26
 73
    22
 74
     0
 42
0.0000000001
 43
0.0000000001
 12
1.0
 22
0.0
 32
0.0
 13
1.0
 23
0.0
 33
0.0
 40
0.0
 40
0.0
 40
0.0
 40
0.0
 40
1.0
 40
1.0
 40
1.0
 40
2.0
 40
2.0
 40
2.0
 40
3.0
 40
3.0
 40
3.0
 40
4.0
 40
4.0
 40
4.0
 40
5.0
 40
5.0
 40
5.0
 40
6.0
 40
6.0
 40
6.0
 40
7.0
 40
7.0
 40
7.0
 40
7.0
 10
53.79792207856441
 20
-100.2333305956014
 30
0.0
 10
53.79792207856441
 20
-100.2333305956014
 30
0.0
 10
53.79792207856441
 20
-99.12917749257882
 30
0.0
 10
53.79792207856441
 20
-99.12917749257882
 30
0.0
 10
53.79792207856441
 20
-99.12917749257882
 30
0.0
 10
53.44514430087483
 20
-99.12917749257882
 30
0.0
 10
53.44514430087483
 20
-99.12917749257882
 30
0.0
 10
53.44514430087483
 20
-99.12917749257882
 30
0.0
 10
53.44514430087483
 20
-98.98103838671308
 30
0.0
 10
53.44514430087483
 20
-98.98103838671308
 30
0.0
 10
53.80016139062982
 20
-98.9662244761265
 30
0.0
 10
53.84994302039168
 20
-98.80327145967419
 30
0.0
 10
53.88163789885598
 20
-98.68889428956389
 30
0.0
 10
53.88163789885598
 20
-98.68889428956389
 30
0.0
 10
54.03752846956354
 20
-98.68889428956389
 30
0.0
 10
54.03752846956354
 20
-98.68889428956389
 30
0.0
 10
54.03752846956354
 20
-98.68889428956389
 30
0.0
 10
54.03752846956354
 20
-100.2333305956014
 30
0.0
 10
54.03752846956354
 20
-100.2333305956014
 30
0.0
 10
54.03752846956354
 20
-100.2333305956014
 30
0.0
 10
53.79792207856441
 20
-100.2333305956014
 30
0.0
 10
53.79792207856441
 20
-100.2333305956014
 30
0.0
  0
HATCH
  5
BF
330
BA
100
AcDbEntity
  8
_U+30EC_U+30A4_U+30E4_U+30FC 1
 62
   179
420
  2234388
100
AcDbHatch
 10
0.0
 20
0.0
 30
0.0
210
0.0
220
0.0
230
1.0
  2
SOLID
 70
     1
 71
     0
 91
        1
 92
        1
 93
        1
 72
     4
 94
        3
 73
     0
 74
     1
 95
       26
 96
       22
 40
0.0
 40
0.0
 40
0.0
 40
0.0
 40
1.0
 40
1.0
 40
1.0
 40
2.0
 40
2.0
 40
2.0
 40
3.0
 40
3.0
 40
3.0
 40
4.0
 40
4.0
 40
4.0
 40
5.0
 40
5.0
 40
5.0
 40
6.0
 40
6.0
 40
6.0
 40
7.0
 40
7.0
 40
7.0
 40
7.0
 10
53.79792207856441
 20
-100.2333305956014
 10
53.79792207856441
 20
-100.2333305956014
 10
53.79792207856441
 20
-99.12917749257882
 10
53.79792207856441
 20
-99.12917749257882
 10
53.79792207856441
 20
-99.12917749257882
 10
53.44514430087483
 20
-99.12917749257882
 10
53.44514430087483
 20
-99.12917749257882
 10
53.44514430087483
 20
-99.12917749257882
 10
53.44514430087483
 20
-98.98103838671308
 10
53.44514430087483
 20
-98.98103838671308
 10
53.80016139062982
 20
-98.9662244761265
 10
53.84994302039168
 20
-98.80327145967419
 10
53.88163789885598
 20
-98.68889428956389
 10
53.88163789885598
 20
-98.68889428956389
 10
54.03752846956354
 20
-98.68889428956389
 10
54.03752846956354
 20
-98.68889428956389
 10
54.03752846956354
 20
-98.68889428956389
 10
54.03752846956354
 20
-100.2333305956014
 10
54.03752846956354
 20
-100.2333305956014
 10
54.03752846956354
 20
-100.2333305956014
 10
53.79792207856441
 20
-100.2333305956014
 10
53.79792207856441
 20
-100.2333305956014
 97
        0
 97
        0
 75
     2
 76
     1
 98
        0
  0
SPLINE
  5
C0
330
BA
100
AcDbEntity
  8
_U+30EC_U+30A4_U+30E4_U+30FC 1
370
     0
100
AcDbSpline
210
0.0
220
0.0
230
1.0
 70
    11
 71
     3
 72
    29
 73
    25
 74
     0
 42
0.0000000001
 43
0.0000000001
 12
1.0
 22
0.0
 32
0.0
 13
1.0
 23
0.0
 33
0.0
 40
0.0
 40
0.0
 40
0.0
 40
0.0
 40
1.0
 40
1.0
 40
1.0
 40
2.0
 40
2.0
 40
2.0
 40
3.0
 40
3.0
 40
3.0
 40
4.0
 40
4.0
 40
4.0
 40
5.0
 40
5.0
 40
5.0
 40
6.0
 40
6.0
 40
6.0
 40
7.0
 40
7.0
 40
7.0
 40
8.0
 40
8.0
 40
8.0
 40
8.0
 10
55.53269991016197
 20
-100.0555636685625
 30
0.0
 10
55.41746146618036
 20
-100.2650254740657
 30
0.0
 10
55.23211532907392
 20
-100.2839734992346
 30
0.0
 10
55.1077473820564
 20
-100.2839734992346
 30
0.0
 10
54.93583711734243
 20
-100.2839734992346
 30
0.0
 10
54.7844251707657
 20
-100.2374647101837
 30
0.0
 10
54.68262259917657
 20
-100.0555636685625
 30
0.0
 10
54.57186277932578
 20
-99.86091577364589
 30
0.0
 10
54.55153671596281
 20
-99.62423771380922
 30
0.0
 10
54.55153671596281
 20
-99.4612846973569
 30
0.0
 10
54.55153671596281
 20
-99.31727970607346
 30
0.0
 10
54.56962346726038
 20
-99.06544322610169
 30
0.0
 10
54.68262259917657
 20
-98.86666121660278
 30
0.0
 10
54.79803329793244
 20
-98.66374509252157
 30
0.0
 10
54.96977130787214
 20
-98.64031844322187
 30
0.0
 10
55.1077473820564
 20
-98.64031844322187
 30
0.0
 10
55.27724607993069
 20
-98.64031844322187
 30
0.0
 10
55.4310695933471
 20
-98.68476017498159
 30
0.0
 10
55.53269991016197
 20
-98.86666121660278
 30
0.0
 10
55.63898110588192
 20
-99.05924205422825
 30
0.0
 10
55.66378579337572
 20
-99.28765188490031
 30
0.0
 10
55.66378579337572
 20
-99.4612846973569
 30
0.0
 10
55.66378579337572
 20
-99.63250594297382
 30
0.0
 10
55.64122041794734
 20
-99.86298283093704
 30
0.0
 10
55.53269991016197
 20
-100.0555636685625
 30
0.0
  0
SPLINE
  5
C1
330
BA
100
AcDbEntity
  8
_U+30EC_U+30A4_U+30E4_U+30FC 1
370
     0
100
AcDbSpline
210
0.0
220
0.0
230
1.0
 70
    11
 71
     3
 72
    17
 73
    13
 74
     0
 42
0.0000000001
 43
0.0000000001
 12
1.0
 22
0.0
 32
0.0
 13
1.0
 23
0.0
 33
0.0
 40
0.0
 40
0.0
 40
0.0
 40
0.0
 40
1.0
 40
1.0
 40
1.0
 40
2.0
 40
2.0
 40
2.0
 40
3.0
 40
3.0
 40
3.0
 40
4.0
 40
4.0
 40
4.0
 40
4.0
 10
55.1077473820564
 20
-98.83289928084733
 30
0.0
 10
54.8409247367238
 20
-98.83289928084733
 30
0.0
 10
54.79114310696194
 20
-99.1164306392834
 30
0.0
 10
54.79114310696194
 20
-99.4612846973569
 30
0.0
 10
54.79114310696194
 20
-99.78064504883956
 30
0.0
 10
54.82955592162247
 20
-100.0893256043179
 30
0.0
 10
55.1077473820564
 20
-100.0893256043179
 30
0.0
 10
55.37215846054932
 20
-100.0893256043179
 30
0.0
 10
55.42417940237659
 20
-99.80820581272157
 30
0.0
 10
55.42417940237659
 20
-99.4612846973569
 30
0.0
 10
55.42417940237659
 20
-99.14157983632572
 30
0.0
 10
55.38352727565065
 20
-98.83289928084733
 30
0.0
 10
55.1077473820564
 20
-98.83289928084733
 30
0.0
  0
HATCH
  5
C2
330
BA
100
AcDbEntity
  8
_U+30EC_U+30A4_U+30E4_U+30FC 1
 62
   179
420
  2234388
100
AcDbHatch
 10
0.0
 20
0.0
 30
0.0
210
0.0
220
0.0
230
1.0
  2
SOLID
 70
     1
 71
     0
 91
        2
 92
        1
 93
        1
 72
     4
 94
        3
 73
     0
 74
     1
 95
       29
 96
       25
 40
0.0
 40
0.0
 40
0.0
 40
0.0
 40
1.0
 40
1.0
 40
1.0
 40
2.0
 40
2.0
 40
2.0
 40
3.0
 40
3.0
 40
3.0
 40
4.0
 40
4.0
 40
4.0
 40
5.0
 40
5.0
 40
5.0
 40
6.0
 40
6.0
 40
6.0
 40
7.0
 40
7.0
 40
7.0
 40
8.0
 40
8.0
 40
8.0
 40
8.0
 10
55.53269991016197
 20
-100.0555636685625
 10
55.41746146618036
 20
-100.2650254740657
 10
55.23211532907392
 20
-100.2839734992346
 10
55.1077473820564
 20
-100.2839734992346
 10
54.93583711734243
 20
-100.2839734992346
 10
54.7844251707657
 20
-100.2374647101837
 10
54.68262259917657
 20
-100.0555636685625
 10
54.57186277932578
 20
-99.86091577364589
 10
54.55153671596281
 20
-99.62423771380922
 10
54.55153671596281
 20
-99.4612846973569
 10
54.55153671596281
 20
-99.31727970607346
 10
54.56962346726038
 20
-99.06544322610169
 10
54.68262259917657
 20
-98.86666121660278
 10
54.79803329793244
 20
-98.66374509252157
 10
54.96977130787214
 20
-98.64031844322187
 10
55.1077473820564
 20
-98.64031844322187
 10
55.27724607993069
 20
-98.64031844322187
 10
55.4310695933471
 20
-98.68476017498159
 10
55.53269991016197
 20
-98.86666121660278
 10
55.63898110588192
 20
-99.05924205422825
 10
55.66378579337572
 20
-99.28765188490031
 10
55.66378579337572
 20
-99.4612846973569
 10
55.66378579337572
 20
-99.63250594297382
 10
55.64122041794734
 20
-99.86298283093704
 10
55.53269991016197
 20
-100.0555636685625
 97
        0
 97
        0
 92
        1
 93
        1
 72
     4
 94
        3
 73
     0
 74
     1
 95
       17
 96
       13
 40
0.0
 40
0.0
 40
0.0
 40
0.0
 40
1.0
 40
1.0
 40
1.0
 40
2.0
 40
2.0
 40
2.0
 40
3.0
 40
3.0
 40
3.0
 40
4.0
 40
4.0
 40
4.0
 40
4.0
 10
55.1077473820564
 20
-98.83289928084733
 10
54.8409247367238
 20
-98.83289928084733
 10
54.79114310696194
 20
-99.1164306392834
 10
54.79114310696194
 20
-99.4612846973569
 10
54.79114310696194
 20
-99.78064504883956
 10
54.82955592162247
 20
-100.0893256043179
 10
55.1077473820564
 20
-100.0893256043179
 10
55.37215846054932
 20
-100.0893256043179
 10
55.42417940237659
 20
-99.80820581272157
 10
55.42417940237659
 20
-99.4612846973569
 10
55.42417940237659
 20
-99.14157983632572
 10
55.38352727565065
 20
-98.83289928084733
 10
55.1077473820564
 20
-98.83289928084733
 97
        0
 97
        0
 75
     2
 76
     1
 98
        0
  0
ENDBLK
  5
BD
330
BA
100
AcDbEntity
  8
0
100
AcDbBlockEnd
  0
BLOCK
  5
D1
330
CF
100
AcDbEntity
  8
0
100
AcDbBlockBegin
  2
block 6
 70
     0
 10
0.0
 20
0.0
 30
0.0
  3
block 6
  1

  0
SPLINE
  5
D3
330
CF
100
AcDbEntity
  8
_U+30EC_U+30A4_U+30E4_U+30FC 1
370
     0
100
AcDbSpline
210
0.0
220
0.0
230
1.0
 70
    11
 71
     3
 72
    44
 73
    40
 74
     0
 42
0.0000000001
 43
0.0000000001
 12
1.0
 22
0.0
 32
0.0
 13
1.0
 23
0.0
 33
0.0
 40
0.0
 40
0.0
 40
0.0
 40
0.0
 40
1.0
 40
1.0
 40
1.0
 40
2.0
 40
2.0
 40
2.0
 40
3.0
 40
3.0
 40
3.0
 40
4.0
 40
4.0
 40
4.0
 40
5.0
 40
5.0
 40
5.0
 40
6.0
 40
6.0
 40
6.0
 40
7.0
 40
7.0
 40
7.0
 40
8.0
 40
8.0
 40
8.0
 40
9.0
 40
9.0
 40
9.0
 40
10.0
 40
10.0
 40
10.0
 40
11.0
 40
11.0
 40
11.0
 40
12.0
 40
12.0
 40
12.0
 40
13.0
 40
13.0
 40
13.0
 40
13.0
 10
60.44936793193627
 20
-78.35163436626279
 30
0.0
 10
60.21647947713338
 20
-78.51028101335855
 30
0.0
 10
60.11691621760966
 20
-78.58435056629142
 30
0.0
 10
60.06489527578239
 20
-78.7281833028006
 30
0.0
 10
60.06489527578239
 20
-78.7281833028006
 30
0.0
 10
60.89723034501875
 20
-78.7281833028006
 30
0.0
 10
60.89723034501875
 20
-78.7281833028006
 30
0.0
 10
60.89723034501875
 20
-78.7281833028006
 30
0.0
 10
60.89723034501875
 20
-78.93333873894723
 30
0.0
 10
60.89723034501875
 20
-78.93333873894723
 30
0.0
 10
60.89723034501875
 20
-78.93333873894723
 30
0.0
 10
59.79824488522405
 20
-78.93333873894723
 30
0.0
 10
59.79824488522405
 20
-78.93333873894723
 30
0.0
 10
59.83235133052803
 20
-78.5757378275783
 30
0.0
 10
59.9022867688786
 20
-78.49753416006313
 30
0.0
 10
60.31363116981743
 20
-78.19918889104048
 30
0.0
 10
60.58717175134627
 20
-78.00040688154156
 30
0.0
 10
60.65745169924536
 20
-77.93271075525641
 30
0.0
 10
60.65745169924536
 20
-77.79525144539494
 30
0.0
 10
60.65745169924536
 20
-77.67674016070235
 30
0.0
 10
60.58062606992429
 20
-77.5456542774886
 30
0.0
 10
60.37013073577553
 20
-77.5456542774886
 30
0.0
 10
60.09211153011587
 20
-77.5456542774886
 30
0.0
 10
60.08315428185421
 20
-77.7761311654518
 30
0.0
 10
60.07867565772339
 20
-77.89257539285325
 30
0.0
 10
60.07867565772339
 20
-77.89257539285325
 30
0.0
 10
59.83889701195
 20
-77.89257539285325
 30
0.0
 10
59.83889701195
 20
-77.89257539285325
 30
0.0
 10
59.84785426021165
 20
-77.76562362422179
 30
0.0
 10
59.85922307531298
 20
-77.65348576617691
 30
0.0
 10
59.94535046244422
 20
-77.53497448148431
 30
0.0
 10
60.06282821849124
 20
-77.3742607770974
 30
0.0
 10
60.26161022799015
 20
-77.3403265865677
 30
0.0
 10
60.38597817500767
 20
-77.3403265865677
 30
0.0
 10
60.68225638673916
 20
-77.3403265865677
 30
0.0
 10
60.90377602644072
 20
-77.5244669402543
 30
0.0
 10
60.90377602644072
 20
-77.7973185026861
 30
0.0
 10
60.90377602644072
 20
-78.02572833335816
 30
0.0
 10
60.77940807942321
 20
-78.12529159288188
 30
0.0
 10
60.44936793193627
 20
-78.35163436626279
 30
0.0
  0
HATCH
  5
D4
330
CF
100
AcDbEntity
  8
_U+30EC_U+30A4_U+30E4_U+30FC 1
 62
   179
420
  2234388
100
AcDbHatch
 10
0.0
 20
0.0
 30
0.0
210
0.0
220
0.0
230
1.0
  2
SOLID
 70
     1
 71
     0
 91
        1
 92
        1
 93
        1
 72
     4
 94
        3
 73
     0
 74
     1
 95
       44
 96
       40
 40
0.0
 40
0.0
 40
0.0
 40
0.0
 40
1.0
 40
1.0
 40
1.0
 40
2.0
 40
2.0
 40
2.0
 40
3.0
 40
3.0
 40
3.0
 40
4.0
 40
4.0
 40
4.0
 40
5.0
 40
5.0
 40
5.0
 40
6.0
 40
6.0
 40
6.0
 40
7.0
 40
7.0
 40
7.0
 40
8.0
 40
8.0
 40
8.0
 40
9.0
 40
9.0
 40
9.0
 40
10.0
 40
10.0
 40
10.0
 40
11.0
 40
11.0
 40
11.0
 40
12.0
 40
12.0
 40
12.0
 40
13.0
 40
13.0
 40
13.0
 40
13.0
 10
60.44936793193627
 20
-78.35163436626279
 10
60.21647947713338
 20
-78.51028101335855
 10
60.11691621760966
 20
-78.58435056629142
 10
60.06489527578239
 20
-78.7281833028006
 10
60.06489527578239
 20
-78.7281833028006
 10
60.89723034501875
 20
-78.7281833028006
 10
60.89723034501875
 20
-78.7281833028006
 10
60.89723034501875
 20
-78.7281833028006
 10
60.89723034501875
 20
-78.93333873894723
 10
60.89723034501875
 20
-78.93333873894723
 10
60.89723034501875
 20
-78.93333873894723
 10
59.79824488522405
 20
-78.93333873894723
 10
59.79824488522405
 20
-78.93333873894723
 10
59.83235133052803
 20
-78.5757378275783
 10
59.9022867688786
 20
-78.49753416006313
 10
60.31363116981743
 20
-78.19918889104048
 10
60.58717175134627
 20
-78.00040688154156
 10
60.65745169924536
 20
-77.93271075525641
 10
60.65745169924536
 20
-77.79525144539494
 10
60.65745169924536
 20
-77.67674016070235
 10
60.58062606992429
 20
-77.5456542774886
 10
60.37013073577553
 20
-77.5456542774886
 10
60.09211153011587
 20
-77.5456542774886
 10
60.08315428185421
 20
-77.7761311654518
 10
60.07867565772339
 20
-77.89257539285325
 10
60.07867565772339
 20
-77.89257539285325
 10
59.83889701195
 20
-77.89257539285325
 10
59.83889701195
 20
-77.89257539285325
 10
59.84785426021165
 20
-77.76562362422179
 10
59.85922307531298
 20
-77.65348576617691
 10
59.94535046244422
 20
-77.53497448148431
 10
60.06282821849124
 20
-77.3742607770974
 10
60.26161022799015
 20
-77.3403265865677
 10
60.38597817500767
 20
-77.3403265865677
 10
60.68225638673916
 20
-77.3403265865677
 10
60.90377602644072
 20
-77.5244669402543
 10
60.90377602644072
 20
-77.7973185026861
 10
60.90377602644072
 20
-78.02572833335816
 10
60.77940807942321
 20
-78.12529159288188
 10
60.44936793193627
 20
-78.35163436626279
 97
        0
 97
        0
 75
     2
 76
     1
 98
        0
  0
SPLINE
  5
D5
330
CF
100
AcDbEntity
  8
_U+30EC_U+30A4_U+30E4_U+30FC 1
370
     0
100
AcDbSpline
210
0.0
220
0.0
230
1.0
 70
    11
 71
     3
 72
    62
 73
    58
 74
     0
 42
0.0000000001
 43
0.0000000001
 12
1.0
 22
0.0
 32
0.0
 13
1.0
 23
0.0
 33
0.0
 40
0.0
 40
0.0
 40
0.0
 40
0.0
 40
1.0
 40
1.0
 40
1.0
 40
2.0
 40
2.0
 40
2.0
 40
3.0
 40
3.0
 40
3.0
 40
4.0
 40
4.0
 40
4.0
 40
5.0
 40
5.0
 40
5.0
 40
6.0
 40
6.0
 40
6.0
 40
7.0
 40
7.0
 40
7.0
 40
8.0
 40
8.0
 40
8.0
 40
9.0
 40
9.0
 40
9.0
 40
10.0
 40
10.0
 40
10.0
 40
11.0
 40
11.0
 40
11.0
 40
12.0
 40
12.0
 40
12.0
 40
13.0
 40
13.0
 40
13.0
 40
14.0
 40
14.0
 40
14.0
 40
15.0
 40
15.0
 40
15.0
 40
16.0
 40
16.0
 40
16.0
 40
17.0
 40
17.0
 40
17.0
 40
18.0
 40
18.0
 40
18.0
 40
19.0
 40
19.0
 40
19.0
 40
19.0
 10
61.59865178581562
 20
-78.98415389735466
 30
0.0
 10
61.49702146900075
 20
-78.98415389735466
 30
0.0
 10
61.26413301419786
 20
-78.96296656012038
 30
0.0
 10
61.13080781891869
 20
-78.77675914914262
 30
0.0
 10
61.05157062275794
 20
-78.66462129109773
 30
0.0
 10
61.04709199862712
 20
-78.56523028634828
 30
0.0
 10
61.04261337449629
 20
-78.4806531921854
 30
0.0
 10
61.04261337449629
 20
-78.4806531921854
 30
0.0
 10
61.27756888659033
 20
-78.4806531921854
 30
0.0
 10
61.27756888659033
 20
-78.4806531921854
 30
0.0
 10
61.27998045343001
 20
-78.55472274511827
 30
0.0
 10
61.29134926853133
 20
-78.78950600243805
 30
0.0
 10
61.59417316168479
 20
-78.78950600243805
 30
0.0
 10
61.74127873890496
 20
-78.78950600243805
 30
0.0
 10
61.90388724580875
 20
-78.71974281886173
 30
0.0
 10
61.90388724580875
 20
-78.49116073341541
 30
0.0
 10
61.90388724580875
 20
-78.37488876078822
 30
0.0
 10
61.8632351190828
 20
-78.32614065967194
 30
0.0
 10
61.82947318332736
 20
-78.29444578120764
 30
0.0
 10
61.75023598716661
 20
-78.22037622827477
 30
0.0
 10
61.62586804014909
 20
-78.2078016297536
 30
0.0
 10
61.56695690735132
 20
-78.2078016297536
 30
0.0
 10
61.54663084398835
 20
-78.2078016297536
 30
0.0
 10
61.50839028410207
 20
-78.20986868704476
 30
0.0
 10
61.47876246292892
 20
-78.21400280162706
 30
0.0
 10
61.47876246292892
 20
-78.21400280162706
 30
0.0
 10
61.47876246292892
 20
-78.01935490671045
 30
0.0
 10
61.47876246292892
 20
-78.01935490671045
 30
0.0
 10
61.51941458965487
 20
-78.02572833335816
 30
0.0
 10
61.56488985006017
 20
-78.02796764542357
 30
0.0
 10
61.57143553148214
 20
-78.02796764542357
 30
0.0
 10
61.64171547938124
 20
-78.02796764542357
 30
0.0
 10
61.85427787082116
 20
-78.00678030818928
 30
0.0
 10
61.85427787082116
 20
-77.76975773880409
 30
0.0
 10
61.85427787082116
 20
-77.59216306653946
 30
0.0
 10
61.71406248457149
 20
-77.53704153877547
 30
0.0
 10
61.59658472852447
 20
-77.53704153877547
 30
0.0
 10
61.31374238918546
 20
-77.53704153877547
 30
0.0
 10
61.3047851409238
 20
-77.76975773880409
 30
0.0
 10
61.30030651679298
 20
-77.84176023444581
 30
0.0
 10
61.30030651679298
 20
-77.84176023444581
 30
0.0
 10
61.08326550122224
 20
-77.84176023444581
 30
0.0
 10
61.08326550122224
 20
-77.84176023444581
 30
0.0
 10
61.09222274948389
 20
-77.7168755231055
 30
0.0
 10
61.12150606110851
 20
-77.3403265865677
 30
0.0
 10
61.61002060091694
 20
-77.3403265865677
 30
0.0
 10
61.84979924669033
 20
-77.3403265865677
 30
0.0
 10
62.10749238898702
 20
-77.46727835519916
 30
0.0
 10
62.10749238898702
 20
-77.76338431215638
 30
0.0
 10
62.10749238898702
 20
-77.94959172313413
 30
0.0
 10
62.00551756262362
 20
-78.03210176000587
 30
0.0
 10
61.89940862167793
 20
-78.09342445964332
 30
0.0
 10
61.96486543589768
 20
-78.12098522352531
 30
0.0
 10
62.15951333081429
 20
-78.20142820310589
 30
0.0
 10
62.15951333081429
 20
-78.47858613489424
 30
0.0
 10
62.15951333081429
 20
-78.81706676632004
 30
0.0
 10
61.8949299975471
 20
-78.98415389735466
 30
0.0
 10
61.59865178581562
 20
-78.98415389735466
 30
0.0
  0
HATCH
  5
D6
330
CF
100
AcDbEntity
  8
_U+30EC_U+30A4_U+30E4_U+30FC 1
 62
   179
420
  2234388
100
AcDbHatch
 10
0.0
 20
0.0
 30
0.0
210
0.0
220
0.0
230
1.0
  2
SOLID
 70
     1
 71
     0
 91
        1
 92
        1
 93
        1
 72
     4
 94
        3
 73
     0
 74
     1
 95
       62
 96
       58
 40
0.0
 40
0.0
 40
0.0
 40
0.0
 40
1.0
 40
1.0
 40
1.0
 40
2.0
 40
2.0
 40
2.0
 40
3.0
 40
3.0
 40
3.0
 40
4.0
 40
4.0
 40
4.0
 40
5.0
 40
5.0
 40
5.0
 40
6.0
 40
6.0
 40
6.0
 40
7.0
 40
7.0
 40
7.0
 40
8.0
 40
8.0
 40
8.0
 40
9.0
 40
9.0
 40
9.0
 40
10.0
 40
10.0
 40
10.0
 40
11.0
 40
11.0
 40
11.0
 40
12.0
 40
12.0
 40
12.0
 40
13.0
 40
13.0
 40
13.0
 40
14.0
 40
14.0
 40
14.0
 40
15.0
 40
15.0
 40
15.0
 40
16.0
 40
16.0
 40
16.0
 40
17.0
 40
17.0
 40
17.0
 40
18.0
 40
18.0
 40
18.0
 40
19.0
 40
19.0
 40
19.0
 40
19.0
 10
61.59865178581562
 20
-78.98415389735466
 10
61.49702146900075
 20
-78.98415389735466
 10
61.26413301419786
 20
-78.96296656012038
 10
61.13080781891869
 20
-78.77675914914262
 10
61.05157062275794
 20
-78.66462129109773
 10
61.04709199862712
 20
-78.56523028634828
 10
61.04261337449629
 20
-78.4806531921854
 10
61.04261337449629
 20
-78.4806531921854
 10
61.27756888659033
 20
-78.4806531921854
 10
61.27756888659033
 20
-78.4806531921854
 10
61.27998045343001
 20
-78.55472274511827
 10
61.29134926853133
 20
-78.78950600243805
 10
61.59417316168479
 20
-78.78950600243805
 10
61.74127873890496
 20
-78.78950600243805
 10
61.90388724580875
 20
-78.71974281886173
 10
61.90388724580875
 20
-78.49116073341541
 10
61.90388724580875
 20
-78.37488876078822
 10
61.8632351190828
 20
-78.32614065967194
 10
61.82947318332736
 20
-78.29444578120764
 10
61.75023598716661
 20
-78.22037622827477
 10
61.62586804014909
 20
-78.2078016297536
 10
61.56695690735132
 20
-78.2078016297536
 10
61.54663084398835
 20
-78.2078016297536
 10
61.50839028410207
 20
-78.20986868704476
 10
61.47876246292892
 20
-78.21400280162706
 10
61.47876246292892
 20
-78.21400280162706
 10
61.47876246292892
 20
-78.01935490671045
 10
61.47876246292892
 20
-78.01935490671045
 10
61.51941458965487
 20
-78.02572833335816
 10
61.56488985006017
 20
-78.02796764542357
 10
61.57143553148214
 20
-78.02796764542357
 10
61.64171547938124
 20
-78.02796764542357
 10
61.85427787082116
 20
-78.00678030818928
 10
61.85427787082116
 20
-77.76975773880409
 10
61.85427787082116
 20
-77.59216306653946
 10
61.71406248457149
 20
-77.53704153877547
 10
61.59658472852447
 20
-77.53704153877547
 10
61.31374238918546
 20
-77.53704153877547
 10
61.3047851409238
 20
-77.76975773880409
 10
61.30030651679298
 20
-77.84176023444581
 10
61.30030651679298
 20
-77.84176023444581
 10
61.08326550122224
 20
-77.84176023444581
 10
61.08326550122224
 20
-77.84176023444581
 10
61.09222274948389
 20
-77.7168755231055
 10
61.12150606110851
 20
-77.3403265865677
 10
61.61002060091694
 20
-77.3403265865677
 10
61.84979924669033
 20
-77.3403265865677
 10
62.10749238898702
 20
-77.46727835519916
 10
62.10749238898702
 20
-77.76338431215638
 10
62.10749238898702
 20
-77.94959172313413
 10
62.00551756262362
 20
-78.03210176000587
 10
61.89940862167793
 20
-78.09342445964332
 10
61.96486543589768
 20
-78.12098522352531
 10
62.15951333081429
 20
-78.20142820310589
 10
62.15951333081429
 20
-78.47858613489424
 10
62.15951333081429
 20
-78.81706676632004
 10
61.8949299975471
 20
-78.98415389735466
 10
61.59865178581562
 20
-78.98415389735466
 97
        0
 97
        0
 75
     2
 76
     1
 98
        0
  0
ENDBLK
  5
D2
330
CF
100
AcDbEntity
  8
0
100
AcDbBlockEnd
  0
BLOCK
  5
E1
330
DF
100
AcDbEntity
  8
0
100
AcDbBlockBegin
  2
block 7
 70
     0
 10
0.0
 20
0.0
 30
0.0
  3
block 7
  1

  0
SPLINE
  5
E3
330
DF
100
AcDbEntity
  8
_U+30EC_U+30A4_U+30E4_U+30FC 1
370
     0
100
AcDbSpline
210
0.0
220
0.0
230
1.0
 70
    11
 71
     3
 72
    32
 73
    28
 74
     0
 42
0.0000000001
 43
0.0000000001
 12
1.0
 22
0.0
 32
0.0
 13
1.0
 23
0.0
 33
0.0
 40
0.0
 40
0.0
 40
0.0
 40
0.0
 40
1.0
 40
1.0
 40
1.0
 40
2.0
 40
2.0
 40
2.0
 40
3.0
 40
3.0
 40
3.0
 40
4.0
 40
4.0
 40
4.0
 40
5.0
 40
5.0
 40
5.0
 40
6.0
 40
6.0
 40
6.0
 40
7.0
 40
7.0
 40
7.0
 40
8.0
 40
8.0
 40
8.0
 40
9.0
 40
9.0
 40
9.0
 40
9.0
 10
75.17749564092786
 20
-90.80203719518144
 30
0.0
 10
75.17749564092786
 20
-90.98738333228788
 30
0.0
 10
75.1079047121258
 20
-91.24955509871539
 30
0.0
 10
74.77579750734772
 20
-91.29020722544134
 30
0.0
 10
74.77579750734772
 20
-91.29020722544134
 30
0.0
 10
74.77579750734772
 20
-91.0621419043178
 30
0.0
 10
74.77579750734772
 20
-91.0621419043178
 30
0.0
 10
74.83505314969402
 20
-91.05077308921648
 30
0.0
 10
74.98284774601123
 20
-91.0166666439125
 30
0.0
 10
74.98284774601123
 20
-90.79962562834176
 30
0.0
 10
74.98284774601123
 20
-90.48784448692665
 30
0.0
 10
74.65315210807283
 20
-90.4471923602007
 30
0.0
 10
74.44782441715193
 20
-90.43341197825971
 30
0.0
 10
74.52809514195826
 20
-90.53056367094375
 30
0.0
 10
74.5852837270134
 20
-90.602910676134
 30
0.0
 10
74.5852837270134
 20
-90.79755857105062
 30
0.0
 10
74.5852837270134
 20
-90.98979489912756
 30
0.0
 10
74.47951929561623
 20
-91.31294485564399
 30
0.0
 10
74.07334253790528
 20
-91.31294485564399
 30
0.0
 10
73.75398218642262
 20
-91.31294485564399
 30
0.0
 10
73.53384058491515
 20
-91.10038246420407
 30
0.0
 10
73.53384058491515
 20
-90.7613850684555
 30
0.0
 10
73.53384058491515
 20
-90.21189233855814
 30
0.0
 10
74.08815644849186
 20
-90.20052352345682
 30
0.0
 10
74.30175236857734
 20
-90.20052352345682
 30
0.0
 10
74.53222925654056
 20
-90.20052352345682
 30
0.0
 10
75.17749564092786
 20
-90.2208495868198
 30
0.0
 10
75.17749564092786
 20
-90.80203719518144
 30
0.0
  0
SPLINE
  5
E4
330
DF
100
AcDbEntity
  8
_U+30EC_U+30A4_U+30E4_U+30FC 1
370
     0
100
AcDbSpline
210
0.0
220
0.0
230
1.0
 70
    11
 71
     3
 72
    17
 73
    13
 74
     0
 42
0.0000000001
 43
0.0000000001
 12
1.0
 22
0.0
 32
0.0
 13
1.0
 23
0.0
 33
0.0
 40
0.0
 40
0.0
 40
0.0
 40
0.0
 40
1.0
 40
1.0
 40
1.0
 40
2.0
 40
2.0
 40
2.0
 40
3.0
 40
3.0
 40
3.0
 40
4.0
 40
4.0
 40
4.0
 40
4.0
 10
73.72642142254062
 20
-90.75897350161581
 30
0.0
 10
73.72642142254062
 20
-90.88575301547301
 30
0.0
 10
73.78361000759577
 20
-91.0731662098706
 30
0.0
 10
74.06920842332298
 20
-91.0731662098706
 30
0.0
 10
74.2955511967039
 20
-91.0731662098706
 30
0.0
 10
74.39063583209679
 20
-90.92399357535929
 30
0.0
 10
74.39063583209679
 20
-90.77929956497879
 30
0.0
 10
74.39063583209679
 20
-90.49921330202798
 30
0.0
 10
74.1811740265936
 20
-90.45821666575351
 30
0.0
 10
74.06472979919215
 20
-90.45821666575351
 30
0.0
 10
73.88937443899293
 20
-90.45821666575351
 30
0.0
 10
73.72642142254062
 20
-90.5601914921169
 30
0.0
 10
73.72642142254062
 20
-90.75897350161581
 30
0.0
  0
HATCH
  5
E5
330
DF
100
AcDbEntity
  8
_U+30EC_U+30A4_U+30E4_U+30FC 1
 62
   179
420
  2234388
100
AcDbHatch
 10
0.0
 20
0.0
 30
0.0
210
0.0
220
0.0
230
1.0
  2
SOLID
 70
     1
 71
     0
 91
        2
 92
        1
 93
        1
 72
     4
 94
        3
 73
     0
 74
     1
 95
       32
 96
       28
 40
0.0
 40
0.0
 40
0.0
 40
0.0
 40
1.0
 40
1.0
 40
1.0
 40
2.0
 40
2.0
 40
2.0
 40
3.0
 40
3.0
 40
3.0
 40
4.0
 40
4.0
 40
4.0
 40
5.0
 40
5.0
 40
5.0
 40
6.0
 40
6.0
 40
6.0
 40
7.0
 40
7.0
 40
7.0
 40
8.0
 40
8.0
 40
8.0
 40
9.0
 40
9.0
 40
9.0
 40
9.0
 10
75.17749564092786
 20
-90.80203719518144
 10
75.17749564092786
 20
-90.98738333228788
 10
75.1079047121258
 20
-91.24955509871539
 10
74.77579750734772
 20
-91.29020722544134
 10
74.77579750734772
 20
-91.29020722544134
 10
74.77579750734772
 20
-91.0621419043178
 10
74.77579750734772
 20
-91.0621419043178
 10
74.83505314969402
 20
-91.05077308921648
 10
74.98284774601123
 20
-91.0166666439125
 10
74.98284774601123
 20
-90.79962562834176
 10
74.98284774601123
 20
-90.48784448692665
 10
74.65315210807283
 20
-90.4471923602007
 10
74.44782441715193
 20
-90.43341197825971
 10
74.52809514195826
 20
-90.53056367094375
 10
74.5852837270134
 20
-90.602910676134
 10
74.5852837270134
 20
-90.79755857105062
 10
74.5852837270134
 20
-90.98979489912756
 10
74.47951929561623
 20
-91.31294485564399
 10
74.07334253790528
 20
-91.31294485564399
 10
73.75398218642262
 20
-91.31294485564399
 10
73.53384058491515
 20
-91.10038246420407
 10
73.53384058491515
 20
-90.7613850684555
 10
73.53384058491515
 20
-90.21189233855814
 10
74.08815644849186
 20
-90.20052352345682
 10
74.30175236857734
 20
-90.20052352345682
 10
74.53222925654056
 20
-90.20052352345682
 10
75.17749564092786
 20
-90.2208495868198
 10
75.17749564092786
 20
-90.80203719518144
 97
        0
 97
        0
 92
        1
 93
        1
 72
     4
 94
        3
 73
     0
 74
     1
 95
       17
 96
       13
 40
0.0
 40
0.0
 40
0.0
 40
0.0
 40
1.0
 40
1.0
 40
1.0
 40
2.0
 40
2.0
 40
2.0
 40
3.0
 40
3.0
 40
3.0
 40
4.0
 40
4.0
 40
4.0
 40
4.0
 10
73.72642142254062
 20
-90.75897350161581
 10
73.72642142254062
 20
-90.88575301547301
 10
73.78361000759577
 20
-91.0731662098706
 10
74.06920842332298
 20
-91.0731662098706
 10
74.2955511967039
 20
-91.0731662098706
 10
74.39063583209679
 20
-90.92399357535929
 10
74.39063583209679
 20
-90.77929956497879
 10
74.39063583209679
 20
-90.49921330202798
 10
74.1811740265936
 20
-90.45821666575351
 10
74.06472979919215
 20
-90.45821666575351
 10
73.88937443899293
 20
-90.45821666575351
 10
73.72642142254062
 20
-90.5601914921169
 10
73.72642142254062
 20
-90.75897350161581
 97
        0
 97
        0
 75
     2
 76
     1
 98
        0
  0
POLYLINE
  5
E6
330
DF
100
AcDbEntity
  8
_U+30EC_U+30A4_U+30E4_U+30FC 1
370
     0
100
AcDb2dPolyline
 66
     1
 10
0.0
 20
0.0
 30
0.0
  0
VERTEX
  5
E7
330
E6
100
AcDbEntity
  8
_U+30EC_U+30A4_U+30E4_U+30FC 1
370
     0
100
AcDbVertex
100
AcDb2dVertex
 10
75.12685273729468
 20
-89.96935761639655
 30
0.0
  0
VERTEX
  5
E8
330
E6
100
AcDbEntity
  8
_U+30EC_U+30A4_U+30E4_U+30FC 1
370
     0
100
AcDbVertex
100
AcDb2dVertex
 10
74.87501625732291
 20
-89.96935761639655
 30
0.0
  0
VERTEX
  5
E9
330
E6
100
AcDbEntity
  8
_U+30EC_U+30A4_U+30E4_U+30FC 1
370
     0
100
AcDbVertex
100
AcDb2dVertex
 10
74.87501625732291
 20
-89.70029565899854
 30
0.0
  0
VERTEX
  5
EA
330
E6
100
AcDbEntity
  8
_U+30EC_U+30A4_U+30E4_U+30FC 1
370
     0
100
AcDbVertex
100
AcDb2dVertex
 10
75.12685273729468
 20
-89.70029565899854
 30
0.0
  0
VERTEX
  5
EB
330
E6
100
AcDbEntity
  8
_U+30EC_U+30A4_U+30E4_U+30FC 1
370
     0
100
AcDbVertex
100
AcDb2dVertex
 10
75.12685273729468
 20
-89.96935761639655
 30
0.0
  0
SEQEND
  5
EC
330
E6
100
AcDbEntity
  8
_U+30EC_U+30A4_U+30E4_U+30FC 1
370
     0
  0
HATCH
  5
ED
330
DF
100
AcDbEntity
  8
_U+30EC_U+30A4_U+30E4_U+30FC 1
 62
   179
420
  2234388
100
AcDbHatch
 10
0.0
 20
0.0
 30
0.0
210
0.0
220
0.0
230
1.0
  2
SOLID
 70
     1
 71
     0
 91
        1
 92
        1
 93
        4
 72
     1
 10
75.12685273729468
 20
-89.96935761639655
 11
74.87501625732291
 21
-89.96935761639655
 72
     1
 10
74.87501625732291
 20
-89.96935761639655
 11
74.87501625732291
 21
-89.70029565899854
 72
     1
 10
74.87501625732291
 20
-89.70029565899854
 11
75.12685273729468
 21
-89.70029565899854
 72
     1
 10
75.12685273729468
 20
-89.70029565899854
 11
75.12685273729468
 21
-89.96935761639655
 97
        0
 75
     2
 76
     1
 98
        0
  0
SPLINE
  5
EE
330
DF
100
AcDbEntity
  8
_U+30EC_U+30A4_U+30E4_U+30FC 1
370
     0
100
AcDbSpline
210
0.0
220
0.0
230
1.0
 70
    11
 71
     3
 72
    53
 73
    49
 74
     0
 42
0.0000000001
 43
0.0000000001
 12
1.0
 22
0.0
 32
0.0
 13
1.0
 23
0.0
 33
0.0
 40
0.0
 40
0.0
 40
0.0
 40
0.0
 40
1.0
 40
1.0
 40
1.0
 40
2.0
 40
2.0
 40
2.0
 40
3.0
 40
3.0
 40
3.0
 40
4.0
 40
4.0
 40
4.0
 40
5.0
 40
5.0
 40
5.0
 40
6.0
 40
6.0
 40
6.0
 40
7.0
 40
7.0
 40
7.0
 40
8.0
 40
8.0
 40
8.0
 40
9.0
 40
9.0
 40
9.0
 40
10.0
 40
10.0
 40
10.0
 40
11.0
 40
11.0
 40
11.0
 40
12.0
 40
12.0
 40
12.0
 40
13.0
 40
13.0
 40
13.0
 40
14.0
 40
14.0
 40
14.0
 40
15.0
 40
15.0
 40
15.0
 40
16.0
 40
16.0
 40
16.0
 40
16.0
 10
75.17749564092786
 20
-88.93341740398193
 30
0.0
 10
75.17749564092786
 20
-89.0171332242735
 30
0.0
 10
75.16061467305013
 20
-89.12530922251034
 30
0.0
 10
75.09722491612153
 20
-89.23417423984424
 30
0.0
 10
74.98732637014206
 20
-89.41952037695069
 30
0.0
 10
74.85606823215404
 20
-89.4419134976048
 30
0.0
 10
74.74823674346572
 20
-89.46223956096777
 30
0.0
 10
74.74823674346572
 20
-89.46223956096777
 30
0.0
 10
74.74823674346572
 20
-89.22487248203406
 30
0.0
 10
74.74823674346572
 20
-89.22487248203406
 30
0.0
 10
74.94701875296464
 20
-89.16630585878481
 30
0.0
 10
74.97664657413779
 20
-89.03056909666597
 30
0.0
 10
74.97664657413779
 20
-88.93100583714225
 30
0.0
 10
74.97664657413779
 20
-88.78183320263093
 30
0.0
 10
74.87708331461407
 20
-88.61888018617861
 30
0.0
 10
74.6445393693597
 20
-88.61888018617861
 30
0.0
 10
74.38856877480563
 20
-88.61888018617861
 30
0.0
 10
74.31863333645506
 20
-88.81111651425556
 30
0.0
 10
74.31863333645506
 20
-88.9399630854039
 30
0.0
 10
74.31863333645506
 20
-88.97406953070788
 30
0.0
 10
74.31863333645506
 20
-89.12530922251034
 30
0.0
 10
74.44782441715193
 20
-89.22039385790323
 30
0.0
 10
74.44782441715193
 20
-89.22039385790323
 30
0.0
 10
74.42887639198307
 20
-89.40815156184935
 30
0.0
 10
74.42887639198307
 20
-89.40815156184935
 30
0.0
 10
74.42887639198307
 20
-89.40815156184935
 30
0.0
 10
73.58241643125717
 20
-89.27930499070101
 30
0.0
 10
73.58241643125717
 20
-89.27930499070101
 30
0.0
 10
73.58241643125717
 20
-89.27930499070101
 30
0.0
 10
73.58241643125717
 20
-88.44731443101317
 30
0.0
 10
73.58241643125717
 20
-88.44731443101317
 30
0.0
 10
73.58241643125717
 20
-88.44731443101317
 30
0.0
 10
73.77706432617379
 20
-88.44731443101317
 30
0.0
 10
73.77706432617379
 20
-88.44731443101317
 30
0.0
 10
73.77706432617379
 20
-88.44731443101317
 30
0.0
 10
73.77706432617379
 20
-89.10498315914737
 30
0.0
 10
73.77706432617379
 20
-89.10498315914737
 30
0.0
 10
73.77706432617379
 20
-89.10498315914737
 30
0.0
 10
74.20012205176248
 20
-89.17526310704646
 30
0.0
 10
74.20012205176248
 20
-89.17526310704646
 30
0.0
 10
74.16636011600703
 20
-89.10980629282672
 30
0.0
 10
74.12605249882961
 20
-89.02161184840432
 30
0.0
 10
74.12605249882961
 20
-88.89483233454713
 30
0.0
 10
74.12605249882961
 20
-88.62370331985797
 30
0.0
 10
74.31243216458162
 20
-88.3704888016921
 30
0.0
 10
74.62559134419082
 20
-88.3704888016921
 30
0.0
 10
74.94288463838234
 20
-88.3704888016921
 30
0.0
 10
75.17749564092786
 20
-88.60992293791696
 30
0.0
 10
75.17749564092786
 20
-88.93341740398193
 30
0.0
  0
HATCH
  5
EF
330
DF
100
AcDbEntity
  8
_U+30EC_U+30A4_U+30E4_U+30FC 1
 62
   179
420
  2234388
100
AcDbHatch
 10
0.0
 20
0.0
 30
0.0
210
0.0
220
0.0
230
1.0
  2
SOLID
 70
     1
 71
     0
 91
        1
 92
        1
 93
        1
 72
     4
 94
        3
 73
     0
 74
     1
 95
       53
 96
       49
 40
0.0
 40
0.0
 40
0.0
 40
0.0
 40
1.0
 40
1.0
 40
1.0
 40
2.0
 40
2.0
 40
2.0
 40
3.0
 40
3.0
 40
3.0
 40
4.0
 40
4.0
 40
4.0
 40
5.0
 40
5.0
 40
5.0
 40
6.0
 40
6.0
 40
6.0
 40
7.0
 40
7.0
 40
7.0
 40
8.0
 40
8.0
 40
8.0
 40
9.0
 40
9.0
 40
9.0
 40
10.0
 40
10.0
 40
10.0
 40
11.0
 40
11.0
 40
11.0
 40
12.0
 40
12.0
 40
12.0
 40
13.0
 40
13.0
 40
13.0
 40
14.0
 40
14.0
 40
14.0
 40
15.0
 40
15.0
 40
15.0
 40
16.0
 40
16.0
 40
16.0
 40
16.0
 10
75.17749564092786
 20
-88.93341740398193
 10
75.17749564092786
 20
-89.0171332242735
 10
75.16061467305013
 20
-89.12530922251034
 10
75.09722491612153
 20
-89.23417423984424
 10
74.98732637014206
 20
-89.41952037695069
 10
74.85606823215404
 20
-89.4419134976048
 10
74.74823674346572
 20
-89.46223956096777
 10
74.74823674346572
 20
-89.46223956096777
 10
74.74823674346572
 20
-89.22487248203406
 10
74.74823674346572
 20
-89.22487248203406
 10
74.94701875296464
 20
-89.16630585878481
 10
74.97664657413779
 20
-89.03056909666597
 10
74.97664657413779
 20
-88.93100583714225
 10
74.97664657413779
 20
-88.78183320263093
 10
74.87708331461407
 20
-88.61888018617861
 10
74.6445393693597
 20
-88.61888018617861
 10
74.38856877480563
 20
-88.61888018617861
 10
74.31863333645506
 20
-88.81111651425556
 10
74.31863333645506
 20
-88.9399630854039
 10
74.31863333645506
 20
-88.97406953070788
 10
74.31863333645506
 20
-89.12530922251034
 10
74.44782441715193
 20
-89.22039385790323
 10
74.44782441715193
 20
-89.22039385790323
 10
74.42887639198307
 20
-89.40815156184935
 10
74.42887639198307
 20
-89.40815156184935
 10
74.42887639198307
 20
-89.40815156184935
 10
73.58241643125717
 20
-89.27930499070101
 10
73.58241643125717
 20
-89.27930499070101
 10
73.58241643125717
 20
-89.27930499070101
 10
73.58241643125717
 20
-88.44731443101317
 10
73.58241643125717
 20
-88.44731443101317
 10
73.58241643125717
 20
-88.44731443101317
 10
73.77706432617379
 20
-88.44731443101317
 10
73.77706432617379
 20
-88.44731443101317
 10
73.77706432617379
 20
-88.44731443101317
 10
73.77706432617379
 20
-89.10498315914737
 10
73.77706432617379
 20
-89.10498315914737
 10
73.77706432617379
 20
-89.10498315914737
 10
74.20012205176248
 20
-89.17526310704646
 10
74.20012205176248
 20
-89.17526310704646
 10
74.16636011600703
 20
-89.10980629282672
 10
74.12605249882961
 20
-89.02161184840432
 10
74.12605249882961
 20
-88.89483233454713
 10
74.12605249882961
 20
-88.62370331985797
 10
74.31243216458162
 20
-88.3704888016921
 10
74.62559134419082
 20
-88.3704888016921
 10
74.94288463838234
 20
-88.3704888016921
 10
75.17749564092786
 20
-88.60992293791696
 10
75.17749564092786
 20
-88.93341740398193
 97
        0
 97
        0
 75
     2
 76
     1
 98
        0
  0
ENDBLK
  5
E2
330
DF
100
AcDbEntity
  8
0
100
AcDbBlockEnd
  0
ENDSEC
  0
SECTION
  2
ENTITIES
  0
INSERT
  5
42
330
1F
100
AcDbEntity
  8
_U+30EC_U+30A4_U+30E4_U+30FC 1
100
AcDbBlockReference
  2
block 2
 10
0.0
 20
0.0
 30
0.0
  0
ENDSEC
  0
SECTION
  2
OBJECTS
  0
DICTIONARY
  5
C
330
0
100
AcDbDictionary
281
     1
  3
ACAD_GROUP
350
D
  3
ACAD_LAYOUT
350
1A
  3
ACAD_MATERIAL
350
3B
  3
ACAD_MLEADERSTYLE
350
F1
  3
ACAD_MLINESTYLE
350
17
  3
ACAD_PLOTSETTINGS
350
19
  3
ACAD_PLOTSTYLENAME
350
E
  3
ACAD_TABLESTYLE
350
F0
  3
ACAD_VISUALSTYLE
350
2A
  0
SUN
  5
3F
330
29
100
AcDbSun
 90
        1
290
     0
 63
     7
421
 16777215
 40
1.0
291
     1
 91
  2455826
 92
 54000000
292
     0
 70
     2
 71
   256
280
     1
  0
DICTIONARY
  5
D
102
{ACAD_REACTORS
330
C
102
}
330
C
100
AcDbDictionary
281
     1
  0
DICTIONARY
  5
1A
102
{ACAD_REACTORS
330
C
102
}
330
C
100
AcDbDictionary
281
     1
  3
Layout1
350
1E
  3
Layout2
350
26
  3
Model
350
22
  0
DICTIONARY
  5
3B
102
{ACAD_REACTORS
330
C
102
}
330
C
100
AcDbDictionary
281
     1
  3
ByBlock
350
3D
  3
ByLayer
350
3C
  3
Global
350
3E
  0
DICTIONARY
  5
F1
102
{ACAD_REACTORS
330
C
102
}
330
C
100
AcDbDictionary
281
     1
  0
DICTIONARY
  5
17
102
{ACAD_REACTORS
330
C
102
}
330
C
100
AcDbDictionary
281
     1
  3
Standard
350
18
  0
DICTIONARY
  5
19
102
{ACAD_REACTORS
330
C
102
}
330
C
100
AcDbDictionary
281
     1
  0
ACDBDICTIONARYWDFLT
  5
E
102
{ACAD_REACTORS
330
C
102
}
330
C
100
AcDbDictionary
281
     1
  3
Normal
350
F
100
AcDbDictionaryWithDefault
340
F
  0
DICTIONARY
  5
F0
102
{ACAD_REACTORS
330
C
102
}
330
C
100
AcDbDictionary
281
     1
  0
DICTIONARY
  5
2A
102
{ACAD_REACTORS
330
C
102
}
330
C
100
AcDbDictionary
281
     1
  3
2dWireframe
350
2F
  3
3D Hidden
350
31
  3
3dWireframe
350
30
  3
Basic
350
32
  3
Brighten
350
36
  3
ColorChange
350
3A
  3
Conceptual
350
34
  3
Dim
350
35
  3
Facepattern
350
39
  3
Flat
350
2B
  3
FlatWithEdges
350
2C
  3
Gouraud
350
2D
  3
GouraudWithEdges
350
2E
  3
Linepattern
350
38
  3
Realistic
350
33
  3
Thicken
350
37
  0
LAYOUT
  5
1E
102
{ACAD_REACTORS
330
1A
102
}
330
1A
100
AcDbPlotSettings
  1

  2
none_device
  4

  6

 40
0.0
 41
0.0
 42
0.0
 43
0.0
 44
0.0
 45
0.0
 46
0.0
 47
0.0
 48
0.0
 49
0.0
140
0.0
141
0.0
142
1.0
143
1.0
 70
   688
 72
     0
 73
     0
 74
     5
  7

 75
    16
 76
     0
 77
     2
 78
   300
147
1.0
148
0.0
149
0.0
100
AcDbLayout
  1
Layout1
 70
     1
 71
     1
 10
0.0
 20
0.0
 11
12.0
 21
9.0
 12
0.0
 22
0.0
 32
0.0
 14
1.000000000000000E+20
 24
1.000000000000000E+20
 34
1.000000000000000E+20
 15
-1.000000000000000E+20
 25
-1.000000000000000E+20
 35
-1.000000000000000E+20
146
0.0
 13
0.0
 23
0.0
 33
0.0
 16
1.0
 26
0.0
 36
0.0
 17
0.0
 27
1.0
 37
0.0
 76
     0
330
1B
  0
LAYOUT
  5
26
102
{ACAD_REACTORS
330
1A
102
}
330
1A
100
AcDbPlotSettings
  1

  2
none_device
  4

  6

 40
0.0
 41
0.0
 42
0.0
 43
0.0
 44
0.0
 45
0.0
 46
0.0
 47
0.0
 48
0.0
 49
0.0
140
0.0
141
0.0
142
1.0
143
1.0
 70
   688
 72
     0
 73
     0
 74
     5
  7

 75
    16
 76
     0
 77
     2
 78
   300
147
1.0
148
0.0
149
0.0
100
AcDbLayout
  1
Layout2
 70
     1
 71
     2
 10
0.0
 20
0.0
 11
0.0
 21
0.0
 12
0.0
 22
0.0
 32
0.0
 14
0.0
 24
0.0
 34
0.0
 15
0.0
 25
0.0
 35
0.0
146
0.0
 13
0.0
 23
0.0
 33
0.0
 16
1.0
 26
0.0
 36
0.0
 17
0.0
 27
1.0
 37
0.0
 76
     0
330
23
  0
LAYOUT
  5
22
102
{ACAD_REACTORS
330
1A
102
}
330
1A
100
AcDbPlotSettings
  1

  2
none_device
  4

  6

 40
0.0
 41
0.0
 42
0.0
 43
0.0
 44
0.0
 45
0.0
 46
0.0
 47
0.0
 48
0.0
 49
0.0
140
0.0
141
0.0
142
1.0
143
1.0
 70
  1712
 72
     0
 73
     0
 74
     0
  7

 75
     0
 76
     0
 77
     2
 78
   300
147
1.0
148
0.0
149
0.0
100
AcDbLayout
  1
Model
 70
     1
 71
     0
 10
0.0
 20
0.0
 11
12.0
 21
9.0
 12
0.0
 22
0.0
 32
0.0
 14
1.000000000000000E+20
 24
1.000000000000000E+20
 34
1.000000000000000E+20
 15
-1.000000000000000E+20
 25
-1.000000000000000E+20
 35
-1.000000000000000E+20
146
0.0
 13
0.0
 23
0.0
 33
0.0
 16
1.0
 26
0.0
 36
0.0
 17
0.0
 27
1.0
 37
0.0
 76
     0
330
1F
331
29
  0
MATERIAL
  5
3D
102
{ACAD_REACTORS
330
3B
102
}
330
3B
100
AcDbMaterial
  1
ByBlock
 72
     1
 94
      127
  0
MATERIAL
  5
3C
102
{ACAD_REACTORS
330
3B
102
}
330
3B
100
AcDbMaterial
  1
ByLayer
 72
     1
 94
      127
  0
MATERIAL
  5
3E
102
{ACAD_REACTORS
330
3B
102
}
330
3B
100
AcDbMaterial
  1
Global
 72
     1
 94
      127
  0
MLINESTYLE
  5
18
102
{ACAD_REACTORS
330
17
102
}
330
17
100
AcDbMlineStyle
  2
Standard
 70
     0
  3

 62
   256
 51
90.0
 52
90.0
 71
     2
 49
0.5
 62
   256
  6
BYLAYER
 49
-0.5
 62
   256
  6
BYLAYER
  0
ACDBPLACEHOLDER
  5
F
102
{ACAD_REACTORS
330
E
102
}
330
E
  0
VISUALSTYLE
  5
2F
102
{ACAD_REACTORS
330
2A
102
}
330
2A
100
AcDbVisualStyle
  2
2dWireframe
 70
     4
177
     2
291
     0
 71
     0
176
     1
 72
     2
176
     1
 73
     0
176
     1
 90
        0
176
     1
 40
-0.6
176
     1
 41
-30.0
176
     1
 62
     5
 63
     7
421
 16777215
176
     1
 74
     1
176
     1
 91
        4
176
     1
 64
     7
176
     1
 65
   257
176
     1
 75
     1
176
     1
175
     1
176
     1
 42
1.0
176
     1
 92
        0
176
     1
 66
   257
176
     1
 43
1.0
176
     1
 76
     1
176
     1
 77
     6
176
     1
 78
     2
176
     1
 67
     7
176
     1
 79
     5
176
     1
170
     0
176
     1
171
     0
176
     1
290
     0
176
     1
 93
        1
176
     1
 44
0.0
176
     1
173
     0
176
     1
  0
VISUALSTYLE
  5
31
102
{ACAD_REACTORS
330
2A
102
}
330
2A
100
AcDbVisualStyle
  2
3D Hidden
 70
     6
177
     2
291
     0
 71
     1
176
     1
 72
     2
176
     1
 73
     2
176
     1
 90
        0
176
     1
 40
-0.6
176
     1
 41
-30.0
176
     1
 62
     5
 63
     7
421
 16777215
176
     1
 74
     2
176
     1
 91
        2
176
     1
 64
     7
176
     1
 65
   257
176
     1
 75
     2
176
     1
175
     1
176
     1
 42
40.0
176
     1
 92
        0
176
     1
 66
   257
176
     1
 43
1.0
176
     1
 76
     1
176
     1
 77
     6
176
     1
 78
     2
176
     1
 67
     7
176
     1
 79
     3
176
     1
170
     0
176
     1
171
     0
176
     1
290
     0
176
     1
 93
        1
176
     1
 44
0.0
176
     1
173
     0
176
     1
  0
VISUALSTYLE
  5
30
102
{ACAD_REACTORS
330
2A
102
}
330
2A
100
AcDbVisualStyle
  2
3dWireframe
 70
     5
177
     2
291
     0
 71
     0
176
     1
 72
     2
176
     1
 73
     0
176
     1
 90
        0
176
     1
 40
-0.6
176
     1
 41
-30.0
176
     1
 62
     5
 63
     7
421
 16777215
176
     1
 74
     1
176
     1
 91
        4
176
     1
 64
     7
176
     1
 65
   257
176
     1
 75
     1
176
     1
175
     1
176
     1
 42
1.0
176
     1
 92
        0
176
     1
 66
   257
176
     1
 43
1.0
176
     1
 76
     1
176
     1
 77
     6
176
     1
 78
     2
176
     1
 67
     7
176
     1
 79
     5
176
     1
170
     0
176
     1
171
     0
176
     1
290
     0
176
     1
 93
        1
176
     1
 44
0.0
176
     1
173
     0
176
     1
  0
VISUALSTYLE
  5
32
102
{ACAD_REACTORS
330
2A
102
}
330
2A
100
AcDbVisualStyle
  2
Basic
 70
     7
177
     2
291
     1
 71
     1
176
     1
 72
     0
176
     1
 73
     1
176
     1
 90
        0
176
     1
 40
-0.6
176
     1
 41
-30.0
176
     1
 62
     5
 63
     7
421
 16777215
176
     1
 74
     0
176
     1
 91
        4
176
     1
 64
     7
176
     1
 65
   257
176
     1
 75
     1
176
     1
175
     1
176
     1
 42
1.0
176
     1
 92
        8
176
     1
 66
     7
176
     1
 43
1.0
176
     1
 76
     1
176
     1
 77
     6
176
     1
 78
     2
176
     1
 67
     7
176
     1
 79
     5
176
     1
170
     0
176
     1
171
     0
176
     1
290
     0
176
     1
 93
        1
176
     1
 44
0.0
176
     1
173
     0
176
     1
  0
VISUALSTYLE
  5
36
102
{ACAD_REACTORS
330
2A
102
}
330
2A
100
AcDbVisualStyle
  2
Brighten
 70
    12
177
     2
291
     1
 71
     2
176
     1
 72
     2
176
     1
 73
     0
176
     1
 90
        0
176
     1
 40
-0.6
176
     1
 41
-30.0
176
     1
 62
     5
 63
     7
421
 16777215
176
     1
 74
     1
176
     1
 91
        4
176
     1
 64
     7
176
     1
 65
   257
176
     1
 75
     1
176
     1
175
     1
176
     1
 42
1.0
176
     1
 92
        8
176
     1
 66
     7
176
     1
 43
1.0
176
     1
 76
     1
176
     1
 77
     6
176
     1
 78
     2
176
     1
 67
     7
176
     1
 79
     5
176
     1
170
     0
176
     1
171
     0
176
     1
290
     0
176
     1
 93
        1
176
     1
 44
50.0
176
     1
173
     0
176
     1
  0
VISUALSTYLE
  5
3A
102
{ACAD_REACTORS
330
2A
102
}
330
2A
100
AcDbVisualStyle
  2
ColorChange
 70
    16
177
     2
291
     1
 71
     2
176
     1
 72
     2
176
     1
 73
     3
176
     1
 90
        0
176
     1
 40
-0.6
176
     1
 41
-30.0
176
     1
 62
     5
 63
     8
421
  8421504
176
     1
 74
     1
176
     1
 91
        4
176
     1
 64
     7
176
     1
 65
   257
176
     1
 75
     1
176
     1
175
     1
176
     1
 42
1.0
176
     1
 92
        8
176
     1
 66
     8
424
  8421504
176
     1
 43
1.0
176
     1
 76
     1
176
     1
 77
     6
176
     1
 78
     2
176
     1
 67
     7
176
     1
 79
     5
176
     1
170
     0
176
     1
171
     0
176
     1
290
     0
176
     1
 93
        1
176
     1
 44
0.0
176
     1
173
     0
176
     1
  0
VISUALSTYLE
  5
34
102
{ACAD_REACTORS
330
2A
102
}
330
2A
100
AcDbVisualStyle
  2
Conceptual
 70
     9
177
     2
291
     0
 71
     3
176
     1
 72
     2
176
     1
 73
     0
176
     1
 90
        0
176
     1
 40
-0.6
176
     1
 41
-30.0
176
     1
 62
     5
 63
     7
421
 16777215
176
     1
 74
     2
176
     1
 91
        2
176
     1
 64
     7
176
     1
 65
   257
176
     1
 75
     1
176
     1
175
     1
176
     1
 42
40.0
176
     1
 92
        8
176
     1
 66
     7
176
     1
 43
1.0
176
     1
 76
     1
176
     1
 77
     6
176
     1
 78
     2
176
     1
 67
     7
176
     1
 79
     3
176
     1
170
     0
176
     1
171
     0
176
     1
290
     0
176
     1
 93
        1
176
     1
 44
0.0
176
     1
173
     0
176
     1
  0
VISUALSTYLE
  5
35
102
{ACAD_REACTORS
330
2A
102
}
330
2A
100
AcDbVisualStyle
  2
Dim
 70
    11
177
     2
291
     1
 71
     2
176
     1
 72
     2
176
     1
 73
     0
176
     1
 90
        0
176
     1
 40
-0.6
176
     1
 41
-30.0
176
     1
 62
     5
 63
     7
421
 16777215
176
     1
 74
     1
176
     1
 91
        4
176
     1
 64
     7
176
     1
 65
   257
176
     1
 75
     1
176
     1
175
     1
176
     1
 42
1.0
176
     1
 92
        8
176
     1
 66
     7
176
     1
 43
1.0
176
     1
 76
     1
176
     1
 77
     6
176
     1
 78
     2
176
     1
 67
     7
176
     1
 79
     5
176
     1
170
     0
176
     1
171
     0
176
     1
290
     0
176
     1
 93
        1
176
     1
 44
-50.0
176
     1
173
     0
176
     1
  0
VISUALSTYLE
  5
39
102
{ACAD_REACTORS
330
2A
102
}
330
2A
100
AcDbVisualStyle
  2
Facepattern
 70
    15
177
     2
291
     1
 71
     2
176
     1
 72
     2
176
     1
 73
     0
176
     1
 90
        0
176
     1
 40
-0.6
176
     1
 41
-30.0
176
     1
 62
     5
 63
     7
421
 16777215
176
     1
 74
     1
176
     1
 91
        4
176
     1
 64
     7
176
     1
 65
   257
176
     1
 75
     1
176
     1
175
     1
176
     1
 42
1.0
176
     1
 92
        8
176
     1
 66
     7
176
     1
 43
1.0
176
     1
 76
     1
176
     1
 77
     6
176
     1
 78
     2
176
     1
 67
     7
176
     1
 79
     5
176
     1
170
     0
176
     1
171
     0
176
     1
290
     0
176
     1
 93
        1
176
     1
 44
0.0
176
     1
173
     0
176
     1
  0
VISUALSTYLE
  5
2B
102
{ACAD_REACTORS
330
2A
102
}
330
2A
100
AcDbVisualStyle
  2
Flat
 70
     0
177
     2
291
     1
 71
     2
176
     1
 72
     1
176
     1
 73
     1
176
     1
 90
        2
176
     1
 40
-0.6
176
     1
 41
30.0
176
     1
 62
     5
 63
     7
421
 16777215
176
     1
 74
     0
176
     1
 91
        4
176
     1
 64
     7
176
     1
 65
   257
176
     1
 75
     1
176
     1
175
     1
176
     1
 42
1.0
176
     1
 92
        8
176
     1
 66
     7
176
     1
 43
1.0
176
     1
 76
     1
176
     1
 77
     6
176
     1
 78
     2
176
     1
 67
     7
176
     1
 79
     5
176
     1
170
     0
176
     1
171
     0
176
     1
290
     0
176
     1
 93
       13
176
     1
 44
0.0
176
     1
173
     0
176
     1
  0
VISUALSTYLE
  5
2C
102
{ACAD_REACTORS
330
2A
102
}
330
2A
100
AcDbVisualStyle
  2
FlatWithEdges
 70
     1
177
     2
291
     1
 71
     2
176
     1
 72
     1
176
     1
 73
     1
176
     1
 90
        2
176
     1
 40
-0.6
176
     1
 41
30.0
176
     1
 62
     5
 63
     7
421
 16777215
176
     1
 74
     1
176
     1
 91
        4
176
     1
 64
     7
176
     1
 65
   257
176
     1
 75
     1
176
     1
175
     1
176
     1
 42
1.0
176
     1
 92
        0
176
     1
 66
   257
176
     1
 43
1.0
176
     1
 76
     1
176
     1
 77
     6
176
     1
 78
     2
176
     1
 67
     7
176
     1
 79
     5
176
     1
170
     0
176
     1
171
     0
176
     1
290
     0
176
     1
 93
       13
176
     1
 44
0.0
176
     1
173
     0
176
     1
  0
VISUALSTYLE
  5
2D
102
{ACAD_REACTORS
330
2A
102
}
330
2A
100
AcDbVisualStyle
  2
Gouraud
 70
     2
177
     2
291
     1
 71
     2
176
     1
 72
     2
176
     1
 73
     1
176
     1
 90
        2
176
     1
 40
-0.6
176
     1
 41
30.0
176
     1
 62
     5
 63
     7
421
 16777215
176
     1
 74
     0
176
     1
 91
        4
176
     1
 64
     7
176
     1
 65
   257
176
     1
 75
     1
176
     1
175
     1
176
     1
 42
1.0
176
     1
 92
        0
176
     1
 66
     7
176
     1
 43
1.0
176
     1
 76
     1
176
     1
 77
     6
176
     1
 78
     2
176
     1
 67
     7
176
     1
 79
     5
176
     1
170
     0
176
     1
171
     0
176
     1
290
     0
176
     1
 93
       13
176
     1
 44
0.0
176
     1
173
     0
176
     1
  0
VISUALSTYLE
  5
2E
102
{ACAD_REACTORS
330
2A
102
}
330
2A
100
AcDbVisualStyle
  2
GouraudWithEdges
 70
     3
177
     2
291
     1
 71
     2
176
     1
 72
     2
176
     1
 73
     1
176
     1
 90
        2
176
     1
 40
-0.6
176
     1
 41
30.0
176
     1
 62
     5
 63
     7
421
 16777215
176
     1
 74
     1
176
     1
 91
        4
176
     1
 64
     7
176
     1
 65
   257
176
     1
 75
     1
176
     1
175
     1
176
     1
 42
1.0
176
     1
 92
        0
176
     1
 66
   257
176
     1
 43
1.0
176
     1
 76
     1
176
     1
 77
     6
176
     1
 78
     2
176
     1
 67
     7
176
     1
 79
     5
176
     1
170
     0
176
     1
171
     0
176
     1
290
     0
176
     1
 93
       13
176
     1
 44
0.0
176
     1
173
     0
176
     1
  0
VISUALSTYLE
  5
38
102
{ACAD_REACTORS
330
2A
102
}
330
2A
100
AcDbVisualStyle
  2
Linepattern
 70
    14
177
     2
291
     1
 71
     2
176
     1
 72
     2
176
     1
 73
     0
176
     1
 90
        0
176
     1
 40
-0.6
176
     1
 41
-30.0
176
     1
 62
     5
 63
     7
421
 16777215
176
     1
 74
     1
176
     1
 91
        4
176
     1
 64
     7
176
     1
 65
   257
176
     1
 75
     7
176
     1
175
     7
176
     1
 42
1.0
176
     1
 92
        8
176
     1
 66
     7
176
     1
 43
1.0
176
     1
 76
     1
176
     1
 77
     6
176
     1
 78
     2
176
     1
 67
     7
176
     1
 79
     5
176
     1
170
     0
176
     1
171
     0
176
     1
290
     0
176
     1
 93
        1
176
     1
 44
0.0
176
     1
173
     0
176
     1
  0
VISUALSTYLE
  5
33
102
{ACAD_REACTORS
330
2A
102
}
330
2A
100
AcDbVisualStyle
  2
Realistic
 70
     8
177
     2
291
     0
 71
     2
176
     1
 72
     2
176
     1
 73
     0
176
     1
 90
        0
176
     1
 40
-0.6
176
     1
 41
-30.0
176
     1
 62
     5
 63
     7
421
 16777215
176
     1
 74
     1
176
     1
 91
        0
176
     1
 64
     7
176
     1
 65
   257
176
     1
 75
     1
176
     1
175
     1
176
     1
 42
1.0
176
     1
 92
        8
176
     1
 66
     8
424
  7895160
176
     1
 43
1.0
176
     1
 76
     1
176
     1
 77
     6
176
     1
 78
     2
176
     1
 67
     7
176
     1
 79
     5
176
     1
170
     0
176
     1
171
     0
176
     1
290
     0
176
     1
 93
       13
176
     1
 44
0.0
176
     1
173
     0
176
     1
  0
VISUALSTYLE
  5
37
102
{ACAD_REACTORS
330
2A
102
}
330
2A
100
AcDbVisualStyle
  2
Thicken
 70
    13
177
     2
291
     1
 71
     2
176
     1
 72
     2
176
     1
 73
     0
176
     1
 90
        0
176
     1
 40
-0.6
176
     1
 41
-30.0
176
     1
 62
     5
 63
     7
421
 16777215
176
     1
 74
     1
176
     1
 91
        4
176
     1
 64
     7
176
     1
 65
   257
176
     1
 75
     1
176
     1
175
     1
176
     1
 42
1.0
176
     1
 92
       12
176
     1
 66
     7
176
     1
 43
1.0
176
     1
 76
     1
176
     1
 77
     6
176
     1
 78
     2
176
     1
 67
     7
176
     1
 79
     5
176
     1
170
     0
176
     1
171
     0
176
     1
290
     0
176
     1
 93
        1
176
     1
 44
0.0
176
     1
173
     0
176
     1
  0
ENDSEC
  0
EOF
