  0
SECTION
  2
HEADER
  9
$ACADVER
  1
AC1024
  9
$ACADMAINTVER
 70
     6
  9
$DWGCODEPAGE
  3
UNDEFINED
  9
$INSBASE
 10
0.0
 20
0.0
 30
0.0
  9
$EXTMIN
 10
1.000000000000000E+20
 20
1.000000000000000E+20
 30
1.000000000000000E+20
  9
$EXTMAX
 10
-1.000000000000000E+20
 20
-1.000000000000000E+20
 30
-1.000000000000000E+20
  9
$LIMMIN
 10
0.0
 20
0.0
  9
$LIMMAX
 10
12.0
 20
9.0
  9
$ORTHOMODE
 70
     0
  9
$REGENMODE
 70
     1
  9
$FILLMODE
 70
     1
  9
$QTEXTMODE
 70
     0
  9
$MIRRTEXT
 70
     1
  9
$LTSCALE
 40
1.0
  9
$ATTMODE
 70
     1
  9
$TEXTSIZE
 40
0.2
  9
$TRACEWID
 40
0.05
  9
$TEXTSTYLE
  7
Standard
  9
$CLAYER
  8
0
  9
$CELTYPE
  6
ByLayer
  9
$CECOLOR
 62
   256
  9
$CELTSCALE
 40
1.0
  9
$DISPSILH
 70
     0
  9
$DIMSCALE
 40
1.0
  9
$DIMASZ
 40
0.18
  9
$DIMEXO
 40
0.0625
  9
$DIMDLI
 40
0.38
  9
$DIMRND
 40
0.0
  9
$DIMDLE
 40
0.0
  9
$DIMEXE
 40
0.18
  9
$DIMTP
 40
0.0
  9
$DIMTM
 40
0.0
  9
$DIMTXT
 40
0.18
  9
$DIMCEN
 40
0.09
  9
$DIMTSZ
 40
0.0
  9
$DIMTOL
 70
     0
  9
$DIMLIM
 70
     0
  9
$DIMTIH
 70
     1
  9
$DIMTOH
 70
     1
  9
$DIMSE1
 70
     0
  9
$DIMSE2
 70
     0
  9
$DIMTAD
 70
     0
  9
$DIMZIN
 70
     0
  9
$DIMBLK
  1

  9
$DIMASO
 70
     1
  9
$DIMSHO
 70
     1
  9
$DIMPOST
  1

  9
$DIMAPOST
  1

  9
$DIMALT
 70
     0
  9
$DIMALTD
 70
     2
  9
$DIMALTF
 40
25.4
  9
$DIMLFAC
 40
1.0
  9
$DIMTOFL
 70
     0
  9
$DIMTVP
 40
0.0
  9
$DIMTIX
 70
     0
  9
$DIMSOXD
 70
     0
  9
$DIMSAH
 70
     0
  9
$DIMBLK1
  1

  9
$DIMBLK2
  1

  9
$DIMSTYLE
  2
Standard
  9
$DIMCLRD
 70
     0
  9
$DIMCLRE
 70
     0
  9
$DIMCLRT
 70
     0
  9
$DIMTFAC
 40
1.0
  9
$DIMGAP
 40
0.09
  9
$DIMJUST
 70
     0
  9
$DIMSD1
 70
     0
  9
$DIMSD2
 70
     0
  9
$DIMTOLJ
 70
     1
  9
$DIMTZIN
 70
     0
  9
$DIMALTZ
 70
     0
  9
$DIMALTTZ
 70
     0
  9
$DIMUPT
 70
     0
  9
$DIMDEC
 70
     4
  9
$DIMTDEC
 70
     4
  9
$DIMALTU
 70
     2
  9
$DIMALTTD
 70
     2
  9
$DIMTXSTY
  7
Standard
  9
$DIMAUNIT
 70
     0
  9
$DIMADEC
 70
     0
  9
$DIMALTRND
 40
0.0
  9
$DIMAZIN
 70
     0
  9
$DIMDSEP
 70
    46
  9
$DIMATFIT
 70
     3
  9
$DIMFRAC
 70
     0
  9
$DIMLDRBLK
  1

  9
$DIMLUNIT
 70
     2
  9
$DIMLWD
 70
    -2
  9
$DIMLWE
 70
    -2
  9
$DIMTMOVE
 70
     0
  9
$DIMFXL
 40
1.0
  9
$DIMFXLON
 70
     0
  9
$DIMJOGANG
 40
0.7853981633974483
  9
$DIMTFILL
 70
     0
  9
$DIMTFILLCLR
 70
     0
  9
$DIMARCSYM
 70
     0
  9
$DIMLTYPE
  6

  9
$DIMLTEX1
  6

  9
$DIMLTEX2
  6

  9
$DIMTXTDIRECTION
 70
     0
  9
$LUNITS
 70
     2
  9
$LUPREC
 70
     4
  9
$SKETCHINC
 40
0.1
  9
$FILLETRAD
 40
0.5
  9
$AUNITS
 70
     0
  9
$AUPREC
 70
     0
  9
$MENU
  1
.
  9
$ELEVATION
 40
0.0
  9
$PELEVATION
 40
0.0
  9
$THICKNESS
 40
0.0
  9
$LIMCHECK
 70
     0
  9
$CHAMFERA
 40
0.5
  9
$CHAMFERB
 40
0.5
  9
$CHAMFERC
 40
1.0
  9
$CHAMFERD
 40
0.0
  9
$SKPOLY
 70
     0
  9
$TDCREATE
 40
2457917.589016204
  9
$TDUCREATE
 40
2457917.214016204
  9
$TDUPDATE
 40
2457917.589016204
  9
$TDUUPDATE
 40
2457917.214016204
  9
$TDINDWG
 40
0.0000000116
  9
$TDUSRTIMER
 40
0.0000000116
  9
$USRTIMER
 70
     1
  9
$ANGBASE
 50
0.0
  9
$ANGDIR
 70
     0
  9
$PDMODE
 70
     0
  9
$PDSIZE
 40
0.0
  9
$PLINEWID
 40
0.0
  9
$SPLFRAME
 70
     0
  9
$SPLINETYPE
 70
     6
  9
$SPLINESEGS
 70
     8
  9
$HANDSEED
  5
F1
  9
$SURFTAB1
 70
     6
  9
$SURFTAB2
 70
     6
  9
$SURFTYPE
 70
     6
  9
$SURFU
 70
     6
  9
$SURFV
 70
     6
  9
$UCSBASE
  2

  9
$UCSNAME
  2

  9
$UCSORG
 10
0.0
 20
0.0
 30
0.0
  9
$UCSXDIR
 10
1.0
 20
0.0
 30
0.0
  9
$UCSYDIR
 10
0.0
 20
1.0
 30
0.0
  9
$UCSORTHOREF
  2

  9
$UCSORTHOVIEW
 70
     0
  9
$UCSORGTOP
 10
0.0
 20
0.0
 30
0.0
  9
$UCSORGBOTTOM
 10
0.0
 20
0.0
 30
0.0
  9
$UCSORGLEFT
 10
0.0
 20
0.0
 30
0.0
  9
$UCSORGRIGHT
 10
0.0
 20
0.0
 30
0.0
  9
$UCSORGFRONT
 10
0.0
 20
0.0
 30
0.0
  9
$UCSORGBACK
 10
0.0
 20
0.0
 30
0.0
  9
$PUCSBASE
  2

  9
$PUCSNAME
  2

  9
$PUCSORG
 10
0.0
 20
0.0
 30
0.0
  9
$PUCSXDIR
 10
1.0
 20
0.0
 30
0.0
  9
$PUCSYDIR
 10
0.0
 20
1.0
 30
0.0
  9
$PUCSORTHOREF
  2

  9
$PUCSORTHOVIEW
 70
     0
  9
$PUCSORGTOP
 10
0.0
 20
0.0
 30
0.0
  9
$PUCSORGBOTTOM
 10
0.0
 20
0.0
 30
0.0
  9
$PUCSORGLEFT
 10
0.0
 20
0.0
 30
0.0
  9
$PUCSORGRIGHT
 10
0.0
 20
0.0
 30
0.0
  9
$PUCSORGFRONT
 10
0.0
 20
0.0
 30
0.0
  9
$PUCSORGBACK
 10
0.0
 20
0.0
 30
0.0
  9
$USERI1
 70
     0
  9
$USERI2
 70
     0
  9
$USERI3
 70
     0
  9
$USERI4
 70
     0
  9
$USERI5
 70
     0
  9
$USERR1
 40
0.0
  9
$USERR2
 40
0.0
  9
$USERR3
 40
0.0
  9
$USERR4
 40
0.0
  9
$USERR5
 40
0.0
  9
$WORLDVIEW
 70
     1
  9
$SHADEDGE
 70
     3
  9
$SHADEDIF
 70
    70
  9
$TILEMODE
 70
     1
  9
$MAXACTVP
 70
    64
  9
$PINSBASE
 10
0.0
 20
0.0
 30
0.0
  9
$PLIMCHECK
 70
     0
  9
$PEXTMIN
 10
1.000000000000000E+20
 20
1.000000000000000E+20
 30
1.000000000000000E+20
  9
$PEXTMAX
 10
-1.000000000000000E+20
 20
-1.000000000000000E+20
 30
-1.000000000000000E+20
  9
$PLIMMIN
 10
0.0
 20
0.0
  9
$PLIMMAX
 10
12.0
 20
9.0
  9
$UNITMODE
 70
     0
  9
$VISRETAIN
 70
     1
  9
$PLINEGEN
 70
     0
  9
$PSLTSCALE
 70
     1
  9
$TREEDEPTH
 70
  3020
  9
$CMLSTYLE
  2
Standard
  9
$CMLJUST
 70
     0
  9
$CMLSCALE
 40
1.0
  9
$PROXYGRAPHICS
 70
     1
  9
$MEASUREMENT
 70
     0
  9
$CELWEIGHT
370
    -1
  9
$ENDCAPS
280
     0
  9
$JOINSTYLE
280
     0
  9
$LWDISPLAY
290
     1
  9
$INSUNITS
 70
     1
  9
$HYPERLINKBASE
  1

  9
$STYLESHEET
  1

  9
$XEDIT
290
     1
  9
$CEPSNTYPE
380
     0
  9
$PSTYLEMODE
290
     1
  9
$FINGERPRINTGUID
  2
{348305AF-BD44-7340-47EE-6CE1923E6E41}
  9
$VERSIONGUID
  2
{FAEB1C32-E019-11D5-929B-00C0DF256EC4}
  9
$EXTNAMES
290
     1
  9
$PSVPSCALE
 40
0.0
  9
$OLESTARTUP
290
     0
  9
$SORTENTS
280
   127
  9
$INDEXCTL
280
     0
  9
$HIDETEXT
280
     1
  9
$XCLIPFRAME
280
     2
  9
$HALOGAP
280
     0
  9
$OBSCOLOR
 70
   257
  9
$OBSLTYPE
280
     0
  9
$INTERSECTIONDISPLAY
280
     0
  9
$INTERSECTIONCOLOR
 70
   257
  9
$DIMASSOC
280
     2
  9
$PROJECTNAME
  1

  9
$CAMERADISPLAY
290
     0
  9
$LENSLENGTH
 40
50.0
  9
$CAMERAHEIGHT
 40
0.0
  9
$STEPSPERSEC
 40
2.0
  9
$STEPSIZE
 40
6.0
  9
$3DDWFPREC
 40
2.0
  9
$PSOLWIDTH
 40
0.25
  9
$PSOLHEIGHT
 40
4.0
  9
$LOFTANG1
 40
1.570796326794897
  9
$LOFTANG2
 40
1.570796326794897
  9
$LOFTMAG1
 40
0.0
  9
$LOFTMAG2
 40
0.0
  9
$LOFTPARAM
 70
     7
  9
$LOFTNORMALS
280
     1
  9
$LATITUDE
 40
37.795
  9
$LONGITUDE
 40
-122.394
  9
$NORTHDIRECTION
 40
0.0
  9
$TIMEZONE
 70
 -8000
  9
$LIGHTGLYPHDISPLAY
280
     1
  9
$TILEMODELIGHTSYNCH
280
     1
  9
$CMATERIAL
347
3C
  9
$SOLIDHIST
280
     1
  9
$SHOWHIST
280
     1
  9
$DWFFRAME
280
     2
  9
$DGNFRAME
280
     2
  9
$REALWORLDSCALE
290
     1
  9
$INTERFERECOLOR
 62
   256
  9
$CSHADOW
280
     0
  9
$SHADOWPLANELOCATION
 40
0.0
  0
ENDSEC
  0
SECTION
  2
CLASSES
  0
CLASS
  1
ACDBDICTIONARYWDFLT
  2
AcDbDictionaryWithDefault
  3
ObjectDBX Classes
 90
        0
 91
        4
280
     0
281
     0
  0
CLASS
  1
VISUALSTYLE
  2
AcDbVisualStyle
  3
ObjectDBX Classes
 90
     4095
 91
        4
280
     0
281
     0
  0
CLASS
  1
MATERIAL
  2
AcDbMaterial
  3
ObjectDBX Classes
 90
     1153
 91
        4
280
     0
281
     0
  0
CLASS
  1
SUN
  2
AcDbSun
  3
SCENEOE
 90
     1024
 91
        4
280
     0
281
     0
  0
ENDSEC
  0
SECTION
  2
TABLES
  0
TABLE
  2
VPORT
  5
8
330
0
100
AcDbSymbolTable
 70
     1
  0
VPORT
  5
29
330
8
100
AcDbSymbolTableRecord
100
AcDbViewportTableRecord
  2
*Active
 70
     0
 10
0.0
 20
0.0
 11
1.0
 21
1.0
 12
0.0
 22
0.0
 13
0.0
 23
0.0
 14
0.5
 24
0.5
 15
0.5
 25
0.5
 16
0.0
 26
0.0
 36
1.0
 17
63.499999984125
 27
-89.00059456108309
 37
0.0
 40
178.0011891221662
 41
0.7134783795241226
 42
50.0
 43
0.0
 44
0.0
 50
0.0
 51
0.0
 71
     0
 72
   100
 73
     1
 74
     3
 75
     0
 76
     0
 77
     0
 78
     0
281
     0
 65
     1
110
0.0
120
0.0
130
0.0
111
1.0
121
0.0
131
0.0
112
0.0
122
1.0
132
0.0
 79
     0
146
0.0
 60
     3
 61
     5
292
     1
282
     1
141
0.0
142
0.0
 63
   250
361
3F
  0
ENDTAB
  0
TABLE
  2
LTYPE
  5
5
330
0
100
AcDbSymbolTable
 70
     1
  0
LTYPE
  5
14
330
5
100
AcDbSymbolTableRecord
100
AcDbLinetypeTableRecord
  2
ByBlock
 70
     0
  3

 72
    65
 73
     0
 40
0.0
  0
LTYPE
  5
15
330
5
100
AcDbSymbolTableRecord
100
AcDbLinetypeTableRecord
  2
ByLayer
 70
     0
  3

 72
    65
 73
     0
 40
0.0
  0
LTYPE
  5
16
330
5
100
AcDbSymbolTableRecord
100
AcDbLinetypeTableRecord
  2
Continuous
 70
     0
  3
Solid line
 72
    65
 73
     0
 40
0.0
  0
ENDTAB
  0
TABLE
  2
LAYER
  5
2
330
0
100
AcDbSymbolTable
 70
     2
  0
LAYER
  5
10
330
2
100
AcDbSymbolTableRecord
100
AcDbLayerTableRecord
  2
0
 70
     0
 62
     7
  6
Continuous
370
    -3
390
F
347
3E
  0
LAYER
  5
40
330
2
100
AcDbSymbolTableRecord
100
AcDbLayerTableRecord
  2
_U+30EC_U+30A4_U+30E4_U+30FC 1
 70
     0
 62
     7
  6
Continuous
370
    -3
390
F
347
3E
  0
ENDTAB
  0
TABLE
  2
STYLE
  5
3
330
0
100
AcDbSymbolTable
 70
     1
  0
STYLE
  5
11
330
3
100
AcDbSymbolTableRecord
100
AcDbTextStyleTableRecord
  2
Standard
 70
     0
 40
0.0
 41
1.0
 50
0.0
 71
     0
 42
0.2
  3
txt
  4

  0
ENDTAB
  0
TABLE
  2
VIEW
  5
6
330
0
100
AcDbSymbolTable
 70
     0
  0
ENDTAB
  0
TABLE
  2
UCS
  5
7
330
0
100
AcDbSymbolTable
 70
     0
  0
ENDTAB
  0
TABLE
  2
APPID
  5
9
330
0
100
AcDbSymbolTable
 70
     1
  0
APPID
  5
12
330
9
100
AcDbSymbolTableRecord
100
AcDbRegAppTableRecord
  2
ACAD
 70
     0
  0
ENDTAB
  0
TABLE
  2
DIMSTYLE
  5
A
330
0
100
AcDbSymbolTable
 70
     1
100
AcDbDimStyleTable
  0
DIMSTYLE
105
27
330
A
100
AcDbSymbolTableRecord
100
AcDbDimStyleTableRecord
  2
Standard
 70
     0
178
     0
340
11
  0
ENDTAB
  0
TABLE
  2
BLOCK_RECORD
  5
1
330
0
100
AcDbSymbolTable
 70
     6
  0
BLOCK_RECORD
  5
1F
330
1
100
AcDbSymbolTableRecord
100
AcDbBlockTableRecord
  2
*Model_Space
340
22
 70
     0
280
     1
281
     0
  0
BLOCK_RECORD
  5
1B
330
1
100
AcDbSymbolTableRecord
100
AcDbBlockTableRecord
  2
*Paper_Space
340
1E
 70
     0
280
     1
281
     0
  0
BLOCK_RECORD
  5
23
330
1
100
AcDbSymbolTableRecord
100
AcDbBlockTableRecord
  2
*Paper_Space0
340
26
 70
     0
280
     1
281
     0
  0
BLOCK_RECORD
  5
91
330
1
100
AcDbSymbolTableRecord
100
AcDbBlockTableRecord
  2
block 2
340
0
102
{BLKREFS
331
92
102
}
 70
     0
280
     1
281
     0
  0
BLOCK_RECORD
  5
AB
330
1
100
AcDbSymbolTableRecord
100
AcDbBlockTableRecord
  2
block 3
340
0
102
{BLKREFS
331
AC
102
}
 70
     0
280
     1
281
     0
  0
BLOCK_RECORD
  5
B9
330
1
100
AcDbSymbolTableRecord
100
AcDbBlockTableRecord
  2
block 4
340
0
102
{BLKREFS
331
BA
102
}
 70
     0
280
     1
281
     0
  0
BLOCK_RECORD
  5
CB
330
1
100
AcDbSymbolTableRecord
100
AcDbBlockTableRecord
  2
block 5
340
0
102
{BLKREFS
331
CC
102
}
 70
     0
280
     1
281
     0
  0
BLOCK_RECORD
  5
DD
330
1
100
AcDbSymbolTableRecord
100
AcDbBlockTableRecord
  2
block 6
340
0
102
{BLKREFS
331
DE
102
}
 70
     0
280
     1
281
     0
  0
ENDTAB
  0
ENDSEC
  0
SECTION
  2
BLOCKS
  0
BLOCK
  5
20
330
1F
100
AcDbEntity
  8
0
100
AcDbBlockBegin
  2
*Model_Space
 70
     0
 10
0.0
 20
0.0
 30
0.0
  3
*Model_Space
  1

  0
ENDBLK
  5
21
330
1F
100
AcDbEntity
  8
0
100
AcDbBlockEnd
  0
BLOCK
  5
1C
330
1B
100
AcDbEntity
 67
     1
  8
0
100
AcDbBlockBegin
  2
*Paper_Space
 70
     0
 10
0.0
 20
0.0
 30
0.0
  3
*Paper_Space
  1

  0
ENDBLK
  5
1D
330
1B
100
AcDbEntity
 67
     1
  8
0
100
AcDbBlockEnd
  0
BLOCK
  5
24
330
23
100
AcDbEntity
  8
0
100
AcDbBlockBegin
  2
*Paper_Space0
 70
     0
 10
0.0
 20
0.0
 30
0.0
  3
*Paper_Space0
  1

  0
ENDBLK
  5
25
330
23
100
AcDbEntity
  8
0
100
AcDbBlockEnd
  0
BLOCK
  5
93
330
91
100
AcDbEntity
  8
0
100
AcDbBlockBegin
  2
block 2
 70
     0
 10
0.0
 20
0.0
 30
0.0
  3
block 2
  1

  0
SPLINE
  5
95
330
91
100
AcDbEntity
  8
_U+30EC_U+30A4_U+30E4_U+30FC 1
370
     0
100
AcDbSpline
210
0.0
220
0.0
230
1.0
 70
    11
 71
     3
 72
    26
 73
    22
 74
     0
 42
0.0000000001
 43
0.0000000001
 12
1.0
 22
0.0
 32
0.0
 13
1.0
 23
0.0
 33
0.0
 40
0.0
 40
0.0
 40
0.0
 40
0.0
 40
1.0
 40
1.0
 40
1.0
 40
2.0
 40
2.0
 40
2.0
 40
3.0
 40
3.0
 40
3.0
 40
4.0
 40
4.0
 40
4.0
 40
5.0
 40
5.0
 40
5.0
 40
6.0
 40
6.0
 40
6.0
 40
7.0
 40
7.0
 40
7.0
 40
7.0
 10
58.77332897836222
 20
-79.1920654098895
 30
0.0
 10
58.77332897836222
 20
-79.1920654098895
 30
0.0
 10
58.77332897836222
 20
-78.08774005209266
 30
0.0
 10
58.77332897836222
 20
-78.08774005209266
 30
0.0
 10
58.77332897836222
 20
-78.08774005209266
 30
0.0
 10
58.45517441029941
 20
-78.08774005209266
 30
0.0
 10
58.45517441029941
 20
-78.08774005209266
 30
0.0
 10
58.45517441029941
 20
-78.08774005209266
 30
0.0
 10
58.45517441029941
 20
-77.93977320100117
 30
0.0
 10
58.45517441029941
 20
-77.93977320100117
 30
0.0
 10
58.77539603565337
 20
-77.92495929041459
 30
0.0
 10
58.82035453173589
 20
-77.76200627396229
 30
0.0
 10
58.8487765694892
 20
-77.64780135862625
 30
0.0
 10
58.8487765694892
 20
-77.64780135862625
 30
0.0
 10
58.98968097483591
 20
-77.64780135862625
 30
0.0
 10
58.98968097483591
 20
-77.64780135862625
 30
0.0
 10
58.98968097483591
 20
-77.64780135862625
 30
0.0
 10
58.98968097483591
 20
-79.1920654098895
 30
0.0
 10
58.98968097483591
 20
-79.1920654098895
 30
0.0
 10
58.98968097483591
 20
-79.1920654098895
 30
0.0
 10
58.77332897836222
 20
-79.1920654098895
 30
0.0
 10
58.77332897836222
 20
-79.1920654098895
 30
0.0
  0
HATCH
  5
96
330
91
100
AcDbEntity
  8
_U+30EC_U+30A4_U+30E4_U+30FC 1
 62
   179
420
  2234388
100
AcDbHatch
 10
0.0
 20
0.0
 30
0.0
210
0.0
220
0.0
230
1.0
  2
SOLID
 70
     1
 71
     0
 91
        1
 92
        1
 93
        1
 72
     4
 94
        3
 73
     0
 74
     1
 95
       26
 96
       22
 40
0.0
 40
0.0
 40
0.0
 40
0.0
 40
1.0
 40
1.0
 40
1.0
 40
2.0
 40
2.0
 40
2.0
 40
3.0
 40
3.0
 40
3.0
 40
4.0
 40
4.0
 40
4.0
 40
5.0
 40
5.0
 40
5.0
 40
6.0
 40
6.0
 40
6.0
 40
7.0
 40
7.0
 40
7.0
 40
7.0
 10
58.77332897836222
 20
-79.1920654098895
 10
58.77332897836222
 20
-79.1920654098895
 10
58.77332897836222
 20
-78.08774005209266
 10
58.77332897836222
 20
-78.08774005209266
 10
58.77332897836222
 20
-78.08774005209266
 10
58.45517441029941
 20
-78.08774005209266
 10
58.45517441029941
 20
-78.08774005209266
 10
58.45517441029941
 20
-78.08774005209266
 10
58.45517441029941
 20
-77.93977320100117
 10
58.45517441029941
 20
-77.93977320100117
 10
58.77539603565337
 20
-77.92495929041459
 10
58.82035453173589
 20
-77.76200627396229
 10
58.8487765694892
 20
-77.64780135862625
 10
58.8487765694892
 20
-77.64780135862625
 10
58.98968097483591
 20
-77.64780135862625
 10
58.98968097483591
 20
-77.64780135862625
 10
58.98968097483591
 20
-77.64780135862625
 10
58.98968097483591
 20
-79.1920654098895
 10
58.98968097483591
 20
-79.1920654098895
 10
58.98968097483591
 20
-79.1920654098895
 10
58.77332897836222
 20
-79.1920654098895
 10
58.77332897836222
 20
-79.1920654098895
 97
        0
 97
        0
 75
     2
 76
     1
 98
        0
  0
SPLINE
  5
97
330
91
100
AcDbEntity
  8
_U+30EC_U+30A4_U+30E4_U+30FC 1
370
     0
100
AcDbSpline
210
0.0
220
0.0
230
1.0
 70
    11
 71
     3
 72
    29
 73
    25
 74
     0
 42
0.0000000001
 43
0.0000000001
 12
1.0
 22
0.0
 32
0.0
 13
1.0
 23
0.0
 33
0.0
 40
0.0
 40
0.0
 40
0.0
 40
0.0
 40
1.0
 40
1.0
 40
1.0
 40
2.0
 40
2.0
 40
2.0
 40
3.0
 40
3.0
 40
3.0
 40
4.0
 40
4.0
 40
4.0
 40
5.0
 40
5.0
 40
5.0
 40
6.0
 40
6.0
 40
6.0
 40
7.0
 40
7.0
 40
7.0
 40
8.0
 40
8.0
 40
8.0
 40
8.0
 10
59.95361869160882
 20
-79.24288056829693
 30
0.0
 10
59.69661456840918
 20
-79.24288056829693
 30
0.0
 10
59.45184053418218
 20
-79.10524900366119
 30
0.0
 10
59.45184053418218
 20
-78.75626083100538
 30
0.0
 10
59.45184053418218
 20
-78.50029023645132
 30
0.0
 10
59.58843857017234
 20
-78.40503334628416
 30
0.0
 10
59.69041339653573
 20
-78.34371064664671
 30
0.0
 10
59.57017956410051
 20
-78.28445500430041
 30
0.0
 10
59.49679903026469
 20
-78.17025008896438
 30
0.0
 10
59.49679903026469
 20
-78.00953638457749
 30
0.0
 10
59.49679903026469
 20
-77.73444551008028
 30
0.0
 10
59.68834633924458
 20
-77.59905325750996
 30
0.0
 10
59.95361869160882
 20
-77.59905325750996
 30
0.0
 10
60.22715927313766
 20
-77.59905325750996
 30
0.0
 10
60.41078286250147
 20
-77.74288599401915
 30
0.0
 10
60.41078286250147
 20
-78.00953638457749
 30
0.0
 10
60.41078286250147
 20
-78.17025008896438
 30
0.0
 10
60.3353352713745
 20
-78.28445500430041
 30
0.0
 10
60.21475692939076
 20
-78.34371064664671
 30
0.0
 10
60.30053980697348
 20
-78.39452580505414
 30
0.0
 10
60.45350204651857
 20
-78.48978269522131
 30
0.0
 10
60.45350204651857
 20
-78.75212671642308
 30
0.0
 10
60.45350204651857
 20
-79.12643634089548
 30
0.0
 10
60.18409557957204
 20
-79.24288056829693
 30
0.0
 10
59.95361869160882
 20
-79.24288056829693
 30
0.0
  0
SPLINE
  5
98
330
91
100
AcDbEntity
  8
_U+30EC_U+30A4_U+30E4_U+30FC 1
370
     0
100
AcDbSpline
210
0.0
220
0.0
230
1.0
 70
    11
 71
     3
 72
    17
 73
    13
 74
     0
 42
0.0000000001
 43
0.0000000001
 12
1.0
 22
0.0
 32
0.0
 13
1.0
 23
0.0
 33
0.0
 40
0.0
 40
0.0
 40
0.0
 40
0.0
 40
1.0
 40
1.0
 40
1.0
 40
2.0
 40
2.0
 40
2.0
 40
3.0
 40
3.0
 40
3.0
 40
4.0
 40
4.0
 40
4.0
 40
4.0
 10
59.95361869160882
 20
-78.4517143901093
 30
0.0
 10
59.81512585310178
 20
-78.4517143901093
 30
0.0
 10
59.66802027588161
 20
-78.53835854156333
 30
0.0
 10
59.66802027588161
 20
-78.74144692041881
 30
0.0
 10
59.66802027588161
 20
-78.94660235656544
 30
0.0
 10
59.7906656751565
 20
-79.04823267338031
 30
0.0
 10
59.95361869160882
 20
-79.04823267338031
 30
0.0
 10
60.13310816639034
 20
-79.04823267338031
 30
0.0
 10
60.23921710733603
 20
-78.92558727410541
 30
0.0
 10
60.23921710733603
 20
-78.74782034706652
 30
0.0
 10
60.23921710733603
 20
-78.5256116882679
 30
0.0
 10
60.08212075320864
 20
-78.4517143901093
 30
0.0
 10
59.95361869160882
 20
-78.4517143901093
 30
0.0
  0
SPLINE
  5
99
330
91
100
AcDbEntity
  8
_U+30EC_U+30A4_U+30E4_U+30FC 1
370
     0
100
AcDbSpline
210
0.0
220
0.0
230
1.0
 70
    11
 71
     3
 72
    17
 73
    13
 74
     0
 42
0.0000000001
 43
0.0000000001
 12
1.0
 22
0.0
 32
0.0
 13
1.0
 23
0.0
 33
0.0
 40
0.0
 40
0.0
 40
0.0
 40
0.0
 40
1.0
 40
1.0
 40
1.0
 40
2.0
 40
2.0
 40
2.0
 40
3.0
 40
3.0
 40
3.0
 40
4.0
 40
4.0
 40
4.0
 40
4.0
 10
59.95361869160882
 20
-77.79163409513542
 30
0.0
 10
59.79445528019028
 20
-77.79163409513542
 30
0.0
 10
59.71280651718985
 20
-77.88671873052833
 30
0.0
 10
59.71280651718985
 20
-78.02211098309864
 30
0.0
 10
59.71280651718985
 20
-78.1449286371478
 30
0.0
 10
59.7823974459919
 20
-78.26343992184039
 30
0.0
 10
59.95361869160882
 20
-78.26343992184039
 30
0.0
 10
60.12518444677426
 20
-78.26343992184039
 30
0.0
 10
60.19443086602779
 20
-78.1449286371478
 30
0.0
 10
60.19443086602779
 20
-78.02211098309864
 30
0.0
 10
60.19443086602779
 20
-77.88671873052833
 30
0.0
 10
60.11071504573621
 20
-77.79163409513542
 30
0.0
 10
59.95361869160882
 20
-77.79163409513542
 30
0.0
  0
HATCH
  5
9A
330
91
100
AcDbEntity
  8
_U+30EC_U+30A4_U+30E4_U+30FC 1
 62
   179
420
  2234388
100
AcDbHatch
 10
0.0
 20
0.0
 30
0.0
210
0.0
220
0.0
230
1.0
  2
SOLID
 70
     1
 71
     0
 91
        3
 92
        1
 93
        1
 72
     4
 94
        3
 73
     0
 74
     1
 95
       29
 96
       25
 40
0.0
 40
0.0
 40
0.0
 40
0.0
 40
1.0
 40
1.0
 40
1.0
 40
2.0
 40
2.0
 40
2.0
 40
3.0
 40
3.0
 40
3.0
 40
4.0
 40
4.0
 40
4.0
 40
5.0
 40
5.0
 40
5.0
 40
6.0
 40
6.0
 40
6.0
 40
7.0
 40
7.0
 40
7.0
 40
8.0
 40
8.0
 40
8.0
 40
8.0
 10
59.95361869160882
 20
-79.24288056829693
 10
59.69661456840918
 20
-79.24288056829693
 10
59.45184053418218
 20
-79.10524900366119
 10
59.45184053418218
 20
-78.75626083100538
 10
59.45184053418218
 20
-78.50029023645132
 10
59.58843857017234
 20
-78.40503334628416
 10
59.69041339653573
 20
-78.34371064664671
 10
59.57017956410051
 20
-78.28445500430041
 10
59.49679903026469
 20
-78.17025008896438
 10
59.49679903026469
 20
-78.00953638457749
 10
59.49679903026469
 20
-77.73444551008028
 10
59.68834633924458
 20
-77.59905325750996
 10
59.95361869160882
 20
-77.59905325750996
 10
60.22715927313766
 20
-77.59905325750996
 10
60.41078286250147
 20
-77.74288599401915
 10
60.41078286250147
 20
-78.00953638457749
 10
60.41078286250147
 20
-78.17025008896438
 10
60.3353352713745
 20
-78.28445500430041
 10
60.21475692939076
 20
-78.34371064664671
 10
60.30053980697348
 20
-78.39452580505414
 10
60.45350204651857
 20
-78.48978269522131
 10
60.45350204651857
 20
-78.75212671642308
 10
60.45350204651857
 20
-79.12643634089548
 10
60.18409557957204
 20
-79.24288056829693
 10
59.95361869160882
 20
-79.24288056829693
 97
        0
 97
        0
 92
        1
 93
        1
 72
     4
 94
        3
 73
     0
 74
     1
 95
       17
 96
       13
 40
0.0
 40
0.0
 40
0.0
 40
0.0
 40
1.0
 40
1.0
 40
1.0
 40
2.0
 40
2.0
 40
2.0
 40
3.0
 40
3.0
 40
3.0
 40
4.0
 40
4.0
 40
4.0
 40
4.0
 10
59.95361869160882
 20
-78.4517143901093
 10
59.81512585310178
 20
-78.4517143901093
 10
59.66802027588161
 20
-78.53835854156333
 10
59.66802027588161
 20
-78.74144692041881
 10
59.66802027588161
 20
-78.94660235656544
 10
59.7906656751565
 20
-79.04823267338031
 10
59.95361869160882
 20
-79.04823267338031
 10
60.13310816639034
 20
-79.04823267338031
 10
60.23921710733603
 20
-78.92558727410541
 10
60.23921710733603
 20
-78.74782034706652
 10
60.23921710733603
 20
-78.5256116882679
 10
60.08212075320864
 20
-78.4517143901093
 10
59.95361869160882
 20
-78.4517143901093
 97
        0
 97
        0
 92
        1
 93
        1
 72
     4
 94
        3
 73
     0
 74
     1
 95
       17
 96
       13
 40
0.0
 40
0.0
 40
0.0
 40
0.0
 40
1.0
 40
1.0
 40
1.0
 40
2.0
 40
2.0
 40
2.0
 40
3.0
 40
3.0
 40
3.0
 40
4.0
 40
4.0
 40
4.0
 40
4.0
 10
59.95361869160882
 20
-77.79163409513542
 10
59.79445528019028
 20
-77.79163409513542
 10
59.71280651718985
 20
-77.88671873052833
 10
59.71280651718985
 20
-78.02211098309864
 10
59.71280651718985
 20
-78.1449286371478
 10
59.7823974459919
 20
-78.26343992184039
 10
59.95361869160882
 20
-78.26343992184039
 10
60.12518444677426
 20
-78.26343992184039
 10
60.19443086602779
 20
-78.1449286371478
 10
60.19443086602779
 20
-78.02211098309864
 10
60.19443086602779
 20
-77.88671873052833
 10
60.11071504573621
 20
-77.79163409513542
 10
59.95361869160882
 20
-77.79163409513542
 97
        0
 97
        0
 75
     2
 76
     1
 98
        0
  0
ENDBLK
  5
94
330
91
100
AcDbEntity
  8
0
100
AcDbBlockEnd
  0
BLOCK
  5
AD
330
AB
100
AcDbEntity
  8
0
100
AcDbBlockBegin
  2
block 3
 70
     0
 10
0.0
 20
0.0
 30
0.0
  3
block 3
  1

  0
SPLINE
  5
AF
330
AB
100
AcDbEntity
  8
_U+30EC_U+30A4_U+30E4_U+30FC 1
370
     0
100
AcDbSpline
210
0.0
220
0.0
230
1.0
 70
    11
 71
     3
 72
    26
 73
    22
 74
     0
 42
0.0000000001
 43
0.0000000001
 12
1.0
 22
0.0
 32
0.0
 13
1.0
 23
0.0
 33
0.0
 40
0.0
 40
0.0
 40
0.0
 40
0.0
 40
1.0
 40
1.0
 40
1.0
 40
2.0
 40
2.0
 40
2.0
 40
3.0
 40
3.0
 40
3.0
 40
4.0
 40
4.0
 40
4.0
 40
5.0
 40
5.0
 40
5.0
 40
6.0
 40
6.0
 40
6.0
 40
7.0
 40
7.0
 40
7.0
 40
7.0
 10
75.8565239610706
 20
-84.41172957959152
 30
0.0
 10
75.8565239610706
 20
-84.41172957959152
 30
0.0
 10
74.75237085804802
 20
-84.41172957959152
 30
0.0
 10
74.75237085804802
 20
-84.41172957959152
 30
0.0
 10
74.75237085804802
 20
-84.41172957959152
 30
0.0
 10
74.75237085804802
 20
-84.7300564024286
 30
0.0
 10
74.75237085804802
 20
-84.7300564024286
 30
0.0
 10
74.75237085804802
 20
-84.7300564024286
 30
0.0
 10
74.60423175218227
 20
-84.7300564024286
 30
0.0
 10
74.60423175218227
 20
-84.7300564024286
 30
0.0
 10
74.5894178415957
 20
-84.40966252230037
 30
0.0
 10
74.42646482514338
 20
-84.36487628099212
 30
0.0
 10
74.3120876550331
 20
-84.33628198846455
 30
0.0
 10
74.3120876550331
 20
-84.33628198846455
 30
0.0
 10
74.3120876550331
 20
-84.19537758311783
 30
0.0
 10
74.3120876550331
 20
-84.19537758311783
 30
0.0
 10
74.3120876550331
 20
-84.19537758311783
 30
0.0
 10
75.8565239610706
 20
-84.19537758311783
 30
0.0
 10
75.8565239610706
 20
-84.19537758311783
 30
0.0
 10
75.8565239610706
 20
-84.19537758311783
 30
0.0
 10
75.8565239610706
 20
-84.41172957959152
 30
0.0
 10
75.8565239610706
 20
-84.41172957959152
 30
0.0
  0
HATCH
  5
B0
330
AB
100
AcDbEntity
  8
_U+30EC_U+30A4_U+30E4_U+30FC 1
 62
   179
420
  2234388
100
AcDbHatch
 10
0.0
 20
0.0
 30
0.0
210
0.0
220
0.0
230
1.0
  2
SOLID
 70
     1
 71
     0
 91
        1
 92
        1
 93
        1
 72
     4
 94
        3
 73
     0
 74
     1
 95
       26
 96
       22
 40
0.0
 40
0.0
 40
0.0
 40
0.0
 40
1.0
 40
1.0
 40
1.0
 40
2.0
 40
2.0
 40
2.0
 40
3.0
 40
3.0
 40
3.0
 40
4.0
 40
4.0
 40
4.0
 40
5.0
 40
5.0
 40
5.0
 40
6.0
 40
6.0
 40
6.0
 40
7.0
 40
7.0
 40
7.0
 40
7.0
 10
75.8565239610706
 20
-84.41172957959152
 10
75.8565239610706
 20
-84.41172957959152
 10
74.75237085804802
 20
-84.41172957959152
 10
74.75237085804802
 20
-84.41172957959152
 10
74.75237085804802
 20
-84.41172957959152
 10
74.75237085804802
 20
-84.7300564024286
 10
74.75237085804802
 20
-84.7300564024286
 10
74.75237085804802
 20
-84.7300564024286
 10
74.60423175218227
 20
-84.7300564024286
 10
74.60423175218227
 20
-84.7300564024286
 10
74.5894178415957
 20
-84.40966252230037
 10
74.42646482514338
 20
-84.36487628099212
 10
74.3120876550331
 20
-84.33628198846455
 10
74.3120876550331
 20
-84.33628198846455
 10
74.3120876550331
 20
-84.19537758311783
 10
74.3120876550331
 20
-84.19537758311783
 10
74.3120876550331
 20
-84.19537758311783
 10
75.8565239610706
 20
-84.19537758311783
 10
75.8565239610706
 20
-84.19537758311783
 10
75.8565239610706
 20
-84.19537758311783
 10
75.8565239610706
 20
-84.41172957959152
 10
75.8565239610706
 20
-84.41172957959152
 97
        0
 97
        0
 75
     2
 76
     1
 98
        0
  0
ENDBLK
  5
AE
330
AB
100
AcDbEntity
  8
0
100
AcDbBlockEnd
  0
BLOCK
  5
BB
330
B9
100
AcDbEntity
  8
0
100
AcDbBlockBegin
  2
block 4
 70
     0
 10
0.0
 20
0.0
 30
0.0
  3
block 4
  1

  0
SPLINE
  5
BD
330
B9
100
AcDbEntity
  8
_U+30EC_U+30A4_U+30E4_U+30FC 1
370
     0
100
AcDbSpline
210
0.0
220
0.0
230
1.0
 70
    11
 71
     3
 72
    62
 73
    58
 74
     0
 42
0.0000000001
 43
0.0000000001
 12
1.0
 22
0.0
 32
0.0
 13
1.0
 23
0.0
 33
0.0
 40
0.0
 40
0.0
 40
0.0
 40
0.0
 40
1.0
 40
1.0
 40
1.0
 40
2.0
 40
2.0
 40
2.0
 40
3.0
 40
3.0
 40
3.0
 40
4.0
 40
4.0
 40
4.0
 40
5.0
 40
5.0
 40
5.0
 40
6.0
 40
6.0
 40
6.0
 40
7.0
 40
7.0
 40
7.0
 40
8.0
 40
8.0
 40
8.0
 40
9.0
 40
9.0
 40
9.0
 40
10.0
 40
10.0
 40
10.0
 40
11.0
 40
11.0
 40
11.0
 40
12.0
 40
12.0
 40
12.0
 40
13.0
 40
13.0
 40
13.0
 40
14.0
 40
14.0
 40
14.0
 40
15.0
 40
15.0
 40
15.0
 40
16.0
 40
16.0
 40
16.0
 40
17.0
 40
17.0
 40
17.0
 40
18.0
 40
18.0
 40
18.0
 40
19.0
 40
19.0
 40
19.0
 40
19.0
 10
71.79096677892726
 20
-94.8458902757677
 30
0.0
 10
71.79096677892726
 20
-94.93787432522387
 30
0.0
 10
71.76995169646723
 20
-95.14802514982411
 30
0.0
 10
71.58391654026374
 20
-95.26825898225933
 30
0.0
 10
71.4716064274446
 20
-95.339572458804
 30
0.0
 10
71.3723876774694
 20
-95.3437065733863
 30
0.0
 10
71.28763832853225
 20
-95.3478406879686
 30
0.0
 10
71.28763832853225
 20
-95.3478406879686
 30
0.0
 10
71.28763832853225
 20
-95.13562280607721
 30
0.0
 10
71.28763832853225
 20
-95.13562280607721
 30
0.0
 10
71.36170788146514
 20
-95.13355574878607
 30
0.0
 10
71.59631888401064
 20
-95.12356497187884
 30
0.0
 10
71.59631888401064
 20
-94.85002439035
 30
0.0
 10
71.59631888401064
 20
-94.71738821416788
 30
0.0
 10
71.5267279552086
 20
-94.57062714649624
 30
0.0
 10
71.29831812453654
 20
-94.57062714649624
 30
0.0
 10
71.18187389713509
 20
-94.57062714649624
 30
0.0
 10
71.13329805079307
 20
-94.6074896681884
 30
0.0
 10
71.10160317232877
 20
-94.63780650845861
 30
0.0
 10
71.0275336193959
 20
-94.70946449455181
 30
0.0
 10
71.01478676610047
 20
-94.82143009782243
 30
0.0
 10
71.01478676610047
 20
-94.87448456829527
 30
0.0
 10
71.01478676610047
 20
-94.89308808391561
 30
0.0
 10
71.01685382339163
 20
-94.92753903876812
 30
0.0
 10
71.02098793797393
 20
-94.95406627400455
 30
0.0
 10
71.02098793797393
 20
-94.95406627400455
 30
0.0
 10
70.8263400430573
 20
-94.95406627400455
 30
0.0
 10
70.8263400430573
 20
-94.95406627400455
 30
0.0
 10
70.83288572447928
 20
-94.9175482618609
 30
0.0
 10
70.83495278177043
 20
-94.87655162558642
 30
0.0
 10
70.83495278177043
 20
-94.87035045371297
 30
0.0
 10
70.83495278177043
 20
-94.8073052063329
 30
0.0
 10
70.81359318976189
 20
-94.61541338780448
 30
0.0
 10
70.57691512992523
 20
-94.61541338780448
 30
0.0
 10
70.39914820288632
 20
-94.61541338780448
 30
0.0
 10
70.34402667512234
 20
-94.74184839211316
 30
0.0
 10
70.34402667512234
 20
-94.84795733305884
 30
0.0
 10
70.34402667512234
 20
-95.10323890851586
 30
0.0
 10
70.57691512992523
 20
-95.11116262813194
 30
0.0
 10
70.64857311601841
 20
-95.11529674271424
 30
0.0
 10
70.64857311601841
 20
-95.11529674271424
 30
0.0
 10
70.64857311601841
 20
-95.31132267582495
 30
0.0
 10
70.64857311601841
 20
-95.31132267582495
 30
0.0
 10
70.52386065945237
 20
-95.30305444666035
 30
0.0
 10
70.14731172291457
 20
-95.27652721142393
 30
0.0
 10
70.14731172291457
 20
-94.83589949886047
 30
0.0
 10
70.14731172291457
 20
-94.61954750238678
 30
0.0
 10
70.27443574632028
 20
-94.38700355713242
 30
0.0
 10
70.57036944850324
 20
-94.38700355713242
 30
0.0
 10
70.75674911425526
 20
-94.38700355713242
 30
0.0
 10
70.83908689635273
 20
-94.47864309704006
 30
0.0
 10
70.90040959599018
 20
-94.57476126107854
 30
0.0
 10
70.92797035987218
 20
-94.51550561873223
 30
0.0
 10
71.0082410846785
 20
-94.34015025853303
 30
0.0
 10
71.28557127124111
 20
-94.34015025853303
 30
0.0
 10
71.62387964789265
 20
-94.34015025853303
 30
0.0
 10
71.79096677892726
 20
-94.57889537566084
 30
0.0
 10
71.79096677892726
 20
-94.8458902757677
 30
0.0
  0
HATCH
  5
BE
330
B9
100
AcDbEntity
  8
_U+30EC_U+30A4_U+30E4_U+30FC 1
 62
   179
420
  2234388
100
AcDbHatch
 10
0.0
 20
0.0
 30
0.0
210
0.0
220
0.0
230
1.0
  2
SOLID
 70
     1
 71
     0
 91
        1
 92
        1
 93
        1
 72
     4
 94
        3
 73
     0
 74
     1
 95
       62
 96
       58
 40
0.0
 40
0.0
 40
0.0
 40
0.0
 40
1.0
 40
1.0
 40
1.0
 40
2.0
 40
2.0
 40
2.0
 40
3.0
 40
3.0
 40
3.0
 40
4.0
 40
4.0
 40
4.0
 40
5.0
 40
5.0
 40
5.0
 40
6.0
 40
6.0
 40
6.0
 40
7.0
 40
7.0
 40
7.0
 40
8.0
 40
8.0
 40
8.0
 40
9.0
 40
9.0
 40
9.0
 40
10.0
 40
10.0
 40
10.0
 40
11.0
 40
11.0
 40
11.0
 40
12.0
 40
12.0
 40
12.0
 40
13.0
 40
13.0
 40
13.0
 40
14.0
 40
14.0
 40
14.0
 40
15.0
 40
15.0
 40
15.0
 40
16.0
 40
16.0
 40
16.0
 40
17.0
 40
17.0
 40
17.0
 40
18.0
 40
18.0
 40
18.0
 40
19.0
 40
19.0
 40
19.0
 40
19.0
 10
71.79096677892726
 20
-94.8458902757677
 10
71.79096677892726
 20
-94.93787432522387
 10
71.76995169646723
 20
-95.14802514982411
 10
71.58391654026374
 20
-95.26825898225933
 10
71.4716064274446
 20
-95.339572458804
 10
71.3723876774694
 20
-95.3437065733863
 10
71.28763832853225
 20
-95.3478406879686
 10
71.28763832853225
 20
-95.3478406879686
 10
71.28763832853225
 20
-95.13562280607721
 10
71.28763832853225
 20
-95.13562280607721
 10
71.36170788146514
 20
-95.13355574878607
 10
71.59631888401064
 20
-95.12356497187884
 10
71.59631888401064
 20
-94.85002439035
 10
71.59631888401064
 20
-94.71738821416788
 10
71.5267279552086
 20
-94.57062714649624
 10
71.29831812453654
 20
-94.57062714649624
 10
71.18187389713509
 20
-94.57062714649624
 10
71.13329805079307
 20
-94.6074896681884
 10
71.10160317232877
 20
-94.63780650845861
 10
71.0275336193959
 20
-94.70946449455181
 10
71.01478676610047
 20
-94.82143009782243
 10
71.01478676610047
 20
-94.87448456829527
 10
71.01478676610047
 20
-94.89308808391561
 10
71.01685382339163
 20
-94.92753903876812
 10
71.02098793797393
 20
-94.95406627400455
 10
71.02098793797393
 20
-94.95406627400455
 10
70.8263400430573
 20
-94.95406627400455
 10
70.8263400430573
 20
-94.95406627400455
 10
70.83288572447928
 20
-94.9175482618609
 10
70.83495278177043
 20
-94.87655162558642
 10
70.83495278177043
 20
-94.87035045371297
 10
70.83495278177043
 20
-94.8073052063329
 10
70.81359318976189
 20
-94.61541338780448
 10
70.57691512992523
 20
-94.61541338780448
 10
70.39914820288632
 20
-94.61541338780448
 10
70.34402667512234
 20
-94.74184839211316
 10
70.34402667512234
 20
-94.84795733305884
 10
70.34402667512234
 20
-95.10323890851586
 10
70.57691512992523
 20
-95.11116262813194
 10
70.64857311601841
 20
-95.11529674271424
 10
70.64857311601841
 20
-95.11529674271424
 10
70.64857311601841
 20
-95.31132267582495
 10
70.64857311601841
 20
-95.31132267582495
 10
70.52386065945237
 20
-95.30305444666035
 10
70.14731172291457
 20
-95.27652721142393
 10
70.14731172291457
 20
-94.83589949886047
 10
70.14731172291457
 20
-94.61954750238678
 10
70.27443574632028
 20
-94.38700355713242
 10
70.57036944850324
 20
-94.38700355713242
 10
70.75674911425526
 20
-94.38700355713242
 10
70.83908689635273
 20
-94.47864309704006
 10
70.90040959599018
 20
-94.57476126107854
 10
70.92797035987218
 20
-94.51550561873223
 10
71.0082410846785
 20
-94.34015025853303
 10
71.28557127124111
 20
-94.34015025853303
 10
71.62387964789265
 20
-94.34015025853303
 10
71.79096677892726
 20
-94.57889537566084
 10
71.79096677892726
 20
-94.8458902757677
 97
        0
 97
        0
 75
     2
 76
     1
 98
        0
  0
ENDBLK
  5
BC
330
B9
100
AcDbEntity
  8
0
100
AcDbBlockEnd
  0
BLOCK
  5
CD
330
CB
100
AcDbEntity
  8
0
100
AcDbBlockBegin
  2
block 5
 70
     0
 10
0.0
 20
0.0
 30
0.0
  3
block 5
  1

  0
SPLINE
  5
CF
330
CB
100
AcDbEntity
  8
_U+30EC_U+30A4_U+30E4_U+30FC 1
370
     0
100
AcDbSpline
210
0.0
220
0.0
230
1.0
 70
    11
 71
     3
 72
    26
 73
    22
 74
     0
 42
0.0000000001
 43
0.0000000001
 12
1.0
 22
0.0
 32
0.0
 13
1.0
 23
0.0
 33
0.0
 40
0.0
 40
0.0
 40
0.0
 40
0.0
 40
1.0
 40
1.0
 40
1.0
 40
2.0
 40
2.0
 40
2.0
 40
3.0
 40
3.0
 40
3.0
 40
4.0
 40
4.0
 40
4.0
 40
5.0
 40
5.0
 40
5.0
 40
6.0
 40
6.0
 40
6.0
 40
7.0
 40
7.0
 40
7.0
 40
7.0
 10
51.80131699008787
 20
-99.69245060441717
 30
0.0
 10
51.80131699008787
 20
-99.69245060441717
 30
0.0
 10
51.57290715941581
 20
-99.69245060441717
 30
0.0
 10
51.57290715941581
 20
-99.69245060441717
 30
0.0
 10
51.59736733736108
 20
-99.38342553939026
 30
0.0
 10
51.78305798401605
 20
-98.86528317840869
 30
0.0
 10
52.17476534068895
 20
-98.359543161174
 30
0.0
 10
52.17476534068895
 20
-98.359543161174
 30
0.0
 10
51.3667181946236
 20
-98.359543161174
 30
0.0
 10
51.3667181946236
 20
-98.359543161174
 30
0.0
 10
51.3667181946236
 20
-98.359543161174
 30
0.0
 10
51.3667181946236
 20
-98.14801429837966
 30
0.0
 10
51.3667181946236
 20
-98.14801429837966
 30
0.0
 10
51.3667181946236
 20
-98.14801429837966
 30
0.0
 10
52.40317517136101
 20
-98.14801429837966
 30
0.0
 10
52.40317517136101
 20
-98.14801429837966
 30
0.0
 10
52.40317517136101
 20
-98.14801429837966
 30
0.0
 10
52.40317517136101
 20
-98.359543161174
 30
0.0
 10
52.40317517136101
 20
-98.359543161174
 30
0.0
 10
52.09104952039738
 20
-98.64962020103205
 30
0.0
 10
51.83404539719774
 20
-99.24183211494649
 30
0.0
 10
51.80131699008787
 20
-99.69245060441717
 30
0.0
  0
HATCH
  5
D0
330
CB
100
AcDbEntity
  8
_U+30EC_U+30A4_U+30E4_U+30FC 1
 62
   179
420
  2234388
100
AcDbHatch
 10
0.0
 20
0.0
 30
0.0
210
0.0
220
0.0
230
1.0
  2
SOLID
 70
     1
 71
     0
 91
        1
 92
        1
 93
        1
 72
     4
 94
        3
 73
     0
 74
     1
 95
       26
 96
       22
 40
0.0
 40
0.0
 40
0.0
 40
0.0
 40
1.0
 40
1.0
 40
1.0
 40
2.0
 40
2.0
 40
2.0
 40
3.0
 40
3.0
 40
3.0
 40
4.0
 40
4.0
 40
4.0
 40
5.0
 40
5.0
 40
5.0
 40
6.0
 40
6.0
 40
6.0
 40
7.0
 40
7.0
 40
7.0
 40
7.0
 10
51.80131699008787
 20
-99.69245060441717
 10
51.80131699008787
 20
-99.69245060441717
 10
51.57290715941581
 20
-99.69245060441717
 10
51.57290715941581
 20
-99.69245060441717
 10
51.59736733736108
 20
-99.38342553939026
 10
51.78305798401605
 20
-98.86528317840869
 10
52.17476534068895
 20
-98.359543161174
 10
52.17476534068895
 20
-98.359543161174
 10
51.3667181946236
 20
-98.359543161174
 10
51.3667181946236
 20
-98.359543161174
 10
51.3667181946236
 20
-98.359543161174
 10
51.3667181946236
 20
-98.14801429837966
 10
51.3667181946236
 20
-98.14801429837966
 10
51.3667181946236
 20
-98.14801429837966
 10
52.40317517136101
 20
-98.14801429837966
 10
52.40317517136101
 20
-98.14801429837966
 10
52.40317517136101
 20
-98.14801429837966
 10
52.40317517136101
 20
-98.359543161174
 10
52.40317517136101
 20
-98.359543161174
 10
52.09104952039738
 20
-98.64962020103205
 10
51.83404539719774
 20
-99.24183211494649
 10
51.80131699008787
 20
-99.69245060441717
 97
        0
 97
        0
 75
     2
 76
     1
 98
        0
  0
ENDBLK
  5
CE
330
CB
100
AcDbEntity
  8
0
100
AcDbBlockEnd
  0
BLOCK
  5
DF
330
DD
100
AcDbEntity
  8
0
100
AcDbBlockBegin
  2
block 6
 70
     0
 10
0.0
 20
0.0
 30
0.0
  3
block 6
  1

  0
SPLINE
  5
E1
330
DD
100
AcDbEntity
  8
_U+30EC_U+30A4_U+30E4_U+30FC 1
370
     0
100
AcDbSpline
210
0.0
220
0.0
230
1.0
 70
    11
 71
     3
 72
    29
 73
    25
 74
     0
 42
0.0000000001
 43
0.0000000001
 12
1.0
 22
0.0
 32
0.0
 13
1.0
 23
0.0
 33
0.0
 40
0.0
 40
0.0
 40
0.0
 40
0.0
 40
1.0
 40
1.0
 40
1.0
 40
2.0
 40
2.0
 40
2.0
 40
3.0
 40
3.0
 40
3.0
 40
4.0
 40
4.0
 40
4.0
 40
5.0
 40
5.0
 40
5.0
 40
6.0
 40
6.0
 40
6.0
 40
7.0
 40
7.0
 40
7.0
 40
8.0
 40
8.0
 40
8.0
 40
8.0
 10
71.79096677892726
 20
-89.91871471276338
 30
0.0
 10
71.79096677892726
 20
-90.17571883596302
 30
0.0
 10
71.65350746906579
 20
-90.42066512496429
 30
0.0
 10
71.30451929640998
 20
-90.42066512496429
 30
0.0
 10
71.04854870185592
 20
-90.42066512496429
 30
0.0
 10
70.95346406646303
 20
-90.28389483419987
 30
0.0
 10
70.89214136682558
 20
-90.18192000783647
 30
0.0
 10
70.83288572447928
 20
-90.30215384027169
 30
0.0
 10
70.71850855436898
 20
-90.3755343741075
 30
0.0
 10
70.55762259520782
 20
-90.3755343741075
 30
0.0
 10
70.28270397548488
 20
-90.3755343741075
 30
0.0
 10
70.14731172291457
 20
-90.18398706512762
 30
0.0
 10
70.14731172291457
 20
-89.91871471276338
 30
0.0
 10
70.14731172291457
 20
-89.64517413123454
 30
0.0
 10
70.291316714198
 20
-89.46155054187072
 30
0.0
 10
70.55762259520782
 20
-89.46155054187072
 30
0.0
 10
70.71850855436898
 20
-89.46155054187072
 30
0.0
 10
70.83288572447928
 20
-89.5369981329977
 30
0.0
 10
70.89214136682558
 20
-89.65757647498144
 30
0.0
 10
70.94278427045874
 20
-89.57179359739872
 30
0.0
 10
71.03786890585165
 20
-89.41883135785363
 30
0.0
 10
71.30038518182768
 20
-89.41883135785363
 30
0.0
 10
71.67486706107434
 20
-89.41883135785363
 30
0.0
 10
71.79096677892726
 20
-89.68823782480017
 30
0.0
 10
71.79096677892726
 20
-89.91871471276338
 30
0.0
  0
SPLINE
  5
E2
330
DD
100
AcDbEntity
  8
_U+30EC_U+30A4_U+30E4_U+30FC 1
370
     0
100
AcDbSpline
210
0.0
220
0.0
230
1.0
 70
    11
 71
     3
 72
    17
 73
    13
 74
     0
 42
0.0000000001
 43
0.0000000001
 12
1.0
 22
0.0
 32
0.0
 13
1.0
 23
0.0
 33
0.0
 40
0.0
 40
0.0
 40
0.0
 40
0.0
 40
1.0
 40
1.0
 40
1.0
 40
2.0
 40
2.0
 40
2.0
 40
3.0
 40
3.0
 40
3.0
 40
4.0
 40
4.0
 40
4.0
 40
4.0
 10
70.33989256054004
 20
-89.91871471276338
 30
0.0
 10
70.33989256054004
 20
-90.07787812418192
 30
0.0
 10
70.43497719593293
 20
-90.15952688718234
 30
0.0
 10
70.57036944850324
 20
-90.15952688718234
 30
0.0
 10
70.69301484777814
 20
-90.15952688718234
 30
0.0
 10
70.81152613247073
 20
-90.0899359583803
 30
0.0
 10
70.81152613247073
 20
-89.91871471276338
 30
0.0
 10
70.81152613247073
 20
-89.74714895759794
 30
0.0
 10
70.69301484777814
 20
-89.67790253834441
 30
0.0
 10
70.57036944850324
 20
-89.67790253834441
 30
0.0
 10
70.43497719593293
 20
-89.67790253834441
 30
0.0
 10
70.33989256054004
 20
-89.76161835863599
 30
0.0
 10
70.33989256054004
 20
-89.91871471276338
 30
0.0
  0
SPLINE
  5
E3
330
DD
100
AcDbEntity
  8
_U+30EC_U+30A4_U+30E4_U+30FC 1
370
     0
100
AcDbSpline
210
0.0
220
0.0
230
1.0
 70
    11
 71
     3
 72
    17
 73
    13
 74
     0
 42
0.0000000001
 43
0.0000000001
 12
1.0
 22
0.0
 32
0.0
 13
1.0
 23
0.0
 33
0.0
 40
0.0
 40
0.0
 40
0.0
 40
0.0
 40
1.0
 40
1.0
 40
1.0
 40
2.0
 40
2.0
 40
2.0
 40
3.0
 40
3.0
 40
3.0
 40
4.0
 40
4.0
 40
4.0
 40
4.0
 10
70.9999728555139
 20
-89.91871471276338
 30
0.0
 10
70.9999728555139
 20
-90.05720755127042
 30
0.0
 10
71.0867892617422
 20
-90.2043131284906
 30
0.0
 10
71.28970538582341
 20
-90.2043131284906
 30
0.0
 10
71.4950330767443
 20
-90.2043131284906
 30
0.0
 10
71.59631888401064
 20
-90.0816677292157
 30
0.0
 10
71.59631888401064
 20
-89.91871471276338
 30
0.0
 10
71.59631888401064
 20
-89.73922523798187
 30
0.0
 10
71.47367348473576
 20
-89.63311629703617
 30
0.0
 10
71.29590655769687
 20
-89.63311629703617
 30
0.0
 10
71.07404240844677
 20
-89.63311629703617
 30
0.0
 10
70.9999728555139
 20
-89.79021265116356
 30
0.0
 10
70.9999728555139
 20
-89.91871471276338
 30
0.0
  0
HATCH
  5
E4
330
DD
100
AcDbEntity
  8
_U+30EC_U+30A4_U+30E4_U+30FC 1
 62
   179
420
  2234388
100
AcDbHatch
 10
0.0
 20
0.0
 30
0.0
210
0.0
220
0.0
230
1.0
  2
SOLID
 70
     1
 71
     0
 91
        3
 92
        1
 93
        1
 72
     4
 94
        3
 73
     0
 74
     1
 95
       29
 96
       25
 40
0.0
 40
0.0
 40
0.0
 40
0.0
 40
1.0
 40
1.0
 40
1.0
 40
2.0
 40
2.0
 40
2.0
 40
3.0
 40
3.0
 40
3.0
 40
4.0
 40
4.0
 40
4.0
 40
5.0
 40
5.0
 40
5.0
 40
6.0
 40
6.0
 40
6.0
 40
7.0
 40
7.0
 40
7.0
 40
8.0
 40
8.0
 40
8.0
 40
8.0
 10
71.79096677892726
 20
-89.91871471276338
 10
71.79096677892726
 20
-90.17571883596302
 10
71.65350746906579
 20
-90.42066512496429
 10
71.30451929640998
 20
-90.42066512496429
 10
71.04854870185592
 20
-90.42066512496429
 10
70.95346406646303
 20
-90.28389483419987
 10
70.89214136682558
 20
-90.18192000783647
 10
70.83288572447928
 20
-90.30215384027169
 10
70.71850855436898
 20
-90.3755343741075
 10
70.55762259520782
 20
-90.3755343741075
 10
70.28270397548488
 20
-90.3755343741075
 10
70.14731172291457
 20
-90.18398706512762
 10
70.14731172291457
 20
-89.91871471276338
 10
70.14731172291457
 20
-89.64517413123454
 10
70.291316714198
 20
-89.46155054187072
 10
70.55762259520782
 20
-89.46155054187072
 10
70.71850855436898
 20
-89.46155054187072
 10
70.83288572447928
 20
-89.5369981329977
 10
70.89214136682558
 20
-89.65757647498144
 10
70.94278427045874
 20
-89.57179359739872
 10
71.03786890585165
 20
-89.41883135785363
 10
71.30038518182768
 20
-89.41883135785363
 10
71.67486706107434
 20
-89.41883135785363
 10
71.79096677892726
 20
-89.68823782480017
 10
71.79096677892726
 20
-89.91871471276338
 97
        0
 97
        0
 92
        1
 93
        1
 72
     4
 94
        3
 73
     0
 74
     1
 95
       17
 96
       13
 40
0.0
 40
0.0
 40
0.0
 40
0.0
 40
1.0
 40
1.0
 40
1.0
 40
2.0
 40
2.0
 40
2.0
 40
3.0
 40
3.0
 40
3.0
 40
4.0
 40
4.0
 40
4.0
 40
4.0
 10
70.33989256054004
 20
-89.91871471276338
 10
70.33989256054004
 20
-90.07787812418192
 10
70.43497719593293
 20
-90.15952688718234
 10
70.57036944850324
 20
-90.15952688718234
 10
70.69301484777814
 20
-90.15952688718234
 10
70.81152613247073
 20
-90.0899359583803
 10
70.81152613247073
 20
-89.91871471276338
 10
70.81152613247073
 20
-89.74714895759794
 10
70.69301484777814
 20
-89.67790253834441
 10
70.57036944850324
 20
-89.67790253834441
 10
70.43497719593293
 20
-89.67790253834441
 10
70.33989256054004
 20
-89.76161835863599
 10
70.33989256054004
 20
-89.91871471276338
 97
        0
 97
        0
 92
        1
 93
        1
 72
     4
 94
        3
 73
     0
 74
     1
 95
       17
 96
       13
 40
0.0
 40
0.0
 40
0.0
 40
0.0
 40
1.0
 40
1.0
 40
1.0
 40
2.0
 40
2.0
 40
2.0
 40
3.0
 40
3.0
 40
3.0
 40
4.0
 40
4.0
 40
4.0
 40
4.0
 10
70.9999728555139
 20
-89.91871471276338
 10
70.9999728555139
 20
-90.05720755127042
 10
71.0867892617422
 20
-90.2043131284906
 10
71.28970538582341
 20
-90.2043131284906
 10
71.4950330767443
 20
-90.2043131284906
 10
71.59631888401064
 20
-90.0816677292157
 10
71.59631888401064
 20
-89.91871471276338
 10
71.59631888401064
 20
-89.73922523798187
 10
71.47367348473576
 20
-89.63311629703617
 10
71.29590655769687
 20
-89.63311629703617
 10
71.07404240844677
 20
-89.63311629703617
 10
70.9999728555139
 20
-89.79021265116356
 10
70.9999728555139
 20
-89.91871471276338
 97
        0
 97
        0
 75
     2
 76
     1
 98
        0
  0
POLYLINE
  5
E5
330
DD
100
AcDbEntity
  8
_U+30EC_U+30A4_U+30E4_U+30FC 1
370
     0
100
AcDb2dPolyline
 66
     1
 10
0.0
 20
0.0
 30
0.0
  0
VERTEX
  5
E6
330
E5
100
AcDbEntity
  8
_U+30EC_U+30A4_U+30E4_U+30FC 1
370
     0
100
AcDbVertex
100
AcDb2dVertex
 10
71.7403238752941
 20
-89.20936955235044
 30
0.0
  0
VERTEX
  5
E7
330
E5
100
AcDbEntity
  8
_U+30EC_U+30A4_U+30E4_U+30FC 1
370
     0
100
AcDbVertex
100
AcDb2dVertex
 10
71.48848739532232
 20
-89.20936955235044
 30
0.0
  0
VERTEX
  5
E8
330
E5
100
AcDbEntity
  8
_U+30EC_U+30A4_U+30E4_U+30FC 1
370
     0
100
AcDbVertex
100
AcDb2dVertex
 10
71.48848739532232
 20
-88.96683483018884
 30
0.0
  0
VERTEX
  5
E9
330
E5
100
AcDbEntity
  8
_U+30EC_U+30A4_U+30E4_U+30FC 1
370
     0
100
AcDbVertex
100
AcDb2dVertex
 10
71.7403238752941
 20
-88.96683483018884
 30
0.0
  0
VERTEX
  5
EA
330
E5
100
AcDbEntity
  8
_U+30EC_U+30A4_U+30E4_U+30FC 1
370
     0
100
AcDbVertex
100
AcDb2dVertex
 10
71.7403238752941
 20
-89.20936955235044
 30
0.0
  0
SEQEND
  5
EB
330
E5
100
AcDbEntity
  8
_U+30EC_U+30A4_U+30E4_U+30FC 1
370
     0
  0
HATCH
  5
EC
330
DD
100
AcDbEntity
  8
_U+30EC_U+30A4_U+30E4_U+30FC 1
 62
   179
420
  2234388
100
AcDbHatch
 10
0.0
 20
0.0
 30
0.0
210
0.0
220
0.0
230
1.0
  2
SOLID
 70
     1
 71
     0
 91
        1
 92
        1
 93
        4
 72
     1
 10
71.7403238752941
 20
-89.20936955235044
 11
71.48848739532232
 21
-89.20936955235044
 72
     1
 10
71.48848739532232
 20
-89.20936955235044
 11
71.48848739532232
 21
-88.96683483018884
 72
     1
 10
71.48848739532232
 20
-88.96683483018884
 11
71.7403238752941
 21
-88.96683483018884
 72
     1
 10
71.7403238752941
 20
-88.96683483018884
 11
71.7403238752941
 21
-89.20936955235044
 97
        0
 75
     2
 76
     1
 98
        0
  0
SPLINE
  5
ED
330
DD
100
AcDbEntity
  8
_U+30EC_U+30A4_U+30E4_U+30FC 1
370
     0
100
AcDbSpline
210
0.0
220
0.0
230
1.0
 70
    11
 71
     3
 72
    53
 73
    49
 74
     0
 42
0.0000000001
 43
0.0000000001
 12
1.0
 22
0.0
 32
0.0
 13
1.0
 23
0.0
 33
0.0
 40
0.0
 40
0.0
 40
0.0
 40
0.0
 40
1.0
 40
1.0
 40
1.0
 40
2.0
 40
2.0
 40
2.0
 40
3.0
 40
3.0
 40
3.0
 40
4.0
 40
4.0
 40
4.0
 40
5.0
 40
5.0
 40
5.0
 40
6.0
 40
6.0
 40
6.0
 40
7.0
 40
7.0
 40
7.0
 40
8.0
 40
8.0
 40
8.0
 40
9.0
 40
9.0
 40
9.0
 40
10.0
 40
10.0
 40
10.0
 40
11.0
 40
11.0
 40
11.0
 40
12.0
 40
12.0
 40
12.0
 40
13.0
 40
13.0
 40
13.0
 40
14.0
 40
14.0
 40
14.0
 40
15.0
 40
15.0
 40
15.0
 40
16.0
 40
16.0
 40
16.0
 40
16.0
 10
71.79096677892726
 20
-88.27540416629921
 30
0.0
 10
71.79096677892726
 20
-88.35085175742618
 30
0.0
 10
71.77408581104953
 20
-88.44869246920727
 30
0.0
 10
71.71069605412094
 20
-88.5468776905369
 30
0.0
 10
71.60079750814147
 20
-88.71396482157151
 30
0.0
 10
71.46953937015346
 20
-88.73429088493448
 30
0.0
 10
71.36170788146514
 20
-88.75289440055484
 30
0.0
 10
71.36170788146514
 20
-88.75289440055484
 30
0.0
 10
71.36170788146514
 20
-88.5386094613723
 30
0.0
 10
71.36170788146514
 20
-88.5386094613723
 30
0.0
 10
71.56048989096405
 20
-88.48555499089944
 30
0.0
 10
71.5901177121372
 20
-88.36325410117308
 30
0.0
 10
71.5901177121372
 20
-88.27333710900805
 30
0.0
 10
71.5901177121372
 20
-88.1386338755348
 30
0.0
 10
71.49055445261348
 20
-87.99187280786315
 30
0.0
 10
71.25801050735912
 20
-87.99187280786315
 30
0.0
 10
71.00203991280505
 20
-87.99187280786315
 30
0.0
 10
70.93210447445448
 20
-88.16516111077121
 30
0.0
 10
70.93210447445448
 20
-88.28160533817265
 30
0.0
 10
70.93210447445448
 20
-88.31226668799138
 30
0.0
 10
70.93210447445448
 20
-88.44869246920727
 30
0.0
 10
71.06129555515135
 20
-88.53447534679
 30
0.0
 10
71.06129555515135
 20
-88.53447534679
 30
0.0
 10
71.04234752998248
 20
-88.70397404466429
 30
0.0
 10
71.04234752998248
 20
-88.70397404466429
 30
0.0
 10
71.04234752998248
 20
-88.70397404466429
 30
0.0
 10
70.19588756925658
 20
-88.58752981726285
 30
0.0
 10
70.19588756925658
 20
-88.58752981726285
 30
0.0
 10
70.19588756925658
 20
-88.58752981726285
 30
0.0
 10
70.19588756925658
 20
-87.8368435110269
 30
0.0
 10
70.19588756925658
 20
-87.8368435110269
 30
0.0
 10
70.19588756925658
 20
-87.8368435110269
 30
0.0
 10
70.3905354641732
 20
-87.8368435110269
 30
0.0
 10
70.3905354641732
 20
-87.8368435110269
 30
0.0
 10
70.3905354641732
 20
-87.8368435110269
 30
0.0
 10
70.3905354641732
 20
-88.43043346313546
 30
0.0
 10
70.3905354641732
 20
-88.43043346313546
 30
0.0
 10
70.3905354641732
 20
-88.43043346313546
 30
0.0
 10
70.81359318976189
 20
-88.49382322006404
 30
0.0
 10
70.81359318976189
 20
-88.49382322006404
 30
0.0
 10
70.77983125400644
 20
-88.43456757771776
 30
0.0
 10
70.739523636829
 20
-88.35498587200848
 30
0.0
 10
70.739523636829
 20
-88.24060870189818
 30
0.0
 10
70.739523636829
 20
-87.99600692244545
 30
0.0
 10
70.92590330258103
 20
-87.76725258222486
 30
0.0
 10
71.23906248219023
 20
-87.76725258222486
 30
0.0
 10
71.55635577638175
 20
-87.76725258222486
 30
0.0
 10
71.79096677892726
 20
-87.98360457869855
 30
0.0
 10
71.79096677892726
 20
-88.27540416629921
 30
0.0
  0
HATCH
  5
EE
330
DD
100
AcDbEntity
  8
_U+30EC_U+30A4_U+30E4_U+30FC 1
 62
   179
420
  2234388
100
AcDbHatch
 10
0.0
 20
0.0
 30
0.0
210
0.0
220
0.0
230
1.0
  2
SOLID
 70
     1
 71
     0
 91
        1
 92
        1
 93
        1
 72
     4
 94
        3
 73
     0
 74
     1
 95
       53
 96
       49
 40
0.0
 40
0.0
 40
0.0
 40
0.0
 40
1.0
 40
1.0
 40
1.0
 40
2.0
 40
2.0
 40
2.0
 40
3.0
 40
3.0
 40
3.0
 40
4.0
 40
4.0
 40
4.0
 40
5.0
 40
5.0
 40
5.0
 40
6.0
 40
6.0
 40
6.0
 40
7.0
 40
7.0
 40
7.0
 40
8.0
 40
8.0
 40
8.0
 40
9.0
 40
9.0
 40
9.0
 40
10.0
 40
10.0
 40
10.0
 40
11.0
 40
11.0
 40
11.0
 40
12.0
 40
12.0
 40
12.0
 40
13.0
 40
13.0
 40
13.0
 40
14.0
 40
14.0
 40
14.0
 40
15.0
 40
15.0
 40
15.0
 40
16.0
 40
16.0
 40
16.0
 40
16.0
 10
71.79096677892726
 20
-88.27540416629921
 10
71.79096677892726
 20
-88.35085175742618
 10
71.77408581104953
 20
-88.44869246920727
 10
71.71069605412094
 20
-88.5468776905369
 10
71.60079750814147
 20
-88.71396482157151
 10
71.46953937015346
 20
-88.73429088493448
 10
71.36170788146514
 20
-88.75289440055484
 10
71.36170788146514
 20
-88.75289440055484
 10
71.36170788146514
 20
-88.5386094613723
 10
71.36170788146514
 20
-88.5386094613723
 10
71.56048989096405
 20
-88.48555499089944
 10
71.5901177121372
 20
-88.36325410117308
 10
71.5901177121372
 20
-88.27333710900805
 10
71.5901177121372
 20
-88.1386338755348
 10
71.49055445261348
 20
-87.99187280786315
 10
71.25801050735912
 20
-87.99187280786315
 10
71.00203991280505
 20
-87.99187280786315
 10
70.93210447445448
 20
-88.16516111077121
 10
70.93210447445448
 20
-88.28160533817265
 10
70.93210447445448
 20
-88.31226668799138
 10
70.93210447445448
 20
-88.44869246920727
 10
71.06129555515135
 20
-88.53447534679
 10
71.06129555515135
 20
-88.53447534679
 10
71.04234752998248
 20
-88.70397404466429
 10
71.04234752998248
 20
-88.70397404466429
 10
71.04234752998248
 20
-88.70397404466429
 10
70.19588756925658
 20
-88.58752981726285
 10
70.19588756925658
 20
-88.58752981726285
 10
70.19588756925658
 20
-88.58752981726285
 10
70.19588756925658
 20
-87.8368435110269
 10
70.19588756925658
 20
-87.8368435110269
 10
70.19588756925658
 20
-87.8368435110269
 10
70.3905354641732
 20
-87.8368435110269
 10
70.3905354641732
 20
-87.8368435110269
 10
70.3905354641732
 20
-87.8368435110269
 10
70.3905354641732
 20
-88.43043346313546
 10
70.3905354641732
 20
-88.43043346313546
 10
70.3905354641732
 20
-88.43043346313546
 10
70.81359318976189
 20
-88.49382322006404
 10
70.81359318976189
 20
-88.49382322006404
 10
70.77983125400644
 20
-88.43456757771776
 10
70.739523636829
 20
-88.35498587200848
 10
70.739523636829
 20
-88.24060870189818
 10
70.739523636829
 20
-87.99600692244545
 10
70.92590330258103
 20
-87.76725258222486
 10
71.23906248219023
 20
-87.76725258222486
 10
71.55635577638175
 20
-87.76725258222486
 10
71.79096677892726
 20
-87.98360457869855
 10
71.79096677892726
 20
-88.27540416629921
 97
        0
 97
        0
 75
     2
 76
     1
 98
        0
  0
ENDBLK
  5
E0
330
DD
100
AcDbEntity
  8
0
100
AcDbBlockEnd
  0
ENDSEC
  0
SECTION
  2
ENTITIES
  0
POLYLINE
  5
41
330
1F
100
AcDbEntity
  8
_U+30EC_U+30A4_U+30E4_U+30FC 1
 62
   179
420
  2234388
370
    25
100
AcDb2dPolyline
 66
     1
 10
0.0
 20
0.0
 30
0.0
  0
VERTEX
  5
42
330
41
100
AcDbEntity
  8
_U+30EC_U+30A4_U+30E4_U+30FC 1
 62
   179
420
  2234388
370
    25
100
AcDbVertex
100
AcDb2dVertex
 10
52.38665199683849
 20
-93.33797969888745
 30
0.0
  0
VERTEX
  5
43
330
41
100
AcDbEntity
  8
_U+30EC_U+30A4_U+30E4_U+30FC 1
 62
   179
420
  2234388
370
    25
100
AcDbVertex
100
AcDb2dVertex
 10
55.3866388647469
 20
-93.33797969888745
 30
0.0
  0
SEQEND
  5
44
330
41
100
AcDbEntity
  8
_U+30EC_U+30A4_U+30E4_U+30FC 1
 62
   179
420
  2234388
370
    25
  0
POLYLINE
  5
45
330
1F
100
AcDbEntity
  8
_U+30EC_U+30A4_U+30E4_U+30FC 1
 62
   179
420
  2234388
370
    25
100
AcDb2dPolyline
 66
     1
 10
0.0
 20
0.0
 30
0.0
  0
VERTEX
  5
46
330
45
100
AcDbEntity
  8
_U+30EC_U+30A4_U+30E4_U+30FC 1
 62
   179
420
  2234388
370
    25
100
AcDbVertex
100
AcDb2dVertex
 10
68.38653492198081
 20
-83.83845025681808
 30
0.0
  0
VERTEX
  5
47
330
45
100
AcDbEntity
  8
_U+30EC_U+30A4_U+30E4_U+30FC 1
 62
   179
420
  2234388
370
    25
100
AcDbVertex
100
AcDb2dVertex
 10
68.38653492198081
 20
-84.8382224787903
 30
0.0
  0
SEQEND
  5
48
330
45
100
AcDbEntity
  8
_U+30EC_U+30A4_U+30E4_U+30FC 1
 62
   179
420
  2234388
370
    25
  0
POLYLINE
  5
49
330
1F
100
AcDbEntity
  8
_U+30EC_U+30A4_U+30E4_U+30FC 1
 62
   179
420
  2234388
370
    25
100
AcDb2dPolyline
 66
     1
 10
0.0
 20
0.0
 30
0.0
  0
VERTEX
  5
4A
330
49
100
AcDbEntity
  8
_U+30EC_U+30A4_U+30E4_U+30FC 1
 62
   179
420
  2234388
370
    25
100
AcDbVertex
100
AcDb2dVertex
 10
51.29730952462994
 20
-84.8382224787903
 30
0.0
  0
VERTEX
  5
4B
330
49
100
AcDbEntity
  8
_U+30EC_U+30A4_U+30E4_U+30FC 1
 62
   179
420
  2234388
370
    25
100
AcDbVertex
100
AcDb2dVertex
 10
68.38653492198081
 20
-84.8382224787903
 30
0.0
  0
SEQEND
  5
4C
330
49
100
AcDbEntity
  8
_U+30EC_U+30A4_U+30E4_U+30FC 1
 62
   179
420
  2234388
370
    25
  0
POLYLINE
  5
4D
330
1F
100
AcDbEntity
  8
_U+30EC_U+30A4_U+30E4_U+30FC 1
 62
   179
420
  2234388
370
    25
100
AcDb2dPolyline
 66
     1
 10
0.0
 20
0.0
 30
0.0
  0
VERTEX
  5
4E
330
4D
100
AcDbEntity
  8
_U+30EC_U+30A4_U+30E4_U+30FC 1
 62
   179
420
  2234388
370
    25
100
AcDbVertex
100
AcDb2dVertex
 10
48.38618737667663
 20
-96.33796664258244
 30
0.0
  0
VERTEX
  5
4F
330
4D
100
AcDbEntity
  8
_U+30EC_U+30A4_U+30E4_U+30FC 1
 62
   179
420
  2234388
370
    25
100
AcDbVertex
100
AcDb2dVertex
 10
55.3866388647469
 20
-96.33796664258244
 30
0.0
  0
SEQEND
  5
50
330
4D
100
AcDbEntity
  8
_U+30EC_U+30A4_U+30E4_U+30FC 1
 62
   179
420
  2234388
370
    25
  0
POLYLINE
  5
51
330
1F
100
AcDbEntity
  8
_U+30EC_U+30A4_U+30E4_U+30FC 1
 62
   179
420
  2234388
370
    25
100
AcDb2dPolyline
 66
     1
 10
0.0
 20
0.0
 30
0.0
  0
VERTEX
  5
52
330
51
100
AcDbEntity
  8
_U+30EC_U+30A4_U+30E4_U+30FC 1
 62
   179
420
  2234388
370
    25
100
AcDbVertex
100
AcDb2dVertex
 10
50.38640204786913
 20
-83.83845025681808
 30
0.0
  0
VERTEX
  5
53
330
51
100
AcDbEntity
  8
_U+30EC_U+30A4_U+30E4_U+30FC 1
 62
   179
420
  2234388
370
    25
100
AcDbVertex
100
AcDb2dVertex
 10
68.38653492198081
 20
-83.83845025681808
 30
0.0
  0
SEQEND
  5
54
330
51
100
AcDbEntity
  8
_U+30EC_U+30A4_U+30E4_U+30FC 1
 62
   179
420
  2234388
370
    25
  0
POLYLINE
  5
55
330
1F
100
AcDbEntity
  8
_U+30EC_U+30A4_U+30E4_U+30FC 1
 62
   179
420
  2234388
370
    25
100
AcDb2dPolyline
 66
     1
 10
0.0
 20
0.0
 30
0.0
  0
VERTEX
  5
56
330
55
100
AcDbEntity
  8
_U+30EC_U+30A4_U+30E4_U+30FC 1
 62
   179
420
  2234388
370
    25
100
AcDbVertex
100
AcDb2dVertex
 10
55.3866388647469
 20
-93.33797969888745
 30
0.0
  0
VERTEX
  5
57
330
55
100
AcDbEntity
  8
_U+30EC_U+30A4_U+30E4_U+30FC 1
 62
   179
420
  2234388
370
    25
100
AcDbVertex
100
AcDb2dVertex
 10
55.3866388647469
 20
-96.33796664258244
 30
0.0
  0
SEQEND
  5
58
330
55
100
AcDbEntity
  8
_U+30EC_U+30A4_U+30E4_U+30FC 1
 62
   179
420
  2234388
370
    25
  0
POLYLINE
  5
59
330
1F
100
AcDbEntity
  8
_U+30EC_U+30A4_U+30E4_U+30FC 1
 62
   179
420
  2234388
370
    25
100
AcDb2dPolyline
 66
     1
 10
0.0
 20
0.0
 30
0.0
  0
VERTEX
  5
5A
330
59
100
AcDbEntity
  8
_U+30EC_U+30A4_U+30E4_U+30FC 1
 62
   179
420
  2234388
370
    25
100
AcDbVertex
100
AcDb2dVertex
 10
52.38665199683849
 20
-94.33842219863736
 30
0.0
  0
VERTEX
  5
5B
330
59
100
AcDbEntity
  8
_U+30EC_U+30A4_U+30E4_U+30FC 1
 62
   179
420
  2234388
370
    25
100
AcDbVertex
100
AcDb2dVertex
 10
54.38616111249343
 20
-94.33842219863736
 30
0.0
  0
SEQEND
  5
5C
330
59
100
AcDbEntity
  8
_U+30EC_U+30A4_U+30E4_U+30FC 1
 62
   179
420
  2234388
370
    25
  0
POLYLINE
  5
5D
330
1F
100
AcDbEntity
  8
_U+30EC_U+30A4_U+30E4_U+30FC 1
 62
   179
420
  2234388
370
    25
100
AcDb2dPolyline
 66
     1
 10
0.0
 20
0.0
 30
0.0
  0
VERTEX
  5
5E
330
5D
100
AcDbEntity
  8
_U+30EC_U+30A4_U+30E4_U+30FC 1
 62
   179
420
  2234388
370
    25
100
AcDbVertex
100
AcDb2dVertex
 10
52.38665199683849
 20
-93.33797969888745
 30
0.0
  0
VERTEX
  5
5F
330
5D
100
AcDbEntity
  8
_U+30EC_U+30A4_U+30E4_U+30FC 1
 62
   179
420
  2234388
370
    25
100
AcDbVertex
100
AcDb2dVertex
 10
52.38665199683849
 20
-94.33842219863736
 30
0.0
  0
SEQEND
  5
60
330
5D
100
AcDbEntity
  8
_U+30EC_U+30A4_U+30E4_U+30FC 1
 62
   179
420
  2234388
370
    25
  0
POLYLINE
  5
61
330
1F
100
AcDbEntity
  8
_U+30EC_U+30A4_U+30E4_U+30FC 1
 62
   179
420
  2234388
370
    25
100
AcDb2dPolyline
 66
     1
 10
0.0
 20
0.0
 30
0.0
  0
VERTEX
  5
62
330
61
100
AcDbEntity
  8
_U+30EC_U+30A4_U+30E4_U+30FC 1
 62
   179
420
  2234388
370
    25
100
AcDbVertex
100
AcDb2dVertex
 10
48.38618737667663
 20
-95.3381944206099
 30
0.0
  0
VERTEX
  5
63
330
61
100
AcDbEntity
  8
_U+30EC_U+30A4_U+30E4_U+30FC 1
 62
   179
420
  2234388
370
    25
100
AcDbVertex
100
AcDb2dVertex
 10
48.38618737667663
 20
-96.33796664258244
 30
0.0
  0
SEQEND
  5
64
330
61
100
AcDbEntity
  8
_U+30EC_U+30A4_U+30E4_U+30FC 1
 62
   179
420
  2234388
370
    25
  0
POLYLINE
  5
65
330
1F
100
AcDbEntity
  8
_U+30EC_U+30A4_U+30E4_U+30FC 1
 62
   179
420
  2234388
370
    25
100
AcDb2dPolyline
 66
     1
 10
0.0
 20
0.0
 30
0.0
  0
VERTEX
  5
66
330
65
100
AcDbEntity
  8
_U+30EC_U+30A4_U+30E4_U+30FC 1
 62
   179
420
  2234388
370
    25
100
AcDbVertex
100
AcDb2dVertex
 10
48.38618737667663
 20
-95.3381944206099
 30
0.0
  0
VERTEX
  5
67
330
65
100
AcDbEntity
  8
_U+30EC_U+30A4_U+30E4_U+30FC 1
 62
   179
420
  2234388
370
    25
100
AcDbVertex
100
AcDb2dVertex
 10
48.88642625280336
 20
-95.3381944206099
 30
0.0
  0
SEQEND
  5
68
330
65
100
AcDbEntity
  8
_U+30EC_U+30A4_U+30E4_U+30FC 1
 62
   179
420
  2234388
370
    25
  0
POLYLINE
  5
69
330
1F
100
AcDbEntity
  8
_U+30EC_U+30A4_U+30E4_U+30FC 1
 62
   179
420
  2234388
370
    25
100
AcDb2dPolyline
 66
     1
 10
0.0
 20
0.0
 30
0.0
  0
VERTEX
  5
6A
330
69
100
AcDbEntity
  8
_U+30EC_U+30A4_U+30E4_U+30FC 1
 62
   179
420
  2234388
370
    25
100
AcDbVertex
100
AcDb2dVertex
 10
49.89099622717465
 20
-95.3381944206099
 30
0.0
  0
VERTEX
  5
6B
330
69
100
AcDbEntity
  8
_U+30EC_U+30A4_U+30E4_U+30FC 1
 62
   179
420
  2234388
370
    25
100
AcDbVertex
100
AcDb2dVertex
 10
54.38616111249343
 20
-95.3381944206099
 30
0.0
  0
SEQEND
  5
6C
330
69
100
AcDbEntity
  8
_U+30EC_U+30A4_U+30E4_U+30FC 1
 62
   179
420
  2234388
370
    25
  0
POLYLINE
  5
6D
330
1F
100
AcDbEntity
  8
_U+30EC_U+30A4_U+30E4_U+30FC 1
 62
   179
420
  2234388
370
    25
100
AcDb2dPolyline
 66
     1
 10
0.0
 20
0.0
 30
0.0
  0
VERTEX
  5
6E
330
6D
100
AcDbEntity
  8
_U+30EC_U+30A4_U+30E4_U+30FC 1
 62
   179
420
  2234388
370
    25
100
AcDbVertex
100
AcDb2dVertex
 10
54.38616111249343
 20
-94.33842219863736
 30
0.0
  0
VERTEX
  5
6F
330
6D
100
AcDbEntity
  8
_U+30EC_U+30A4_U+30E4_U+30FC 1
 62
   179
420
  2234388
370
    25
100
AcDbVertex
100
AcDb2dVertex
 10
54.38616111249343
 20
-95.3381944206099
 30
0.0
  0
SEQEND
  5
70
330
6D
100
AcDbEntity
  8
_U+30EC_U+30A4_U+30E4_U+30FC 1
 62
   179
420
  2234388
370
    25
  0
POLYLINE
  5
71
330
1F
100
AcDbEntity
  8
_U+30EC_U+30A4_U+30E4_U+30FC 1
 62
   179
420
  2234388
370
    25
100
AcDb2dPolyline
 66
     1
 10
0.0
 20
0.0
 30
0.0
  0
VERTEX
  5
72
330
71
100
AcDbEntity
  8
_U+30EC_U+30A4_U+30E4_U+30FC 1
 62
   179
420
  2234388
370
    25
100
AcDbVertex
100
AcDb2dVertex
 10
50.38640204786913
 20
-83.83845025681808
 30
0.0
  0
VERTEX
  5
73
330
71
100
AcDbEntity
  8
_U+30EC_U+30A4_U+30E4_U+30FC 1
 62
   179
420
  2234388
370
    25
100
AcDbVertex
100
AcDb2dVertex
 10
48.88642625280336
 20
-95.3381944206099
 30
0.0
  0
SEQEND
  5
74
330
71
100
AcDbEntity
  8
_U+30EC_U+30A4_U+30E4_U+30FC 1
 62
   179
420
  2234388
370
    25
  0
POLYLINE
  5
75
330
1F
100
AcDbEntity
  8
_U+30EC_U+30A4_U+30E4_U+30FC 1
 62
   179
420
  2234388
370
    25
100
AcDb2dPolyline
 66
     1
 10
0.0
 20
0.0
 30
0.0
  0
VERTEX
  5
76
330
75
100
AcDbEntity
  8
_U+30EC_U+30A4_U+30E4_U+30FC 1
 62
   179
420
  2234388
370
    25
100
AcDbVertex
100
AcDb2dVertex
 10
51.29730952462994
 20
-84.8382224787903
 30
0.0
  0
VERTEX
  5
77
330
75
100
AcDbEntity
  8
_U+30EC_U+30A4_U+30E4_U+30FC 1
 62
   179
420
  2234388
370
    25
100
AcDbVertex
100
AcDb2dVertex
 10
49.89099622717465
 20
-95.3381944206099
 30
0.0
  0
SEQEND
  5
78
330
75
100
AcDbEntity
  8
_U+30EC_U+30A4_U+30E4_U+30FC 1
 62
   179
420
  2234388
370
    25
  0
POLYLINE
  5
79
330
1F
100
AcDbEntity
  8
_U+30EC_U+30A4_U+30E4_U+30FC 1
 62
   179
420
  2234388
370
     9
100
AcDb2dPolyline
 66
     1
 10
0.0
 20
0.0
 30
0.0
  0
VERTEX
  5
7A
330
79
100
AcDbEntity
  8
_U+30EC_U+30A4_U+30E4_U+30FC 1
 62
   179
420
  2234388
370
     9
100
AcDbVertex
100
AcDb2dVertex
 10
50.38640204786913
 20
-79.83802081337383
 30
0.0
  0
VERTEX
  5
7B
330
79
100
AcDbEntity
  8
_U+30EC_U+30A4_U+30E4_U+30FC 1
 62
   179
420
  2234388
370
     9
100
AcDbVertex
100
AcDb2dVertex
 10
68.38653492198081
 20
-79.83802081337383
 30
0.0
  0
SEQEND
  5
7C
330
79
100
AcDbEntity
  8
_U+30EC_U+30A4_U+30E4_U+30FC 1
 62
   179
420
  2234388
370
     9
  0
SPLINE
  5
7D
330
1F
100
AcDbEntity
  8
_U+30EC_U+30A4_U+30E4_U+30FC 1
 62
   179
420
  2234388
370
     9
100
AcDbSpline
210
0.0
220
0.0
230
1.0
 70
    11
 71
     3
 72
    17
 73
    13
 74
     0
 42
0.0000000001
 43
0.0000000001
 12
1.0
 22
0.0
 32
0.0
 13
1.0
 23
0.0
 33
0.0
 40
0.0
 40
0.0
 40
0.0
 40
0.0
 40
1.0
 40
1.0
 40
1.0
 40
2.0
 40
2.0
 40
2.0
 40
3.0
 40
3.0
 40
3.0
 40
4.0
 40
4.0
 40
4.0
 40
4.0
 10
50.48630871198696
 20
-79.83802081337383
 30
0.0
 10
50.48630871198696
 20
-79.7829169244986
 30
0.0
 10
50.44154121312907
 20
-79.7381141467322
 30
0.0
 10
50.38640204786913
 20
-79.7381141467322
 30
0.0
 10
50.33129816038605
 20
-79.7381141467322
 30
0.0
 10
50.28649538375129
 20
-79.7829169244986
 30
0.0
 10
50.28649538375129
 20
-79.83802081337383
 30
0.0
 10
50.28649538375129
 20
-79.8931599800266
 30
0.0
 10
50.33129816038605
 20
-79.93792748001547
 30
0.0
 10
50.38640204786913
 20
-79.93792748001547
 30
0.0
 10
50.44154121312907
 20
-79.93792748001547
 30
0.0
 10
50.48630871198696
 20
-79.8931599800266
 30
0.0
 10
50.48630871198696
 20
-79.83802081337383
 30
0.0
  0
SPLINE
  5
7E
330
1F
100
AcDbEntity
  8
_U+30EC_U+30A4_U+30E4_U+30FC 1
 62
   179
420
  2234388
370
     9
100
AcDbSpline
210
0.0
220
0.0
230
1.0
 70
    11
 71
     3
 72
    17
 73
    13
 74
     0
 42
0.0000000001
 43
0.0000000001
 12
1.0
 22
0.0
 32
0.0
 13
1.0
 23
0.0
 33
0.0
 40
0.0
 40
0.0
 40
0.0
 40
0.0
 40
1.0
 40
1.0
 40
1.0
 40
2.0
 40
2.0
 40
2.0
 40
3.0
 40
3.0
 40
3.0
 40
4.0
 40
4.0
 40
4.0
 40
4.0
 10
68.48644158609865
 20
-79.83802081337383
 30
0.0
 10
68.48644158609865
 20
-79.7829169244986
 30
0.0
 10
68.44234436500143
 20
-79.7381141467322
 30
0.0
 10
68.38653492198081
 20
-79.7381141467322
 30
0.0
 10
68.33139575672087
 20
-79.7381141467322
 30
0.0
 10
68.28662825786297
 20
-79.7829169244986
 30
0.0
 10
68.28662825786297
 20
-79.83802081337383
 30
0.0
 10
68.28662825786297
 20
-79.8931599800266
 30
0.0
 10
68.33139575672087
 20
-79.93792748001547
 30
0.0
 10
68.38653492198081
 20
-79.93792748001547
 30
0.0
 10
68.44234436500143
 20
-79.93792748001547
 30
0.0
 10
68.48644158609865
 20
-79.8931599800266
 30
0.0
 10
68.48644158609865
 20
-79.83802081337383
 30
0.0
  0
SPLINE
  5
7F
330
1F
100
AcDbEntity
  8
_U+30EC_U+30A4_U+30E4_U+30FC 1
 62
   179
420
  2234388
370
     9
100
AcDbSpline
210
0.0
220
0.0
230
1.0
 70
    11
 71
     3
 72
    17
 73
    13
 74
     0
 42
0.0000000001
 43
0.0000000001
 12
1.0
 22
0.0
 32
0.0
 13
1.0
 23
0.0
 33
0.0
 40
0.0
 40
0.0
 40
0.0
 40
0.0
 40
1.0
 40
1.0
 40
1.0
 40
2.0
 40
2.0
 40
2.0
 40
3.0
 40
3.0
 40
3.0
 40
4.0
 40
4.0
 40
4.0
 40
4.0
 10
72.48687092848364
 20
-83.83845025681808
 30
0.0
 10
72.48687092848364
 20
-83.78264081238764
 30
0.0
 10
72.44210342962575
 20
-83.73787331239876
 30
0.0
 10
72.3869642643658
 20
-83.73787331239876
 30
0.0
 10
72.33186037688273
 20
-83.73787331239876
 30
0.0
 10
72.28705760024796
 20
-83.78264081238764
 30
0.0
 10
72.28705760024796
 20
-83.83845025681808
 30
0.0
 10
72.28705760024796
 20
-83.89358942347116
 30
0.0
 10
72.33186037688273
 20
-83.93835692345972
 30
0.0
 10
72.3869642643658
 20
-83.93835692345972
 30
0.0
 10
72.44210342962575
 20
-83.93835692345972
 30
0.0
 10
72.48687092848364
 20
-83.89358942347116
 30
0.0
 10
72.48687092848364
 20
-83.83845025681808
 30
0.0
  0
SPLINE
  5
80
330
1F
100
AcDbEntity
  8
_U+30EC_U+30A4_U+30E4_U+30FC 1
 62
   179
420
  2234388
370
     9
100
AcDbSpline
210
0.0
220
0.0
230
1.0
 70
    11
 71
     3
 72
    17
 73
    13
 74
     0
 42
0.0000000001
 43
0.0000000001
 12
1.0
 22
0.0
 32
0.0
 13
1.0
 23
0.0
 33
0.0
 40
0.0
 40
0.0
 40
0.0
 40
0.0
 40
1.0
 40
1.0
 40
1.0
 40
2.0
 40
2.0
 40
2.0
 40
3.0
 40
3.0
 40
3.0
 40
4.0
 40
4.0
 40
4.0
 40
4.0
 10
72.48687092848364
 20
-93.33797969888745
 30
0.0
 10
72.48687092848364
 20
-93.28284053223501
 30
0.0
 10
72.44210342962575
 20
-93.23807303224582
 30
0.0
 10
72.3869642643658
 20
-93.23807303224582
 30
0.0
 10
72.33186037688273
 20
-93.23807303224582
 30
0.0
 10
72.28705760024796
 20
-93.28284053223501
 30
0.0
 10
72.28705760024796
 20
-93.33797969888745
 30
0.0
 10
72.28705760024796
 20
-93.39308358776302
 30
0.0
 10
72.33186037688273
 20
-93.43788636552974
 30
0.0
 10
72.3869642643658
 20
-93.43788636552974
 30
0.0
 10
72.44210342962575
 20
-93.43788636552974
 30
0.0
 10
72.48687092848364
 20
-93.39308358776302
 30
0.0
 10
72.48687092848364
 20
-93.33797969888745
 30
0.0
  0
SPLINE
  5
81
330
1F
100
AcDbEntity
  8
_U+30EC_U+30A4_U+30E4_U+30FC 1
 62
   179
420
  2234388
370
     9
100
AcDbSpline
210
0.0
220
0.0
230
1.0
 70
    11
 71
     3
 72
    17
 73
    13
 74
     0
 42
0.0000000001
 43
0.0000000001
 12
1.0
 22
0.0
 32
0.0
 13
1.0
 23
0.0
 33
0.0
 40
0.0
 40
0.0
 40
0.0
 40
0.0
 40
1.0
 40
1.0
 40
1.0
 40
2.0
 40
2.0
 40
2.0
 40
3.0
 40
3.0
 40
3.0
 40
4.0
 40
4.0
 40
4.0
 40
4.0
 10
72.48687092848364
 20
-96.33796664258244
 30
0.0
 10
72.48687092848364
 20
-96.28282747592937
 30
0.0
 10
72.44210342962575
 20
-96.2380599759408
 30
0.0
 10
72.3869642643658
 20
-96.2380599759408
 30
0.0
 10
72.33186037688273
 20
-96.2380599759408
 30
0.0
 10
72.28705760024796
 20
-96.28282747592937
 30
0.0
 10
72.28705760024796
 20
-96.33796664258244
 30
0.0
 10
72.28705760024796
 20
-96.39307053145735
 30
0.0
 10
72.33186037688273
 20
-96.43787330922407
 30
0.0
 10
72.3869642643658
 20
-96.43787330922407
 30
0.0
 10
72.44210342962575
 20
-96.43787330922407
 30
0.0
 10
72.48687092848364
 20
-96.39307053145735
 30
0.0
 10
72.48687092848364
 20
-96.33796664258244
 30
0.0
  0
SPLINE
  5
82
330
1F
100
AcDbEntity
  8
_U+30EC_U+30A4_U+30E4_U+30FC 1
 62
   179
420
  2234388
370
     9
100
AcDbSpline
210
0.0
220
0.0
230
1.0
 70
    11
 71
     3
 72
    17
 73
    13
 74
     0
 42
0.0000000001
 43
0.0000000001
 12
1.0
 22
0.0
 32
0.0
 13
1.0
 23
0.0
 33
0.0
 40
0.0
 40
0.0
 40
0.0
 40
0.0
 40
1.0
 40
1.0
 40
1.0
 40
2.0
 40
2.0
 40
2.0
 40
3.0
 40
3.0
 40
3.0
 40
4.0
 40
4.0
 40
4.0
 40
4.0
 10
55.48654552886474
 20
-100.3383960860267
 30
0.0
 10
55.48654552886474
 20
-100.2825866415963
 30
0.0
 10
55.44174275222997
 20
-100.237819141607
 30
0.0
 10
55.3866388647469
 20
-100.237819141607
 30
0.0
 10
55.33149969948695
 20
-100.237819141607
 30
0.0
 10
55.28673220062907
 20
-100.2825866415963
 30
0.0
 10
55.28673220062907
 20
-100.3383960860267
 30
0.0
 10
55.28673220062907
 20
-100.3935352526791
 30
0.0
 10
55.33149969948695
 20
-100.4383027526683
 30
0.0
 10
55.3866388647469
 20
-100.4383027526683
 30
0.0
 10
55.44174275222997
 20
-100.4383027526683
 30
0.0
 10
55.48654552886474
 20
-100.3935352526791
 30
0.0
 10
55.48654552886474
 20
-100.3383960860267
 30
0.0
  0
SPLINE
  5
83
330
1F
100
AcDbEntity
  8
_U+30EC_U+30A4_U+30E4_U+30FC 1
 62
   179
420
  2234388
370
     9
100
AcDbSpline
210
0.0
220
0.0
230
1.0
 70
    11
 71
     3
 72
    17
 73
    13
 74
     0
 42
0.0000000001
 43
0.0000000001
 12
1.0
 22
0.0
 32
0.0
 13
1.0
 23
0.0
 33
0.0
 40
0.0
 40
0.0
 40
0.0
 40
0.0
 40
1.0
 40
1.0
 40
1.0
 40
2.0
 40
2.0
 40
2.0
 40
3.0
 40
3.0
 40
3.0
 40
4.0
 40
4.0
 40
4.0
 40
4.0
 10
48.48679959633202
 20
-100.3383960860267
 30
0.0
 10
48.48679959633202
 20
-100.2825866415963
 30
0.0
 10
48.44199681969726
 20
-100.237819141607
 30
0.0
 10
48.38618737667663
 20
-100.237819141607
 30
0.0
 10
48.33108348919356
 20
-100.237819141607
 30
0.0
 10
48.28628071255879
 20
-100.2825866415963
 30
0.0
 10
48.28628071255879
 20
-100.3383960860267
 30
0.0
 10
48.28628071255879
 20
-100.3935352526791
 30
0.0
 10
48.33108348919356
 20
-100.4383027526683
 30
0.0
 10
48.38618737667663
 20
-100.4383027526683
 30
0.0
 10
48.44199681969726
 20
-100.4383027526683
 30
0.0
 10
48.48679959633202
 20
-100.3935352526791
 30
0.0
 10
48.48679959633202
 20
-100.3383960860267
 30
0.0
  0
SPLINE
  5
84
330
1F
100
AcDbEntity
  8
_U+30EC_U+30A4_U+30E4_U+30FC 1
 62
   179
420
  2234388
370
     9
100
AcDbSpline
210
0.0
220
0.0
230
1.0
 70
    11
 71
     3
 72
    17
 73
    13
 74
     0
 42
0.0000000001
 43
0.0000000001
 12
1.0
 22
0.0
 32
0.0
 13
1.0
 23
0.0
 33
0.0
 40
0.0
 40
0.0
 40
0.0
 40
0.0
 40
1.0
 40
1.0
 40
1.0
 40
2.0
 40
2.0
 40
2.0
 40
3.0
 40
3.0
 40
3.0
 40
4.0
 40
4.0
 40
4.0
 40
4.0
 10
72.48687092848364
 20
-84.8382224787903
 30
0.0
 10
72.48687092848364
 20
-84.78311858991538
 30
0.0
 10
72.44210342962575
 20
-84.73831581214866
 30
0.0
 10
72.3869642643658
 20
-84.73831581214866
 30
0.0
 10
72.33186037688273
 20
-84.73831581214866
 30
0.0
 10
72.28705760024796
 20
-84.78311858991538
 30
0.0
 10
72.28705760024796
 20
-84.8382224787903
 30
0.0
 10
72.28705760024796
 20
-84.89336164544338
 30
0.0
 10
72.33186037688273
 20
-84.93812914543226
 30
0.0
 10
72.3869642643658
 20
-84.93812914543226
 30
0.0
 10
72.44210342962575
 20
-84.93812914543226
 30
0.0
 10
72.48687092848364
 20
-84.89336164544338
 30
0.0
 10
72.48687092848364
 20
-84.8382224787903
 30
0.0
  0
POLYLINE
  5
85
330
1F
100
AcDbEntity
  8
_U+30EC_U+30A4_U+30E4_U+30FC 1
 62
   179
420
  2234388
370
     9
100
AcDb2dPolyline
 66
     1
 10
0.0
 20
0.0
 30
0.0
  0
VERTEX
  5
86
330
85
100
AcDbEntity
  8
_U+30EC_U+30A4_U+30E4_U+30FC 1
 62
   179
420
  2234388
370
     9
100
AcDbVertex
100
AcDb2dVertex
 10
50.38640204786913
 20
-79.83802081337383
 30
0.0
  0
VERTEX
  5
87
330
85
100
AcDbEntity
  8
_U+30EC_U+30A4_U+30E4_U+30FC 1
 62
   179
420
  2234388
370
     9
100
AcDbVertex
100
AcDb2dVertex
 10
68.38653492198081
 20
-79.83802081337383
 30
0.0
  0
SEQEND
  5
88
330
85
100
AcDbEntity
  8
_U+30EC_U+30A4_U+30E4_U+30FC 1
 62
   179
420
  2234388
370
     9
  0
POLYLINE
  5
89
330
1F
100
AcDbEntity
  8
_U+30EC_U+30A4_U+30E4_U+30FC 1
 62
   179
420
  2234388
370
     9
100
AcDb2dPolyline
 66
     1
 10
0.0
 20
0.0
 30
0.0
  0
VERTEX
  5
8A
330
89
100
AcDbEntity
  8
_U+30EC_U+30A4_U+30E4_U+30FC 1
 62
   179
420
  2234388
370
     9
100
AcDbVertex
100
AcDb2dVertex
 10
50.38640204786913
 20
-81.29806220189786
 30
0.0
  0
VERTEX
  5
8B
330
89
100
AcDbEntity
  8
_U+30EC_U+30A4_U+30E4_U+30FC 1
 62
   179
420
  2234388
370
     9
100
AcDbVertex
100
AcDb2dVertex
 10
50.38640204786913
 20
-78.83824859140161
 30
0.0
  0
SEQEND
  5
8C
330
89
100
AcDbEntity
  8
_U+30EC_U+30A4_U+30E4_U+30FC 1
 62
   179
420
  2234388
370
     9
  0
POLYLINE
  5
8D
330
1F
100
AcDbEntity
  8
_U+30EC_U+30A4_U+30E4_U+30FC 1
 62
   179
420
  2234388
370
     9
100
AcDb2dPolyline
 66
     1
 10
0.0
 20
0.0
 30
0.0
  0
VERTEX
  5
8E
330
8D
100
AcDbEntity
  8
_U+30EC_U+30A4_U+30E4_U+30FC 1
 62
   179
420
  2234388
370
     9
100
AcDbVertex
100
AcDb2dVertex
 10
68.38653492198081
 20
-81.29806220189786
 30
0.0
  0
VERTEX
  5
8F
330
8D
100
AcDbEntity
  8
_U+30EC_U+30A4_U+30E4_U+30FC 1
 62
   179
420
  2234388
370
     9
100
AcDbVertex
100
AcDb2dVertex
 10
68.38653492198081
 20
-78.83824859140161
 30
0.0
  0
SEQEND
  5
90
330
8D
100
AcDbEntity
  8
_U+30EC_U+30A4_U+30E4_U+30FC 1
 62
   179
420
  2234388
370
     9
  0
INSERT
  5
92
330
1F
100
AcDbEntity
  8
_U+30EC_U+30A4_U+30E4_U+30FC 1
100
AcDbBlockReference
  2
block 2
 10
0.0
 20
0.0
 30
0.0
  0
POLYLINE
  5
9B
330
1F
100
AcDbEntity
  8
_U+30EC_U+30A4_U+30E4_U+30FC 1
 62
   179
420
  2234388
370
     9
100
AcDb2dPolyline
 66
     1
 10
0.0
 20
0.0
 30
0.0
  0
VERTEX
  5
9C
330
9B
100
AcDbEntity
  8
_U+30EC_U+30A4_U+30E4_U+30FC 1
 62
   179
420
  2234388
370
     9
100
AcDbVertex
100
AcDb2dVertex
 10
72.3869642643658
 20
-83.83845025681808
 30
0.0
  0
VERTEX
  5
9D
330
9B
100
AcDbEntity
  8
_U+30EC_U+30A4_U+30E4_U+30FC 1
 62
   179
420
  2234388
370
     9
100
AcDbVertex
100
AcDb2dVertex
 10
72.3869642643658
 20
-82.83800775706817
 30
0.0
  0
SEQEND
  5
9E
330
9B
100
AcDbEntity
  8
_U+30EC_U+30A4_U+30E4_U+30FC 1
 62
   179
420
  2234388
370
     9
  0
POLYLINE
  5
9F
330
1F
100
AcDbEntity
  8
_U+30EC_U+30A4_U+30E4_U+30FC 1
 62
   179
420
  2234388
370
     9
100
AcDb2dPolyline
 66
     1
 10
0.0
 20
0.0
 30
0.0
  0
VERTEX
  5
A0
330
9F
100
AcDbEntity
  8
_U+30EC_U+30A4_U+30E4_U+30FC 1
 62
   179
420
  2234388
370
     9
100
AcDbVertex
100
AcDb2dVertex
 10
72.3869642643658
 20
-83.83845025681808
 30
0.0
  0
VERTEX
  5
A1
330
9F
100
AcDbEntity
  8
_U+30EC_U+30A4_U+30E4_U+30FC 1
 62
   179
420
  2234388
370
     9
100
AcDbVertex
100
AcDb2dVertex
 10
72.3869642643658
 20
-84.8382224787903
 30
0.0
  0
SEQEND
  5
A2
330
9F
100
AcDbEntity
  8
_U+30EC_U+30A4_U+30E4_U+30FC 1
 62
   179
420
  2234388
370
     9
  0
POLYLINE
  5
A3
330
1F
100
AcDbEntity
  8
_U+30EC_U+30A4_U+30E4_U+30FC 1
 62
   179
420
  2234388
370
     9
100
AcDb2dPolyline
 66
     1
 10
0.0
 20
0.0
 30
0.0
  0
VERTEX
  5
A4
330
A3
100
AcDbEntity
  8
_U+30EC_U+30A4_U+30E4_U+30FC 1
 62
   179
420
  2234388
370
     9
100
AcDbVertex
100
AcDb2dVertex
 10
70.92692291272567
 20
-83.83845025681808
 30
0.0
  0
VERTEX
  5
A5
330
A3
100
AcDbEntity
  8
_U+30EC_U+30A4_U+30E4_U+30FC 1
 62
   179
420
  2234388
370
     9
100
AcDbVertex
100
AcDb2dVertex
 10
73.38673646108171
 20
-83.83845025681808
 30
0.0
  0
SEQEND
  5
A6
330
A3
100
AcDbEntity
  8
_U+30EC_U+30A4_U+30E4_U+30FC 1
 62
   179
420
  2234388
370
     9
  0
POLYLINE
  5
A7
330
1F
100
AcDbEntity
  8
_U+30EC_U+30A4_U+30E4_U+30FC 1
 62
   179
420
  2234388
370
     9
100
AcDb2dPolyline
 66
     1
 10
0.0
 20
0.0
 30
0.0
  0
VERTEX
  5
A8
330
A7
100
AcDbEntity
  8
_U+30EC_U+30A4_U+30E4_U+30FC 1
 62
   179
420
  2234388
370
     9
100
AcDbVertex
100
AcDb2dVertex
 10
70.92692291272567
 20
-84.8382224787903
 30
0.0
  0
VERTEX
  5
A9
330
A7
100
AcDbEntity
  8
_U+30EC_U+30A4_U+30E4_U+30FC 1
 62
   179
420
  2234388
370
     9
100
AcDbVertex
100
AcDb2dVertex
 10
73.38673646108171
 20
-84.8382224787903
 30
0.0
  0
SEQEND
  5
AA
330
A7
100
AcDbEntity
  8
_U+30EC_U+30A4_U+30E4_U+30FC 1
 62
   179
420
  2234388
370
     9
  0
INSERT
  5
AC
330
1F
100
AcDbEntity
  8
_U+30EC_U+30A4_U+30E4_U+30FC 1
100
AcDbBlockReference
  2
block 3
 10
0.0
 20
0.0
 30
0.0
  0
POLYLINE
  5
B1
330
1F
100
AcDbEntity
  8
_U+30EC_U+30A4_U+30E4_U+30FC 1
 62
   179
420
  2234388
370
     9
100
AcDb2dPolyline
 66
     1
 10
0.0
 20
0.0
 30
0.0
  0
VERTEX
  5
B2
330
B1
100
AcDbEntity
  8
_U+30EC_U+30A4_U+30E4_U+30FC 1
 62
   179
420
  2234388
370
     9
100
AcDbVertex
100
AcDb2dVertex
 10
72.3869642643658
 20
-93.33797969888745
 30
0.0
  0
VERTEX
  5
B3
330
B1
100
AcDbEntity
  8
_U+30EC_U+30A4_U+30E4_U+30FC 1
 62
   179
420
  2234388
370
     9
100
AcDbVertex
100
AcDb2dVertex
 10
72.3869642643658
 20
-96.33796664258244
 30
0.0
  0
SEQEND
  5
B4
330
B1
100
AcDbEntity
  8
_U+30EC_U+30A4_U+30E4_U+30FC 1
 62
   179
420
  2234388
370
     9
  0
POLYLINE
  5
B5
330
1F
100
AcDbEntity
  8
_U+30EC_U+30A4_U+30E4_U+30FC 1
 62
   179
420
  2234388
370
     9
100
AcDb2dPolyline
 66
     1
 10
0.0
 20
0.0
 30
0.0
  0
VERTEX
  5
B6
330
B5
100
AcDbEntity
  8
_U+30EC_U+30A4_U+30E4_U+30FC 1
 62
   179
420
  2234388
370
     9
100
AcDbVertex
100
AcDb2dVertex
 10
57.92635657773108
 20
-96.33796664258244
 30
0.0
  0
VERTEX
  5
B7
330
B5
100
AcDbEntity
  8
_U+30EC_U+30A4_U+30E4_U+30FC 1
 62
   179
420
  2234388
370
     9
100
AcDbVertex
100
AcDb2dVertex
 10
73.38673646108171
 20
-96.33796664258244
 30
0.0
  0
SEQEND
  5
B8
330
B5
100
AcDbEntity
  8
_U+30EC_U+30A4_U+30E4_U+30FC 1
 62
   179
420
  2234388
370
     9
  0
INSERT
  5
BA
330
1F
100
AcDbEntity
  8
_U+30EC_U+30A4_U+30E4_U+30FC 1
100
AcDbBlockReference
  2
block 4
 10
0.0
 20
0.0
 30
0.0
  0
POLYLINE
  5
BF
330
1F
100
AcDbEntity
  8
_U+30EC_U+30A4_U+30E4_U+30FC 1
 62
   179
420
  2234388
370
     9
100
AcDb2dPolyline
 66
     1
 10
0.0
 20
0.0
 30
0.0
  0
VERTEX
  5
C0
330
BF
100
AcDbEntity
  8
_U+30EC_U+30A4_U+30E4_U+30FC 1
 62
   179
420
  2234388
370
     9
100
AcDbVertex
100
AcDb2dVertex
 10
48.38618737667663
 20
-100.3383960860267
 30
0.0
  0
VERTEX
  5
C1
330
BF
100
AcDbEntity
  8
_U+30EC_U+30A4_U+30E4_U+30FC 1
 62
   179
420
  2234388
370
     9
100
AcDbVertex
100
AcDb2dVertex
 10
55.3866388647469
 20
-100.3383960860267
 30
0.0
  0
SEQEND
  5
C2
330
BF
100
AcDbEntity
  8
_U+30EC_U+30A4_U+30E4_U+30FC 1
 62
   179
420
  2234388
370
     9
  0
POLYLINE
  5
C3
330
1F
100
AcDbEntity
  8
_U+30EC_U+30A4_U+30E4_U+30FC 1
 62
   179
420
  2234388
370
     9
100
AcDb2dPolyline
 66
     1
 10
0.0
 20
0.0
 30
0.0
  0
VERTEX
  5
C4
330
C3
100
AcDbEntity
  8
_U+30EC_U+30A4_U+30E4_U+30FC 1
 62
   179
420
  2234388
370
     9
100
AcDbVertex
100
AcDb2dVertex
 10
48.38618737667663
 20
-98.8783899752805
 30
0.0
  0
VERTEX
  5
C5
330
C3
100
AcDbEntity
  8
_U+30EC_U+30A4_U+30E4_U+30FC 1
 62
   179
420
  2234388
370
     9
100
AcDbVertex
100
AcDb2dVertex
 10
48.38618737667663
 20
-101.3381683079986
 30
0.0
  0
SEQEND
  5
C6
330
C3
100
AcDbEntity
  8
_U+30EC_U+30A4_U+30E4_U+30FC 1
 62
   179
420
  2234388
370
     9
  0
POLYLINE
  5
C7
330
1F
100
AcDbEntity
  8
_U+30EC_U+30A4_U+30E4_U+30FC 1
 62
   179
420
  2234388
370
     9
100
AcDb2dPolyline
 66
     1
 10
0.0
 20
0.0
 30
0.0
  0
VERTEX
  5
C8
330
C7
100
AcDbEntity
  8
_U+30EC_U+30A4_U+30E4_U+30FC 1
 62
   179
420
  2234388
370
     9
100
AcDbVertex
100
AcDb2dVertex
 10
55.3866388647469
 20
-98.8783899752805
 30
0.0
  0
VERTEX
  5
C9
330
C7
100
AcDbEntity
  8
_U+30EC_U+30A4_U+30E4_U+30FC 1
 62
   179
420
  2234388
370
     9
100
AcDbVertex
100
AcDb2dVertex
 10
55.3866388647469
 20
-101.3381683079986
 30
0.0
  0
SEQEND
  5
CA
330
C7
100
AcDbEntity
  8
_U+30EC_U+30A4_U+30E4_U+30FC 1
 62
   179
420
  2234388
370
     9
  0
INSERT
  5
CC
330
1F
100
AcDbEntity
  8
_U+30EC_U+30A4_U+30E4_U+30FC 1
100
AcDbBlockReference
  2
block 5
 10
0.0
 20
0.0
 30
0.0
  0
POLYLINE
  5
D1
330
1F
100
AcDbEntity
  8
_U+30EC_U+30A4_U+30E4_U+30FC 1
 62
   179
420
  2234388
370
     9
100
AcDb2dPolyline
 66
     1
 10
0.0
 20
0.0
 30
0.0
  0
VERTEX
  5
D2
330
D1
100
AcDbEntity
  8
_U+30EC_U+30A4_U+30E4_U+30FC 1
 62
   179
420
  2234388
370
     9
100
AcDbVertex
100
AcDb2dVertex
 10
72.3869642643658
 20
-84.8382224787903
 30
0.0
  0
VERTEX
  5
D3
330
D1
100
AcDbEntity
  8
_U+30EC_U+30A4_U+30E4_U+30FC 1
 62
   179
420
  2234388
370
     9
100
AcDbVertex
100
AcDb2dVertex
 10
72.3869642643658
 20
-93.33797969888745
 30
0.0
  0
SEQEND
  5
D4
330
D1
100
AcDbEntity
  8
_U+30EC_U+30A4_U+30E4_U+30FC 1
 62
   179
420
  2234388
370
     9
  0
POLYLINE
  5
D5
330
1F
100
AcDbEntity
  8
_U+30EC_U+30A4_U+30E4_U+30FC 1
 62
   179
420
  2234388
370
     9
100
AcDb2dPolyline
 66
     1
 10
0.0
 20
0.0
 30
0.0
  0
VERTEX
  5
D6
330
D5
100
AcDbEntity
  8
_U+30EC_U+30A4_U+30E4_U+30FC 1
 62
   179
420
  2234388
370
     9
100
AcDbVertex
100
AcDb2dVertex
 10
70.92692291272567
 20
-84.8382224787903
 30
0.0
  0
VERTEX
  5
D7
330
D5
100
AcDbEntity
  8
_U+30EC_U+30A4_U+30E4_U+30FC 1
 62
   179
420
  2234388
370
     9
100
AcDbVertex
100
AcDb2dVertex
 10
73.38673646108171
 20
-84.8382224787903
 30
0.0
  0
SEQEND
  5
D8
330
D5
100
AcDbEntity
  8
_U+30EC_U+30A4_U+30E4_U+30FC 1
 62
   179
420
  2234388
370
     9
  0
POLYLINE
  5
D9
330
1F
100
AcDbEntity
  8
_U+30EC_U+30A4_U+30E4_U+30FC 1
 62
   179
420
  2234388
370
     9
100
AcDb2dPolyline
 66
     1
 10
0.0
 20
0.0
 30
0.0
  0
VERTEX
  5
DA
330
D9
100
AcDbEntity
  8
_U+30EC_U+30A4_U+30E4_U+30FC 1
 62
   179
420
  2234388
370
     9
100
AcDbVertex
100
AcDb2dVertex
 10
57.92635657773108
 20
-93.33797969888745
 30
0.0
  0
VERTEX
  5
DB
330
D9
100
AcDbEntity
  8
_U+30EC_U+30A4_U+30E4_U+30FC 1
 62
   179
420
  2234388
370
     9
100
AcDbVertex
100
AcDb2dVertex
 10
73.38673646108171
 20
-93.33797969888745
 30
0.0
  0
SEQEND
  5
DC
330
D9
100
AcDbEntity
  8
_U+30EC_U+30A4_U+30E4_U+30FC 1
 62
   179
420
  2234388
370
     9
  0
INSERT
  5
DE
330
1F
100
AcDbEntity
  8
_U+30EC_U+30A4_U+30E4_U+30FC 1
100
AcDbBlockReference
  2
block 6
 10
0.0
 20
0.0
 30
0.0
  0
ENDSEC
  0
SECTION
  2
OBJECTS
  0
DICTIONARY
  5
C
330
0
100
AcDbDictionary
281
     1
  3
ACAD_GROUP
350
D
  3
ACAD_LAYOUT
350
1A
  3
ACAD_MATERIAL
350
3B
  3
ACAD_MLEADERSTYLE
350
F0
  3
ACAD_MLINESTYLE
350
17
  3
ACAD_PLOTSETTINGS
350
19
  3
ACAD_PLOTSTYLENAME
350
E
  3
ACAD_TABLESTYLE
350
EF
  3
ACAD_VISUALSTYLE
350
2A
  0
SUN
  5
3F
330
29
100
AcDbSun
 90
        1
290
     0
 63
     7
421
 16777215
 40
1.0
291
     1
 91
  2455826
 92
 54000000
292
     0
 70
     2
 71
   256
280
     1
  0
DICTIONARY
  5
D
102
{ACAD_REACTORS
330
C
102
}
330
C
100
AcDbDictionary
281
     1
  0
DICTIONARY
  5
1A
102
{ACAD_REACTORS
330
C
102
}
330
C
100
AcDbDictionary
281
     1
  3
Layout1
350
1E
  3
Layout2
350
26
  3
Model
350
22
  0
DICTIONARY
  5
3B
102
{ACAD_REACTORS
330
C
102
}
330
C
100
AcDbDictionary
281
     1
  3
ByBlock
350
3D
  3
ByLayer
350
3C
  3
Global
350
3E
  0
DICTIONARY
  5
F0
102
{ACAD_REACTORS
330
C
102
}
330
C
100
AcDbDictionary
281
     1
  0
DICTIONARY
  5
17
102
{ACAD_REACTORS
330
C
102
}
330
C
100
AcDbDictionary
281
     1
  3
Standard
350
18
  0
DICTIONARY
  5
19
102
{ACAD_REACTORS
330
C
102
}
330
C
100
AcDbDictionary
281
     1
  0
ACDBDICTIONARYWDFLT
  5
E
102
{ACAD_REACTORS
330
C
102
}
330
C
100
AcDbDictionary
281
     1
  3
Normal
350
F
100
AcDbDictionaryWithDefault
340
F
  0
DICTIONARY
  5
EF
102
{ACAD_REACTORS
330
C
102
}
330
C
100
AcDbDictionary
281
     1
  0
DICTIONARY
  5
2A
102
{ACAD_REACTORS
330
C
102
}
330
C
100
AcDbDictionary
281
     1
  3
2dWireframe
350
2F
  3
3D Hidden
350
31
  3
3dWireframe
350
30
  3
Basic
350
32
  3
Brighten
350
36
  3
ColorChange
350
3A
  3
Conceptual
350
34
  3
Dim
350
35
  3
Facepattern
350
39
  3
Flat
350
2B
  3
FlatWithEdges
350
2C
  3
Gouraud
350
2D
  3
GouraudWithEdges
350
2E
  3
Linepattern
350
38
  3
Realistic
350
33
  3
Thicken
350
37
  0
LAYOUT
  5
1E
102
{ACAD_REACTORS
330
1A
102
}
330
1A
100
AcDbPlotSettings
  1

  2
none_device
  4

  6

 40
0.0
 41
0.0
 42
0.0
 43
0.0
 44
0.0
 45
0.0
 46
0.0
 47
0.0
 48
0.0
 49
0.0
140
0.0
141
0.0
142
1.0
143
1.0
 70
   688
 72
     0
 73
     0
 74
     5
  7

 75
    16
 76
     0
 77
     2
 78
   300
147
1.0
148
0.0
149
0.0
100
AcDbLayout
  1
Layout1
 70
     1
 71
     1
 10
0.0
 20
0.0
 11
12.0
 21
9.0
 12
0.0
 22
0.0
 32
0.0
 14
1.000000000000000E+20
 24
1.000000000000000E+20
 34
1.000000000000000E+20
 15
-1.000000000000000E+20
 25
-1.000000000000000E+20
 35
-1.000000000000000E+20
146
0.0
 13
0.0
 23
0.0
 33
0.0
 16
1.0
 26
0.0
 36
0.0
 17
0.0
 27
1.0
 37
0.0
 76
     0
330
1B
  0
LAYOUT
  5
26
102
{ACAD_REACTORS
330
1A
102
}
330
1A
100
AcDbPlotSettings
  1

  2
none_device
  4

  6

 40
0.0
 41
0.0
 42
0.0
 43
0.0
 44
0.0
 45
0.0
 46
0.0
 47
0.0
 48
0.0
 49
0.0
140
0.0
141
0.0
142
1.0
143
1.0
 70
   688
 72
     0
 73
     0
 74
     5
  7

 75
    16
 76
     0
 77
     2
 78
   300
147
1.0
148
0.0
149
0.0
100
AcDbLayout
  1
Layout2
 70
     1
 71
     2
 10
0.0
 20
0.0
 11
0.0
 21
0.0
 12
0.0
 22
0.0
 32
0.0
 14
0.0
 24
0.0
 34
0.0
 15
0.0
 25
0.0
 35
0.0
146
0.0
 13
0.0
 23
0.0
 33
0.0
 16
1.0
 26
0.0
 36
0.0
 17
0.0
 27
1.0
 37
0.0
 76
     0
330
23
  0
LAYOUT
  5
22
102
{ACAD_REACTORS
330
1A
102
}
330
1A
100
AcDbPlotSettings
  1

  2
none_device
  4

  6

 40
0.0
 41
0.0
 42
0.0
 43
0.0
 44
0.0
 45
0.0
 46
0.0
 47
0.0
 48
0.0
 49
0.0
140
0.0
141
0.0
142
1.0
143
1.0
 70
  1712
 72
     0
 73
     0
 74
     0
  7

 75
     0
 76
     0
 77
     2
 78
   300
147
1.0
148
0.0
149
0.0
100
AcDbLayout
  1
Model
 70
     1
 71
     0
 10
0.0
 20
0.0
 11
12.0
 21
9.0
 12
0.0
 22
0.0
 32
0.0
 14
1.000000000000000E+20
 24
1.000000000000000E+20
 34
1.000000000000000E+20
 15
-1.000000000000000E+20
 25
-1.000000000000000E+20
 35
-1.000000000000000E+20
146
0.0
 13
0.0
 23
0.0
 33
0.0
 16
1.0
 26
0.0
 36
0.0
 17
0.0
 27
1.0
 37
0.0
 76
     0
330
1F
331
29
  0
MATERIAL
  5
3D
102
{ACAD_REACTORS
330
3B
102
}
330
3B
100
AcDbMaterial
  1
ByBlock
 72
     1
 94
      127
  0
MATERIAL
  5
3C
102
{ACAD_REACTORS
330
3B
102
}
330
3B
100
AcDbMaterial
  1
ByLayer
 72
     1
 94
      127
  0
MATERIAL
  5
3E
102
{ACAD_REACTORS
330
3B
102
}
330
3B
100
AcDbMaterial
  1
Global
 72
     1
 94
      127
  0
MLINESTYLE
  5
18
102
{ACAD_REACTORS
330
17
102
}
330
17
100
AcDbMlineStyle
  2
Standard
 70
     0
  3

 62
   256
 51
90.0
 52
90.0
 71
     2
 49
0.5
 62
   256
  6
BYLAYER
 49
-0.5
 62
   256
  6
BYLAYER
  0
ACDBPLACEHOLDER
  5
F
102
{ACAD_REACTORS
330
E
102
}
330
E
  0
VISUALSTYLE
  5
2F
102
{ACAD_REACTORS
330
2A
102
}
330
2A
100
AcDbVisualStyle
  2
2dWireframe
 70
     4
177
     2
291
     0
 71
     0
176
     1
 72
     2
176
     1
 73
     0
176
     1
 90
        0
176
     1
 40
-0.6
176
     1
 41
-30.0
176
     1
 62
     5
 63
     7
421
 16777215
176
     1
 74
     1
176
     1
 91
        4
176
     1
 64
     7
176
     1
 65
   257
176
     1
 75
     1
176
     1
175
     1
176
     1
 42
1.0
176
     1
 92
        0
176
     1
 66
   257
176
     1
 43
1.0
176
     1
 76
     1
176
     1
 77
     6
176
     1
 78
     2
176
     1
 67
     7
176
     1
 79
     5
176
     1
170
     0
176
     1
171
     0
176
     1
290
     0
176
     1
 93
        1
176
     1
 44
0.0
176
     1
173
     0
176
     1
  0
VISUALSTYLE
  5
31
102
{ACAD_REACTORS
330
2A
102
}
330
2A
100
AcDbVisualStyle
  2
3D Hidden
 70
     6
177
     2
291
     0
 71
     1
176
     1
 72
     2
176
     1
 73
     2
176
     1
 90
        0
176
     1
 40
-0.6
176
     1
 41
-30.0
176
     1
 62
     5
 63
     7
421
 16777215
176
     1
 74
     2
176
     1
 91
        2
176
     1
 64
     7
176
     1
 65
   257
176
     1
 75
     2
176
     1
175
     1
176
     1
 42
40.0
176
     1
 92
        0
176
     1
 66
   257
176
     1
 43
1.0
176
     1
 76
     1
176
     1
 77
     6
176
     1
 78
     2
176
     1
 67
     7
176
     1
 79
     3
176
     1
170
     0
176
     1
171
     0
176
     1
290
     0
176
     1
 93
        1
176
     1
 44
0.0
176
     1
173
     0
176
     1
  0
VISUALSTYLE
  5
30
102
{ACAD_REACTORS
330
2A
102
}
330
2A
100
AcDbVisualStyle
  2
3dWireframe
 70
     5
177
     2
291
     0
 71
     0
176
     1
 72
     2
176
     1
 73
     0
176
     1
 90
        0
176
     1
 40
-0.6
176
     1
 41
-30.0
176
     1
 62
     5
 63
     7
421
 16777215
176
     1
 74
     1
176
     1
 91
        4
176
     1
 64
     7
176
     1
 65
   257
176
     1
 75
     1
176
     1
175
     1
176
     1
 42
1.0
176
     1
 92
        0
176
     1
 66
   257
176
     1
 43
1.0
176
     1
 76
     1
176
     1
 77
     6
176
     1
 78
     2
176
     1
 67
     7
176
     1
 79
     5
176
     1
170
     0
176
     1
171
     0
176
     1
290
     0
176
     1
 93
        1
176
     1
 44
0.0
176
     1
173
     0
176
     1
  0
VISUALSTYLE
  5
32
102
{ACAD_REACTORS
330
2A
102
}
330
2A
100
AcDbVisualStyle
  2
Basic
 70
     7
177
     2
291
     1
 71
     1
176
     1
 72
     0
176
     1
 73
     1
176
     1
 90
        0
176
     1
 40
-0.6
176
     1
 41
-30.0
176
     1
 62
     5
 63
     7
421
 16777215
176
     1
 74
     0
176
     1
 91
        4
176
     1
 64
     7
176
     1
 65
   257
176
     1
 75
     1
176
     1
175
     1
176
     1
 42
1.0
176
     1
 92
        8
176
     1
 66
     7
176
     1
 43
1.0
176
     1
 76
     1
176
     1
 77
     6
176
     1
 78
     2
176
     1
 67
     7
176
     1
 79
     5
176
     1
170
     0
176
     1
171
     0
176
     1
290
     0
176
     1
 93
        1
176
     1
 44
0.0
176
     1
173
     0
176
     1
  0
VISUALSTYLE
  5
36
102
{ACAD_REACTORS
330
2A
102
}
330
2A
100
AcDbVisualStyle
  2
Brighten
 70
    12
177
     2
291
     1
 71
     2
176
     1
 72
     2
176
     1
 73
     0
176
     1
 90
        0
176
     1
 40
-0.6
176
     1
 41
-30.0
176
     1
 62
     5
 63
     7
421
 16777215
176
     1
 74
     1
176
     1
 91
        4
176
     1
 64
     7
176
     1
 65
   257
176
     1
 75
     1
176
     1
175
     1
176
     1
 42
1.0
176
     1
 92
        8
176
     1
 66
     7
176
     1
 43
1.0
176
     1
 76
     1
176
     1
 77
     6
176
     1
 78
     2
176
     1
 67
     7
176
     1
 79
     5
176
     1
170
     0
176
     1
171
     0
176
     1
290
     0
176
     1
 93
        1
176
     1
 44
50.0
176
     1
173
     0
176
     1
  0
VISUALSTYLE
  5
3A
102
{ACAD_REACTORS
330
2A
102
}
330
2A
100
AcDbVisualStyle
  2
ColorChange
 70
    16
177
     2
291
     1
 71
     2
176
     1
 72
     2
176
     1
 73
     3
176
     1
 90
        0
176
     1
 40
-0.6
176
     1
 41
-30.0
176
     1
 62
     5
 63
     8
421
  8421504
176
     1
 74
     1
176
     1
 91
        4
176
     1
 64
     7
176
     1
 65
   257
176
     1
 75
     1
176
     1
175
     1
176
     1
 42
1.0
176
     1
 92
        8
176
     1
 66
     8
424
  8421504
176
     1
 43
1.0
176
     1
 76
     1
176
     1
 77
     6
176
     1
 78
     2
176
     1
 67
     7
176
     1
 79
     5
176
     1
170
     0
176
     1
171
     0
176
     1
290
     0
176
     1
 93
        1
176
     1
 44
0.0
176
     1
173
     0
176
     1
  0
VISUALSTYLE
  5
34
102
{ACAD_REACTORS
330
2A
102
}
330
2A
100
AcDbVisualStyle
  2
Conceptual
 70
     9
177
     2
291
     0
 71
     3
176
     1
 72
     2
176
     1
 73
     0
176
     1
 90
        0
176
     1
 40
-0.6
176
     1
 41
-30.0
176
     1
 62
     5
 63
     7
421
 16777215
176
     1
 74
     2
176
     1
 91
        2
176
     1
 64
     7
176
     1
 65
   257
176
     1
 75
     1
176
     1
175
     1
176
     1
 42
40.0
176
     1
 92
        8
176
     1
 66
     7
176
     1
 43
1.0
176
     1
 76
     1
176
     1
 77
     6
176
     1
 78
     2
176
     1
 67
     7
176
     1
 79
     3
176
     1
170
     0
176
     1
171
     0
176
     1
290
     0
176
     1
 93
        1
176
     1
 44
0.0
176
     1
173
     0
176
     1
  0
VISUALSTYLE
  5
35
102
{ACAD_REACTORS
330
2A
102
}
330
2A
100
AcDbVisualStyle
  2
Dim
 70
    11
177
     2
291
     1
 71
     2
176
     1
 72
     2
176
     1
 73
     0
176
     1
 90
        0
176
     1
 40
-0.6
176
     1
 41
-30.0
176
     1
 62
     5
 63
     7
421
 16777215
176
     1
 74
     1
176
     1
 91
        4
176
     1
 64
     7
176
     1
 65
   257
176
     1
 75
     1
176
     1
175
     1
176
     1
 42
1.0
176
     1
 92
        8
176
     1
 66
     7
176
     1
 43
1.0
176
     1
 76
     1
176
     1
 77
     6
176
     1
 78
     2
176
     1
 67
     7
176
     1
 79
     5
176
     1
170
     0
176
     1
171
     0
176
     1
290
     0
176
     1
 93
        1
176
     1
 44
-50.0
176
     1
173
     0
176
     1
  0
VISUALSTYLE
  5
39
102
{ACAD_REACTORS
330
2A
102
}
330
2A
100
AcDbVisualStyle
  2
Facepattern
 70
    15
177
     2
291
     1
 71
     2
176
     1
 72
     2
176
     1
 73
     0
176
     1
 90
        0
176
     1
 40
-0.6
176
     1
 41
-30.0
176
     1
 62
     5
 63
     7
421
 16777215
176
     1
 74
     1
176
     1
 91
        4
176
     1
 64
     7
176
     1
 65
   257
176
     1
 75
     1
176
     1
175
     1
176
     1
 42
1.0
176
     1
 92
        8
176
     1
 66
     7
176
     1
 43
1.0
176
     1
 76
     1
176
     1
 77
     6
176
     1
 78
     2
176
     1
 67
     7
176
     1
 79
     5
176
     1
170
     0
176
     1
171
     0
176
     1
290
     0
176
     1
 93
        1
176
     1
 44
0.0
176
     1
173
     0
176
     1
  0
VISUALSTYLE
  5
2B
102
{ACAD_REACTORS
330
2A
102
}
330
2A
100
AcDbVisualStyle
  2
Flat
 70
     0
177
     2
291
     1
 71
     2
176
     1
 72
     1
176
     1
 73
     1
176
     1
 90
        2
176
     1
 40
-0.6
176
     1
 41
30.0
176
     1
 62
     5
 63
     7
421
 16777215
176
     1
 74
     0
176
     1
 91
        4
176
     1
 64
     7
176
     1
 65
   257
176
     1
 75
     1
176
     1
175
     1
176
     1
 42
1.0
176
     1
 92
        8
176
     1
 66
     7
176
     1
 43
1.0
176
     1
 76
     1
176
     1
 77
     6
176
     1
 78
     2
176
     1
 67
     7
176
     1
 79
     5
176
     1
170
     0
176
     1
171
     0
176
     1
290
     0
176
     1
 93
       13
176
     1
 44
0.0
176
     1
173
     0
176
     1
  0
VISUALSTYLE
  5
2C
102
{ACAD_REACTORS
330
2A
102
}
330
2A
100
AcDbVisualStyle
  2
FlatWithEdges
 70
     1
177
     2
291
     1
 71
     2
176
     1
 72
     1
176
     1
 73
     1
176
     1
 90
        2
176
     1
 40
-0.6
176
     1
 41
30.0
176
     1
 62
     5
 63
     7
421
 16777215
176
     1
 74
     1
176
     1
 91
        4
176
     1
 64
     7
176
     1
 65
   257
176
     1
 75
     1
176
     1
175
     1
176
     1
 42
1.0
176
     1
 92
        0
176
     1
 66
   257
176
     1
 43
1.0
176
     1
 76
     1
176
     1
 77
     6
176
     1
 78
     2
176
     1
 67
     7
176
     1
 79
     5
176
     1
170
     0
176
     1
171
     0
176
     1
290
     0
176
     1
 93
       13
176
     1
 44
0.0
176
     1
173
     0
176
     1
  0
VISUALSTYLE
  5
2D
102
{ACAD_REACTORS
330
2A
102
}
330
2A
100
AcDbVisualStyle
  2
Gouraud
 70
     2
177
     2
291
     1
 71
     2
176
     1
 72
     2
176
     1
 73
     1
176
     1
 90
        2
176
     1
 40
-0.6
176
     1
 41
30.0
176
     1
 62
     5
 63
     7
421
 16777215
176
     1
 74
     0
176
     1
 91
        4
176
     1
 64
     7
176
     1
 65
   257
176
     1
 75
     1
176
     1
175
     1
176
     1
 42
1.0
176
     1
 92
        0
176
     1
 66
     7
176
     1
 43
1.0
176
     1
 76
     1
176
     1
 77
     6
176
     1
 78
     2
176
     1
 67
     7
176
     1
 79
     5
176
     1
170
     0
176
     1
171
     0
176
     1
290
     0
176
     1
 93
       13
176
     1
 44
0.0
176
     1
173
     0
176
     1
  0
VISUALSTYLE
  5
2E
102
{ACAD_REACTORS
330
2A
102
}
330
2A
100
AcDbVisualStyle
  2
GouraudWithEdges
 70
     3
177
     2
291
     1
 71
     2
176
     1
 72
     2
176
     1
 73
     1
176
     1
 90
        2
176
     1
 40
-0.6
176
     1
 41
30.0
176
     1
 62
     5
 63
     7
421
 16777215
176
     1
 74
     1
176
     1
 91
        4
176
     1
 64
     7
176
     1
 65
   257
176
     1
 75
     1
176
     1
175
     1
176
     1
 42
1.0
176
     1
 92
        0
176
     1
 66
   257
176
     1
 43
1.0
176
     1
 76
     1
176
     1
 77
     6
176
     1
 78
     2
176
     1
 67
     7
176
     1
 79
     5
176
     1
170
     0
176
     1
171
     0
176
     1
290
     0
176
     1
 93
       13
176
     1
 44
0.0
176
     1
173
     0
176
     1
  0
VISUALSTYLE
  5
38
102
{ACAD_REACTORS
330
2A
102
}
330
2A
100
AcDbVisualStyle
  2
Linepattern
 70
    14
177
     2
291
     1
 71
     2
176
     1
 72
     2
176
     1
 73
     0
176
     1
 90
        0
176
     1
 40
-0.6
176
     1
 41
-30.0
176
     1
 62
     5
 63
     7
421
 16777215
176
     1
 74
     1
176
     1
 91
        4
176
     1
 64
     7
176
     1
 65
   257
176
     1
 75
     7
176
     1
175
     7
176
     1
 42
1.0
176
     1
 92
        8
176
     1
 66
     7
176
     1
 43
1.0
176
     1
 76
     1
176
     1
 77
     6
176
     1
 78
     2
176
     1
 67
     7
176
     1
 79
     5
176
     1
170
     0
176
     1
171
     0
176
     1
290
     0
176
     1
 93
        1
176
     1
 44
0.0
176
     1
173
     0
176
     1
  0
VISUALSTYLE
  5
33
102
{ACAD_REACTORS
330
2A
102
}
330
2A
100
AcDbVisualStyle
  2
Realistic
 70
     8
177
     2
291
     0
 71
     2
176
     1
 72
     2
176
     1
 73
     0
176
     1
 90
        0
176
     1
 40
-0.6
176
     1
 41
-30.0
176
     1
 62
     5
 63
     7
421
 16777215
176
     1
 74
     1
176
     1
 91
        0
176
     1
 64
     7
176
     1
 65
   257
176
     1
 75
     1
176
     1
175
     1
176
     1
 42
1.0
176
     1
 92
        8
176
     1
 66
     8
424
  7895160
176
     1
 43
1.0
176
     1
 76
     1
176
     1
 77
     6
176
     1
 78
     2
176
     1
 67
     7
176
     1
 79
     5
176
     1
170
     0
176
     1
171
     0
176
     1
290
     0
176
     1
 93
       13
176
     1
 44
0.0
176
     1
173
     0
176
     1
  0
VISUALSTYLE
  5
37
102
{ACAD_REACTORS
330
2A
102
}
330
2A
100
AcDbVisualStyle
  2
Thicken
 70
    13
177
     2
291
     1
 71
     2
176
     1
 72
     2
176
     1
 73
     0
176
     1
 90
        0
176
     1
 40
-0.6
176
     1
 41
-30.0
176
     1
 62
     5
 63
     7
421
 16777215
176
     1
 74
     1
176
     1
 91
        4
176
     1
 64
     7
176
     1
 65
   257
176
     1
 75
     1
176
     1
175
     1
176
     1
 42
1.0
176
     1
 92
       12
176
     1
 66
     7
176
     1
 43
1.0
176
     1
 76
     1
176
     1
 77
     6
176
     1
 78
     2
176
     1
 67
     7
176
     1
 79
     5
176
     1
170
     0
176
     1
171
     0
176
     1
290
     0
176
     1
 93
        1
176
     1
 44
0.0
176
     1
173
     0
176
     1
  0
ENDSEC
  0
EOF
