  0
SECTION
  2
HEADER
  9
$ACADVER
  1
AC1024
  9
$ACADMAINTVER
 70
     6
  9
$DWGCODEPAGE
  3
UNDEFINED
  9
$INSBASE
 10
0.0
 20
0.0
 30
0.0
  9
$EXTMIN
 10
1.000000000000000E+20
 20
1.000000000000000E+20
 30
1.000000000000000E+20
  9
$EXTMAX
 10
-1.000000000000000E+20
 20
-1.000000000000000E+20
 30
-1.000000000000000E+20
  9
$LIMMIN
 10
0.0
 20
0.0
  9
$LIMMAX
 10
12.0
 20
9.0
  9
$ORTHOMODE
 70
     0
  9
$REGENMODE
 70
     1
  9
$FILLMODE
 70
     1
  9
$QTEXTMODE
 70
     0
  9
$MIRRTEXT
 70
     1
  9
$LTSCALE
 40
1.0
  9
$ATTMODE
 70
     1
  9
$TEXTSIZE
 40
0.2
  9
$TRACEWID
 40
0.05
  9
$TEXTSTYLE
  7
Standard
  9
$CLAYER
  8
0
  9
$CELTYPE
  6
ByLayer
  9
$CECOLOR
 62
   256
  9
$CELTSCALE
 40
1.0
  9
$DISPSILH
 70
     0
  9
$DIMSCALE
 40
1.0
  9
$DIMASZ
 40
0.18
  9
$DIMEXO
 40
0.0625
  9
$DIMDLI
 40
0.38
  9
$DIMRND
 40
0.0
  9
$DIMDLE
 40
0.0
  9
$DIMEXE
 40
0.18
  9
$DIMTP
 40
0.0
  9
$DIMTM
 40
0.0
  9
$DIMTXT
 40
0.18
  9
$DIMCEN
 40
0.09
  9
$DIMTSZ
 40
0.0
  9
$DIMTOL
 70
     0
  9
$DIMLIM
 70
     0
  9
$DIMTIH
 70
     1
  9
$DIMTOH
 70
     1
  9
$DIMSE1
 70
     0
  9
$DIMSE2
 70
     0
  9
$DIMTAD
 70
     0
  9
$DIMZIN
 70
     0
  9
$DIMBLK
  1

  9
$DIMASO
 70
     1
  9
$DIMSHO
 70
     1
  9
$DIMPOST
  1

  9
$DIMAPOST
  1

  9
$DIMALT
 70
     0
  9
$DIMALTD
 70
     2
  9
$DIMALTF
 40
25.4
  9
$DIMLFAC
 40
1.0
  9
$DIMTOFL
 70
     0
  9
$DIMTVP
 40
0.0
  9
$DIMTIX
 70
     0
  9
$DIMSOXD
 70
     0
  9
$DIMSAH
 70
     0
  9
$DIMBLK1
  1

  9
$DIMBLK2
  1

  9
$DIMSTYLE
  2
Standard
  9
$DIMCLRD
 70
     0
  9
$DIMCLRE
 70
     0
  9
$DIMCLRT
 70
     0
  9
$DIMTFAC
 40
1.0
  9
$DIMGAP
 40
0.09
  9
$DIMJUST
 70
     0
  9
$DIMSD1
 70
     0
  9
$DIMSD2
 70
     0
  9
$DIMTOLJ
 70
     1
  9
$DIMTZIN
 70
     0
  9
$DIMALTZ
 70
     0
  9
$DIMALTTZ
 70
     0
  9
$DIMUPT
 70
     0
  9
$DIMDEC
 70
     4
  9
$DIMTDEC
 70
     4
  9
$DIMALTU
 70
     2
  9
$DIMALTTD
 70
     2
  9
$DIMTXSTY
  7
Standard
  9
$DIMAUNIT
 70
     0
  9
$DIMADEC
 70
     0
  9
$DIMALTRND
 40
0.0
  9
$DIMAZIN
 70
     0
  9
$DIMDSEP
 70
    46
  9
$DIMATFIT
 70
     3
  9
$DIMFRAC
 70
     0
  9
$DIMLDRBLK
  1

  9
$DIMLUNIT
 70
     2
  9
$DIMLWD
 70
    -2
  9
$DIMLWE
 70
    -2
  9
$DIMTMOVE
 70
     0
  9
$DIMFXL
 40
1.0
  9
$DIMFXLON
 70
     0
  9
$DIMJOGANG
 40
0.7853981633974483
  9
$DIMTFILL
 70
     0
  9
$DIMTFILLCLR
 70
     0
  9
$DIMARCSYM
 70
     0
  9
$DIMLTYPE
  6

  9
$DIMLTEX1
  6

  9
$DIMLTEX2
  6

  9
$DIMTXTDIRECTION
 70
     0
  9
$LUNITS
 70
     2
  9
$LUPREC
 70
     4
  9
$SKETCHINC
 40
0.1
  9
$FILLETRAD
 40
0.5
  9
$AUNITS
 70
     0
  9
$AUPREC
 70
     0
  9
$MENU
  1
.
  9
$ELEVATION
 40
0.0
  9
$PELEVATION
 40
0.0
  9
$THICKNESS
 40
0.0
  9
$LIMCHECK
 70
     0
  9
$CHAMFERA
 40
0.5
  9
$CHAMFERB
 40
0.5
  9
$CHAMFERC
 40
1.0
  9
$CHAMFERD
 40
0.0
  9
$SKPOLY
 70
     0
  9
$TDCREATE
 40
2457917.588993056
  9
$TDUCREATE
 40
2457917.213993056
  9
$TDUPDATE
 40
2457917.588993056
  9
$TDUUPDATE
 40
2457917.213993056
  9
$TDINDWG
 40
0.0000000116
  9
$TDUSRTIMER
 40
0.0000000116
  9
$USRTIMER
 70
     1
  9
$ANGBASE
 50
0.0
  9
$ANGDIR
 70
     0
  9
$PDMODE
 70
     0
  9
$PDSIZE
 40
0.0
  9
$PLINEWID
 40
0.0
  9
$SPLFRAME
 70
     0
  9
$SPLINETYPE
 70
     6
  9
$SPLINESEGS
 70
     8
  9
$HANDSEED
  5
10D
  9
$SURFTAB1
 70
     6
  9
$SURFTAB2
 70
     6
  9
$SURFTYPE
 70
     6
  9
$SURFU
 70
     6
  9
$SURFV
 70
     6
  9
$UCSBASE
  2

  9
$UCSNAME
  2

  9
$UCSORG
 10
0.0
 20
0.0
 30
0.0
  9
$UCSXDIR
 10
1.0
 20
0.0
 30
0.0
  9
$UCSYDIR
 10
0.0
 20
1.0
 30
0.0
  9
$UCSORTHOREF
  2

  9
$UCSORTHOVIEW
 70
     0
  9
$UCSORGTOP
 10
0.0
 20
0.0
 30
0.0
  9
$UCSORGBOTTOM
 10
0.0
 20
0.0
 30
0.0
  9
$UCSORGLEFT
 10
0.0
 20
0.0
 30
0.0
  9
$UCSORGRIGHT
 10
0.0
 20
0.0
 30
0.0
  9
$UCSORGFRONT
 10
0.0
 20
0.0
 30
0.0
  9
$UCSORGBACK
 10
0.0
 20
0.0
 30
0.0
  9
$PUCSBASE
  2

  9
$PUCSNAME
  2

  9
$PUCSORG
 10
0.0
 20
0.0
 30
0.0
  9
$PUCSXDIR
 10
1.0
 20
0.0
 30
0.0
  9
$PUCSYDIR
 10
0.0
 20
1.0
 30
0.0
  9
$PUCSORTHOREF
  2

  9
$PUCSORTHOVIEW
 70
     0
  9
$PUCSORGTOP
 10
0.0
 20
0.0
 30
0.0
  9
$PUCSORGBOTTOM
 10
0.0
 20
0.0
 30
0.0
  9
$PUCSORGLEFT
 10
0.0
 20
0.0
 30
0.0
  9
$PUCSORGRIGHT
 10
0.0
 20
0.0
 30
0.0
  9
$PUCSORGFRONT
 10
0.0
 20
0.0
 30
0.0
  9
$PUCSORGBACK
 10
0.0
 20
0.0
 30
0.0
  9
$USERI1
 70
     0
  9
$USERI2
 70
     0
  9
$USERI3
 70
     0
  9
$USERI4
 70
     0
  9
$USERI5
 70
     0
  9
$USERR1
 40
0.0
  9
$USERR2
 40
0.0
  9
$USERR3
 40
0.0
  9
$USERR4
 40
0.0
  9
$USERR5
 40
0.0
  9
$WORLDVIEW
 70
     1
  9
$SHADEDGE
 70
     3
  9
$SHADEDIF
 70
    70
  9
$TILEMODE
 70
     1
  9
$MAXACTVP
 70
    64
  9
$PINSBASE
 10
0.0
 20
0.0
 30
0.0
  9
$PLIMCHECK
 70
     0
  9
$PEXTMIN
 10
1.000000000000000E+20
 20
1.000000000000000E+20
 30
1.000000000000000E+20
  9
$PEXTMAX
 10
-1.000000000000000E+20
 20
-1.000000000000000E+20
 30
-1.000000000000000E+20
  9
$PLIMMIN
 10
0.0
 20
0.0
  9
$PLIMMAX
 10
12.0
 20
9.0
  9
$UNITMODE
 70
     0
  9
$VISRETAIN
 70
     1
  9
$PLINEGEN
 70
     0
  9
$PSLTSCALE
 70
     1
  9
$TREEDEPTH
 70
  3020
  9
$CMLSTYLE
  2
Standard
  9
$CMLJUST
 70
     0
  9
$CMLSCALE
 40
1.0
  9
$PROXYGRAPHICS
 70
     1
  9
$MEASUREMENT
 70
     0
  9
$CELWEIGHT
370
    -1
  9
$ENDCAPS
280
     0
  9
$JOINSTYLE
280
     0
  9
$LWDISPLAY
290
     1
  9
$INSUNITS
 70
     1
  9
$HYPERLINKBASE
  1

  9
$STYLESHEET
  1

  9
$XEDIT
290
     1
  9
$CEPSNTYPE
380
     0
  9
$PSTYLEMODE
290
     1
  9
$FINGERPRINTGUID
  2
{F2353B7A-1481-8B24-86BF-B96F7F41D1E5}
  9
$VERSIONGUID
  2
{FAEB1C32-E019-11D5-929B-00C0DF256EC4}
  9
$EXTNAMES
290
     1
  9
$PSVPSCALE
 40
0.0
  9
$OLESTARTUP
290
     0
  9
$SORTENTS
280
   127
  9
$INDEXCTL
280
     0
  9
$HIDETEXT
280
     1
  9
$XCLIPFRAME
280
     2
  9
$HALOGAP
280
     0
  9
$OBSCOLOR
 70
   257
  9
$OBSLTYPE
280
     0
  9
$INTERSECTIONDISPLAY
280
     0
  9
$INTERSECTIONCOLOR
 70
   257
  9
$DIMASSOC
280
     2
  9
$PROJECTNAME
  1

  9
$CAMERADISPLAY
290
     0
  9
$LENSLENGTH
 40
50.0
  9
$CAMERAHEIGHT
 40
0.0
  9
$STEPSPERSEC
 40
2.0
  9
$STEPSIZE
 40
6.0
  9
$3DDWFPREC
 40
2.0
  9
$PSOLWIDTH
 40
0.25
  9
$PSOLHEIGHT
 40
4.0
  9
$LOFTANG1
 40
1.570796326794897
  9
$LOFTANG2
 40
1.570796326794897
  9
$LOFTMAG1
 40
0.0
  9
$LOFTMAG2
 40
0.0
  9
$LOFTPARAM
 70
     7
  9
$LOFTNORMALS
280
     1
  9
$LATITUDE
 40
37.795
  9
$LONGITUDE
 40
-122.394
  9
$NORTHDIRECTION
 40
0.0
  9
$TIMEZONE
 70
 -8000
  9
$LIGHTGLYPHDISPLAY
280
     1
  9
$TILEMODELIGHTSYNCH
280
     1
  9
$CMATERIAL
347
3C
  9
$SOLIDHIST
280
     1
  9
$SHOWHIST
280
     1
  9
$DWFFRAME
280
     2
  9
$DGNFRAME
280
     2
  9
$REALWORLDSCALE
290
     1
  9
$INTERFERECOLOR
 62
   256
  9
$CSHADOW
280
     0
  9
$SHADOWPLANELOCATION
 40
0.0
  0
ENDSEC
  0
SECTION
  2
CLASSES
  0
CLASS
  1
ACDBDICTIONARYWDFLT
  2
AcDbDictionaryWithDefault
  3
ObjectDBX Classes
 90
        0
 91
        4
280
     0
281
     0
  0
CLASS
  1
VISUALSTYLE
  2
AcDbVisualStyle
  3
ObjectDBX Classes
 90
     4095
 91
        4
280
     0
281
     0
  0
CLASS
  1
MATERIAL
  2
AcDbMaterial
  3
ObjectDBX Classes
 90
     1153
 91
        4
280
     0
281
     0
  0
CLASS
  1
SUN
  2
AcDbSun
  3
SCENEOE
 90
     1024
 91
        4
280
     0
281
     0
  0
ENDSEC
  0
SECTION
  2
TABLES
  0
TABLE
  2
VPORT
  5
8
330
0
100
AcDbSymbolTable
 70
     1
  0
VPORT
  5
29
330
8
100
AcDbSymbolTableRecord
100
AcDbViewportTableRecord
  2
*Active
 70
     0
 10
0.0
 20
0.0
 11
1.0
 21
1.0
 12
0.0
 22
0.0
 13
0.0
 23
0.0
 14
0.5
 24
0.5
 15
0.5
 25
0.5
 16
0.0
 26
0.0
 36
1.0
 17
63.499999984125
 27
-89.00059456108309
 37
0.0
 40
178.0011891221662
 41
0.7134783795241226
 42
50.0
 43
0.0
 44
0.0
 50
0.0
 51
0.0
 71
     0
 72
   100
 73
     1
 74
     3
 75
     0
 76
     0
 77
     0
 78
     0
281
     0
 65
     1
110
0.0
120
0.0
130
0.0
111
1.0
121
0.0
131
0.0
112
0.0
122
1.0
132
0.0
 79
     0
146
0.0
 60
     3
 61
     5
292
     1
282
     1
141
0.0
142
0.0
 63
   250
361
3F
  0
ENDTAB
  0
TABLE
  2
LTYPE
  5
5
330
0
100
AcDbSymbolTable
 70
     1
  0
LTYPE
  5
14
330
5
100
AcDbSymbolTableRecord
100
AcDbLinetypeTableRecord
  2
ByBlock
 70
     0
  3

 72
    65
 73
     0
 40
0.0
  0
LTYPE
  5
15
330
5
100
AcDbSymbolTableRecord
100
AcDbLinetypeTableRecord
  2
ByLayer
 70
     0
  3

 72
    65
 73
     0
 40
0.0
  0
LTYPE
  5
16
330
5
100
AcDbSymbolTableRecord
100
AcDbLinetypeTableRecord
  2
Continuous
 70
     0
  3
Solid line
 72
    65
 73
     0
 40
0.0
  0
ENDTAB
  0
TABLE
  2
LAYER
  5
2
330
0
100
AcDbSymbolTable
 70
     2
  0
LAYER
  5
10
330
2
100
AcDbSymbolTableRecord
100
AcDbLayerTableRecord
  2
0
 70
     0
 62
     7
  6
Continuous
370
    -3
390
F
347
3E
  0
LAYER
  5
40
330
2
100
AcDbSymbolTableRecord
100
AcDbLayerTableRecord
  2
_U+30EC_U+30A4_U+30E4_U+30FC 1
 70
     0
 62
     7
  6
Continuous
370
    -3
390
F
347
3E
  0
ENDTAB
  0
TABLE
  2
STYLE
  5
3
330
0
100
AcDbSymbolTable
 70
     1
  0
STYLE
  5
11
330
3
100
AcDbSymbolTableRecord
100
AcDbTextStyleTableRecord
  2
Standard
 70
     0
 40
0.0
 41
1.0
 50
0.0
 71
     0
 42
0.2
  3
txt
  4

  0
ENDTAB
  0
TABLE
  2
VIEW
  5
6
330
0
100
AcDbSymbolTable
 70
     0
  0
ENDTAB
  0
TABLE
  2
UCS
  5
7
330
0
100
AcDbSymbolTable
 70
     0
  0
ENDTAB
  0
TABLE
  2
APPID
  5
9
330
0
100
AcDbSymbolTable
 70
     1
  0
APPID
  5
12
330
9
100
AcDbSymbolTableRecord
100
AcDbRegAppTableRecord
  2
ACAD
 70
     0
  0
ENDTAB
  0
TABLE
  2
DIMSTYLE
  5
A
330
0
100
AcDbSymbolTable
 70
     1
100
AcDbDimStyleTable
  0
DIMSTYLE
105
27
330
A
100
AcDbSymbolTableRecord
100
AcDbDimStyleTableRecord
  2
Standard
 70
     0
178
     0
340
11
  0
ENDTAB
  0
TABLE
  2
BLOCK_RECORD
  5
1
330
0
100
AcDbSymbolTable
 70
    12
  0
BLOCK_RECORD
  5
1F
330
1
100
AcDbSymbolTableRecord
100
AcDbBlockTableRecord
  2
*Model_Space
340
22
 70
     0
280
     1
281
     0
  0
BLOCK_RECORD
  5
1B
330
1
100
AcDbSymbolTableRecord
100
AcDbBlockTableRecord
  2
*Paper_Space
340
1E
 70
     0
280
     1
281
     0
  0
BLOCK_RECORD
  5
23
330
1
100
AcDbSymbolTableRecord
100
AcDbBlockTableRecord
  2
*Paper_Space0
340
26
 70
     0
280
     1
281
     0
  0
BLOCK_RECORD
  5
4A
330
1
100
AcDbSymbolTableRecord
100
AcDbBlockTableRecord
  2
block 2
340
0
102
{BLKREFS
331
4B
102
}
 70
     0
280
     1
281
     0
  0
BLOCK_RECORD
  5
5E
330
1
100
AcDbSymbolTableRecord
100
AcDbBlockTableRecord
  2
block 3
340
0
102
{BLKREFS
331
5F
102
}
 70
     0
280
     1
281
     0
  0
BLOCK_RECORD
  5
71
330
1
100
AcDbSymbolTableRecord
100
AcDbBlockTableRecord
  2
block 4
340
0
102
{BLKREFS
331
72
102
}
 70
     0
280
     1
281
     0
  0
BLOCK_RECORD
  5
81
330
1
100
AcDbSymbolTableRecord
100
AcDbBlockTableRecord
  2
block 5
340
0
102
{BLKREFS
331
82
102
}
 70
     0
280
     1
281
     0
  0
BLOCK_RECORD
  5
87
330
1
100
AcDbSymbolTableRecord
100
AcDbBlockTableRecord
  2
block 6
340
0
102
{BLKREFS
331
88
102
}
 70
     0
280
     1
281
     0
  0
BLOCK_RECORD
  5
97
330
1
100
AcDbSymbolTableRecord
100
AcDbBlockTableRecord
  2
block 7
340
0
102
{BLKREFS
331
98
102
}
 70
     0
280
     1
281
     0
  0
BLOCK_RECORD
  5
A9
330
1
100
AcDbSymbolTableRecord
100
AcDbBlockTableRecord
  2
block 8
340
0
102
{BLKREFS
331
AA
102
}
 70
     0
280
     1
281
     0
  0
BLOCK_RECORD
  5
B9
330
1
100
AcDbSymbolTableRecord
100
AcDbBlockTableRecord
  2
block 9
340
0
102
{BLKREFS
331
BA
102
}
 70
     0
280
     1
281
     0
  0
BLOCK_RECORD
  5
BF
330
1
100
AcDbSymbolTableRecord
100
AcDbBlockTableRecord
  2
block 10
340
0
102
{BLKREFS
331
C0
102
}
 70
     0
280
     1
281
     0
  0
BLOCK_RECORD
  5
CF
330
1
100
AcDbSymbolTableRecord
100
AcDbBlockTableRecord
  2
block 11
340
0
102
{BLKREFS
331
D0
102
}
 70
     0
280
     1
281
     0
  0
BLOCK_RECORD
  5
D7
330
1
100
AcDbSymbolTableRecord
100
AcDbBlockTableRecord
  2
block 12
340
0
102
{BLKREFS
331
D8
102
}
 70
     0
280
     1
281
     0
  0
ENDTAB
  0
ENDSEC
  0
SECTION
  2
BLOCKS
  0
BLOCK
  5
20
330
1F
100
AcDbEntity
  8
0
100
AcDbBlockBegin
  2
*Model_Space
 70
     0
 10
0.0
 20
0.0
 30
0.0
  3
*Model_Space
  1

  0
ENDBLK
  5
21
330
1F
100
AcDbEntity
  8
0
100
AcDbBlockEnd
  0
BLOCK
  5
1C
330
1B
100
AcDbEntity
 67
     1
  8
0
100
AcDbBlockBegin
  2
*Paper_Space
 70
     0
 10
0.0
 20
0.0
 30
0.0
  3
*Paper_Space
  1

  0
ENDBLK
  5
1D
330
1B
100
AcDbEntity
 67
     1
  8
0
100
AcDbBlockEnd
  0
BLOCK
  5
24
330
23
100
AcDbEntity
  8
0
100
AcDbBlockBegin
  2
*Paper_Space0
 70
     0
 10
0.0
 20
0.0
 30
0.0
  3
*Paper_Space0
  1

  0
ENDBLK
  5
25
330
23
100
AcDbEntity
  8
0
100
AcDbBlockEnd
  0
BLOCK
  5
4C
330
4A
100
AcDbEntity
  8
0
100
AcDbBlockBegin
  2
block 2
 70
     0
 10
0.0
 20
0.0
 30
0.0
  3
block 2
  1

  0
POLYLINE
  5
4E
330
4A
100
AcDbEntity
  8
_U+30EC_U+30A4_U+30E4_U+30FC 1
 62
   179
420
  2234388
370
     9
100
AcDb2dPolyline
 66
     1
 10
0.0
 20
0.0
 30
0.0
  0
VERTEX
  5
4F
330
4E
100
AcDbEntity
  8
_U+30EC_U+30A4_U+30E4_U+30FC 1
 62
   179
420
  2234388
370
     9
100
AcDbVertex
100
AcDb2dVertex
 10
74.88501892285734
 20
-81.95003081284571
 30
0.0
  0
VERTEX
  5
50
330
4E
100
AcDbEntity
  8
_U+30EC_U+30A4_U+30E4_U+30FC 1
 62
   179
420
  2234388
370
     9
100
AcDbVertex
100
AcDb2dVertex
 10
74.88501892285734
 20
-80.95025859087349
 30
0.0
  0
SEQEND
  5
51
330
4E
100
AcDbEntity
  8
_U+30EC_U+30A4_U+30E4_U+30FC 1
 62
   179
420
  2234388
370
     9
  0
POLYLINE
  5
52
330
4A
100
AcDbEntity
  8
_U+30EC_U+30A4_U+30E4_U+30FC 1
 62
   179
420
  2234388
370
     9
100
AcDb2dPolyline
 66
     1
 10
0.0
 20
0.0
 30
0.0
  0
VERTEX
  5
53
330
52
100
AcDbEntity
  8
_U+30EC_U+30A4_U+30E4_U+30FC 1
 62
   179
420
  2234388
370
     9
100
AcDbVertex
100
AcDb2dVertex
 10
74.88501892285734
 20
-81.95003081284571
 30
0.0
  0
VERTEX
  5
54
330
52
100
AcDbEntity
  8
_U+30EC_U+30A4_U+30E4_U+30FC 1
 62
   179
420
  2234388
370
     9
100
AcDbVertex
100
AcDb2dVertex
 10
74.88501892285734
 20
-82.94980303481826
 30
0.0
  0
SEQEND
  5
55
330
52
100
AcDbEntity
  8
_U+30EC_U+30A4_U+30E4_U+30FC 1
 62
   179
420
  2234388
370
     9
  0
POLYLINE
  5
56
330
4A
100
AcDbEntity
  8
_U+30EC_U+30A4_U+30E4_U+30FC 1
 62
   179
420
  2234388
370
     9
100
AcDb2dPolyline
 66
     1
 10
0.0
 20
0.0
 30
0.0
  0
VERTEX
  5
57
330
56
100
AcDbEntity
  8
_U+30EC_U+30A4_U+30E4_U+30FC 1
 62
   179
420
  2234388
370
     9
100
AcDbVertex
100
AcDb2dVertex
 10
73.42533034898598
 20
-82.21461414611291
 30
0.0
  0
VERTEX
  5
58
330
56
100
AcDbEntity
  8
_U+30EC_U+30A4_U+30E4_U+30FC 1
 62
   179
420
  2234388
370
     9
100
AcDbVertex
100
AcDb2dVertex
 10
75.88475584179636
 20
-82.21461414611291
 30
0.0
  0
SEQEND
  5
59
330
56
100
AcDbEntity
  8
_U+30EC_U+30A4_U+30E4_U+30FC 1
 62
   179
420
  2234388
370
     9
  0
POLYLINE
  5
5A
330
4A
100
AcDbEntity
  8
_U+30EC_U+30A4_U+30E4_U+30FC 1
 62
   179
420
  2234388
370
     9
100
AcDb2dPolyline
 66
     1
 10
0.0
 20
0.0
 30
0.0
  0
VERTEX
  5
5B
330
5A
100
AcDbEntity
  8
_U+30EC_U+30A4_U+30E4_U+30FC 1
 62
   179
420
  2234388
370
     9
100
AcDbVertex
100
AcDb2dVertex
 10
73.42533034898598
 20
-82.94980303481826
 30
0.0
  0
VERTEX
  5
5C
330
5A
100
AcDbEntity
  8
_U+30EC_U+30A4_U+30E4_U+30FC 1
 62
   179
420
  2234388
370
     9
100
AcDbVertex
100
AcDb2dVertex
 10
75.88475584179636
 20
-82.94980303481826
 30
0.0
  0
SEQEND
  5
5D
330
5A
100
AcDbEntity
  8
_U+30EC_U+30A4_U+30E4_U+30FC 1
 62
   179
420
  2234388
370
     9
  0
INSERT
  5
5F
330
4A
100
AcDbEntity
  8
_U+30EC_U+30A4_U+30E4_U+30FC 1
100
AcDbBlockReference
  2
block 3
 10
0.0
 20
0.0
 30
0.0
  0
ENDBLK
  5
4D
330
4A
100
AcDbEntity
  8
0
100
AcDbBlockEnd
  0
BLOCK
  5
60
330
5E
100
AcDbEntity
  8
0
100
AcDbBlockBegin
  2
block 3
 70
     0
 10
0.0
 20
0.0
 30
0.0
  3
block 3
  1

  0
SPLINE
  5
62
330
5E
100
AcDbEntity
  8
_U+30EC_U+30A4_U+30E4_U+30FC 1
370
     0
100
AcDbSpline
210
0.0
220
0.0
230
1.0
 70
    11
 71
     3
 72
    29
 73
    25
 74
     0
 42
0.0000000001
 43
0.0000000001
 12
1.0
 22
0.0
 32
0.0
 13
1.0
 23
0.0
 33
0.0
 40
0.0
 40
0.0
 40
0.0
 40
0.0
 40
1.0
 40
1.0
 40
1.0
 40
2.0
 40
2.0
 40
2.0
 40
3.0
 40
3.0
 40
3.0
 40
4.0
 40
4.0
 40
4.0
 40
5.0
 40
5.0
 40
5.0
 40
6.0
 40
6.0
 40
6.0
 40
7.0
 40
7.0
 40
7.0
 40
8.0
 40
8.0
 40
8.0
 40
8.0
 10
77.59250757608798
 20
-82.80665959301362
 30
0.0
 10
77.80196938159118
 20
-82.91070147666817
 30
0.0
 10
77.82091740676005
 20
-83.0781331172513
 30
0.0
 10
77.82091740676005
 20
-83.19044323007044
 30
0.0
 10
77.82091740676005
 20
-83.34547252690669
 30
0.0
 10
77.77440861770918
 20
-83.4822428176711
 30
0.0
 10
77.59250757608798
 20
-83.57388235757875
 30
0.0
 10
77.39785968117137
 20
-83.673790126651
 30
0.0
 10
77.16083711178618
 20
-83.69239364227136
 30
0.0
 10
76.99822860488239
 20
-83.69239364227136
 30
0.0
 10
76.85422361359895
 20
-83.69239364227136
 30
0.0
 10
76.60238713362719
 20
-83.67585718394216
 30
0.0
 10
76.40360512412826
 20
-83.57388235757875
 30
0.0
 10
76.20068900004705
 20
-83.46984047392421
 30
0.0
 10
76.17726235074736
 20
-83.31481117708796
 30
0.0
 10
76.17726235074736
 20
-83.19044323007044
 30
0.0
 10
76.17726235074736
 20
-83.03748099052535
 30
0.0
 10
76.22170408250707
 20
-82.89864364246979
 30
0.0
 10
76.40360512412826
 20
-82.80665959301362
 30
0.0
 10
76.59618596175373
 20
-82.71088593852367
 30
0.0
 10
76.8245957924258
 20
-82.68849281786954
 30
0.0
 10
76.99822860488239
 20
-82.68849281786954
 30
0.0
 10
77.1694498504993
 20
-82.68849281786954
 30
0.0
 10
77.39992673846253
 20
-82.70881888123252
 30
0.0
 10
77.59250757608798
 20
-82.80665959301362
 30
0.0
  0
SPLINE
  5
63
330
5E
100
AcDbEntity
  8
_U+30EC_U+30A4_U+30E4_U+30FC 1
370
     0
100
AcDbSpline
210
0.0
220
0.0
230
1.0
 70
    11
 71
     3
 72
    17
 73
    13
 74
     0
 42
0.0000000001
 43
0.0000000001
 12
1.0
 22
0.0
 32
0.0
 13
1.0
 23
0.0
 33
0.0
 40
0.0
 40
0.0
 40
0.0
 40
0.0
 40
1.0
 40
1.0
 40
1.0
 40
2.0
 40
2.0
 40
2.0
 40
3.0
 40
3.0
 40
3.0
 40
4.0
 40
4.0
 40
4.0
 40
4.0
 10
76.36984318837283
 20
-83.19044323007044
 30
0.0
 10
76.36984318837283
 20
-83.4312554044894
 30
0.0
 10
76.65337454680888
 20
-83.47604164579766
 30
0.0
 10
76.99822860488239
 20
-83.47604164579766
 30
0.0
 10
77.31758895636506
 20
-83.47604164579766
 30
0.0
 10
77.62626951184343
 20
-83.44124618139664
 30
0.0
 10
77.62626951184343
 20
-83.19044323007044
 30
0.0
 10
77.62626951184343
 20
-82.95169811294264
 30
0.0
 10
77.34514972024705
 20
-82.90484481434324
 30
0.0
 10
76.99822860488239
 20
-82.90484481434324
 30
0.0
 10
76.6785237438512
 20
-82.90484481434324
 30
0.0
 10
76.36984318837283
 20
-82.94136282648688
 30
0.0
 10
76.36984318837283
 20
-83.19044323007044
 30
0.0
  0
HATCH
  5
64
330
5E
100
AcDbEntity
  8
_U+30EC_U+30A4_U+30E4_U+30FC 1
 62
   179
420
  2234388
100
AcDbHatch
 10
0.0
 20
0.0
 30
0.0
210
0.0
220
0.0
230
1.0
  2
SOLID
 70
     1
 71
     0
 91
        2
 92
        1
 93
        1
 72
     4
 94
        3
 73
     0
 74
     1
 95
       29
 96
       25
 40
0.0
 40
0.0
 40
0.0
 40
0.0
 40
1.0
 40
1.0
 40
1.0
 40
2.0
 40
2.0
 40
2.0
 40
3.0
 40
3.0
 40
3.0
 40
4.0
 40
4.0
 40
4.0
 40
5.0
 40
5.0
 40
5.0
 40
6.0
 40
6.0
 40
6.0
 40
7.0
 40
7.0
 40
7.0
 40
8.0
 40
8.0
 40
8.0
 40
8.0
 10
77.59250757608798
 20
-82.80665959301362
 10
77.80196938159118
 20
-82.91070147666817
 10
77.82091740676005
 20
-83.0781331172513
 10
77.82091740676005
 20
-83.19044323007044
 10
77.82091740676005
 20
-83.34547252690669
 10
77.77440861770918
 20
-83.4822428176711
 10
77.59250757608798
 20
-83.57388235757875
 10
77.39785968117137
 20
-83.673790126651
 10
77.16083711178618
 20
-83.69239364227136
 10
76.99822860488239
 20
-83.69239364227136
 10
76.85422361359895
 20
-83.69239364227136
 10
76.60238713362719
 20
-83.67585718394216
 10
76.40360512412826
 20
-83.57388235757875
 10
76.20068900004705
 20
-83.46984047392421
 10
76.17726235074736
 20
-83.31481117708796
 10
76.17726235074736
 20
-83.19044323007044
 10
76.17726235074736
 20
-83.03748099052535
 10
76.22170408250707
 20
-82.89864364246979
 10
76.40360512412826
 20
-82.80665959301362
 10
76.59618596175373
 20
-82.71088593852367
 10
76.8245957924258
 20
-82.68849281786954
 10
76.99822860488239
 20
-82.68849281786954
 10
77.1694498504993
 20
-82.68849281786954
 10
77.39992673846253
 20
-82.70881888123252
 10
77.59250757608798
 20
-82.80665959301362
 97
        0
 97
        0
 92
        1
 93
        1
 72
     4
 94
        3
 73
     0
 74
     1
 95
       17
 96
       13
 40
0.0
 40
0.0
 40
0.0
 40
0.0
 40
1.0
 40
1.0
 40
1.0
 40
2.0
 40
2.0
 40
2.0
 40
3.0
 40
3.0
 40
3.0
 40
4.0
 40
4.0
 40
4.0
 40
4.0
 10
76.36984318837283
 20
-83.19044323007044
 10
76.36984318837283
 20
-83.4312554044894
 10
76.65337454680888
 20
-83.47604164579766
 10
76.99822860488239
 20
-83.47604164579766
 10
77.31758895636506
 20
-83.47604164579766
 10
77.62626951184343
 20
-83.44124618139664
 10
77.62626951184343
 20
-83.19044323007044
 10
77.62626951184343
 20
-82.95169811294264
 10
77.34514972024705
 20
-82.90484481434324
 10
76.99822860488239
 20
-82.90484481434324
 10
76.6785237438512
 20
-82.90484481434324
 10
76.36984318837283
 20
-82.94136282648688
 10
76.36984318837283
 20
-83.19044323007044
 97
        0
 97
        0
 75
     2
 76
     1
 98
        0
  0
POLYLINE
  5
65
330
5E
100
AcDbEntity
  8
_U+30EC_U+30A4_U+30E4_U+30FC 1
370
     0
100
AcDb2dPolyline
 66
     1
 10
0.0
 20
0.0
 30
0.0
  0
VERTEX
  5
66
330
65
100
AcDbEntity
  8
_U+30EC_U+30A4_U+30E4_U+30FC 1
370
     0
100
AcDbVertex
100
AcDb2dVertex
 10
77.77027450312688
 20
-82.4810980696575
 30
0.0
  0
VERTEX
  5
67
330
65
100
AcDbEntity
  8
_U+30EC_U+30A4_U+30E4_U+30FC 1
370
     0
100
AcDbVertex
100
AcDb2dVertex
 10
77.51843802315511
 20
-82.4810980696575
 30
0.0
  0
VERTEX
  5
68
330
65
100
AcDbEntity
  8
_U+30EC_U+30A4_U+30E4_U+30FC 1
370
     0
100
AcDbVertex
100
AcDb2dVertex
 10
77.51843802315511
 20
-82.23856334749591
 30
0.0
  0
VERTEX
  5
69
330
65
100
AcDbEntity
  8
_U+30EC_U+30A4_U+30E4_U+30FC 1
370
     0
100
AcDbVertex
100
AcDb2dVertex
 10
77.77027450312688
 20
-82.23856334749591
 30
0.0
  0
VERTEX
  5
6A
330
65
100
AcDbEntity
  8
_U+30EC_U+30A4_U+30E4_U+30FC 1
370
     0
100
AcDbVertex
100
AcDb2dVertex
 10
77.77027450312688
 20
-82.4810980696575
 30
0.0
  0
SEQEND
  5
6B
330
65
100
AcDbEntity
  8
_U+30EC_U+30A4_U+30E4_U+30FC 1
370
     0
  0
HATCH
  5
6C
330
5E
100
AcDbEntity
  8
_U+30EC_U+30A4_U+30E4_U+30FC 1
 62
   179
420
  2234388
100
AcDbHatch
 10
0.0
 20
0.0
 30
0.0
210
0.0
220
0.0
230
1.0
  2
SOLID
 70
     1
 71
     0
 91
        1
 92
        1
 93
        4
 72
     1
 10
77.77027450312688
 20
-82.4810980696575
 11
77.51843802315511
 21
-82.4810980696575
 72
     1
 10
77.51843802315511
 20
-82.4810980696575
 11
77.51843802315511
 21
-82.23856334749591
 72
     1
 10
77.51843802315511
 20
-82.23856334749591
 11
77.77027450312688
 21
-82.23856334749591
 72
     1
 10
77.77027450312688
 20
-82.23856334749591
 11
77.77027450312688
 21
-82.4810980696575
 97
        0
 75
     2
 76
     1
 98
        0
  0
SPLINE
  5
6D
330
5E
100
AcDbEntity
  8
_U+30EC_U+30A4_U+30E4_U+30FC 1
370
     0
100
AcDbSpline
210
0.0
220
0.0
230
1.0
 70
    11
 71
     3
 72
    29
 73
    25
 74
     0
 42
0.0000000001
 43
0.0000000001
 12
1.0
 22
0.0
 32
0.0
 13
1.0
 23
0.0
 33
0.0
 40
0.0
 40
0.0
 40
0.0
 40
0.0
 40
1.0
 40
1.0
 40
1.0
 40
2.0
 40
2.0
 40
2.0
 40
3.0
 40
3.0
 40
3.0
 40
4.0
 40
4.0
 40
4.0
 40
5.0
 40
5.0
 40
5.0
 40
6.0
 40
6.0
 40
6.0
 40
7.0
 40
7.0
 40
7.0
 40
8.0
 40
8.0
 40
8.0
 40
8.0
 10
77.82091740676005
 20
-81.52887367753445
 30
0.0
 10
77.82091740676005
 20
-81.78587780073408
 30
0.0
 10
77.68345809689859
 20
-82.03047958018684
 30
0.0
 10
77.33446992424277
 20
-82.03047958018684
 30
0.0
 10
77.07849932968871
 20
-82.03047958018684
 30
0.0
 10
76.98341469429582
 20
-81.89405379897093
 30
0.0
 10
76.92209199465837
 20
-81.79207897260754
 30
0.0
 10
76.86283635231207
 20
-81.91231280504276
 30
0.0
 10
76.74845918220177
 20
-81.98569333887858
 30
0.0
 10
76.58757322304061
 20
-81.98569333887858
 30
0.0
 10
76.31265460331767
 20
-81.98569333887858
 30
0.0
 10
76.17726235074736
 20
-81.79414602989868
 30
0.0
 10
76.17726235074736
 20
-81.52887367753445
 30
0.0
 10
76.17726235074736
 20
-81.25533309600561
 30
0.0
 10
76.3212673420308
 20
-81.0717095066418
 30
0.0
 10
76.58757322304061
 20
-81.0717095066418
 30
0.0
 10
76.74845918220177
 20
-81.0717095066418
 30
0.0
 10
76.86283635231207
 20
-81.14715709776877
 30
0.0
 10
76.92209199465837
 20
-81.26773543975251
 30
0.0
 10
76.97273489829155
 20
-81.1819525621698
 30
0.0
 10
77.06781953368444
 20
-81.0289903226247
 30
0.0
 10
77.33033580966047
 20
-81.0289903226247
 30
0.0
 10
77.70481768890713
 20
-81.0289903226247
 30
0.0
 10
77.82091740676005
 20
-81.29839678957124
 30
0.0
 10
77.82091740676005
 20
-81.52887367753445
 30
0.0
  0
SPLINE
  5
6E
330
5E
100
AcDbEntity
  8
_U+30EC_U+30A4_U+30E4_U+30FC 1
370
     0
100
AcDbSpline
210
0.0
220
0.0
230
1.0
 70
    11
 71
     3
 72
    17
 73
    13
 74
     0
 42
0.0000000001
 43
0.0000000001
 12
1.0
 22
0.0
 32
0.0
 13
1.0
 23
0.0
 33
0.0
 40
0.0
 40
0.0
 40
0.0
 40
0.0
 40
1.0
 40
1.0
 40
1.0
 40
2.0
 40
2.0
 40
2.0
 40
3.0
 40
3.0
 40
3.0
 40
4.0
 40
4.0
 40
4.0
 40
4.0
 10
76.36984318837283
 20
-81.52887367753445
 30
0.0
 10
76.36984318837283
 20
-81.688037088953
 30
0.0
 10
76.46492782376572
 20
-81.76934134240489
 30
0.0
 10
76.60032007633603
 20
-81.76934134240489
 30
0.0
 10
76.72296547561093
 20
-81.76934134240489
 30
0.0
 10
76.84147676030352
 20
-81.70009492315137
 30
0.0
 10
76.84147676030352
 20
-81.52887367753445
 30
0.0
 10
76.84147676030352
 20
-81.357307922369
 30
0.0
 10
76.72296547561093
 20
-81.28806150311549
 30
0.0
 10
76.60032007633603
 20
-81.28806150311549
 30
0.0
 10
76.46492782376572
 20
-81.28806150311549
 30
0.0
 10
76.36984318837283
 20
-81.37177732340706
 30
0.0
 10
76.36984318837283
 20
-81.52887367753445
 30
0.0
  0
SPLINE
  5
6F
330
5E
100
AcDbEntity
  8
_U+30EC_U+30A4_U+30E4_U+30FC 1
370
     0
100
AcDbSpline
210
0.0
220
0.0
230
1.0
 70
    11
 71
     3
 72
    17
 73
    13
 74
     0
 42
0.0000000001
 43
0.0000000001
 12
1.0
 22
0.0
 32
0.0
 13
1.0
 23
0.0
 33
0.0
 40
0.0
 40
0.0
 40
0.0
 40
0.0
 40
1.0
 40
1.0
 40
1.0
 40
2.0
 40
2.0
 40
2.0
 40
3.0
 40
3.0
 40
3.0
 40
4.0
 40
4.0
 40
4.0
 40
4.0
 10
77.02992348334669
 20
-81.52887367753445
 30
0.0
 10
77.02992348334669
 20
-81.6673665160415
 30
0.0
 10
77.11673988957499
 20
-81.81447209326166
 30
0.0
 10
77.3196560136562
 20
-81.81447209326166
 30
0.0
 10
77.5249837045771
 20
-81.81447209326166
 30
0.0
 10
77.62626951184343
 20
-81.69182669398677
 30
0.0
 10
77.62626951184343
 20
-81.52887367753445
 30
0.0
 10
77.62626951184343
 20
-81.34938420275293
 30
0.0
 10
77.50362411256855
 20
-81.24327526180724
 30
0.0
 10
77.32585718552966
 20
-81.24327526180724
 30
0.0
 10
77.10399303627956
 20
-81.24327526180724
 30
0.0
 10
77.02992348334669
 20
-81.40037161593463
 30
0.0
 10
77.02992348334669
 20
-81.52887367753445
 30
0.0
  0
HATCH
  5
70
330
5E
100
AcDbEntity
  8
_U+30EC_U+30A4_U+30E4_U+30FC 1
 62
   179
420
  2234388
100
AcDbHatch
 10
0.0
 20
0.0
 30
0.0
210
0.0
220
0.0
230
1.0
  2
SOLID
 70
     1
 71
     0
 91
        3
 92
        1
 93
        1
 72
     4
 94
        3
 73
     0
 74
     1
 95
       29
 96
       25
 40
0.0
 40
0.0
 40
0.0
 40
0.0
 40
1.0
 40
1.0
 40
1.0
 40
2.0
 40
2.0
 40
2.0
 40
3.0
 40
3.0
 40
3.0
 40
4.0
 40
4.0
 40
4.0
 40
5.0
 40
5.0
 40
5.0
 40
6.0
 40
6.0
 40
6.0
 40
7.0
 40
7.0
 40
7.0
 40
8.0
 40
8.0
 40
8.0
 40
8.0
 10
77.82091740676005
 20
-81.52887367753445
 10
77.82091740676005
 20
-81.78587780073408
 10
77.68345809689859
 20
-82.03047958018684
 10
77.33446992424277
 20
-82.03047958018684
 10
77.07849932968871
 20
-82.03047958018684
 10
76.98341469429582
 20
-81.89405379897093
 10
76.92209199465837
 20
-81.79207897260754
 10
76.86283635231207
 20
-81.91231280504276
 10
76.74845918220177
 20
-81.98569333887858
 10
76.58757322304061
 20
-81.98569333887858
 10
76.31265460331767
 20
-81.98569333887858
 10
76.17726235074736
 20
-81.79414602989868
 10
76.17726235074736
 20
-81.52887367753445
 10
76.17726235074736
 20
-81.25533309600561
 10
76.3212673420308
 20
-81.0717095066418
 10
76.58757322304061
 20
-81.0717095066418
 10
76.74845918220177
 20
-81.0717095066418
 10
76.86283635231207
 20
-81.14715709776877
 10
76.92209199465837
 20
-81.26773543975251
 10
76.97273489829155
 20
-81.1819525621698
 10
77.06781953368444
 20
-81.0289903226247
 10
77.33033580966047
 20
-81.0289903226247
 10
77.70481768890713
 20
-81.0289903226247
 10
77.82091740676005
 20
-81.29839678957124
 10
77.82091740676005
 20
-81.52887367753445
 97
        0
 97
        0
 92
        1
 93
        1
 72
     4
 94
        3
 73
     0
 74
     1
 95
       17
 96
       13
 40
0.0
 40
0.0
 40
0.0
 40
0.0
 40
1.0
 40
1.0
 40
1.0
 40
2.0
 40
2.0
 40
2.0
 40
3.0
 40
3.0
 40
3.0
 40
4.0
 40
4.0
 40
4.0
 40
4.0
 10
76.36984318837283
 20
-81.52887367753445
 10
76.36984318837283
 20
-81.688037088953
 10
76.46492782376572
 20
-81.76934134240489
 10
76.60032007633603
 20
-81.76934134240489
 10
76.72296547561093
 20
-81.76934134240489
 10
76.84147676030352
 20
-81.70009492315137
 10
76.84147676030352
 20
-81.52887367753445
 10
76.84147676030352
 20
-81.357307922369
 10
76.72296547561093
 20
-81.28806150311549
 10
76.60032007633603
 20
-81.28806150311549
 10
76.46492782376572
 20
-81.28806150311549
 10
76.36984318837283
 20
-81.37177732340706
 10
76.36984318837283
 20
-81.52887367753445
 97
        0
 97
        0
 92
        1
 93
        1
 72
     4
 94
        3
 73
     0
 74
     1
 95
       17
 96
       13
 40
0.0
 40
0.0
 40
0.0
 40
0.0
 40
1.0
 40
1.0
 40
1.0
 40
2.0
 40
2.0
 40
2.0
 40
3.0
 40
3.0
 40
3.0
 40
4.0
 40
4.0
 40
4.0
 40
4.0
 10
77.02992348334669
 20
-81.52887367753445
 10
77.02992348334669
 20
-81.6673665160415
 10
77.11673988957499
 20
-81.81447209326166
 10
77.3196560136562
 20
-81.81447209326166
 10
77.5249837045771
 20
-81.81447209326166
 10
77.62626951184343
 20
-81.69182669398677
 10
77.62626951184343
 20
-81.52887367753445
 10
77.62626951184343
 20
-81.34938420275293
 10
77.50362411256855
 20
-81.24327526180724
 10
77.32585718552966
 20
-81.24327526180724
 10
77.10399303627956
 20
-81.24327526180724
 10
77.02992348334669
 20
-81.40037161593463
 10
77.02992348334669
 20
-81.52887367753445
 97
        0
 97
        0
 75
     2
 76
     1
 98
        0
  0
ENDBLK
  5
61
330
5E
100
AcDbEntity
  8
0
100
AcDbBlockEnd
  0
BLOCK
  5
73
330
71
100
AcDbEntity
  8
0
100
AcDbBlockBegin
  2
block 4
 70
     0
 10
0.0
 20
0.0
 30
0.0
  3
block 4
  1

  0
POLYLINE
  5
75
330
71
100
AcDbEntity
  8
_U+30EC_U+30A4_U+30E4_U+30FC 1
 62
   179
420
  2234388
370
     9
100
AcDb2dPolyline
 66
     1
 10
0.0
 20
0.0
 30
0.0
  0
VERTEX
  5
76
330
75
100
AcDbEntity
  8
_U+30EC_U+30A4_U+30E4_U+30FC 1
 62
   179
420
  2234388
370
     9
100
AcDbVertex
100
AcDb2dVertex
 10
46.48503270295691
 20
-102.4502649743875
 30
0.0
  0
VERTEX
  5
77
330
75
100
AcDbEntity
  8
_U+30EC_U+30A4_U+30E4_U+30FC 1
 62
   179
420
  2234388
370
     9
100
AcDbVertex
100
AcDb2dVertex
 10
51.48505785317342
 20
-102.4502649743875
 30
0.0
  0
SEQEND
  5
78
330
75
100
AcDbEntity
  8
_U+30EC_U+30A4_U+30E4_U+30FC 1
 62
   179
420
  2234388
370
     9
  0
POLYLINE
  5
79
330
71
100
AcDbEntity
  8
_U+30EC_U+30A4_U+30E4_U+30FC 1
 62
   179
420
  2234388
370
     9
100
AcDb2dPolyline
 66
     1
 10
0.0
 20
0.0
 30
0.0
  0
VERTEX
  5
7A
330
79
100
AcDbEntity
  8
_U+30EC_U+30A4_U+30E4_U+30FC 1
 62
   179
420
  2234388
370
     9
100
AcDbVertex
100
AcDb2dVertex
 10
46.48503270295691
 20
-100.9902235858638
 30
0.0
  0
VERTEX
  5
7B
330
79
100
AcDbEntity
  8
_U+30EC_U+30A4_U+30E4_U+30FC 1
 62
   179
420
  2234388
370
     9
100
AcDbVertex
100
AcDb2dVertex
 10
46.48503270295691
 20
-103.4500019185819
 30
0.0
  0
SEQEND
  5
7C
330
79
100
AcDbEntity
  8
_U+30EC_U+30A4_U+30E4_U+30FC 1
 62
   179
420
  2234388
370
     9
  0
POLYLINE
  5
7D
330
71
100
AcDbEntity
  8
_U+30EC_U+30A4_U+30E4_U+30FC 1
 62
   179
420
  2234388
370
     9
100
AcDb2dPolyline
 66
     1
 10
0.0
 20
0.0
 30
0.0
  0
VERTEX
  5
7E
330
7D
100
AcDbEntity
  8
_U+30EC_U+30A4_U+30E4_U+30FC 1
 62
   179
420
  2234388
370
     9
100
AcDbVertex
100
AcDb2dVertex
 10
51.48505785317342
 20
-100.9902235858638
 30
0.0
  0
VERTEX
  5
7F
330
7D
100
AcDbEntity
  8
_U+30EC_U+30A4_U+30E4_U+30FC 1
 62
   179
420
  2234388
370
     9
100
AcDbVertex
100
AcDb2dVertex
 10
51.48505785317342
 20
-103.4500019185819
 30
0.0
  0
SEQEND
  5
80
330
7D
100
AcDbEntity
  8
_U+30EC_U+30A4_U+30E4_U+30FC 1
 62
   179
420
  2234388
370
     9
  0
INSERT
  5
82
330
71
100
AcDbEntity
  8
_U+30EC_U+30A4_U+30E4_U+30FC 1
100
AcDbBlockReference
  2
block 5
 10
0.0
 20
0.0
 30
0.0
  0
ENDBLK
  5
74
330
71
100
AcDbEntity
  8
0
100
AcDbBlockEnd
  0
BLOCK
  5
83
330
81
100
AcDbEntity
  8
0
100
AcDbBlockBegin
  2
block 5
 70
     0
 10
0.0
 20
0.0
 30
0.0
  3
block 5
  1

  0
SPLINE
  5
85
330
81
100
AcDbEntity
  8
_U+30EC_U+30A4_U+30E4_U+30FC 1
370
     0
100
AcDbSpline
210
0.0
220
0.0
230
1.0
 70
    11
 71
     3
 72
    53
 73
    49
 74
     0
 42
0.0000000001
 43
0.0000000001
 12
1.0
 22
0.0
 32
0.0
 13
1.0
 23
0.0
 33
0.0
 40
0.0
 40
0.0
 40
0.0
 40
0.0
 40
1.0
 40
1.0
 40
1.0
 40
2.0
 40
2.0
 40
2.0
 40
3.0
 40
3.0
 40
3.0
 40
4.0
 40
4.0
 40
4.0
 40
5.0
 40
5.0
 40
5.0
 40
6.0
 40
6.0
 40
6.0
 40
7.0
 40
7.0
 40
7.0
 40
8.0
 40
8.0
 40
8.0
 40
9.0
 40
9.0
 40
9.0
 40
10.0
 40
10.0
 40
10.0
 40
11.0
 40
11.0
 40
11.0
 40
12.0
 40
12.0
 40
12.0
 40
13.0
 40
13.0
 40
13.0
 40
14.0
 40
14.0
 40
14.0
 40
15.0
 40
15.0
 40
15.0
 40
16.0
 40
16.0
 40
16.0
 40
16.0
 10
48.97065428463234
 20
-101.8549370405085
 30
0.0
 10
48.89520669350537
 20
-101.8549370405085
 30
0.0
 10
48.79719372695001
 20
-101.8380560726308
 30
0.0
 10
48.69935301516892
 20
-101.7746663157022
 30
0.0
 10
48.53209362936003
 20
-101.6647677697227
 30
0.0
 10
48.5115953112228
 20
-101.5335096317347
 30
0.0
 10
48.49333630515098
 20
-101.4256781430464
 30
0.0
 10
48.49333630515098
 20
-101.4256781430464
 30
0.0
 10
48.70744898955925
 20
-101.4256781430464
 30
0.0
 10
48.70744898955925
 20
-101.4256781430464
 30
0.0
 10
48.7605034600321
 20
-101.6244601525453
 30
0.0
 10
48.88297660453273
 20
-101.6540879737184
 30
0.0
 10
48.97272134192349
 20
-101.6540879737184
 30
0.0
 10
49.10742457539676
 20
-101.6540879737184
 30
0.0
 10
49.2541856430684
 20
-101.5545247141947
 30
0.0
 10
49.2541856430684
 20
-101.3219807689403
 30
0.0
 10
49.2541856430684
 20
-101.0660101743863
 30
0.0
 10
49.08089734016033
 20
-100.9960747360357
 30
0.0
 10
48.96445311275889
 20
-100.9960747360357
 30
0.0
 10
48.93396401771443
 20
-100.9960747360357
 30
0.0
 10
48.79719372695001
 20
-100.9960747360357
 30
0.0
 10
48.71158310414155
 20
-101.1252658167326
 30
0.0
 10
48.71158310414155
 20
-101.1252658167326
 30
0.0
 10
48.54225666104152
 20
-101.1063177915637
 30
0.0
 10
48.54225666104152
 20
-101.1063177915637
 30
0.0
 10
48.54225666104152
 20
-101.1063177915637
 30
0.0
 10
48.6585286336687
 20
-100.2598578308378
 30
0.0
 10
48.6585286336687
 20
-100.2598578308378
 30
0.0
 10
48.6585286336687
 20
-100.2598578308378
 30
0.0
 10
49.40921493990464
 20
-100.2598578308378
 30
0.0
 10
49.40921493990464
 20
-100.2598578308378
 30
0.0
 10
49.40921493990464
 20
-100.2598578308378
 30
0.0
 10
49.40921493990464
 20
-100.4545057257544
 30
0.0
 10
49.40921493990464
 20
-100.4545057257544
 30
0.0
 10
49.40921493990464
 20
-100.4545057257544
 30
0.0
 10
48.8156249877961
 20
-100.4545057257544
 30
0.0
 10
48.8156249877961
 20
-100.4545057257544
 30
0.0
 10
48.8156249877961
 20
-100.4545057257544
 30
0.0
 10
48.75240748564176
 20
-100.8775634513431
 30
0.0
 10
48.75240748564176
 20
-100.8775634513431
 30
0.0
 10
48.8114908732138
 20
-100.8438015155877
 30
0.0
 10
48.89107257892307
 20
-100.8034938984102
 30
0.0
 10
49.0052774942591
 20
-100.8034938984102
 30
0.0
 10
49.25022378326036
 20
-100.8034938984102
 30
0.0
 10
49.47863361393243
 20
-100.9898735641623
 30
0.0
 10
49.47863361393243
 20
-101.3030327437715
 30
0.0
 10
49.47863361393243
 20
-101.620326037963
 30
0.0
 10
49.262453872233
 20
-101.8549370405085
 30
0.0
 10
48.97065428463234
 20
-101.8549370405085
 30
0.0
  0
HATCH
  5
86
330
81
100
AcDbEntity
  8
_U+30EC_U+30A4_U+30E4_U+30FC 1
 62
   179
420
  2234388
100
AcDbHatch
 10
0.0
 20
0.0
 30
0.0
210
0.0
220
0.0
230
1.0
  2
SOLID
 70
     1
 71
     0
 91
        1
 92
        1
 93
        1
 72
     4
 94
        3
 73
     0
 74
     1
 95
       53
 96
       49
 40
0.0
 40
0.0
 40
0.0
 40
0.0
 40
1.0
 40
1.0
 40
1.0
 40
2.0
 40
2.0
 40
2.0
 40
3.0
 40
3.0
 40
3.0
 40
4.0
 40
4.0
 40
4.0
 40
5.0
 40
5.0
 40
5.0
 40
6.0
 40
6.0
 40
6.0
 40
7.0
 40
7.0
 40
7.0
 40
8.0
 40
8.0
 40
8.0
 40
9.0
 40
9.0
 40
9.0
 40
10.0
 40
10.0
 40
10.0
 40
11.0
 40
11.0
 40
11.0
 40
12.0
 40
12.0
 40
12.0
 40
13.0
 40
13.0
 40
13.0
 40
14.0
 40
14.0
 40
14.0
 40
15.0
 40
15.0
 40
15.0
 40
16.0
 40
16.0
 40
16.0
 40
16.0
 10
48.97065428463234
 20
-101.8549370405085
 10
48.89520669350537
 20
-101.8549370405085
 10
48.79719372695001
 20
-101.8380560726308
 10
48.69935301516892
 20
-101.7746663157022
 10
48.53209362936003
 20
-101.6647677697227
 10
48.5115953112228
 20
-101.5335096317347
 10
48.49333630515098
 20
-101.4256781430464
 10
48.49333630515098
 20
-101.4256781430464
 10
48.70744898955925
 20
-101.4256781430464
 10
48.70744898955925
 20
-101.4256781430464
 10
48.7605034600321
 20
-101.6244601525453
 10
48.88297660453273
 20
-101.6540879737184
 10
48.97272134192349
 20
-101.6540879737184
 10
49.10742457539676
 20
-101.6540879737184
 10
49.2541856430684
 20
-101.5545247141947
 10
49.2541856430684
 20
-101.3219807689403
 10
49.2541856430684
 20
-101.0660101743863
 10
49.08089734016033
 20
-100.9960747360357
 10
48.96445311275889
 20
-100.9960747360357
 10
48.93396401771443
 20
-100.9960747360357
 10
48.79719372695001
 20
-100.9960747360357
 10
48.71158310414155
 20
-101.1252658167326
 10
48.71158310414155
 20
-101.1252658167326
 10
48.54225666104152
 20
-101.1063177915637
 10
48.54225666104152
 20
-101.1063177915637
 10
48.54225666104152
 20
-101.1063177915637
 10
48.6585286336687
 20
-100.2598578308378
 10
48.6585286336687
 20
-100.2598578308378
 10
48.6585286336687
 20
-100.2598578308378
 10
49.40921493990464
 20
-100.2598578308378
 10
49.40921493990464
 20
-100.2598578308378
 10
49.40921493990464
 20
-100.2598578308378
 10
49.40921493990464
 20
-100.4545057257544
 10
49.40921493990464
 20
-100.4545057257544
 10
49.40921493990464
 20
-100.4545057257544
 10
48.8156249877961
 20
-100.4545057257544
 10
48.8156249877961
 20
-100.4545057257544
 10
48.8156249877961
 20
-100.4545057257544
 10
48.75240748564176
 20
-100.8775634513431
 10
48.75240748564176
 20
-100.8775634513431
 10
48.8114908732138
 20
-100.8438015155877
 10
48.89107257892307
 20
-100.8034938984102
 10
49.0052774942591
 20
-100.8034938984102
 10
49.25022378326036
 20
-100.8034938984102
 10
49.47863361393243
 20
-100.9898735641623
 10
49.47863361393243
 20
-101.3030327437715
 10
49.47863361393243
 20
-101.620326037963
 10
49.262453872233
 20
-101.8549370405085
 10
48.97065428463234
 20
-101.8549370405085
 97
        0
 97
        0
 75
     2
 76
     1
 98
        0
  0
ENDBLK
  5
84
330
81
100
AcDbEntity
  8
0
100
AcDbBlockEnd
  0
BLOCK
  5
89
330
87
100
AcDbEntity
  8
0
100
AcDbBlockBegin
  2
block 6
 70
     0
 10
0.0
 20
0.0
 30
0.0
  3
block 6
  1

  0
POLYLINE
  5
8B
330
87
100
AcDbEntity
  8
_U+30EC_U+30A4_U+30E4_U+30FC 1
 62
   179
420
  2234388
370
     9
100
AcDb2dPolyline
 66
     1
 10
0.0
 20
0.0
 30
0.0
  0
VERTEX
  5
8C
330
8B
100
AcDbEntity
  8
_U+30EC_U+30A4_U+30E4_U+30FC 1
 62
   179
420
  2234388
370
     9
100
AcDbVertex
100
AcDb2dVertex
 10
74.88501892285734
 20
-82.94980303481826
 30
0.0
  0
VERTEX
  5
8D
330
8B
100
AcDbEntity
  8
_U+30EC_U+30A4_U+30E4_U+30FC 1
 62
   179
420
  2234388
370
     9
100
AcDbVertex
100
AcDb2dVertex
 10
74.88501892285734
 20
-95.4505188650263
 30
0.0
  0
SEQEND
  5
8E
330
8B
100
AcDbEntity
  8
_U+30EC_U+30A4_U+30E4_U+30FC 1
 62
   179
420
  2234388
370
     9
  0
POLYLINE
  5
8F
330
87
100
AcDbEntity
  8
_U+30EC_U+30A4_U+30E4_U+30FC 1
 62
   179
420
  2234388
370
     9
100
AcDb2dPolyline
 66
     1
 10
0.0
 20
0.0
 30
0.0
  0
VERTEX
  5
90
330
8F
100
AcDbEntity
  8
_U+30EC_U+30A4_U+30E4_U+30FC 1
 62
   179
420
  2234388
370
     9
100
AcDbVertex
100
AcDb2dVertex
 10
73.42533034898598
 20
-82.94980303481826
 30
0.0
  0
VERTEX
  5
91
330
8F
100
AcDbEntity
  8
_U+30EC_U+30A4_U+30E4_U+30FC 1
 62
   179
420
  2234388
370
     9
100
AcDbVertex
100
AcDb2dVertex
 10
75.88475584179636
 20
-82.94980303481826
 30
0.0
  0
SEQEND
  5
92
330
8F
100
AcDbEntity
  8
_U+30EC_U+30A4_U+30E4_U+30FC 1
 62
   179
420
  2234388
370
     9
  0
POLYLINE
  5
93
330
87
100
AcDbEntity
  8
_U+30EC_U+30A4_U+30E4_U+30FC 1
 62
   179
420
  2234388
370
     9
100
AcDb2dPolyline
 66
     1
 10
0.0
 20
0.0
 30
0.0
  0
VERTEX
  5
94
330
93
100
AcDbEntity
  8
_U+30EC_U+30A4_U+30E4_U+30FC 1
 62
   179
420
  2234388
370
     9
100
AcDbVertex
100
AcDb2dVertex
 10
54.02512834392637
 20
-95.4505188650263
 30
0.0
  0
VERTEX
  5
95
330
93
100
AcDbEntity
  8
_U+30EC_U+30A4_U+30E4_U+30FC 1
 62
   179
420
  2234388
370
     9
100
AcDbVertex
100
AcDb2dVertex
 10
75.88475584179636
 20
-95.4505188650263
 30
0.0
  0
SEQEND
  5
96
330
93
100
AcDbEntity
  8
_U+30EC_U+30A4_U+30E4_U+30FC 1
 62
   179
420
  2234388
370
     9
  0
INSERT
  5
98
330
87
100
AcDbEntity
  8
_U+30EC_U+30A4_U+30E4_U+30FC 1
100
AcDbBlockReference
  2
block 7
 10
0.0
 20
0.0
 30
0.0
  0
ENDBLK
  5
8A
330
87
100
AcDbEntity
  8
0
100
AcDbBlockEnd
  0
BLOCK
  5
99
330
97
100
AcDbEntity
  8
0
100
AcDbBlockBegin
  2
block 7
 70
     0
 10
0.0
 20
0.0
 30
0.0
  3
block 7
  1

  0
SPLINE
  5
9B
330
97
100
AcDbEntity
  8
_U+30EC_U+30A4_U+30E4_U+30FC 1
370
     0
100
AcDbSpline
210
0.0
220
0.0
230
1.0
 70
    11
 71
     3
 72
    26
 73
    22
 74
     0
 42
0.0000000001
 43
0.0000000001
 12
1.0
 22
0.0
 32
0.0
 13
1.0
 23
0.0
 33
0.0
 40
0.0
 40
0.0
 40
0.0
 40
0.0
 40
1.0
 40
1.0
 40
1.0
 40
2.0
 40
2.0
 40
2.0
 40
3.0
 40
3.0
 40
3.0
 40
4.0
 40
4.0
 40
4.0
 40
5.0
 40
5.0
 40
5.0
 40
6.0
 40
6.0
 40
6.0
 40
7.0
 40
7.0
 40
7.0
 40
7.0
 10
74.24249672623104
 20
-90.64390731240847
 30
0.0
 10
74.24249672623104
 20
-90.64390731240847
 30
0.0
 10
73.13834362320847
 20
-90.64390731240847
 30
0.0
 10
73.13834362320847
 20
-90.64390731240847
 30
0.0
 10
73.13834362320847
 20
-90.64390731240847
 30
0.0
 10
73.13834362320847
 20
-90.96223413524555
 30
0.0
 10
73.13834362320847
 20
-90.96223413524555
 30
0.0
 10
73.13834362320847
 20
-90.96223413524555
 30
0.0
 10
72.99020451734273
 20
-90.96223413524555
 30
0.0
 10
72.99020451734273
 20
-90.96223413524555
 30
0.0
 10
72.97539060675615
 20
-90.64184025511732
 30
0.0
 10
72.81243759030384
 20
-90.59705401380907
 30
0.0
 10
72.69806042019354
 20
-90.5684597212815
 30
0.0
 10
72.69806042019354
 20
-90.5684597212815
 30
0.0
 10
72.69806042019354
 20
-90.42755531593478
 30
0.0
 10
72.69806042019354
 20
-90.42755531593478
 30
0.0
 10
72.69806042019354
 20
-90.42755531593478
 30
0.0
 10
74.24249672623104
 20
-90.42755531593478
 30
0.0
 10
74.24249672623104
 20
-90.42755531593478
 30
0.0
 10
74.24249672623104
 20
-90.42755531593478
 30
0.0
 10
74.24249672623104
 20
-90.64390731240847
 30
0.0
 10
74.24249672623104
 20
-90.64390731240847
 30
0.0
  0
HATCH
  5
9C
330
97
100
AcDbEntity
  8
_U+30EC_U+30A4_U+30E4_U+30FC 1
 62
   179
420
  2234388
100
AcDbHatch
 10
0.0
 20
0.0
 30
0.0
210
0.0
220
0.0
230
1.0
  2
SOLID
 70
     1
 71
     0
 91
        1
 92
        1
 93
        1
 72
     4
 94
        3
 73
     0
 74
     1
 95
       26
 96
       22
 40
0.0
 40
0.0
 40
0.0
 40
0.0
 40
1.0
 40
1.0
 40
1.0
 40
2.0
 40
2.0
 40
2.0
 40
3.0
 40
3.0
 40
3.0
 40
4.0
 40
4.0
 40
4.0
 40
5.0
 40
5.0
 40
5.0
 40
6.0
 40
6.0
 40
6.0
 40
7.0
 40
7.0
 40
7.0
 40
7.0
 10
74.24249672623104
 20
-90.64390731240847
 10
74.24249672623104
 20
-90.64390731240847
 10
73.13834362320847
 20
-90.64390731240847
 10
73.13834362320847
 20
-90.64390731240847
 10
73.13834362320847
 20
-90.64390731240847
 10
73.13834362320847
 20
-90.96223413524555
 10
73.13834362320847
 20
-90.96223413524555
 10
73.13834362320847
 20
-90.96223413524555
 10
72.99020451734273
 20
-90.96223413524555
 10
72.99020451734273
 20
-90.96223413524555
 10
72.97539060675615
 20
-90.64184025511732
 10
72.81243759030384
 20
-90.59705401380907
 10
72.69806042019354
 20
-90.5684597212815
 10
72.69806042019354
 20
-90.5684597212815
 10
72.69806042019354
 20
-90.42755531593478
 10
72.69806042019354
 20
-90.42755531593478
 10
72.69806042019354
 20
-90.42755531593478
 10
74.24249672623104
 20
-90.42755531593478
 10
74.24249672623104
 20
-90.42755531593478
 10
74.24249672623104
 20
-90.42755531593478
 10
74.24249672623104
 20
-90.64390731240847
 10
74.24249672623104
 20
-90.64390731240847
 97
        0
 97
        0
 75
     2
 76
     1
 98
        0
  0
SPLINE
  5
9D
330
97
100
AcDbEntity
  8
_U+30EC_U+30A4_U+30E4_U+30FC 1
370
     0
100
AcDbSpline
210
0.0
220
0.0
230
1.0
 70
    11
 71
     3
 72
    44
 73
    40
 74
     0
 42
0.0000000001
 43
0.0000000001
 12
1.0
 22
0.0
 32
0.0
 13
1.0
 23
0.0
 33
0.0
 40
0.0
 40
0.0
 40
0.0
 40
0.0
 40
1.0
 40
1.0
 40
1.0
 40
2.0
 40
2.0
 40
2.0
 40
3.0
 40
3.0
 40
3.0
 40
4.0
 40
4.0
 40
4.0
 40
5.0
 40
5.0
 40
5.0
 40
6.0
 40
6.0
 40
6.0
 40
7.0
 40
7.0
 40
7.0
 40
8.0
 40
8.0
 40
8.0
 40
9.0
 40
9.0
 40
9.0
 40
10.0
 40
10.0
 40
10.0
 40
11.0
 40
11.0
 40
11.0
 40
12.0
 40
12.0
 40
12.0
 40
13.0
 40
13.0
 40
13.0
 40
13.0
 10
73.66062009877236
 20
-89.37370060699686
 30
0.0
 10
73.81943900064236
 20
-89.5838514315971
 30
0.0
 10
73.89350855357523
 20
-89.67376842376211
 30
0.0
 10
74.03716903531016
 20
-89.72062172236151
 30
0.0
 10
74.03716903531016
 20
-89.72062172236151
 30
0.0
 10
74.03716903531016
 20
-88.96993541612558
 30
0.0
 10
74.03716903531016
 20
-88.96993541612558
 30
0.0
 10
74.03716903531016
 20
-88.96993541612558
 30
0.0
 10
74.24249672623104
 20
-88.96993541612558
 30
0.0
 10
74.24249672623104
 20
-88.96993541612558
 30
0.0
 10
74.24249672623104
 20
-88.96993541612558
 30
0.0
 10
74.24249672623104
 20
-89.96143389678048
 30
0.0
 10
74.24249672623104
 20
-89.96143389678048
 30
0.0
 10
73.88489581486212
 20
-89.93077254696176
 30
0.0
 10
73.80669214734694
 20
-89.86738279003316
 30
0.0
 10
73.5083468783243
 20
-89.49600149672322
 30
0.0
 10
73.30956486882539
 20
-89.24933265997933
 30
0.0
 10
73.24169648776596
 20
-89.18594290305074
 30
0.0
 10
73.1042371779045
 20
-89.18594290305074
 30
0.0
 10
72.9857258932119
 20
-89.18594290305074
 30
0.0
 10
72.8548122647724
 20
-89.25553383185279
 30
0.0
 10
72.8548122647724
 20
-89.44501408354152
 30
0.0
 10
72.8548122647724
 20
-89.69616154441624
 30
0.0
 10
73.08528915273563
 20
-89.70408526403232
 30
0.0
 10
73.20173338013707
 20
-89.70821937861461
 30
0.0
 10
73.20173338013707
 20
-89.70821937861461
 30
0.0
 10
73.20173338013707
 20
-89.9245713750883
 30
0.0
 10
73.20173338013707
 20
-89.9245713750883
 30
0.0
 10
73.07460935673136
 20
-89.9163031459237
 30
0.0
 10
72.96264375346072
 20
-89.90631236901648
 30
0.0
 10
72.84413246876814
 20
-89.82879772059836
 30
0.0
 10
72.68324650960697
 20
-89.72268877965267
 30
0.0
 10
72.64948457385152
 20
-89.54319930487115
 30
0.0
 10
72.64948457385152
 20
-89.430889192052
 30
0.0
 10
72.64948457385152
 20
-89.16354978239661
 30
0.0
 10
72.83345267276387
 20
-88.96373424425212
 30
0.0
 10
73.10630423519565
 20
-88.96373424425212
 30
0.0
 10
73.33505857541624
 20
-88.96373424425212
 30
0.0
 10
73.43427732539143
 20
-89.07604435707127
 30
0.0
 10
73.66062009877236
 20
-89.37370060699686
 30
0.0
  0
HATCH
  5
9E
330
97
100
AcDbEntity
  8
_U+30EC_U+30A4_U+30E4_U+30FC 1
 62
   179
420
  2234388
100
AcDbHatch
 10
0.0
 20
0.0
 30
0.0
210
0.0
220
0.0
230
1.0
  2
SOLID
 70
     1
 71
     0
 91
        1
 92
        1
 93
        1
 72
     4
 94
        3
 73
     0
 74
     1
 95
       44
 96
       40
 40
0.0
 40
0.0
 40
0.0
 40
0.0
 40
1.0
 40
1.0
 40
1.0
 40
2.0
 40
2.0
 40
2.0
 40
3.0
 40
3.0
 40
3.0
 40
4.0
 40
4.0
 40
4.0
 40
5.0
 40
5.0
 40
5.0
 40
6.0
 40
6.0
 40
6.0
 40
7.0
 40
7.0
 40
7.0
 40
8.0
 40
8.0
 40
8.0
 40
9.0
 40
9.0
 40
9.0
 40
10.0
 40
10.0
 40
10.0
 40
11.0
 40
11.0
 40
11.0
 40
12.0
 40
12.0
 40
12.0
 40
13.0
 40
13.0
 40
13.0
 40
13.0
 10
73.66062009877236
 20
-89.37370060699686
 10
73.81943900064236
 20
-89.5838514315971
 10
73.89350855357523
 20
-89.67376842376211
 10
74.03716903531016
 20
-89.72062172236151
 10
74.03716903531016
 20
-89.72062172236151
 10
74.03716903531016
 20
-88.96993541612558
 10
74.03716903531016
 20
-88.96993541612558
 10
74.03716903531016
 20
-88.96993541612558
 10
74.24249672623104
 20
-88.96993541612558
 10
74.24249672623104
 20
-88.96993541612558
 10
74.24249672623104
 20
-88.96993541612558
 10
74.24249672623104
 20
-89.96143389678048
 10
74.24249672623104
 20
-89.96143389678048
 10
73.88489581486212
 20
-89.93077254696176
 10
73.80669214734694
 20
-89.86738279003316
 10
73.5083468783243
 20
-89.49600149672322
 10
73.30956486882539
 20
-89.24933265997933
 10
73.24169648776596
 20
-89.18594290305074
 10
73.1042371779045
 20
-89.18594290305074
 10
72.9857258932119
 20
-89.18594290305074
 10
72.8548122647724
 20
-89.25553383185279
 10
72.8548122647724
 20
-89.44501408354152
 10
72.8548122647724
 20
-89.69616154441624
 10
73.08528915273563
 20
-89.70408526403232
 10
73.20173338013707
 20
-89.70821937861461
 10
73.20173338013707
 20
-89.70821937861461
 10
73.20173338013707
 20
-89.9245713750883
 10
73.20173338013707
 20
-89.9245713750883
 10
73.07460935673136
 20
-89.9163031459237
 10
72.96264375346072
 20
-89.90631236901648
 10
72.84413246876814
 20
-89.82879772059836
 10
72.68324650960697
 20
-89.72268877965267
 10
72.64948457385152
 20
-89.54319930487115
 10
72.64948457385152
 20
-89.430889192052
 10
72.64948457385152
 20
-89.16354978239661
 10
72.83345267276387
 20
-88.96373424425212
 10
73.10630423519565
 20
-88.96373424425212
 10
73.33505857541624
 20
-88.96373424425212
 10
73.43427732539143
 20
-89.07604435707127
 10
73.66062009877236
 20
-89.37370060699686
 97
        0
 97
        0
 75
     2
 76
     1
 98
        0
  0
POLYLINE
  5
9F
330
97
100
AcDbEntity
  8
_U+30EC_U+30A4_U+30E4_U+30FC 1
370
     0
100
AcDb2dPolyline
 66
     1
 10
0.0
 20
0.0
 30
0.0
  0
VERTEX
  5
A0
330
9F
100
AcDbEntity
  8
_U+30EC_U+30A4_U+30E4_U+30FC 1
370
     0
100
AcDbVertex
100
AcDb2dVertex
 10
74.24249672623104
 20
-88.75427243874894
 30
0.0
  0
VERTEX
  5
A1
330
9F
100
AcDbEntity
  8
_U+30EC_U+30A4_U+30E4_U+30FC 1
370
     0
100
AcDbVertex
100
AcDb2dVertex
 10
73.99066024625928
 20
-88.75427243874894
 30
0.0
  0
VERTEX
  5
A2
330
9F
100
AcDbEntity
  8
_U+30EC_U+30A4_U+30E4_U+30FC 1
370
     0
100
AcDbVertex
100
AcDb2dVertex
 10
73.99066024625928
 20
-88.51173771658735
 30
0.0
  0
VERTEX
  5
A3
330
9F
100
AcDbEntity
  8
_U+30EC_U+30A4_U+30E4_U+30FC 1
370
     0
100
AcDbVertex
100
AcDb2dVertex
 10
74.24249672623104
 20
-88.51173771658735
 30
0.0
  0
VERTEX
  5
A4
330
9F
100
AcDbEntity
  8
_U+30EC_U+30A4_U+30E4_U+30FC 1
370
     0
100
AcDbVertex
100
AcDb2dVertex
 10
74.24249672623104
 20
-88.75427243874894
 30
0.0
  0
SEQEND
  5
A5
330
9F
100
AcDbEntity
  8
_U+30EC_U+30A4_U+30E4_U+30FC 1
370
     0
  0
HATCH
  5
A6
330
97
100
AcDbEntity
  8
_U+30EC_U+30A4_U+30E4_U+30FC 1
 62
   179
420
  2234388
100
AcDbHatch
 10
0.0
 20
0.0
 30
0.0
210
0.0
220
0.0
230
1.0
  2
SOLID
 70
     1
 71
     0
 91
        1
 92
        1
 93
        4
 72
     1
 10
74.24249672623104
 20
-88.75427243874894
 11
73.99066024625928
 21
-88.75427243874894
 72
     1
 10
73.99066024625928
 20
-88.75427243874894
 11
73.99066024625928
 21
-88.51173771658735
 72
     1
 10
73.99066024625928
 20
-88.51173771658735
 11
74.24249672623104
 21
-88.51173771658735
 72
     1
 10
74.24249672623104
 20
-88.51173771658735
 11
74.24249672623104
 21
-88.75427243874894
 97
        0
 75
     2
 76
     1
 98
        0
  0
SPLINE
  5
A7
330
97
100
AcDbEntity
  8
_U+30EC_U+30A4_U+30E4_U+30FC 1
370
     0
100
AcDbSpline
210
0.0
220
0.0
230
1.0
 70
    11
 71
     3
 72
    53
 73
    49
 74
     0
 42
0.0000000001
 43
0.0000000001
 12
1.0
 22
0.0
 32
0.0
 13
1.0
 23
0.0
 33
0.0
 40
0.0
 40
0.0
 40
0.0
 40
0.0
 40
1.0
 40
1.0
 40
1.0
 40
2.0
 40
2.0
 40
2.0
 40
3.0
 40
3.0
 40
3.0
 40
4.0
 40
4.0
 40
4.0
 40
5.0
 40
5.0
 40
5.0
 40
6.0
 40
6.0
 40
6.0
 40
7.0
 40
7.0
 40
7.0
 40
8.0
 40
8.0
 40
8.0
 40
9.0
 40
9.0
 40
9.0
 40
10.0
 40
10.0
 40
10.0
 40
11.0
 40
11.0
 40
11.0
 40
12.0
 40
12.0
 40
12.0
 40
13.0
 40
13.0
 40
13.0
 40
14.0
 40
14.0
 40
14.0
 40
15.0
 40
15.0
 40
15.0
 40
16.0
 40
16.0
 40
16.0
 40
16.0
 10
74.29313962986421
 20
-87.82065156224623
 30
0.0
 10
74.29313962986421
 20
-87.8960991533732
 30
0.0
 10
74.27625866198649
 20
-87.9939398651543
 30
0.0
 10
74.2128689050579
 20
-88.09212508648392
 30
0.0
 10
74.10297035907843
 20
-88.25921221751854
 30
0.0
 10
73.97171222109041
 20
-88.27953828088151
 30
0.0
 10
73.8638807324021
 20
-88.29814179650185
 30
0.0
 10
73.8638807324021
 20
-88.29814179650185
 30
0.0
 10
73.8638807324021
 20
-88.08385685731932
 30
0.0
 10
73.8638807324021
 20
-88.08385685731932
 30
0.0
 10
74.06266274190101
 20
-88.03080238684647
 30
0.0
 10
74.09229056307416
 20
-87.9085014971201
 30
0.0
 10
74.09229056307416
 20
-87.81858450495508
 30
0.0
 10
74.09229056307416
 20
-87.68388127148181
 30
0.0
 10
73.99272730355044
 20
-87.53712020381016
 30
0.0
 10
73.76018335829608
 20
-87.53712020381016
 30
0.0
 10
73.504212763742
 20
-87.53712020381016
 30
0.0
 10
73.43427732539143
 20
-87.71040850671824
 30
0.0
 10
73.43427732539143
 20
-87.82685273411968
 30
0.0
 10
73.43427732539143
 20
-87.8575140839384
 30
0.0
 10
73.43427732539143
 20
-87.9939398651543
 30
0.0
 10
73.5634684060883
 20
-88.07972274273702
 30
0.0
 10
73.5634684060883
 20
-88.07972274273702
 30
0.0
 10
73.54452038091942
 20
-88.24922144061131
 30
0.0
 10
73.54452038091942
 20
-88.24922144061131
 30
0.0
 10
73.54452038091942
 20
-88.24922144061131
 30
0.0
 10
72.69806042019354
 20
-88.13277721320986
 30
0.0
 10
72.69806042019354
 20
-88.13277721320986
 30
0.0
 10
72.69806042019354
 20
-88.13277721320986
 30
0.0
 10
72.69806042019354
 20
-87.38209090697393
 30
0.0
 10
72.69806042019354
 20
-87.38209090697393
 30
0.0
 10
72.69806042019354
 20
-87.38209090697393
 30
0.0
 10
72.89270831511016
 20
-87.38209090697393
 30
0.0
 10
72.89270831511016
 20
-87.38209090697393
 30
0.0
 10
72.89270831511016
 20
-87.38209090697393
 30
0.0
 10
72.89270831511016
 20
-87.97568085908247
 30
0.0
 10
72.89270831511016
 20
-87.97568085908247
 30
0.0
 10
72.89270831511016
 20
-87.97568085908247
 30
0.0
 10
73.31576604069883
 20
-88.03907061601107
 30
0.0
 10
73.31576604069883
 20
-88.03907061601107
 30
0.0
 10
73.2820041049434
 20
-87.97981497366477
 30
0.0
 10
73.24169648776596
 20
-87.9002332679555
 30
0.0
 10
73.24169648776596
 20
-87.78585609784521
 30
0.0
 10
73.24169648776596
 20
-87.54125431839246
 30
0.0
 10
73.42807615351798
 20
-87.31249997817189
 30
0.0
 10
73.7412353331272
 20
-87.31249997817189
 30
0.0
 10
74.05852862731871
 20
-87.31249997817189
 30
0.0
 10
74.29313962986421
 20
-87.52885197464556
 30
0.0
 10
74.29313962986421
 20
-87.82065156224623
 30
0.0
  0
HATCH
  5
A8
330
97
100
AcDbEntity
  8
_U+30EC_U+30A4_U+30E4_U+30FC 1
 62
   179
420
  2234388
100
AcDbHatch
 10
0.0
 20
0.0
 30
0.0
210
0.0
220
0.0
230
1.0
  2
SOLID
 70
     1
 71
     0
 91
        1
 92
        1
 93
        1
 72
     4
 94
        3
 73
     0
 74
     1
 95
       53
 96
       49
 40
0.0
 40
0.0
 40
0.0
 40
0.0
 40
1.0
 40
1.0
 40
1.0
 40
2.0
 40
2.0
 40
2.0
 40
3.0
 40
3.0
 40
3.0
 40
4.0
 40
4.0
 40
4.0
 40
5.0
 40
5.0
 40
5.0
 40
6.0
 40
6.0
 40
6.0
 40
7.0
 40
7.0
 40
7.0
 40
8.0
 40
8.0
 40
8.0
 40
9.0
 40
9.0
 40
9.0
 40
10.0
 40
10.0
 40
10.0
 40
11.0
 40
11.0
 40
11.0
 40
12.0
 40
12.0
 40
12.0
 40
13.0
 40
13.0
 40
13.0
 40
14.0
 40
14.0
 40
14.0
 40
15.0
 40
15.0
 40
15.0
 40
16.0
 40
16.0
 40
16.0
 40
16.0
 10
74.29313962986421
 20
-87.82065156224623
 10
74.29313962986421
 20
-87.8960991533732
 10
74.27625866198649
 20
-87.9939398651543
 10
74.2128689050579
 20
-88.09212508648392
 10
74.10297035907843
 20
-88.25921221751854
 10
73.97171222109041
 20
-88.27953828088151
 10
73.8638807324021
 20
-88.29814179650185
 10
73.8638807324021
 20
-88.29814179650185
 10
73.8638807324021
 20
-88.08385685731932
 10
73.8638807324021
 20
-88.08385685731932
 10
74.06266274190101
 20
-88.03080238684647
 10
74.09229056307416
 20
-87.9085014971201
 10
74.09229056307416
 20
-87.81858450495508
 10
74.09229056307416
 20
-87.68388127148181
 10
73.99272730355044
 20
-87.53712020381016
 10
73.76018335829608
 20
-87.53712020381016
 10
73.504212763742
 20
-87.53712020381016
 10
73.43427732539143
 20
-87.71040850671824
 10
73.43427732539143
 20
-87.82685273411968
 10
73.43427732539143
 20
-87.8575140839384
 10
73.43427732539143
 20
-87.9939398651543
 10
73.5634684060883
 20
-88.07972274273702
 10
73.5634684060883
 20
-88.07972274273702
 10
73.54452038091942
 20
-88.24922144061131
 10
73.54452038091942
 20
-88.24922144061131
 10
73.54452038091942
 20
-88.24922144061131
 10
72.69806042019354
 20
-88.13277721320986
 10
72.69806042019354
 20
-88.13277721320986
 10
72.69806042019354
 20
-88.13277721320986
 10
72.69806042019354
 20
-87.38209090697393
 10
72.69806042019354
 20
-87.38209090697393
 10
72.69806042019354
 20
-87.38209090697393
 10
72.89270831511016
 20
-87.38209090697393
 10
72.89270831511016
 20
-87.38209090697393
 10
72.89270831511016
 20
-87.38209090697393
 10
72.89270831511016
 20
-87.97568085908247
 10
72.89270831511016
 20
-87.97568085908247
 10
72.89270831511016
 20
-87.97568085908247
 10
73.31576604069883
 20
-88.03907061601107
 10
73.31576604069883
 20
-88.03907061601107
 10
73.2820041049434
 20
-87.97981497366477
 10
73.24169648776596
 20
-87.9002332679555
 10
73.24169648776596
 20
-87.78585609784521
 10
73.24169648776596
 20
-87.54125431839246
 10
73.42807615351798
 20
-87.31249997817189
 10
73.7412353331272
 20
-87.31249997817189
 10
74.05852862731871
 20
-87.31249997817189
 10
74.29313962986421
 20
-87.52885197464556
 10
74.29313962986421
 20
-87.82065156224623
 97
        0
 97
        0
 75
     2
 76
     1
 98
        0
  0
ENDBLK
  5
9A
330
97
100
AcDbEntity
  8
0
100
AcDbBlockEnd
  0
BLOCK
  5
AB
330
A9
100
AcDbEntity
  8
0
100
AcDbBlockBegin
  2
block 8
 70
     0
 10
0.0
 20
0.0
 30
0.0
  3
block 8
  1

  0
POLYLINE
  5
AD
330
A9
100
AcDbEntity
  8
_U+30EC_U+30A4_U+30E4_U+30FC 1
 62
   179
420
  2234388
370
     9
100
AcDb2dPolyline
 66
     1
 10
0.0
 20
0.0
 30
0.0
  0
VERTEX
  5
AE
330
AD
100
AcDbEntity
  8
_U+30EC_U+30A4_U+30E4_U+30FC 1
 62
   179
420
  2234388
370
     9
100
AcDbVertex
100
AcDb2dVertex
 10
55.48499330668211
 20
-95.4505188650263
 30
0.0
  0
VERTEX
  5
AF
330
AD
100
AcDbEntity
  8
_U+30EC_U+30A4_U+30E4_U+30FC 1
 62
   179
420
  2234388
370
     9
100
AcDbVertex
100
AcDb2dVertex
 10
55.48499330668211
 20
-98.45050580872065
 30
0.0
  0
SEQEND
  5
B0
330
AD
100
AcDbEntity
  8
_U+30EC_U+30A4_U+30E4_U+30FC 1
 62
   179
420
  2234388
370
     9
  0
POLYLINE
  5
B1
330
A9
100
AcDbEntity
  8
_U+30EC_U+30A4_U+30E4_U+30FC 1
 62
   179
420
  2234388
370
     9
100
AcDb2dPolyline
 66
     1
 10
0.0
 20
0.0
 30
0.0
  0
VERTEX
  5
B2
330
B1
100
AcDbEntity
  8
_U+30EC_U+30A4_U+30E4_U+30FC 1
 62
   179
420
  2234388
370
     9
100
AcDbVertex
100
AcDb2dVertex
 10
54.02512834392637
 20
-95.4505188650263
 30
0.0
  0
VERTEX
  5
B3
330
B1
100
AcDbEntity
  8
_U+30EC_U+30A4_U+30E4_U+30FC 1
 62
   179
420
  2234388
370
     9
100
AcDbVertex
100
AcDb2dVertex
 10
56.48490661450553
 20
-95.4505188650263
 30
0.0
  0
SEQEND
  5
B4
330
B1
100
AcDbEntity
  8
_U+30EC_U+30A4_U+30E4_U+30FC 1
 62
   179
420
  2234388
370
     9
  0
POLYLINE
  5
B5
330
A9
100
AcDbEntity
  8
_U+30EC_U+30A4_U+30E4_U+30FC 1
 62
   179
420
  2234388
370
     9
100
AcDb2dPolyline
 66
     1
 10
0.0
 20
0.0
 30
0.0
  0
VERTEX
  5
B6
330
B5
100
AcDbEntity
  8
_U+30EC_U+30A4_U+30E4_U+30FC 1
 62
   179
420
  2234388
370
     9
100
AcDbVertex
100
AcDb2dVertex
 10
54.02512834392637
 20
-98.45050580872065
 30
0.0
  0
VERTEX
  5
B7
330
B5
100
AcDbEntity
  8
_U+30EC_U+30A4_U+30E4_U+30FC 1
 62
   179
420
  2234388
370
     9
100
AcDbVertex
100
AcDb2dVertex
 10
56.48490661450553
 20
-98.45050580872065
 30
0.0
  0
SEQEND
  5
B8
330
B5
100
AcDbEntity
  8
_U+30EC_U+30A4_U+30E4_U+30FC 1
 62
   179
420
  2234388
370
     9
  0
INSERT
  5
BA
330
A9
100
AcDbEntity
  8
_U+30EC_U+30A4_U+30E4_U+30FC 1
100
AcDbBlockReference
  2
block 9
 10
0.0
 20
0.0
 30
0.0
  0
ENDBLK
  5
AC
330
A9
100
AcDbEntity
  8
0
100
AcDbBlockEnd
  0
BLOCK
  5
BB
330
B9
100
AcDbEntity
  8
0
100
AcDbBlockBegin
  2
block 9
 70
     0
 10
0.0
 20
0.0
 30
0.0
  3
block 9
  1

  0
SPLINE
  5
BD
330
B9
100
AcDbEntity
  8
_U+30EC_U+30A4_U+30E4_U+30FC 1
370
     0
100
AcDbSpline
210
0.0
220
0.0
230
1.0
 70
    11
 71
     3
 72
    62
 73
    58
 74
     0
 42
0.0000000001
 43
0.0000000001
 12
1.0
 22
0.0
 32
0.0
 13
1.0
 23
0.0
 33
0.0
 40
0.0
 40
0.0
 40
0.0
 40
0.0
 40
1.0
 40
1.0
 40
1.0
 40
2.0
 40
2.0
 40
2.0
 40
3.0
 40
3.0
 40
3.0
 40
4.0
 40
4.0
 40
4.0
 40
5.0
 40
5.0
 40
5.0
 40
6.0
 40
6.0
 40
6.0
 40
7.0
 40
7.0
 40
7.0
 40
8.0
 40
8.0
 40
8.0
 40
9.0
 40
9.0
 40
9.0
 40
10.0
 40
10.0
 40
10.0
 40
11.0
 40
11.0
 40
11.0
 40
12.0
 40
12.0
 40
12.0
 40
13.0
 40
13.0
 40
13.0
 40
14.0
 40
14.0
 40
14.0
 40
15.0
 40
15.0
 40
15.0
 40
16.0
 40
16.0
 40
16.0
 40
17.0
 40
17.0
 40
17.0
 40
18.0
 40
18.0
 40
18.0
 40
19.0
 40
19.0
 40
19.0
 40
19.0
 10
54.89311793332534
 20
-96.95738929867733
 30
0.0
 10
54.89311793332534
 20
-97.0493733481335
 30
0.0
 10
54.87210285086531
 20
-97.25952417273373
 30
0.0
 10
54.68606769466182
 20
-97.37975800516895
 30
0.0
 10
54.57375758184268
 20
-97.45141599126215
 30
0.0
 10
54.47453883186748
 20
-97.45520559629593
 30
0.0
 10
54.38978948293033
 20
-97.45933971087823
 30
0.0
 10
54.38978948293033
 20
-97.45933971087823
 30
0.0
 10
54.38978948293033
 20
-97.24712182898683
 30
0.0
 10
54.38978948293033
 20
-97.24712182898683
 30
0.0
 10
54.4638590358632
 20
-97.24505477169569
 30
0.0
 10
54.69847003840871
 20
-97.23506399478846
 30
0.0
 10
54.69847003840871
 20
-96.96152341325963
 30
0.0
 10
54.69847003840871
 20
-96.82888723707751
 30
0.0
 10
54.62887910960667
 20
-96.68212616940586
 30
0.0
 10
54.40046927893461
 20
-96.68212616940586
 30
0.0
 10
54.28402505153316
 20
-96.68212616940586
 30
0.0
 10
54.23544920519114
 20
-96.71898869109803
 30
0.0
 10
54.20375432672684
 20
-96.74930553136824
 30
0.0
 10
54.12968477379397
 20
-96.82096351746144
 30
0.0
 10
54.11693792049854
 20
-96.93292912073206
 30
0.0
 10
54.11693792049854
 20
-96.9859835912049
 30
0.0
 10
54.11693792049854
 20
-97.00458710682524
 30
0.0
 10
54.11900497778969
 20
-97.03903806167774
 30
0.0
 10
54.12313909237199
 20
-97.06556529691417
 30
0.0
 10
54.12313909237199
 20
-97.06556529691417
 30
0.0
 10
53.92849119745538
 20
-97.06556529691417
 30
0.0
 10
53.92849119745538
 20
-97.06556529691417
 30
0.0
 10
53.93503687887736
 20
-97.02904728477053
 30
0.0
 10
53.9371039361685
 20
-96.98805064849604
 30
0.0
 10
53.9371039361685
 20
-96.9818494766226
 30
0.0
 10
53.9371039361685
 20
-96.91880422924253
 30
0.0
 10
53.91574434415995
 20
-96.7269124107141
 30
0.0
 10
53.67906628432329
 20
-96.7269124107141
 30
0.0
 10
53.5012993572844
 20
-96.7269124107141
 30
0.0
 10
53.4461778295204
 20
-96.85334741502278
 30
0.0
 10
53.4461778295204
 20
-96.95945635596847
 30
0.0
 10
53.4461778295204
 20
-97.21473793142549
 30
0.0
 10
53.67906628432329
 20
-97.22266165104156
 30
0.0
 10
53.75072427041649
 20
-97.22679576562386
 30
0.0
 10
53.75072427041649
 20
-97.22679576562386
 30
0.0
 10
53.75072427041649
 20
-97.42282169873458
 30
0.0
 10
53.75072427041649
 20
-97.42282169873458
 30
0.0
 10
53.62601181385045
 20
-97.41455346956998
 30
0.0
 10
53.24946287731264
 20
-97.38802623433355
 30
0.0
 10
53.24946287731264
 20
-96.9473985217701
 30
0.0
 10
53.24946287731264
 20
-96.7310465252964
 30
0.0
 10
53.37658690071836
 20
-96.49850258004204
 30
0.0
 10
53.67252060290132
 20
-96.49850258004204
 30
0.0
 10
53.85890026865334
 20
-96.49850258004204
 30
0.0
 10
53.9412380507508
 20
-96.59014211994969
 30
0.0
 10
54.00256075038825
 20
-96.68626028398816
 30
0.0
 10
54.03012151427025
 20
-96.62700464164186
 30
0.0
 10
54.11039223907657
 20
-96.45164928144264
 30
0.0
 10
54.38772242563918
 20
-96.45164928144264
 30
0.0
 10
54.72603080229072
 20
-96.45164928144264
 30
0.0
 10
54.89311793332534
 20
-96.69039439857046
 30
0.0
 10
54.89311793332534
 20
-96.95738929867733
 30
0.0
  0
HATCH
  5
BE
330
B9
100
AcDbEntity
  8
_U+30EC_U+30A4_U+30E4_U+30FC 1
 62
   179
420
  2234388
100
AcDbHatch
 10
0.0
 20
0.0
 30
0.0
210
0.0
220
0.0
230
1.0
  2
SOLID
 70
     1
 71
     0
 91
        1
 92
        1
 93
        1
 72
     4
 94
        3
 73
     0
 74
     1
 95
       62
 96
       58
 40
0.0
 40
0.0
 40
0.0
 40
0.0
 40
1.0
 40
1.0
 40
1.0
 40
2.0
 40
2.0
 40
2.0
 40
3.0
 40
3.0
 40
3.0
 40
4.0
 40
4.0
 40
4.0
 40
5.0
 40
5.0
 40
5.0
 40
6.0
 40
6.0
 40
6.0
 40
7.0
 40
7.0
 40
7.0
 40
8.0
 40
8.0
 40
8.0
 40
9.0
 40
9.0
 40
9.0
 40
10.0
 40
10.0
 40
10.0
 40
11.0
 40
11.0
 40
11.0
 40
12.0
 40
12.0
 40
12.0
 40
13.0
 40
13.0
 40
13.0
 40
14.0
 40
14.0
 40
14.0
 40
15.0
 40
15.0
 40
15.0
 40
16.0
 40
16.0
 40
16.0
 40
17.0
 40
17.0
 40
17.0
 40
18.0
 40
18.0
 40
18.0
 40
19.0
 40
19.0
 40
19.0
 40
19.0
 10
54.89311793332534
 20
-96.95738929867733
 10
54.89311793332534
 20
-97.0493733481335
 10
54.87210285086531
 20
-97.25952417273373
 10
54.68606769466182
 20
-97.37975800516895
 10
54.57375758184268
 20
-97.45141599126215
 10
54.47453883186748
 20
-97.45520559629593
 10
54.38978948293033
 20
-97.45933971087823
 10
54.38978948293033
 20
-97.45933971087823
 10
54.38978948293033
 20
-97.24712182898683
 10
54.38978948293033
 20
-97.24712182898683
 10
54.4638590358632
 20
-97.24505477169569
 10
54.69847003840871
 20
-97.23506399478846
 10
54.69847003840871
 20
-96.96152341325963
 10
54.69847003840871
 20
-96.82888723707751
 10
54.62887910960667
 20
-96.68212616940586
 10
54.40046927893461
 20
-96.68212616940586
 10
54.28402505153316
 20
-96.68212616940586
 10
54.23544920519114
 20
-96.71898869109803
 10
54.20375432672684
 20
-96.74930553136824
 10
54.12968477379397
 20
-96.82096351746144
 10
54.11693792049854
 20
-96.93292912073206
 10
54.11693792049854
 20
-96.9859835912049
 10
54.11693792049854
 20
-97.00458710682524
 10
54.11900497778969
 20
-97.03903806167774
 10
54.12313909237199
 20
-97.06556529691417
 10
54.12313909237199
 20
-97.06556529691417
 10
53.92849119745538
 20
-97.06556529691417
 10
53.92849119745538
 20
-97.06556529691417
 10
53.93503687887736
 20
-97.02904728477053
 10
53.9371039361685
 20
-96.98805064849604
 10
53.9371039361685
 20
-96.9818494766226
 10
53.9371039361685
 20
-96.91880422924253
 10
53.91574434415995
 20
-96.7269124107141
 10
53.67906628432329
 20
-96.7269124107141
 10
53.5012993572844
 20
-96.7269124107141
 10
53.4461778295204
 20
-96.85334741502278
 10
53.4461778295204
 20
-96.95945635596847
 10
53.4461778295204
 20
-97.21473793142549
 10
53.67906628432329
 20
-97.22266165104156
 10
53.75072427041649
 20
-97.22679576562386
 10
53.75072427041649
 20
-97.22679576562386
 10
53.75072427041649
 20
-97.42282169873458
 10
53.75072427041649
 20
-97.42282169873458
 10
53.62601181385045
 20
-97.41455346956998
 10
53.24946287731264
 20
-97.38802623433355
 10
53.24946287731264
 20
-96.9473985217701
 10
53.24946287731264
 20
-96.7310465252964
 10
53.37658690071836
 20
-96.49850258004204
 10
53.67252060290132
 20
-96.49850258004204
 10
53.85890026865334
 20
-96.49850258004204
 10
53.9412380507508
 20
-96.59014211994969
 10
54.00256075038825
 20
-96.68626028398816
 10
54.03012151427025
 20
-96.62700464164186
 10
54.11039223907657
 20
-96.45164928144264
 10
54.38772242563918
 20
-96.45164928144264
 10
54.72603080229072
 20
-96.45164928144264
 10
54.89311793332534
 20
-96.69039439857046
 10
54.89311793332534
 20
-96.95738929867733
 97
        0
 97
        0
 75
     2
 76
     1
 98
        0
  0
ENDBLK
  5
BC
330
B9
100
AcDbEntity
  8
0
100
AcDbBlockEnd
  0
BLOCK
  5
C1
330
BF
100
AcDbEntity
  8
0
100
AcDbBlockBegin
  2
block 10
 70
     0
 10
0.0
 20
0.0
 30
0.0
  3
block 10
  1

  0
POLYLINE
  5
C3
330
BF
100
AcDbEntity
  8
_U+30EC_U+30A4_U+30E4_U+30FC 1
 62
   179
420
  2234388
370
     9
100
AcDb2dPolyline
 66
     1
 10
0.0
 20
0.0
 30
0.0
  0
VERTEX
  5
C4
330
C3
100
AcDbEntity
  8
_U+30EC_U+30A4_U+30E4_U+30FC 1
 62
   179
420
  2234388
370
     9
100
AcDbVertex
100
AcDb2dVertex
 10
47.88510183390483
 20
-77.95027164717915
 30
0.0
  0
VERTEX
  5
C5
330
C3
100
AcDbEntity
  8
_U+30EC_U+30A4_U+30E4_U+30FC 1
 62
   179
420
  2234388
370
     9
100
AcDbVertex
100
AcDb2dVertex
 10
70.88490708046425
 20
-77.95027164717915
 30
0.0
  0
SEQEND
  5
C6
330
C3
100
AcDbEntity
  8
_U+30EC_U+30A4_U+30E4_U+30FC 1
 62
   179
420
  2234388
370
     9
  0
POLYLINE
  5
C7
330
BF
100
AcDbEntity
  8
_U+30EC_U+30A4_U+30E4_U+30FC 1
 62
   179
420
  2234388
370
     9
100
AcDb2dPolyline
 66
     1
 10
0.0
 20
0.0
 30
0.0
  0
VERTEX
  5
C8
330
C7
100
AcDbEntity
  8
_U+30EC_U+30A4_U+30E4_U+30FC 1
 62
   179
420
  2234388
370
     9
100
AcDbVertex
100
AcDb2dVertex
 10
47.88510183390483
 20
-79.41031303570286
 30
0.0
  0
VERTEX
  5
C9
330
C7
100
AcDbEntity
  8
_U+30EC_U+30A4_U+30E4_U+30FC 1
 62
   179
420
  2234388
370
     9
100
AcDbVertex
100
AcDb2dVertex
 10
47.88510183390483
 20
-76.94982914742926
 30
0.0
  0
SEQEND
  5
CA
330
C7
100
AcDbEntity
  8
_U+30EC_U+30A4_U+30E4_U+30FC 1
 62
   179
420
  2234388
370
     9
  0
POLYLINE
  5
CB
330
BF
100
AcDbEntity
  8
_U+30EC_U+30A4_U+30E4_U+30FC 1
 62
   179
420
  2234388
370
     9
100
AcDb2dPolyline
 66
     1
 10
0.0
 20
0.0
 30
0.0
  0
VERTEX
  5
CC
330
CB
100
AcDbEntity
  8
_U+30EC_U+30A4_U+30E4_U+30FC 1
 62
   179
420
  2234388
370
     9
100
AcDbVertex
100
AcDb2dVertex
 10
70.88490708046425
 20
-79.41031303570286
 30
0.0
  0
VERTEX
  5
CD
330
CB
100
AcDbEntity
  8
_U+30EC_U+30A4_U+30E4_U+30FC 1
 62
   179
420
  2234388
370
     9
100
AcDbVertex
100
AcDb2dVertex
 10
70.88490708046425
 20
-76.94982914742926
 30
0.0
  0
SEQEND
  5
CE
330
CB
100
AcDbEntity
  8
_U+30EC_U+30A4_U+30E4_U+30FC 1
 62
   179
420
  2234388
370
     9
  0
INSERT
  5
D0
330
BF
100
AcDbEntity
  8
_U+30EC_U+30A4_U+30E4_U+30FC 1
100
AcDbBlockReference
  2
block 11
 10
0.0
 20
0.0
 30
0.0
  0
ENDBLK
  5
C2
330
BF
100
AcDbEntity
  8
0
100
AcDbBlockEnd
  0
BLOCK
  5
D1
330
CF
100
AcDbEntity
  8
0
100
AcDbBlockBegin
  2
block 11
 70
     0
 10
0.0
 20
0.0
 30
0.0
  3
block 11
  1

  0
SPLINE
  5
D3
330
CF
100
AcDbEntity
  8
_U+30EC_U+30A4_U+30E4_U+30FC 1
370
     0
100
AcDbSpline
210
0.0
220
0.0
230
1.0
 70
    11
 71
     3
 72
    44
 73
    40
 74
     0
 42
0.0000000001
 43
0.0000000001
 12
1.0
 22
0.0
 32
0.0
 13
1.0
 23
0.0
 33
0.0
 40
0.0
 40
0.0
 40
0.0
 40
0.0
 40
1.0
 40
1.0
 40
1.0
 40
2.0
 40
2.0
 40
2.0
 40
3.0
 40
3.0
 40
3.0
 40
4.0
 40
4.0
 40
4.0
 40
5.0
 40
5.0
 40
5.0
 40
6.0
 40
6.0
 40
6.0
 40
7.0
 40
7.0
 40
7.0
 40
8.0
 40
8.0
 40
8.0
 40
9.0
 40
9.0
 40
9.0
 40
10.0
 40
10.0
 40
10.0
 40
11.0
 40
11.0
 40
11.0
 40
12.0
 40
12.0
 40
12.0
 40
13.0
 40
13.0
 40
13.0
 40
13.0
 10
58.9121663264178
 20
-76.72279322083666
 30
0.0
 10
58.70201550181756
 20
-76.88143986793241
 30
0.0
 10
58.6122707644268
 20
-76.9555094208653
 30
0.0
 10
58.56524521105314
 20
-77.09934215737448
 30
0.0
 10
58.56524521105314
 20
-77.09934215737448
 30
0.0
 10
59.31610377206334
 20
-77.09934215737448
 30
0.0
 10
59.31610377206334
 20
-77.09934215737448
 30
0.0
 10
59.31610377206334
 20
-77.09934215737448
 30
0.0
 10
59.31610377206334
 20
-77.3044975935211
 30
0.0
 10
59.31610377206334
 20
-77.3044975935211
 30
0.0
 10
59.31610377206334
 20
-77.3044975935211
 30
0.0
 10
58.32460529140843
 20
-77.3044975935211
 30
0.0
 10
58.32460529140843
 20
-77.3044975935211
 30
0.0
 10
58.3550943864529
 20
-76.94689668215217
 30
0.0
 10
58.41848414338149
 20
-76.868693014637
 30
0.0
 10
58.78969318191717
 20
-76.57034774561436
 30
0.0
 10
59.03653427343531
 20
-76.37156573611544
 30
0.0
 10
59.09975177558965
 20
-76.30386960983029
 30
0.0
 10
59.09975177558965
 20
-76.16641029996882
 30
0.0
 10
59.09975177558965
 20
-76.04789901527623
 30
0.0
 10
59.03050535633613
 20
-75.91681313206247
 30
0.0
 10
58.84068059509886
 20
-75.91681313206247
 30
0.0
 10
58.58970538899841
 20
-75.91681313206247
 30
0.0
 10
58.58160941460807
 20
-76.14729002002568
 30
0.0
 10
58.57747530002577
 20
-76.26373424742712
 30
0.0
 10
58.57747530002577
 20
-76.26373424742712
 30
0.0
 10
58.36129555832635
 20
-76.26373424742712
 30
0.0
 10
58.36129555832635
 20
-76.26373424742712
 30
0.0
 10
58.36939153271668
 20
-76.13678247879567
 30
0.0
 10
58.37955456439817
 20
-76.02464462075079
 30
0.0
 10
58.45724146759056
 20
-75.90613333605819
 30
0.0
 10
58.56317815376199
 20
-75.74541963167128
 30
0.0
 10
58.74283988331776
 20
-75.71148544114158
 30
0.0
 10
58.85497774136265
 20
-75.71148544114158
 30
0.0
 10
59.12231715101804
 20
-75.71148544114158
 30
0.0
 10
59.32213268916252
 20
-75.89562579482818
 30
0.0
 10
59.32213268916252
 20
-76.16847735725997
 30
0.0
 10
59.32213268916252
 20
-76.39688718793204
 30
0.0
 10
59.20999483111764
 20
-76.49645044745576
 30
0.0
 10
58.9121663264178
 20
-76.72279322083666
 30
0.0
  0
HATCH
  5
D4
330
CF
100
AcDbEntity
  8
_U+30EC_U+30A4_U+30E4_U+30FC 1
 62
   179
420
  2234388
100
AcDbHatch
 10
0.0
 20
0.0
 30
0.0
210
0.0
220
0.0
230
1.0
  2
SOLID
 70
     1
 71
     0
 91
        1
 92
        1
 93
        1
 72
     4
 94
        3
 73
     0
 74
     1
 95
       44
 96
       40
 40
0.0
 40
0.0
 40
0.0
 40
0.0
 40
1.0
 40
1.0
 40
1.0
 40
2.0
 40
2.0
 40
2.0
 40
3.0
 40
3.0
 40
3.0
 40
4.0
 40
4.0
 40
4.0
 40
5.0
 40
5.0
 40
5.0
 40
6.0
 40
6.0
 40
6.0
 40
7.0
 40
7.0
 40
7.0
 40
8.0
 40
8.0
 40
8.0
 40
9.0
 40
9.0
 40
9.0
 40
10.0
 40
10.0
 40
10.0
 40
11.0
 40
11.0
 40
11.0
 40
12.0
 40
12.0
 40
12.0
 40
13.0
 40
13.0
 40
13.0
 40
13.0
 10
58.9121663264178
 20
-76.72279322083666
 10
58.70201550181756
 20
-76.88143986793241
 10
58.6122707644268
 20
-76.9555094208653
 10
58.56524521105314
 20
-77.09934215737448
 10
58.56524521105314
 20
-77.09934215737448
 10
59.31610377206334
 20
-77.09934215737448
 10
59.31610377206334
 20
-77.09934215737448
 10
59.31610377206334
 20
-77.09934215737448
 10
59.31610377206334
 20
-77.3044975935211
 10
59.31610377206334
 20
-77.3044975935211
 10
59.31610377206334
 20
-77.3044975935211
 10
58.32460529140843
 20
-77.3044975935211
 10
58.32460529140843
 20
-77.3044975935211
 10
58.3550943864529
 20
-76.94689668215217
 10
58.41848414338149
 20
-76.868693014637
 10
58.78969318191717
 20
-76.57034774561436
 10
59.03653427343531
 20
-76.37156573611544
 10
59.09975177558965
 20
-76.30386960983029
 10
59.09975177558965
 20
-76.16641029996882
 10
59.09975177558965
 20
-76.04789901527623
 10
59.03050535633613
 20
-75.91681313206247
 10
58.84068059509886
 20
-75.91681313206247
 10
58.58970538899841
 20
-75.91681313206247
 10
58.58160941460807
 20
-76.14729002002568
 10
58.57747530002577
 20
-76.26373424742712
 10
58.57747530002577
 20
-76.26373424742712
 10
58.36129555832635
 20
-76.26373424742712
 10
58.36129555832635
 20
-76.26373424742712
 10
58.36939153271668
 20
-76.13678247879567
 10
58.37955456439817
 20
-76.02464462075079
 10
58.45724146759056
 20
-75.90613333605819
 10
58.56317815376199
 20
-75.74541963167128
 10
58.74283988331776
 20
-75.71148544114158
 10
58.85497774136265
 20
-75.71148544114158
 10
59.12231715101804
 20
-75.71148544114158
 10
59.32213268916252
 20
-75.89562579482818
 10
59.32213268916252
 20
-76.16847735725997
 10
59.32213268916252
 20
-76.39688718793204
 10
59.20999483111764
 20
-76.49645044745576
 10
58.9121663264178
 20
-76.72279322083666
 97
        0
 97
        0
 75
     2
 76
     1
 98
        0
  0
SPLINE
  5
D5
330
CF
100
AcDbEntity
  8
_U+30EC_U+30A4_U+30E4_U+30FC 1
370
     0
100
AcDbSpline
210
0.0
220
0.0
230
1.0
 70
    11
 71
     3
 72
    62
 73
    58
 74
     0
 42
0.0000000001
 43
0.0000000001
 12
1.0
 22
0.0
 32
0.0
 13
1.0
 23
0.0
 33
0.0
 40
0.0
 40
0.0
 40
0.0
 40
0.0
 40
1.0
 40
1.0
 40
1.0
 40
2.0
 40
2.0
 40
2.0
 40
3.0
 40
3.0
 40
3.0
 40
4.0
 40
4.0
 40
4.0
 40
5.0
 40
5.0
 40
5.0
 40
6.0
 40
6.0
 40
6.0
 40
7.0
 40
7.0
 40
7.0
 40
8.0
 40
8.0
 40
8.0
 40
9.0
 40
9.0
 40
9.0
 40
10.0
 40
10.0
 40
10.0
 40
11.0
 40
11.0
 40
11.0
 40
12.0
 40
12.0
 40
12.0
 40
13.0
 40
13.0
 40
13.0
 40
14.0
 40
14.0
 40
14.0
 40
15.0
 40
15.0
 40
15.0
 40
16.0
 40
16.0
 40
16.0
 40
17.0
 40
17.0
 40
17.0
 40
18.0
 40
18.0
 40
18.0
 40
19.0
 40
19.0
 40
19.0
 40
19.0
 10
59.94758977450963
 20
-77.35531275192854
 30
0.0
 10
59.85577797982773
 20
-77.35531275192854
 30
0.0
 10
59.64562715522749
 20
-77.33412541469426
 30
0.0
 10
59.52539332279227
 20
-77.1479180037165
 30
0.0
 10
59.45390759147333
 20
-77.03578014567161
 30
0.0
 10
59.44977347689103
 20
-76.93638914092216
 30
0.0
 10
59.445811617083
 20
-76.85181204675928
 30
0.0
 10
59.445811617083
 20
-76.85181204675928
 30
0.0
 10
59.65785724420012
 20
-76.85181204675928
 30
0.0
 10
59.65785724420012
 20
-76.85181204675928
 30
0.0
 10
59.65992430149127
 20
-76.92588159969215
 30
0.0
 10
59.67008733317276
 20
-77.16066485701192
 30
0.0
 10
59.94362791470159
 20
-77.16066485701192
 30
0.0
 10
60.07609183610946
 20
-77.16066485701192
 30
0.0
 10
60.22302515855536
 20
-77.09090167343561
 30
0.0
 10
60.22302515855536
 20
-76.86231958798929
 30
0.0
 10
60.22302515855536
 20
-76.7460476153621
 30
0.0
 10
60.18633489163744
 20
-76.69729951424581
 30
0.0
 10
60.15567354181872
 20
-76.66560463578152
 30
0.0
 10
60.08436006527405
 20
-76.59153508284865
 30
0.0
 10
59.97204995245491
 20
-76.57896048432748
 30
0.0
 10
59.91899548198206
 20
-76.57896048432748
 30
0.0
 10
59.90073647591024
 20
-76.57896048432748
 30
0.0
 10
59.86594101150921
 20
-76.58102754161864
 30
0.0
 10
59.83941377627279
 20
-76.58516165620094
 30
0.0
 10
59.83941377627279
 20
-76.58516165620094
 30
0.0
 10
59.83941377627279
 20
-76.39051376128432
 30
0.0
 10
59.83941377627279
 20
-76.39051376128432
 30
0.0
 10
59.87627629796496
 20
-76.39688718793204
 30
0.0
 10
59.91710067946517
 20
-76.39912649999745
 30
0.0
 10
59.92312959656436
 20
-76.39912649999745
 30
0.0
 10
59.9863470987187
 20
-76.39912649999745
 30
0.0
 10
60.17823891724711
 20
-76.37793916276316
 30
0.0
 10
60.17823891724711
 20
-76.14091659337797
 30
0.0
 10
60.17823891724711
 20
-75.96332192111333
 30
0.0
 10
60.05163165816418
 20
-75.90820039334935
 30
0.0
 10
59.94552271721848
 20
-75.90820039334935
 30
0.0
 10
59.69058565130999
 20
-75.90820039334935
 30
0.0
 10
59.68248967691966
 20
-76.14091659337797
 30
0.0
 10
59.67835556233736
 20
-76.21291908901969
 30
0.0
 10
59.67835556233736
 20
-76.21291908901969
 30
0.0
 10
59.4825018840009
 20
-76.21291908901969
 30
0.0
 10
59.4825018840009
 20
-76.21291908901969
 30
0.0
 10
59.49059785839124
 20
-76.08803437767938
 30
0.0
 10
59.51712509362767
 20
-75.71148544114158
 30
0.0
 10
59.95775280619112
 20
-75.71148544114158
 30
0.0
 10
60.17410480266481
 20
-75.71148544114158
 30
0.0
 10
60.40664874791917
 20
-75.83843720977303
 30
0.0
 10
60.40664874791917
 20
-76.13454316673025
 30
0.0
 10
60.40664874791917
 20
-76.32075057770801
 30
0.0
 10
60.31483695323727
 20
-76.40326061457975
 30
0.0
 10
60.21889104397306
 20
-76.4645833142172
 30
0.0
 10
60.27814668631935
 20
-76.49214407809919
 30
0.0
 10
60.45350204651857
 20
-76.57258705767977
 30
0.0
 10
60.45350204651857
 20
-76.84974498946812
 30
0.0
 10
60.45350204651857
 20
-77.18822562089392
 30
0.0
 10
60.21492918416502
 20
-77.35531275192854
 30
0.0
 10
59.94758977450963
 20
-77.35531275192854
 30
0.0
  0
HATCH
  5
D6
330
CF
100
AcDbEntity
  8
_U+30EC_U+30A4_U+30E4_U+30FC 1
 62
   179
420
  2234388
100
AcDbHatch
 10
0.0
 20
0.0
 30
0.0
210
0.0
220
0.0
230
1.0
  2
SOLID
 70
     1
 71
     0
 91
        1
 92
        1
 93
        1
 72
     4
 94
        3
 73
     0
 74
     1
 95
       62
 96
       58
 40
0.0
 40
0.0
 40
0.0
 40
0.0
 40
1.0
 40
1.0
 40
1.0
 40
2.0
 40
2.0
 40
2.0
 40
3.0
 40
3.0
 40
3.0
 40
4.0
 40
4.0
 40
4.0
 40
5.0
 40
5.0
 40
5.0
 40
6.0
 40
6.0
 40
6.0
 40
7.0
 40
7.0
 40
7.0
 40
8.0
 40
8.0
 40
8.0
 40
9.0
 40
9.0
 40
9.0
 40
10.0
 40
10.0
 40
10.0
 40
11.0
 40
11.0
 40
11.0
 40
12.0
 40
12.0
 40
12.0
 40
13.0
 40
13.0
 40
13.0
 40
14.0
 40
14.0
 40
14.0
 40
15.0
 40
15.0
 40
15.0
 40
16.0
 40
16.0
 40
16.0
 40
17.0
 40
17.0
 40
17.0
 40
18.0
 40
18.0
 40
18.0
 40
19.0
 40
19.0
 40
19.0
 40
19.0
 10
59.94758977450963
 20
-77.35531275192854
 10
59.85577797982773
 20
-77.35531275192854
 10
59.64562715522749
 20
-77.33412541469426
 10
59.52539332279227
 20
-77.1479180037165
 10
59.45390759147333
 20
-77.03578014567161
 10
59.44977347689103
 20
-76.93638914092216
 10
59.445811617083
 20
-76.85181204675928
 10
59.445811617083
 20
-76.85181204675928
 10
59.65785724420012
 20
-76.85181204675928
 10
59.65785724420012
 20
-76.85181204675928
 10
59.65992430149127
 20
-76.92588159969215
 10
59.67008733317276
 20
-77.16066485701192
 10
59.94362791470159
 20
-77.16066485701192
 10
60.07609183610946
 20
-77.16066485701192
 10
60.22302515855536
 20
-77.09090167343561
 10
60.22302515855536
 20
-76.86231958798929
 10
60.22302515855536
 20
-76.7460476153621
 10
60.18633489163744
 20
-76.69729951424581
 10
60.15567354181872
 20
-76.66560463578152
 10
60.08436006527405
 20
-76.59153508284865
 10
59.97204995245491
 20
-76.57896048432748
 10
59.91899548198206
 20
-76.57896048432748
 10
59.90073647591024
 20
-76.57896048432748
 10
59.86594101150921
 20
-76.58102754161864
 10
59.83941377627279
 20
-76.58516165620094
 10
59.83941377627279
 20
-76.58516165620094
 10
59.83941377627279
 20
-76.39051376128432
 10
59.83941377627279
 20
-76.39051376128432
 10
59.87627629796496
 20
-76.39688718793204
 10
59.91710067946517
 20
-76.39912649999745
 10
59.92312959656436
 20
-76.39912649999745
 10
59.9863470987187
 20
-76.39912649999745
 10
60.17823891724711
 20
-76.37793916276316
 10
60.17823891724711
 20
-76.14091659337797
 10
60.17823891724711
 20
-75.96332192111333
 10
60.05163165816418
 20
-75.90820039334935
 10
59.94552271721848
 20
-75.90820039334935
 10
59.69058565130999
 20
-75.90820039334935
 10
59.68248967691966
 20
-76.14091659337797
 10
59.67835556233736
 20
-76.21291908901969
 10
59.67835556233736
 20
-76.21291908901969
 10
59.4825018840009
 20
-76.21291908901969
 10
59.4825018840009
 20
-76.21291908901969
 10
59.49059785839124
 20
-76.08803437767938
 10
59.51712509362767
 20
-75.71148544114158
 10
59.95775280619112
 20
-75.71148544114158
 10
60.17410480266481
 20
-75.71148544114158
 10
60.40664874791917
 20
-75.83843720977303
 10
60.40664874791917
 20
-76.13454316673025
 10
60.40664874791917
 20
-76.32075057770801
 10
60.31483695323727
 20
-76.40326061457975
 10
60.21889104397306
 20
-76.4645833142172
 10
60.27814668631935
 20
-76.49214407809919
 10
60.45350204651857
 20
-76.57258705767977
 10
60.45350204651857
 20
-76.84974498946812
 10
60.45350204651857
 20
-77.18822562089392
 10
60.21492918416502
 20
-77.35531275192854
 10
59.94758977450963
 20
-77.35531275192854
 97
        0
 97
        0
 75
     2
 76
     1
 98
        0
  0
ENDBLK
  5
D2
330
CF
100
AcDbEntity
  8
0
100
AcDbBlockEnd
  0
BLOCK
  5
D9
330
D7
100
AcDbEntity
  8
0
100
AcDbBlockBegin
  2
block 12
 70
     0
 10
0.0
 20
0.0
 30
0.0
  3
block 12
  1

  0
POLYLINE
  5
DB
330
D7
100
AcDbEntity
  8
_U+30EC_U+30A4_U+30E4_U+30FC 1
 62
   179
420
  2234388
370
    25
100
AcDb2dPolyline
 66
     1
 10
0.0
 20
0.0
 30
0.0
  0
VERTEX
  5
DC
330
DB
100
AcDbEntity
  8
_U+30EC_U+30A4_U+30E4_U+30FC 1
 62
   179
420
  2234388
370
    25
100
AcDbVertex
100
AcDb2dVertex
 10
50.45946232378298
 20
-95.7151021982935
 30
0.0
  0
VERTEX
  5
DD
330
DB
100
AcDbEntity
  8
_U+30EC_U+30A4_U+30E4_U+30FC 1
 62
   179
420
  2234388
370
    25
100
AcDbVertex
100
AcDb2dVertex
 10
51.33431591257472
 20
-95.7151021982935
 30
0.0
  0
SEQEND
  5
DE
330
DB
100
AcDbEntity
  8
_U+30EC_U+30A4_U+30E4_U+30FC 1
 62
   179
420
  2234388
370
    25
  0
POLYLINE
  5
DF
330
D7
100
AcDbEntity
  8
_U+30EC_U+30A4_U+30E4_U+30FC 1
 62
   179
420
  2234388
370
    25
100
AcDb2dPolyline
 66
     1
 10
0.0
 20
0.0
 30
0.0
  0
VERTEX
  5
E0
330
DF
100
AcDbEntity
  8
_U+30EC_U+30A4_U+30E4_U+30FC 1
 62
   179
420
  2234388
370
    25
100
AcDbVertex
100
AcDb2dVertex
 10
70.88490708046425
 20
-82.25320803499224
 30
0.0
  0
VERTEX
  5
E1
330
DF
100
AcDbEntity
  8
_U+30EC_U+30A4_U+30E4_U+30FC 1
 62
   179
420
  2234388
370
    25
100
AcDbVertex
100
AcDb2dVertex
 10
70.88490708046425
 20
-83.06212747923433
 30
0.0
  0
SEQEND
  5
E2
330
DF
100
AcDbEntity
  8
_U+30EC_U+30A4_U+30E4_U+30FC 1
 62
   179
420
  2234388
370
    25
  0
POLYLINE
  5
E3
330
D7
100
AcDbEntity
  8
_U+30EC_U+30A4_U+30E4_U+30FC 1
 62
   179
420
  2234388
370
    25
100
AcDb2dPolyline
 66
     1
 10
0.0
 20
0.0
 30
0.0
  0
VERTEX
  5
E4
330
E3
100
AcDbEntity
  8
_U+30EC_U+30A4_U+30E4_U+30FC 1
 62
   179
420
  2234388
370
    25
100
AcDbVertex
100
AcDb2dVertex
 10
48.565858321192
 20
-83.03799747924066
 30
0.0
  0
VERTEX
  5
E5
330
E3
100
AcDbEntity
  8
_U+30EC_U+30A4_U+30E4_U+30FC 1
 62
   179
420
  2234388
370
    25
100
AcDbVertex
100
AcDb2dVertex
 10
70.88490708046425
 20
-83.03799747924066
 30
0.0
  0
SEQEND
  5
E6
330
E3
100
AcDbEntity
  8
_U+30EC_U+30A4_U+30E4_U+30FC 1
 62
   179
420
  2234388
370
    25
  0
POLYLINE
  5
E7
330
D7
100
AcDbEntity
  8
_U+30EC_U+30A4_U+30E4_U+30FC 1
 62
   179
420
  2234388
370
    25
100
AcDb2dPolyline
 66
     1
 10
0.0
 20
0.0
 30
0.0
  0
VERTEX
  5
E8
330
E7
100
AcDbEntity
  8
_U+30EC_U+30A4_U+30E4_U+30FC 1
 62
   179
420
  2234388
370
    25
100
AcDbVertex
100
AcDb2dVertex
 10
46.48503270295691
 20
-98.45050580872065
 30
0.0
  0
VERTEX
  5
E9
330
E7
100
AcDbEntity
  8
_U+30EC_U+30A4_U+30E4_U+30FC 1
 62
   179
420
  2234388
370
    25
100
AcDbVertex
100
AcDb2dVertex
 10
51.27353230301432
 20
-98.45050580872065
 30
0.0
  0
SEQEND
  5
EA
330
E7
100
AcDbEntity
  8
_U+30EC_U+30A4_U+30E4_U+30FC 1
 62
   179
420
  2234388
370
    25
  0
POLYLINE
  5
EB
330
D7
100
AcDbEntity
  8
_U+30EC_U+30A4_U+30E4_U+30FC 1
 62
   179
420
  2234388
370
    25
100
AcDb2dPolyline
 66
     1
 10
0.0
 20
0.0
 30
0.0
  0
VERTEX
  5
EC
330
EB
100
AcDbEntity
  8
_U+30EC_U+30A4_U+30E4_U+30FC 1
 62
   179
420
  2234388
370
    25
100
AcDbVertex
100
AcDb2dVertex
 10
47.88510183390483
 20
-82.21461414611291
 30
0.0
  0
VERTEX
  5
ED
330
EB
100
AcDbEntity
  8
_U+30EC_U+30A4_U+30E4_U+30FC 1
 62
   179
420
  2234388
370
    25
100
AcDbVertex
100
AcDb2dVertex
 10
70.88490708046425
 20
-82.21461414611291
 30
0.0
  0
SEQEND
  5
EE
330
EB
100
AcDbEntity
  8
_U+30EC_U+30A4_U+30E4_U+30FC 1
 62
   179
420
  2234388
370
    25
  0
POLYLINE
  5
EF
330
D7
100
AcDbEntity
  8
_U+30EC_U+30A4_U+30E4_U+30FC 1
 62
   179
420
  2234388
370
    25
100
AcDb2dPolyline
 66
     1
 10
0.0
 20
0.0
 30
0.0
  0
VERTEX
  5
F0
330
EF
100
AcDbEntity
  8
_U+30EC_U+30A4_U+30E4_U+30FC 1
 62
   179
420
  2234388
370
    25
100
AcDbVertex
100
AcDb2dVertex
 10
51.30866896878458
 20
-95.7151021982935
 30
0.0
  0
VERTEX
  5
F1
330
EF
100
AcDbEntity
  8
_U+30EC_U+30A4_U+30E4_U+30FC 1
 62
   179
420
  2234388
370
    25
100
AcDbVertex
100
AcDb2dVertex
 10
51.30866896878458
 20
-98.45050580872065
 30
0.0
  0
SEQEND
  5
F2
330
EF
100
AcDbEntity
  8
_U+30EC_U+30A4_U+30E4_U+30FC 1
 62
   179
420
  2234388
370
    25
  0
POLYLINE
  5
F3
330
D7
100
AcDbEntity
  8
_U+30EC_U+30A4_U+30E4_U+30FC 1
 62
   179
420
  2234388
370
    25
100
AcDb2dPolyline
 66
     1
 10
0.0
 20
0.0
 30
0.0
  0
VERTEX
  5
F4
330
F3
100
AcDbEntity
  8
_U+30EC_U+30A4_U+30E4_U+30FC 1
 62
   179
420
  2234388
370
    25
100
AcDbVertex
100
AcDb2dVertex
 10
46.48503270295691
 20
-97.71461136446041
 30
0.0
  0
VERTEX
  5
F5
330
F3
100
AcDbEntity
  8
_U+30EC_U+30A4_U+30E4_U+30FC 1
 62
   179
420
  2234388
370
    25
100
AcDbVertex
100
AcDb2dVertex
 10
46.98506109936474
 20
-97.71461136446041
 30
0.0
  0
SEQEND
  5
F6
330
F3
100
AcDbEntity
  8
_U+30EC_U+30A4_U+30E4_U+30FC 1
 62
   179
420
  2234388
370
    25
  0
POLYLINE
  5
F7
330
D7
100
AcDbEntity
  8
_U+30EC_U+30A4_U+30E4_U+30FC 1
 62
   179
420
  2234388
370
    25
100
AcDb2dPolyline
 66
     1
 10
0.0
 20
0.0
 30
0.0
  0
VERTEX
  5
F8
330
F7
100
AcDbEntity
  8
_U+30EC_U+30A4_U+30E4_U+30FC 1
 62
   179
420
  2234388
370
    25
100
AcDbVertex
100
AcDb2dVertex
 10
50.48510926757312
 20
-95.7151021982935
 30
0.0
  0
VERTEX
  5
F9
330
F7
100
AcDbEntity
  8
_U+30EC_U+30A4_U+30E4_U+30FC 1
 62
   179
420
  2234388
370
    25
100
AcDbVertex
100
AcDb2dVertex
 10
50.48510926757312
 20
-97.71461136446041
 30
0.0
  0
SEQEND
  5
FA
330
F7
100
AcDbEntity
  8
_U+30EC_U+30A4_U+30E4_U+30FC 1
 62
   179
420
  2234388
370
    25
  0
POLYLINE
  5
FB
330
D7
100
AcDbEntity
  8
_U+30EC_U+30A4_U+30E4_U+30FC 1
 62
   179
420
  2234388
370
    25
100
AcDb2dPolyline
 66
     1
 10
0.0
 20
0.0
 30
0.0
  0
VERTEX
  5
FC
330
FB
100
AcDbEntity
  8
_U+30EC_U+30A4_U+30E4_U+30FC 1
 62
   179
420
  2234388
370
    25
100
AcDbVertex
100
AcDb2dVertex
 10
46.48503270295691
 20
-97.64708969781073
 30
0.0
  0
VERTEX
  5
FD
330
FB
100
AcDbEntity
  8
_U+30EC_U+30A4_U+30E4_U+30FC 1
 62
   179
420
  2234388
370
    25
100
AcDbVertex
100
AcDb2dVertex
 10
46.48503270295691
 20
-98.31683830875417
 30
0.0
  0
SEQEND
  5
FE
330
FB
100
AcDbEntity
  8
_U+30EC_U+30A4_U+30E4_U+30FC 1
 62
   179
420
  2234388
370
    25
  0
POLYLINE
  5
FF
330
D7
100
AcDbEntity
  8
_U+30EC_U+30A4_U+30E4_U+30FC 1
 62
   179
420
  2234388
370
    25
100
AcDb2dPolyline
 66
     1
 10
0.0
 20
0.0
 30
0.0
  0
VERTEX
  5
100
330
FF
100
AcDbEntity
  8
_U+30EC_U+30A4_U+30E4_U+30FC 1
 62
   179
420
  2234388
370
    25
100
AcDbVertex
100
AcDb2dVertex
 10
47.72197739362204
 20
-97.71461136446041
 30
0.0
  0
VERTEX
  5
101
330
FF
100
AcDbEntity
  8
_U+30EC_U+30A4_U+30E4_U+30FC 1
 62
   179
420
  2234388
370
    25
100
AcDbVertex
100
AcDb2dVertex
 10
50.48510926757312
 20
-97.71461136446041
 30
0.0
  0
SEQEND
  5
102
330
FF
100
AcDbEntity
  8
_U+30EC_U+30A4_U+30E4_U+30FC 1
 62
   179
420
  2234388
370
    25
  0
POLYLINE
  5
103
330
D7
100
AcDbEntity
  8
_U+30EC_U+30A4_U+30E4_U+30FC 1
 62
   179
420
  2234388
370
    25
100
AcDb2dPolyline
 66
     1
 10
0.0
 20
0.0
 30
0.0
  0
VERTEX
  5
104
330
103
100
AcDbEntity
  8
_U+30EC_U+30A4_U+30E4_U+30FC 1
 62
   179
420
  2234388
370
    25
100
AcDbVertex
100
AcDb2dVertex
 10
47.88510183390483
 20
-82.21461414611291
 30
0.0
  0
VERTEX
  5
105
330
103
100
AcDbEntity
  8
_U+30EC_U+30A4_U+30E4_U+30FC 1
 62
   179
420
  2234388
370
    25
100
AcDbVertex
100
AcDb2dVertex
 10
46.98506109936474
 20
-97.71461136446041
 30
0.0
  0
SEQEND
  5
106
330
103
100
AcDbEntity
  8
_U+30EC_U+30A4_U+30E4_U+30FC 1
 62
   179
420
  2234388
370
    25
  0
POLYLINE
  5
107
330
D7
100
AcDbEntity
  8
_U+30EC_U+30A4_U+30E4_U+30FC 1
 62
   179
420
  2234388
370
    25
100
AcDb2dPolyline
 66
     1
 10
0.0
 20
0.0
 30
0.0
  0
VERTEX
  5
108
330
107
100
AcDbEntity
  8
_U+30EC_U+30A4_U+30E4_U+30FC 1
 62
   179
420
  2234388
370
    25
100
AcDbVertex
100
AcDb2dVertex
 10
48.565858321192
 20
-83.12619192366304
 30
0.0
  0
VERTEX
  5
109
330
107
100
AcDbEntity
  8
_U+30EC_U+30A4_U+30E4_U+30FC 1
 62
   179
420
  2234388
370
    25
100
AcDbVertex
100
AcDb2dVertex
 10
47.72197739362204
 20
-97.71461136446041
 30
0.0
  0
SEQEND
  5
10A
330
107
100
AcDbEntity
  8
_U+30EC_U+30A4_U+30E4_U+30FC 1
 62
   179
420
  2234388
370
    25
  0
ENDBLK
  5
DA
330
D7
100
AcDbEntity
  8
0
100
AcDbBlockEnd
  0
ENDSEC
  0
SECTION
  2
ENTITIES
  0
SPLINE
  5
41
330
1F
100
AcDbEntity
  8
_U+30EC_U+30A4_U+30E4_U+30FC 1
 62
   179
420
  2234388
370
     9
100
AcDbSpline
210
0.0
220
0.0
230
1.0
 70
    11
 71
     3
 72
    17
 73
    13
 74
     0
 42
0.0000000001
 43
0.0000000001
 12
1.0
 22
0.0
 32
0.0
 13
1.0
 23
0.0
 33
0.0
 40
0.0
 40
0.0
 40
0.0
 40
0.0
 40
1.0
 40
1.0
 40
1.0
 40
2.0
 40
2.0
 40
2.0
 40
3.0
 40
3.0
 40
3.0
 40
4.0
 40
4.0
 40
4.0
 40
4.0
 10
70.98481374458208
 20
-77.95027164717915
 30
0.0
 10
70.98481374458208
 20
-77.89516775830391
 30
0.0
 10
70.94001096794732
 20
-77.85036498053752
 30
0.0
 10
70.88490708046425
 20
-77.85036498053752
 30
0.0
 10
70.8297679152043
 20
-77.85036498053752
 30
0.0
 10
70.7850004163464
 20
-77.89516775830391
 30
0.0
 10
70.7850004163464
 20
-77.95027164717915
 30
0.0
 10
70.7850004163464
 20
-78.00541081383192
 30
0.0
 10
70.8297679152043
 20
-78.0501783138208
 30
0.0
 10
70.88490708046425
 20
-78.0501783138208
 30
0.0
 10
70.94001096794732
 20
-78.0501783138208
 30
0.0
 10
70.98481374458208
 20
-78.00541081383192
 30
0.0
 10
70.98481374458208
 20
-77.95027164717915
 30
0.0
  0
SPLINE
  5
42
330
1F
100
AcDbEntity
  8
_U+30EC_U+30A4_U+30E4_U+30FC 1
 62
   179
420
  2234388
370
     9
100
AcDbSpline
210
0.0
220
0.0
230
1.0
 70
    11
 71
     3
 72
    17
 73
    13
 74
     0
 42
0.0000000001
 43
0.0000000001
 12
1.0
 22
0.0
 32
0.0
 13
1.0
 23
0.0
 33
0.0
 40
0.0
 40
0.0
 40
0.0
 40
0.0
 40
1.0
 40
1.0
 40
1.0
 40
2.0
 40
2.0
 40
2.0
 40
3.0
 40
3.0
 40
3.0
 40
4.0
 40
4.0
 40
4.0
 40
4.0
 10
74.9845728092064
 20
-82.24975081277096
 30
0.0
 10
74.9845728092064
 20
-82.19464692389572
 30
0.0
 10
74.93977003257163
 20
-82.14984414612931
 30
0.0
 10
74.88466614508856
 20
-82.14984414612931
 30
0.0
 10
74.82952697982861
 20
-82.14984414612931
 30
0.0
 10
74.78475948097072
 20
-82.19464692389572
 30
0.0
 10
74.78475948097072
 20
-82.24975081277096
 30
0.0
 10
74.78475948097072
 20
-82.3048899794237
 30
0.0
 10
74.82952697982861
 20
-82.34965747941258
 30
0.0
 10
74.88466614508856
 20
-82.34965747941258
 30
0.0
 10
74.93977003257163
 20
-82.34965747941258
 30
0.0
 10
74.9845728092064
 20
-82.3048899794237
 30
0.0
 10
74.9845728092064
 20
-82.24975081277096
 30
0.0
  0
SPLINE
  5
43
330
1F
100
AcDbEntity
  8
_U+30EC_U+30A4_U+30E4_U+30FC 1
 62
   179
420
  2234388
370
     9
100
AcDbSpline
210
0.0
220
0.0
230
1.0
 70
    11
 71
     3
 72
    17
 73
    13
 74
     0
 42
0.0000000001
 43
0.0000000001
 12
1.0
 22
0.0
 32
0.0
 13
1.0
 23
0.0
 33
0.0
 40
0.0
 40
0.0
 40
0.0
 40
0.0
 40
1.0
 40
1.0
 40
1.0
 40
2.0
 40
2.0
 40
2.0
 40
3.0
 40
3.0
 40
3.0
 40
4.0
 40
4.0
 40
4.0
 40
4.0
 10
74.98492558697517
 20
-95.4505188650263
 30
0.0
 10
74.98492558697517
 20
-95.39537969837322
 30
0.0
 10
74.94012281034041
 20
-95.35061219838467
 30
0.0
 10
74.88501892285734
 20
-95.35061219838467
 30
0.0
 10
74.82952697982861
 20
-95.35061219838467
 30
0.0
 10
74.78475948097072
 20
-95.39537969837322
 30
0.0
 10
74.78475948097072
 20
-95.4505188650263
 30
0.0
 10
74.78475948097072
 20
-95.50562275390122
 30
0.0
 10
74.82952697982861
 20
-95.55042553166794
 30
0.0
 10
74.88501892285734
 20
-95.55042553166794
 30
0.0
 10
74.94012281034041
 20
-95.55042553166794
 30
0.0
 10
74.98492558697517
 20
-95.50562275390122
 30
0.0
 10
74.98492558697517
 20
-95.4505188650263
 30
0.0
  0
SPLINE
  5
44
330
1F
100
AcDbEntity
  8
_U+30EC_U+30A4_U+30E4_U+30FC 1
 62
   179
420
  2234388
370
     9
100
AcDbSpline
210
0.0
220
0.0
230
1.0
 70
    11
 71
     3
 72
    17
 73
    13
 74
     0
 42
0.0000000001
 43
0.0000000001
 12
1.0
 22
0.0
 32
0.0
 13
1.0
 23
0.0
 33
0.0
 40
0.0
 40
0.0
 40
0.0
 40
0.0
 40
1.0
 40
1.0
 40
1.0
 40
2.0
 40
2.0
 40
2.0
 40
3.0
 40
3.0
 40
3.0
 40
4.0
 40
4.0
 40
4.0
 40
4.0
 10
74.98492558697517
 20
-82.94980303481826
 30
0.0
 10
74.98492558697517
 20
-82.89469914594302
 30
0.0
 10
74.94012281034041
 20
-82.8498963681763
 30
0.0
 10
74.88501892285734
 20
-82.8498963681763
 30
0.0
 10
74.82952697982861
 20
-82.8498963681763
 30
0.0
 10
74.78475948097072
 20
-82.89469914594302
 30
0.0
 10
74.78475948097072
 20
-82.94980303481826
 30
0.0
 10
74.78475948097072
 20
-83.0056124792487
 30
0.0
 10
74.82952697982861
 20
-83.05041525701509
 30
0.0
 10
74.88501892285734
 20
-83.05041525701509
 30
0.0
 10
74.94012281034041
 20
-83.05041525701509
 30
0.0
 10
74.98492558697517
 20
-83.0056124792487
 30
0.0
 10
74.98492558697517
 20
-82.94980303481826
 30
0.0
  0
SPLINE
  5
45
330
1F
100
AcDbEntity
  8
_U+30EC_U+30A4_U+30E4_U+30FC 1
 62
   179
420
  2234388
370
     9
100
AcDbSpline
210
0.0
220
0.0
230
1.0
 70
    11
 71
     3
 72
    17
 73
    13
 74
     0
 42
0.0000000001
 43
0.0000000001
 12
1.0
 22
0.0
 32
0.0
 13
1.0
 23
0.0
 33
0.0
 40
0.0
 40
0.0
 40
0.0
 40
0.0
 40
1.0
 40
1.0
 40
1.0
 40
2.0
 40
2.0
 40
2.0
 40
3.0
 40
3.0
 40
3.0
 40
4.0
 40
4.0
 40
4.0
 40
4.0
 10
55.58507776388162
 20
-95.4505188650263
 30
0.0
 10
55.58507776388162
 20
-95.39537969837322
 30
0.0
 10
55.54027498611489
 20
-95.35061219838467
 30
0.0
 10
55.48499330668211
 20
-95.35061219838467
 30
0.0
 10
55.42985554169802
 20
-95.35061219838467
 30
0.0
 10
55.38508664256427
 20
-95.39537969837322
 30
0.0
 10
55.38508664256427
 20
-95.4505188650263
 30
0.0
 10
55.38508664256427
 20
-95.50562275390122
 30
0.0
 10
55.42985554169802
 20
-95.55042553166794
 30
0.0
 10
55.48499330668211
 20
-95.55042553166794
 30
0.0
 10
55.54027498611489
 20
-95.55042553166794
 30
0.0
 10
55.58507776388162
 20
-95.50562275390122
 30
0.0
 10
55.58507776388162
 20
-95.4505188650263
 30
0.0
  0
SPLINE
  5
46
330
1F
100
AcDbEntity
  8
_U+30EC_U+30A4_U+30E4_U+30FC 1
 62
   179
420
  2234388
370
     9
100
AcDbSpline
210
0.0
220
0.0
230
1.0
 70
    11
 71
     3
 72
    17
 73
    13
 74
     0
 42
0.0000000001
 43
0.0000000001
 12
1.0
 22
0.0
 32
0.0
 13
1.0
 23
0.0
 33
0.0
 40
0.0
 40
0.0
 40
0.0
 40
0.0
 40
1.0
 40
1.0
 40
1.0
 40
2.0
 40
2.0
 40
2.0
 40
3.0
 40
3.0
 40
3.0
 40
4.0
 40
4.0
 40
4.0
 40
4.0
 10
55.58507776388162
 20
-98.45050580872065
 30
0.0
 10
55.58507776388162
 20
-98.39536664206757
 30
0.0
 10
55.54027498611489
 20
-98.350599142079
 30
0.0
 10
55.48499330668211
 20
-98.350599142079
 30
0.0
 10
55.42985554169802
 20
-98.350599142079
 30
0.0
 10
55.38508664256427
 20
-98.39536664206757
 30
0.0
 10
55.38508664256427
 20
-98.45050580872065
 30
0.0
 10
55.38508664256427
 20
-98.50560969759556
 30
0.0
 10
55.42985554169802
 20
-98.55041247536228
 30
0.0
 10
55.48499330668211
 20
-98.55041247536228
 30
0.0
 10
55.54027498611489
 20
-98.55041247536228
 30
0.0
 10
55.58507776388162
 20
-98.50560969759556
 30
0.0
 10
55.58507776388162
 20
-98.45050580872065
 30
0.0
  0
SPLINE
  5
47
330
1F
100
AcDbEntity
  8
_U+30EC_U+30A4_U+30E4_U+30FC 1
 62
   179
420
  2234388
370
     9
100
AcDbSpline
210
0.0
220
0.0
230
1.0
 70
    11
 71
     3
 72
    17
 73
    13
 74
     0
 42
0.0000000001
 43
0.0000000001
 12
1.0
 22
0.0
 32
0.0
 13
1.0
 23
0.0
 33
0.0
 40
0.0
 40
0.0
 40
0.0
 40
0.0
 40
1.0
 40
1.0
 40
1.0
 40
2.0
 40
2.0
 40
2.0
 40
3.0
 40
3.0
 40
3.0
 40
4.0
 40
4.0
 40
4.0
 40
4.0
 10
51.58496451729125
 20
-102.4502649743875
 30
0.0
 10
51.58496451729125
 20
-102.3951258077344
 30
0.0
 10
51.54016174065649
 20
-102.3503583077459
 30
0.0
 10
51.48505785317342
 20
-102.3503583077459
 30
0.0
 10
51.42977757680595
 20
-102.3503583077459
 30
0.0
 10
51.38497480017119
 20
-102.3951258077344
 30
0.0
 10
51.38497480017119
 20
-102.4502649743875
 30
0.0
 10
51.38497480017119
 20
-102.5053688632624
 30
0.0
 10
51.42977757680595
 20
-102.5501716410292
 30
0.0
 10
51.48505785317342
 20
-102.5501716410292
 30
0.0
 10
51.54016174065649
 20
-102.5501716410292
 30
0.0
 10
51.58496451729125
 20
-102.5053688632624
 30
0.0
 10
51.58496451729125
 20
-102.4502649743875
 30
0.0
  0
SPLINE
  5
48
330
1F
100
AcDbEntity
  8
_U+30EC_U+30A4_U+30E4_U+30FC 1
 62
   179
420
  2234388
370
     9
100
AcDbSpline
210
0.0
220
0.0
230
1.0
 70
    11
 71
     3
 72
    17
 73
    13
 74
     0
 42
0.0000000001
 43
0.0000000001
 12
1.0
 22
0.0
 32
0.0
 13
1.0
 23
0.0
 33
0.0
 40
0.0
 40
0.0
 40
0.0
 40
0.0
 40
1.0
 40
1.0
 40
1.0
 40
2.0
 40
2.0
 40
2.0
 40
3.0
 40
3.0
 40
3.0
 40
4.0
 40
4.0
 40
4.0
 40
4.0
 10
46.58508047818225
 20
-102.4502649743875
 30
0.0
 10
46.58508047818225
 20
-102.3951258077344
 30
0.0
 10
46.54031297932436
 20
-102.3503583077459
 30
0.0
 10
46.48503270295691
 20
-102.3503583077459
 30
0.0
 10
46.42971714881256
 20
-102.3503583077459
 30
0.0
 10
46.38512603883907
 20
-102.3951258077344
 30
0.0
 10
46.38512603883907
 20
-102.4502649743875
 30
0.0
 10
46.38512603883907
 20
-102.5053688632624
 30
0.0
 10
46.42971714881256
 20
-102.5501716410292
 30
0.0
 10
46.48503270295691
 20
-102.5501716410292
 30
0.0
 10
46.54031297932436
 20
-102.5501716410292
 30
0.0
 10
46.58508047818225
 20
-102.5053688632624
 30
0.0
 10
46.58508047818225
 20
-102.4502649743875
 30
0.0
  0
SPLINE
  5
49
330
1F
100
AcDbEntity
  8
_U+30EC_U+30A4_U+30E4_U+30FC 1
 62
   179
420
  2234388
370
     9
100
AcDbSpline
210
0.0
220
0.0
230
1.0
 70
    11
 71
     3
 72
    17
 73
    13
 74
     0
 42
0.0000000001
 43
0.0000000001
 12
1.0
 22
0.0
 32
0.0
 13
1.0
 23
0.0
 33
0.0
 40
0.0
 40
0.0
 40
0.0
 40
0.0
 40
1.0
 40
1.0
 40
1.0
 40
2.0
 40
2.0
 40
2.0
 40
3.0
 40
3.0
 40
3.0
 40
4.0
 40
4.0
 40
4.0
 40
4.0
 10
47.98500849802267
 20
-77.95027164717915
 30
0.0
 10
47.98500849802267
 20
-77.89516775830391
 30
0.0
 10
47.94024099916478
 20
-77.85036498053752
 30
0.0
 10
47.88510183390483
 20
-77.85036498053752
 30
0.0
 10
47.82982155753737
 20
-77.85036498053752
 30
0.0
 10
47.7850187809026
 20
-77.89516775830391
 30
0.0
 10
47.7850187809026
 20
-77.95027164717915
 30
0.0
 10
47.7850187809026
 20
-78.00541081383192
 30
0.0
 10
47.82982155753737
 20
-78.0501783138208
 30
0.0
 10
47.88510183390483
 20
-78.0501783138208
 30
0.0
 10
47.94024099916478
 20
-78.0501783138208
 30
0.0
 10
47.98500849802267
 20
-78.00541081383192
 30
0.0
 10
47.98500849802267
 20
-77.95027164717915
 30
0.0
  0
INSERT
  5
4B
330
1F
100
AcDbEntity
  8
_U+30EC_U+30A4_U+30E4_U+30FC 1
100
AcDbBlockReference
  2
block 2
 10
0.0
 20
0.0
 30
0.0
  0
INSERT
  5
72
330
1F
100
AcDbEntity
  8
_U+30EC_U+30A4_U+30E4_U+30FC 1
100
AcDbBlockReference
  2
block 4
 10
0.0
 20
0.0
 30
0.0
  0
INSERT
  5
88
330
1F
100
AcDbEntity
  8
_U+30EC_U+30A4_U+30E4_U+30FC 1
100
AcDbBlockReference
  2
block 6
 10
0.0
 20
0.0
 30
0.0
  0
INSERT
  5
AA
330
1F
100
AcDbEntity
  8
_U+30EC_U+30A4_U+30E4_U+30FC 1
100
AcDbBlockReference
  2
block 8
 10
0.0
 20
0.0
 30
0.0
  0
INSERT
  5
C0
330
1F
100
AcDbEntity
  8
_U+30EC_U+30A4_U+30E4_U+30FC 1
100
AcDbBlockReference
  2
block 10
 10
0.0
 20
0.0
 30
0.0
  0
INSERT
  5
D8
330
1F
100
AcDbEntity
  8
_U+30EC_U+30A4_U+30E4_U+30FC 1
100
AcDbBlockReference
  2
block 12
 10
0.0
 20
0.0
 30
0.0
  0
ENDSEC
  0
SECTION
  2
OBJECTS
  0
DICTIONARY
  5
C
330
0
100
AcDbDictionary
281
     1
  3
ACAD_GROUP
350
D
  3
ACAD_LAYOUT
350
1A
  3
ACAD_MATERIAL
350
3B
  3
ACAD_MLEADERSTYLE
350
10C
  3
ACAD_MLINESTYLE
350
17
  3
ACAD_PLOTSETTINGS
350
19
  3
ACAD_PLOTSTYLENAME
350
E
  3
ACAD_TABLESTYLE
350
10B
  3
ACAD_VISUALSTYLE
350
2A
  0
SUN
  5
3F
330
29
100
AcDbSun
 90
        1
290
     0
 63
     7
421
 16777215
 40
1.0
291
     1
 91
  2455826
 92
 54000000
292
     0
 70
     2
 71
   256
280
     1
  0
DICTIONARY
  5
D
102
{ACAD_REACTORS
330
C
102
}
330
C
100
AcDbDictionary
281
     1
  0
DICTIONARY
  5
1A
102
{ACAD_REACTORS
330
C
102
}
330
C
100
AcDbDictionary
281
     1
  3
Layout1
350
1E
  3
Layout2
350
26
  3
Model
350
22
  0
DICTIONARY
  5
3B
102
{ACAD_REACTORS
330
C
102
}
330
C
100
AcDbDictionary
281
     1
  3
ByBlock
350
3D
  3
ByLayer
350
3C
  3
Global
350
3E
  0
DICTIONARY
  5
10C
102
{ACAD_REACTORS
330
C
102
}
330
C
100
AcDbDictionary
281
     1
  0
DICTIONARY
  5
17
102
{ACAD_REACTORS
330
C
102
}
330
C
100
AcDbDictionary
281
     1
  3
Standard
350
18
  0
DICTIONARY
  5
19
102
{ACAD_REACTORS
330
C
102
}
330
C
100
AcDbDictionary
281
     1
  0
ACDBDICTIONARYWDFLT
  5
E
102
{ACAD_REACTORS
330
C
102
}
330
C
100
AcDbDictionary
281
     1
  3
Normal
350
F
100
AcDbDictionaryWithDefault
340
F
  0
DICTIONARY
  5
10B
102
{ACAD_REACTORS
330
C
102
}
330
C
100
AcDbDictionary
281
     1
  0
DICTIONARY
  5
2A
102
{ACAD_REACTORS
330
C
102
}
330
C
100
AcDbDictionary
281
     1
  3
2dWireframe
350
2F
  3
3D Hidden
350
31
  3
3dWireframe
350
30
  3
Basic
350
32
  3
Brighten
350
36
  3
ColorChange
350
3A
  3
Conceptual
350
34
  3
Dim
350
35
  3
Facepattern
350
39
  3
Flat
350
2B
  3
FlatWithEdges
350
2C
  3
Gouraud
350
2D
  3
GouraudWithEdges
350
2E
  3
Linepattern
350
38
  3
Realistic
350
33
  3
Thicken
350
37
  0
LAYOUT
  5
1E
102
{ACAD_REACTORS
330
1A
102
}
330
1A
100
AcDbPlotSettings
  1

  2
none_device
  4

  6

 40
0.0
 41
0.0
 42
0.0
 43
0.0
 44
0.0
 45
0.0
 46
0.0
 47
0.0
 48
0.0
 49
0.0
140
0.0
141
0.0
142
1.0
143
1.0
 70
   688
 72
     0
 73
     0
 74
     5
  7

 75
    16
 76
     0
 77
     2
 78
   300
147
1.0
148
0.0
149
0.0
100
AcDbLayout
  1
Layout1
 70
     1
 71
     1
 10
0.0
 20
0.0
 11
12.0
 21
9.0
 12
0.0
 22
0.0
 32
0.0
 14
1.000000000000000E+20
 24
1.000000000000000E+20
 34
1.000000000000000E+20
 15
-1.000000000000000E+20
 25
-1.000000000000000E+20
 35
-1.000000000000000E+20
146
0.0
 13
0.0
 23
0.0
 33
0.0
 16
1.0
 26
0.0
 36
0.0
 17
0.0
 27
1.0
 37
0.0
 76
     0
330
1B
  0
LAYOUT
  5
26
102
{ACAD_REACTORS
330
1A
102
}
330
1A
100
AcDbPlotSettings
  1

  2
none_device
  4

  6

 40
0.0
 41
0.0
 42
0.0
 43
0.0
 44
0.0
 45
0.0
 46
0.0
 47
0.0
 48
0.0
 49
0.0
140
0.0
141
0.0
142
1.0
143
1.0
 70
   688
 72
     0
 73
     0
 74
     5
  7

 75
    16
 76
     0
 77
     2
 78
   300
147
1.0
148
0.0
149
0.0
100
AcDbLayout
  1
Layout2
 70
     1
 71
     2
 10
0.0
 20
0.0
 11
0.0
 21
0.0
 12
0.0
 22
0.0
 32
0.0
 14
0.0
 24
0.0
 34
0.0
 15
0.0
 25
0.0
 35
0.0
146
0.0
 13
0.0
 23
0.0
 33
0.0
 16
1.0
 26
0.0
 36
0.0
 17
0.0
 27
1.0
 37
0.0
 76
     0
330
23
  0
LAYOUT
  5
22
102
{ACAD_REACTORS
330
1A
102
}
330
1A
100
AcDbPlotSettings
  1

  2
none_device
  4

  6

 40
0.0
 41
0.0
 42
0.0
 43
0.0
 44
0.0
 45
0.0
 46
0.0
 47
0.0
 48
0.0
 49
0.0
140
0.0
141
0.0
142
1.0
143
1.0
 70
  1712
 72
     0
 73
     0
 74
     0
  7

 75
     0
 76
     0
 77
     2
 78
   300
147
1.0
148
0.0
149
0.0
100
AcDbLayout
  1
Model
 70
     1
 71
     0
 10
0.0
 20
0.0
 11
12.0
 21
9.0
 12
0.0
 22
0.0
 32
0.0
 14
1.000000000000000E+20
 24
1.000000000000000E+20
 34
1.000000000000000E+20
 15
-1.000000000000000E+20
 25
-1.000000000000000E+20
 35
-1.000000000000000E+20
146
0.0
 13
0.0
 23
0.0
 33
0.0
 16
1.0
 26
0.0
 36
0.0
 17
0.0
 27
1.0
 37
0.0
 76
     0
330
1F
331
29
  0
MATERIAL
  5
3D
102
{ACAD_REACTORS
330
3B
102
}
330
3B
100
AcDbMaterial
  1
ByBlock
 72
     1
 94
      127
  0
MATERIAL
  5
3C
102
{ACAD_REACTORS
330
3B
102
}
330
3B
100
AcDbMaterial
  1
ByLayer
 72
     1
 94
      127
  0
MATERIAL
  5
3E
102
{ACAD_REACTORS
330
3B
102
}
330
3B
100
AcDbMaterial
  1
Global
 72
     1
 94
      127
  0
MLINESTYLE
  5
18
102
{ACAD_REACTORS
330
17
102
}
330
17
100
AcDbMlineStyle
  2
Standard
 70
     0
  3

 62
   256
 51
90.0
 52
90.0
 71
     2
 49
0.5
 62
   256
  6
BYLAYER
 49
-0.5
 62
   256
  6
BYLAYER
  0
ACDBPLACEHOLDER
  5
F
102
{ACAD_REACTORS
330
E
102
}
330
E
  0
VISUALSTYLE
  5
2F
102
{ACAD_REACTORS
330
2A
102
}
330
2A
100
AcDbVisualStyle
  2
2dWireframe
 70
     4
177
     2
291
     0
 71
     0
176
     1
 72
     2
176
     1
 73
     0
176
     1
 90
        0
176
     1
 40
-0.6
176
     1
 41
-30.0
176
     1
 62
     5
 63
     7
421
 16777215
176
     1
 74
     1
176
     1
 91
        4
176
     1
 64
     7
176
     1
 65
   257
176
     1
 75
     1
176
     1
175
     1
176
     1
 42
1.0
176
     1
 92
        0
176
     1
 66
   257
176
     1
 43
1.0
176
     1
 76
     1
176
     1
 77
     6
176
     1
 78
     2
176
     1
 67
     7
176
     1
 79
     5
176
     1
170
     0
176
     1
171
     0
176
     1
290
     0
176
     1
 93
        1
176
     1
 44
0.0
176
     1
173
     0
176
     1
  0
VISUALSTYLE
  5
31
102
{ACAD_REACTORS
330
2A
102
}
330
2A
100
AcDbVisualStyle
  2
3D Hidden
 70
     6
177
     2
291
     0
 71
     1
176
     1
 72
     2
176
     1
 73
     2
176
     1
 90
        0
176
     1
 40
-0.6
176
     1
 41
-30.0
176
     1
 62
     5
 63
     7
421
 16777215
176
     1
 74
     2
176
     1
 91
        2
176
     1
 64
     7
176
     1
 65
   257
176
     1
 75
     2
176
     1
175
     1
176
     1
 42
40.0
176
     1
 92
        0
176
     1
 66
   257
176
     1
 43
1.0
176
     1
 76
     1
176
     1
 77
     6
176
     1
 78
     2
176
     1
 67
     7
176
     1
 79
     3
176
     1
170
     0
176
     1
171
     0
176
     1
290
     0
176
     1
 93
        1
176
     1
 44
0.0
176
     1
173
     0
176
     1
  0
VISUALSTYLE
  5
30
102
{ACAD_REACTORS
330
2A
102
}
330
2A
100
AcDbVisualStyle
  2
3dWireframe
 70
     5
177
     2
291
     0
 71
     0
176
     1
 72
     2
176
     1
 73
     0
176
     1
 90
        0
176
     1
 40
-0.6
176
     1
 41
-30.0
176
     1
 62
     5
 63
     7
421
 16777215
176
     1
 74
     1
176
     1
 91
        4
176
     1
 64
     7
176
     1
 65
   257
176
     1
 75
     1
176
     1
175
     1
176
     1
 42
1.0
176
     1
 92
        0
176
     1
 66
   257
176
     1
 43
1.0
176
     1
 76
     1
176
     1
 77
     6
176
     1
 78
     2
176
     1
 67
     7
176
     1
 79
     5
176
     1
170
     0
176
     1
171
     0
176
     1
290
     0
176
     1
 93
        1
176
     1
 44
0.0
176
     1
173
     0
176
     1
  0
VISUALSTYLE
  5
32
102
{ACAD_REACTORS
330
2A
102
}
330
2A
100
AcDbVisualStyle
  2
Basic
 70
     7
177
     2
291
     1
 71
     1
176
     1
 72
     0
176
     1
 73
     1
176
     1
 90
        0
176
     1
 40
-0.6
176
     1
 41
-30.0
176
     1
 62
     5
 63
     7
421
 16777215
176
     1
 74
     0
176
     1
 91
        4
176
     1
 64
     7
176
     1
 65
   257
176
     1
 75
     1
176
     1
175
     1
176
     1
 42
1.0
176
     1
 92
        8
176
     1
 66
     7
176
     1
 43
1.0
176
     1
 76
     1
176
     1
 77
     6
176
     1
 78
     2
176
     1
 67
     7
176
     1
 79
     5
176
     1
170
     0
176
     1
171
     0
176
     1
290
     0
176
     1
 93
        1
176
     1
 44
0.0
176
     1
173
     0
176
     1
  0
VISUALSTYLE
  5
36
102
{ACAD_REACTORS
330
2A
102
}
330
2A
100
AcDbVisualStyle
  2
Brighten
 70
    12
177
     2
291
     1
 71
     2
176
     1
 72
     2
176
     1
 73
     0
176
     1
 90
        0
176
     1
 40
-0.6
176
     1
 41
-30.0
176
     1
 62
     5
 63
     7
421
 16777215
176
     1
 74
     1
176
     1
 91
        4
176
     1
 64
     7
176
     1
 65
   257
176
     1
 75
     1
176
     1
175
     1
176
     1
 42
1.0
176
     1
 92
        8
176
     1
 66
     7
176
     1
 43
1.0
176
     1
 76
     1
176
     1
 77
     6
176
     1
 78
     2
176
     1
 67
     7
176
     1
 79
     5
176
     1
170
     0
176
     1
171
     0
176
     1
290
     0
176
     1
 93
        1
176
     1
 44
50.0
176
     1
173
     0
176
     1
  0
VISUALSTYLE
  5
3A
102
{ACAD_REACTORS
330
2A
102
}
330
2A
100
AcDbVisualStyle
  2
ColorChange
 70
    16
177
     2
291
     1
 71
     2
176
     1
 72
     2
176
     1
 73
     3
176
     1
 90
        0
176
     1
 40
-0.6
176
     1
 41
-30.0
176
     1
 62
     5
 63
     8
421
  8421504
176
     1
 74
     1
176
     1
 91
        4
176
     1
 64
     7
176
     1
 65
   257
176
     1
 75
     1
176
     1
175
     1
176
     1
 42
1.0
176
     1
 92
        8
176
     1
 66
     8
424
  8421504
176
     1
 43
1.0
176
     1
 76
     1
176
     1
 77
     6
176
     1
 78
     2
176
     1
 67
     7
176
     1
 79
     5
176
     1
170
     0
176
     1
171
     0
176
     1
290
     0
176
     1
 93
        1
176
     1
 44
0.0
176
     1
173
     0
176
     1
  0
VISUALSTYLE
  5
34
102
{ACAD_REACTORS
330
2A
102
}
330
2A
100
AcDbVisualStyle
  2
Conceptual
 70
     9
177
     2
291
     0
 71
     3
176
     1
 72
     2
176
     1
 73
     0
176
     1
 90
        0
176
     1
 40
-0.6
176
     1
 41
-30.0
176
     1
 62
     5
 63
     7
421
 16777215
176
     1
 74
     2
176
     1
 91
        2
176
     1
 64
     7
176
     1
 65
   257
176
     1
 75
     1
176
     1
175
     1
176
     1
 42
40.0
176
     1
 92
        8
176
     1
 66
     7
176
     1
 43
1.0
176
     1
 76
     1
176
     1
 77
     6
176
     1
 78
     2
176
     1
 67
     7
176
     1
 79
     3
176
     1
170
     0
176
     1
171
     0
176
     1
290
     0
176
     1
 93
        1
176
     1
 44
0.0
176
     1
173
     0
176
     1
  0
VISUALSTYLE
  5
35
102
{ACAD_REACTORS
330
2A
102
}
330
2A
100
AcDbVisualStyle
  2
Dim
 70
    11
177
     2
291
     1
 71
     2
176
     1
 72
     2
176
     1
 73
     0
176
     1
 90
        0
176
     1
 40
-0.6
176
     1
 41
-30.0
176
     1
 62
     5
 63
     7
421
 16777215
176
     1
 74
     1
176
     1
 91
        4
176
     1
 64
     7
176
     1
 65
   257
176
     1
 75
     1
176
     1
175
     1
176
     1
 42
1.0
176
     1
 92
        8
176
     1
 66
     7
176
     1
 43
1.0
176
     1
 76
     1
176
     1
 77
     6
176
     1
 78
     2
176
     1
 67
     7
176
     1
 79
     5
176
     1
170
     0
176
     1
171
     0
176
     1
290
     0
176
     1
 93
        1
176
     1
 44
-50.0
176
     1
173
     0
176
     1
  0
VISUALSTYLE
  5
39
102
{ACAD_REACTORS
330
2A
102
}
330
2A
100
AcDbVisualStyle
  2
Facepattern
 70
    15
177
     2
291
     1
 71
     2
176
     1
 72
     2
176
     1
 73
     0
176
     1
 90
        0
176
     1
 40
-0.6
176
     1
 41
-30.0
176
     1
 62
     5
 63
     7
421
 16777215
176
     1
 74
     1
176
     1
 91
        4
176
     1
 64
     7
176
     1
 65
   257
176
     1
 75
     1
176
     1
175
     1
176
     1
 42
1.0
176
     1
 92
        8
176
     1
 66
     7
176
     1
 43
1.0
176
     1
 76
     1
176
     1
 77
     6
176
     1
 78
     2
176
     1
 67
     7
176
     1
 79
     5
176
     1
170
     0
176
     1
171
     0
176
     1
290
     0
176
     1
 93
        1
176
     1
 44
0.0
176
     1
173
     0
176
     1
  0
VISUALSTYLE
  5
2B
102
{ACAD_REACTORS
330
2A
102
}
330
2A
100
AcDbVisualStyle
  2
Flat
 70
     0
177
     2
291
     1
 71
     2
176
     1
 72
     1
176
     1
 73
     1
176
     1
 90
        2
176
     1
 40
-0.6
176
     1
 41
30.0
176
     1
 62
     5
 63
     7
421
 16777215
176
     1
 74
     0
176
     1
 91
        4
176
     1
 64
     7
176
     1
 65
   257
176
     1
 75
     1
176
     1
175
     1
176
     1
 42
1.0
176
     1
 92
        8
176
     1
 66
     7
176
     1
 43
1.0
176
     1
 76
     1
176
     1
 77
     6
176
     1
 78
     2
176
     1
 67
     7
176
     1
 79
     5
176
     1
170
     0
176
     1
171
     0
176
     1
290
     0
176
     1
 93
       13
176
     1
 44
0.0
176
     1
173
     0
176
     1
  0
VISUALSTYLE
  5
2C
102
{ACAD_REACTORS
330
2A
102
}
330
2A
100
AcDbVisualStyle
  2
FlatWithEdges
 70
     1
177
     2
291
     1
 71
     2
176
     1
 72
     1
176
     1
 73
     1
176
     1
 90
        2
176
     1
 40
-0.6
176
     1
 41
30.0
176
     1
 62
     5
 63
     7
421
 16777215
176
     1
 74
     1
176
     1
 91
        4
176
     1
 64
     7
176
     1
 65
   257
176
     1
 75
     1
176
     1
175
     1
176
     1
 42
1.0
176
     1
 92
        0
176
     1
 66
   257
176
     1
 43
1.0
176
     1
 76
     1
176
     1
 77
     6
176
     1
 78
     2
176
     1
 67
     7
176
     1
 79
     5
176
     1
170
     0
176
     1
171
     0
176
     1
290
     0
176
     1
 93
       13
176
     1
 44
0.0
176
     1
173
     0
176
     1
  0
VISUALSTYLE
  5
2D
102
{ACAD_REACTORS
330
2A
102
}
330
2A
100
AcDbVisualStyle
  2
Gouraud
 70
     2
177
     2
291
     1
 71
     2
176
     1
 72
     2
176
     1
 73
     1
176
     1
 90
        2
176
     1
 40
-0.6
176
     1
 41
30.0
176
     1
 62
     5
 63
     7
421
 16777215
176
     1
 74
     0
176
     1
 91
        4
176
     1
 64
     7
176
     1
 65
   257
176
     1
 75
     1
176
     1
175
     1
176
     1
 42
1.0
176
     1
 92
        0
176
     1
 66
     7
176
     1
 43
1.0
176
     1
 76
     1
176
     1
 77
     6
176
     1
 78
     2
176
     1
 67
     7
176
     1
 79
     5
176
     1
170
     0
176
     1
171
     0
176
     1
290
     0
176
     1
 93
       13
176
     1
 44
0.0
176
     1
173
     0
176
     1
  0
VISUALSTYLE
  5
2E
102
{ACAD_REACTORS
330
2A
102
}
330
2A
100
AcDbVisualStyle
  2
GouraudWithEdges
 70
     3
177
     2
291
     1
 71
     2
176
     1
 72
     2
176
     1
 73
     1
176
     1
 90
        2
176
     1
 40
-0.6
176
     1
 41
30.0
176
     1
 62
     5
 63
     7
421
 16777215
176
     1
 74
     1
176
     1
 91
        4
176
     1
 64
     7
176
     1
 65
   257
176
     1
 75
     1
176
     1
175
     1
176
     1
 42
1.0
176
     1
 92
        0
176
     1
 66
   257
176
     1
 43
1.0
176
     1
 76
     1
176
     1
 77
     6
176
     1
 78
     2
176
     1
 67
     7
176
     1
 79
     5
176
     1
170
     0
176
     1
171
     0
176
     1
290
     0
176
     1
 93
       13
176
     1
 44
0.0
176
     1
173
     0
176
     1
  0
VISUALSTYLE
  5
38
102
{ACAD_REACTORS
330
2A
102
}
330
2A
100
AcDbVisualStyle
  2
Linepattern
 70
    14
177
     2
291
     1
 71
     2
176
     1
 72
     2
176
     1
 73
     0
176
     1
 90
        0
176
     1
 40
-0.6
176
     1
 41
-30.0
176
     1
 62
     5
 63
     7
421
 16777215
176
     1
 74
     1
176
     1
 91
        4
176
     1
 64
     7
176
     1
 65
   257
176
     1
 75
     7
176
     1
175
     7
176
     1
 42
1.0
176
     1
 92
        8
176
     1
 66
     7
176
     1
 43
1.0
176
     1
 76
     1
176
     1
 77
     6
176
     1
 78
     2
176
     1
 67
     7
176
     1
 79
     5
176
     1
170
     0
176
     1
171
     0
176
     1
290
     0
176
     1
 93
        1
176
     1
 44
0.0
176
     1
173
     0
176
     1
  0
VISUALSTYLE
  5
33
102
{ACAD_REACTORS
330
2A
102
}
330
2A
100
AcDbVisualStyle
  2
Realistic
 70
     8
177
     2
291
     0
 71
     2
176
     1
 72
     2
176
     1
 73
     0
176
     1
 90
        0
176
     1
 40
-0.6
176
     1
 41
-30.0
176
     1
 62
     5
 63
     7
421
 16777215
176
     1
 74
     1
176
     1
 91
        0
176
     1
 64
     7
176
     1
 65
   257
176
     1
 75
     1
176
     1
175
     1
176
     1
 42
1.0
176
     1
 92
        8
176
     1
 66
     8
424
  7895160
176
     1
 43
1.0
176
     1
 76
     1
176
     1
 77
     6
176
     1
 78
     2
176
     1
 67
     7
176
     1
 79
     5
176
     1
170
     0
176
     1
171
     0
176
     1
290
     0
176
     1
 93
       13
176
     1
 44
0.0
176
     1
173
     0
176
     1
  0
VISUALSTYLE
  5
37
102
{ACAD_REACTORS
330
2A
102
}
330
2A
100
AcDbVisualStyle
  2
Thicken
 70
    13
177
     2
291
     1
 71
     2
176
     1
 72
     2
176
     1
 73
     0
176
     1
 90
        0
176
     1
 40
-0.6
176
     1
 41
-30.0
176
     1
 62
     5
 63
     7
421
 16777215
176
     1
 74
     1
176
     1
 91
        4
176
     1
 64
     7
176
     1
 65
   257
176
     1
 75
     1
176
     1
175
     1
176
     1
 42
1.0
176
     1
 92
       12
176
     1
 66
     7
176
     1
 43
1.0
176
     1
 76
     1
176
     1
 77
     6
176
     1
 78
     2
176
     1
 67
     7
176
     1
 79
     5
176
     1
170
     0
176
     1
171
     0
176
     1
290
     0
176
     1
 93
        1
176
     1
 44
0.0
176
     1
173
     0
176
     1
  0
ENDSEC
  0
EOF
