  0
SECTION
  2
HEADER
  9
$ACADVER
  1
AC1024
  9
$ACADMAINTVER
 70
     6
  9
$DWGCODEPAGE
  3
UNDEFINED
  9
$INSBASE
 10
0.0
 20
0.0
 30
0.0
  9
$EXTMIN
 10
1.000000000000000E+20
 20
1.000000000000000E+20
 30
1.000000000000000E+20
  9
$EXTMAX
 10
-1.000000000000000E+20
 20
-1.000000000000000E+20
 30
-1.000000000000000E+20
  9
$LIMMIN
 10
0.0
 20
0.0
  9
$LIMMAX
 10
12.0
 20
9.0
  9
$ORTHOMODE
 70
     0
  9
$REGENMODE
 70
     1
  9
$FILLMODE
 70
     1
  9
$QTEXTMODE
 70
     0
  9
$MIRRTEXT
 70
     1
  9
$LTSCALE
 40
1.0
  9
$ATTMODE
 70
     1
  9
$TEXTSIZE
 40
0.2
  9
$TRACEWID
 40
0.05
  9
$TEXTSTYLE
  7
Standard
  9
$CLAYER
  8
0
  9
$CELTYPE
  6
ByLayer
  9
$CECOLOR
 62
   256
  9
$CELTSCALE
 40
1.0
  9
$DISPSILH
 70
     0
  9
$DIMSCALE
 40
1.0
  9
$DIMASZ
 40
0.18
  9
$DIMEXO
 40
0.0625
  9
$DIMDLI
 40
0.38
  9
$DIMRND
 40
0.0
  9
$DIMDLE
 40
0.0
  9
$DIMEXE
 40
0.18
  9
$DIMTP
 40
0.0
  9
$DIMTM
 40
0.0
  9
$DIMTXT
 40
0.18
  9
$DIMCEN
 40
0.09
  9
$DIMTSZ
 40
0.0
  9
$DIMTOL
 70
     0
  9
$DIMLIM
 70
     0
  9
$DIMTIH
 70
     1
  9
$DIMTOH
 70
     1
  9
$DIMSE1
 70
     0
  9
$DIMSE2
 70
     0
  9
$DIMTAD
 70
     0
  9
$DIMZIN
 70
     0
  9
$DIMBLK
  1

  9
$DIMASO
 70
     1
  9
$DIMSHO
 70
     1
  9
$DIMPOST
  1

  9
$DIMAPOST
  1

  9
$DIMALT
 70
     0
  9
$DIMALTD
 70
     2
  9
$DIMALTF
 40
25.4
  9
$DIMLFAC
 40
1.0
  9
$DIMTOFL
 70
     0
  9
$DIMTVP
 40
0.0
  9
$DIMTIX
 70
     0
  9
$DIMSOXD
 70
     0
  9
$DIMSAH
 70
     0
  9
$DIMBLK1
  1

  9
$DIMBLK2
  1

  9
$DIMSTYLE
  2
Standard
  9
$DIMCLRD
 70
     0
  9
$DIMCLRE
 70
     0
  9
$DIMCLRT
 70
     0
  9
$DIMTFAC
 40
1.0
  9
$DIMGAP
 40
0.09
  9
$DIMJUST
 70
     0
  9
$DIMSD1
 70
     0
  9
$DIMSD2
 70
     0
  9
$DIMTOLJ
 70
     1
  9
$DIMTZIN
 70
     0
  9
$DIMALTZ
 70
     0
  9
$DIMALTTZ
 70
     0
  9
$DIMUPT
 70
     0
  9
$DIMDEC
 70
     4
  9
$DIMTDEC
 70
     4
  9
$DIMALTU
 70
     2
  9
$DIMALTTD
 70
     2
  9
$DIMTXSTY
  7
Standard
  9
$DIMAUNIT
 70
     0
  9
$DIMADEC
 70
     0
  9
$DIMALTRND
 40
0.0
  9
$DIMAZIN
 70
     0
  9
$DIMDSEP
 70
    46
  9
$DIMATFIT
 70
     3
  9
$DIMFRAC
 70
     0
  9
$DIMLDRBLK
  1

  9
$DIMLUNIT
 70
     2
  9
$DIMLWD
 70
    -2
  9
$DIMLWE
 70
    -2
  9
$DIMTMOVE
 70
     0
  9
$DIMFXL
 40
1.0
  9
$DIMFXLON
 70
     0
  9
$DIMJOGANG
 40
0.7853981633974483
  9
$DIMTFILL
 70
     0
  9
$DIMTFILLCLR
 70
     0
  9
$DIMARCSYM
 70
     0
  9
$DIMLTYPE
  6

  9
$DIMLTEX1
  6

  9
$DIMLTEX2
  6

  9
$DIMTXTDIRECTION
 70
     0
  9
$LUNITS
 70
     2
  9
$LUPREC
 70
     4
  9
$SKETCHINC
 40
0.1
  9
$FILLETRAD
 40
0.5
  9
$AUNITS
 70
     0
  9
$AUPREC
 70
     0
  9
$MENU
  1
.
  9
$ELEVATION
 40
0.0
  9
$PELEVATION
 40
0.0
  9
$THICKNESS
 40
0.0
  9
$LIMCHECK
 70
     0
  9
$CHAMFERA
 40
0.5
  9
$CHAMFERB
 40
0.5
  9
$CHAMFERC
 40
1.0
  9
$CHAMFERD
 40
0.0
  9
$SKPOLY
 70
     0
  9
$TDCREATE
 40
2457917.588969896
  9
$TDUCREATE
 40
2457917.213969907
  9
$TDUPDATE
 40
2457917.588969896
  9
$TDUUPDATE
 40
2457917.213969907
  9
$TDINDWG
 40
0.0000000116
  9
$TDUSRTIMER
 40
0.0000000116
  9
$USRTIMER
 70
     1
  9
$ANGBASE
 50
0.0
  9
$ANGDIR
 70
     0
  9
$PDMODE
 70
     0
  9
$PDSIZE
 40
0.0
  9
$PLINEWID
 40
0.0
  9
$SPLFRAME
 70
     0
  9
$SPLINETYPE
 70
     6
  9
$SPLINESEGS
 70
     8
  9
$HANDSEED
  5
10C
  9
$SURFTAB1
 70
     6
  9
$SURFTAB2
 70
     6
  9
$SURFTYPE
 70
     6
  9
$SURFU
 70
     6
  9
$SURFV
 70
     6
  9
$UCSBASE
  2

  9
$UCSNAME
  2

  9
$UCSORG
 10
0.0
 20
0.0
 30
0.0
  9
$UCSXDIR
 10
1.0
 20
0.0
 30
0.0
  9
$UCSYDIR
 10
0.0
 20
1.0
 30
0.0
  9
$UCSORTHOREF
  2

  9
$UCSORTHOVIEW
 70
     0
  9
$UCSORGTOP
 10
0.0
 20
0.0
 30
0.0
  9
$UCSORGBOTTOM
 10
0.0
 20
0.0
 30
0.0
  9
$UCSORGLEFT
 10
0.0
 20
0.0
 30
0.0
  9
$UCSORGRIGHT
 10
0.0
 20
0.0
 30
0.0
  9
$UCSORGFRONT
 10
0.0
 20
0.0
 30
0.0
  9
$UCSORGBACK
 10
0.0
 20
0.0
 30
0.0
  9
$PUCSBASE
  2

  9
$PUCSNAME
  2

  9
$PUCSORG
 10
0.0
 20
0.0
 30
0.0
  9
$PUCSXDIR
 10
1.0
 20
0.0
 30
0.0
  9
$PUCSYDIR
 10
0.0
 20
1.0
 30
0.0
  9
$PUCSORTHOREF
  2

  9
$PUCSORTHOVIEW
 70
     0
  9
$PUCSORGTOP
 10
0.0
 20
0.0
 30
0.0
  9
$PUCSORGBOTTOM
 10
0.0
 20
0.0
 30
0.0
  9
$PUCSORGLEFT
 10
0.0
 20
0.0
 30
0.0
  9
$PUCSORGRIGHT
 10
0.0
 20
0.0
 30
0.0
  9
$PUCSORGFRONT
 10
0.0
 20
0.0
 30
0.0
  9
$PUCSORGBACK
 10
0.0
 20
0.0
 30
0.0
  9
$USERI1
 70
     0
  9
$USERI2
 70
     0
  9
$USERI3
 70
     0
  9
$USERI4
 70
     0
  9
$USERI5
 70
     0
  9
$USERR1
 40
0.0
  9
$USERR2
 40
0.0
  9
$USERR3
 40
0.0
  9
$USERR4
 40
0.0
  9
$USERR5
 40
0.0
  9
$WORLDVIEW
 70
     1
  9
$SHADEDGE
 70
     3
  9
$SHADEDIF
 70
    70
  9
$TILEMODE
 70
     1
  9
$MAXACTVP
 70
    64
  9
$PINSBASE
 10
0.0
 20
0.0
 30
0.0
  9
$PLIMCHECK
 70
     0
  9
$PEXTMIN
 10
1.000000000000000E+20
 20
1.000000000000000E+20
 30
1.000000000000000E+20
  9
$PEXTMAX
 10
-1.000000000000000E+20
 20
-1.000000000000000E+20
 30
-1.000000000000000E+20
  9
$PLIMMIN
 10
0.0
 20
0.0
  9
$PLIMMAX
 10
12.0
 20
9.0
  9
$UNITMODE
 70
     0
  9
$VISRETAIN
 70
     1
  9
$PLINEGEN
 70
     0
  9
$PSLTSCALE
 70
     1
  9
$TREEDEPTH
 70
  3020
  9
$CMLSTYLE
  2
Standard
  9
$CMLJUST
 70
     0
  9
$CMLSCALE
 40
1.0
  9
$PROXYGRAPHICS
 70
     1
  9
$MEASUREMENT
 70
     0
  9
$CELWEIGHT
370
    -1
  9
$ENDCAPS
280
     0
  9
$JOINSTYLE
280
     0
  9
$LWDISPLAY
290
     1
  9
$INSUNITS
 70
     1
  9
$HYPERLINKBASE
  1

  9
$STYLESHEET
  1

  9
$XEDIT
290
     1
  9
$CEPSNTYPE
380
     0
  9
$PSTYLEMODE
290
     1
  9
$FINGERPRINTGUID
  2
{C13D3A93-0AAA-78BD-9DC2-53EB185C480F}
  9
$VERSIONGUID
  2
{FAEB1C32-E019-11D5-929B-00C0DF256EC4}
  9
$EXTNAMES
290
     1
  9
$PSVPSCALE
 40
0.0
  9
$OLESTARTUP
290
     0
  9
$SORTENTS
280
   127
  9
$INDEXCTL
280
     0
  9
$HIDETEXT
280
     1
  9
$XCLIPFRAME
280
     2
  9
$HALOGAP
280
     0
  9
$OBSCOLOR
 70
   257
  9
$OBSLTYPE
280
     0
  9
$INTERSECTIONDISPLAY
280
     0
  9
$INTERSECTIONCOLOR
 70
   257
  9
$DIMASSOC
280
     2
  9
$PROJECTNAME
  1

  9
$CAMERADISPLAY
290
     0
  9
$LENSLENGTH
 40
50.0
  9
$CAMERAHEIGHT
 40
0.0
  9
$STEPSPERSEC
 40
2.0
  9
$STEPSIZE
 40
6.0
  9
$3DDWFPREC
 40
2.0
  9
$PSOLWIDTH
 40
0.25
  9
$PSOLHEIGHT
 40
4.0
  9
$LOFTANG1
 40
1.570796326794897
  9
$LOFTANG2
 40
1.570796326794897
  9
$LOFTMAG1
 40
0.0
  9
$LOFTMAG2
 40
0.0
  9
$LOFTPARAM
 70
     7
  9
$LOFTNORMALS
280
     1
  9
$LATITUDE
 40
37.795
  9
$LONGITUDE
 40
-122.394
  9
$NORTHDIRECTION
 40
0.0
  9
$TIMEZONE
 70
 -8000
  9
$LIGHTGLYPHDISPLAY
280
     1
  9
$TILEMODELIGHTSYNCH
280
     1
  9
$CMATERIAL
347
3C
  9
$SOLIDHIST
280
     1
  9
$SHOWHIST
280
     1
  9
$DWFFRAME
280
     2
  9
$DGNFRAME
280
     2
  9
$REALWORLDSCALE
290
     1
  9
$INTERFERECOLOR
 62
   256
  9
$CSHADOW
280
     0
  9
$SHADOWPLANELOCATION
 40
0.0
  0
ENDSEC
  0
SECTION
  2
CLASSES
  0
CLASS
  1
ACDBDICTIONARYWDFLT
  2
AcDbDictionaryWithDefault
  3
ObjectDBX Classes
 90
        0
 91
        4
280
     0
281
     0
  0
CLASS
  1
VISUALSTYLE
  2
AcDbVisualStyle
  3
ObjectDBX Classes
 90
     4095
 91
        4
280
     0
281
     0
  0
CLASS
  1
MATERIAL
  2
AcDbMaterial
  3
ObjectDBX Classes
 90
     1153
 91
        4
280
     0
281
     0
  0
CLASS
  1
SUN
  2
AcDbSun
  3
SCENEOE
 90
     1024
 91
        4
280
     0
281
     0
  0
ENDSEC
  0
SECTION
  2
TABLES
  0
TABLE
  2
VPORT
  5
8
330
0
100
AcDbSymbolTable
 70
     1
  0
VPORT
  5
29
330
8
100
AcDbSymbolTableRecord
100
AcDbViewportTableRecord
  2
*Active
 70
     0
 10
0.0
 20
0.0
 11
1.0
 21
1.0
 12
0.0
 22
0.0
 13
0.0
 23
0.0
 14
0.5
 24
0.5
 15
0.5
 25
0.5
 16
0.0
 26
0.0
 36
1.0
 17
63.499999984125
 27
-89.00059456108309
 37
0.0
 40
178.0011891221662
 41
0.7134783795241226
 42
50.0
 43
0.0
 44
0.0
 50
0.0
 51
0.0
 71
     0
 72
   100
 73
     1
 74
     3
 75
     0
 76
     0
 77
     0
 78
     0
281
     0
 65
     1
110
0.0
120
0.0
130
0.0
111
1.0
121
0.0
131
0.0
112
0.0
122
1.0
132
0.0
 79
     0
146
0.0
 60
     3
 61
     5
292
     1
282
     1
141
0.0
142
0.0
 63
   250
361
3F
  0
ENDTAB
  0
TABLE
  2
LTYPE
  5
5
330
0
100
AcDbSymbolTable
 70
     1
  0
LTYPE
  5
14
330
5
100
AcDbSymbolTableRecord
100
AcDbLinetypeTableRecord
  2
ByBlock
 70
     0
  3

 72
    65
 73
     0
 40
0.0
  0
LTYPE
  5
15
330
5
100
AcDbSymbolTableRecord
100
AcDbLinetypeTableRecord
  2
ByLayer
 70
     0
  3

 72
    65
 73
     0
 40
0.0
  0
LTYPE
  5
16
330
5
100
AcDbSymbolTableRecord
100
AcDbLinetypeTableRecord
  2
Continuous
 70
     0
  3
Solid line
 72
    65
 73
     0
 40
0.0
  0
ENDTAB
  0
TABLE
  2
LAYER
  5
2
330
0
100
AcDbSymbolTable
 70
     2
  0
LAYER
  5
10
330
2
100
AcDbSymbolTableRecord
100
AcDbLayerTableRecord
  2
0
 70
     0
 62
     7
  6
Continuous
370
    -3
390
F
347
3E
  0
LAYER
  5
40
330
2
100
AcDbSymbolTableRecord
100
AcDbLayerTableRecord
  2
_U+30EC_U+30A4_U+30E4_U+30FC 1
 70
     0
 62
     7
  6
Continuous
370
    -3
390
F
347
3E
  0
ENDTAB
  0
TABLE
  2
STYLE
  5
3
330
0
100
AcDbSymbolTable
 70
     1
  0
STYLE
  5
11
330
3
100
AcDbSymbolTableRecord
100
AcDbTextStyleTableRecord
  2
Standard
 70
     0
 40
0.0
 41
1.0
 50
0.0
 71
     0
 42
0.2
  3
txt
  4

  0
ENDTAB
  0
TABLE
  2
VIEW
  5
6
330
0
100
AcDbSymbolTable
 70
     0
  0
ENDTAB
  0
TABLE
  2
UCS
  5
7
330
0
100
AcDbSymbolTable
 70
     0
  0
ENDTAB
  0
TABLE
  2
APPID
  5
9
330
0
100
AcDbSymbolTable
 70
     1
  0
APPID
  5
12
330
9
100
AcDbSymbolTableRecord
100
AcDbRegAppTableRecord
  2
ACAD
 70
     0
  0
ENDTAB
  0
TABLE
  2
DIMSTYLE
  5
A
330
0
100
AcDbSymbolTable
 70
     1
100
AcDbDimStyleTable
  0
DIMSTYLE
105
27
330
A
100
AcDbSymbolTableRecord
100
AcDbDimStyleTableRecord
  2
Standard
 70
     0
178
     0
340
11
  0
ENDTAB
  0
TABLE
  2
BLOCK_RECORD
  5
1
330
0
100
AcDbSymbolTable
 70
    12
  0
BLOCK_RECORD
  5
1F
330
1
100
AcDbSymbolTableRecord
100
AcDbBlockTableRecord
  2
*Model_Space
340
22
 70
     0
280
     1
281
     0
  0
BLOCK_RECORD
  5
1B
330
1
100
AcDbSymbolTableRecord
100
AcDbBlockTableRecord
  2
*Paper_Space
340
1E
 70
     0
280
     1
281
     0
  0
BLOCK_RECORD
  5
23
330
1
100
AcDbSymbolTableRecord
100
AcDbBlockTableRecord
  2
*Paper_Space0
340
26
 70
     0
280
     1
281
     0
  0
BLOCK_RECORD
  5
4A
330
1
100
AcDbSymbolTableRecord
100
AcDbBlockTableRecord
  2
block 2
340
0
102
{BLKREFS
331
4B
102
}
 70
     0
280
     1
281
     0
  0
BLOCK_RECORD
  5
5E
330
1
100
AcDbSymbolTableRecord
100
AcDbBlockTableRecord
  2
block 3
340
0
102
{BLKREFS
331
5F
102
}
 70
     0
280
     1
281
     0
  0
BLOCK_RECORD
  5
71
330
1
100
AcDbSymbolTableRecord
100
AcDbBlockTableRecord
  2
block 4
340
0
102
{BLKREFS
331
72
102
}
 70
     0
280
     1
281
     0
  0
BLOCK_RECORD
  5
81
330
1
100
AcDbSymbolTableRecord
100
AcDbBlockTableRecord
  2
block 5
340
0
102
{BLKREFS
331
82
102
}
 70
     0
280
     1
281
     0
  0
BLOCK_RECORD
  5
87
330
1
100
AcDbSymbolTableRecord
100
AcDbBlockTableRecord
  2
block 6
340
0
102
{BLKREFS
331
88
102
}
 70
     0
280
     1
281
     0
  0
BLOCK_RECORD
  5
97
330
1
100
AcDbSymbolTableRecord
100
AcDbBlockTableRecord
  2
block 7
340
0
102
{BLKREFS
331
98
102
}
 70
     0
280
     1
281
     0
  0
BLOCK_RECORD
  5
A8
330
1
100
AcDbSymbolTableRecord
100
AcDbBlockTableRecord
  2
block 8
340
0
102
{BLKREFS
331
A9
102
}
 70
     0
280
     1
281
     0
  0
BLOCK_RECORD
  5
B8
330
1
100
AcDbSymbolTableRecord
100
AcDbBlockTableRecord
  2
block 9
340
0
102
{BLKREFS
331
B9
102
}
 70
     0
280
     1
281
     0
  0
BLOCK_RECORD
  5
BE
330
1
100
AcDbSymbolTableRecord
100
AcDbBlockTableRecord
  2
block 10
340
0
102
{BLKREFS
331
BF
102
}
 70
     0
280
     1
281
     0
  0
BLOCK_RECORD
  5
CE
330
1
100
AcDbSymbolTableRecord
100
AcDbBlockTableRecord
  2
block 11
340
0
102
{BLKREFS
331
CF
102
}
 70
     0
280
     1
281
     0
  0
BLOCK_RECORD
  5
D6
330
1
100
AcDbSymbolTableRecord
100
AcDbBlockTableRecord
  2
block 12
340
0
102
{BLKREFS
331
D7
102
}
 70
     0
280
     1
281
     0
  0
ENDTAB
  0
ENDSEC
  0
SECTION
  2
BLOCKS
  0
BLOCK
  5
20
330
1F
100
AcDbEntity
  8
0
100
AcDbBlockBegin
  2
*Model_Space
 70
     0
 10
0.0
 20
0.0
 30
0.0
  3
*Model_Space
  1

  0
ENDBLK
  5
21
330
1F
100
AcDbEntity
  8
0
100
AcDbBlockEnd
  0
BLOCK
  5
1C
330
1B
100
AcDbEntity
 67
     1
  8
0
100
AcDbBlockBegin
  2
*Paper_Space
 70
     0
 10
0.0
 20
0.0
 30
0.0
  3
*Paper_Space
  1

  0
ENDBLK
  5
1D
330
1B
100
AcDbEntity
 67
     1
  8
0
100
AcDbBlockEnd
  0
BLOCK
  5
24
330
23
100
AcDbEntity
  8
0
100
AcDbBlockBegin
  2
*Paper_Space0
 70
     0
 10
0.0
 20
0.0
 30
0.0
  3
*Paper_Space0
  1

  0
ENDBLK
  5
25
330
23
100
AcDbEntity
  8
0
100
AcDbBlockEnd
  0
BLOCK
  5
4C
330
4A
100
AcDbEntity
  8
0
100
AcDbBlockBegin
  2
block 2
 70
     0
 10
0.0
 20
0.0
 30
0.0
  3
block 2
  1

  0
POLYLINE
  5
4E
330
4A
100
AcDbEntity
  8
_U+30EC_U+30A4_U+30E4_U+30FC 1
 62
   179
420
  2234388
370
     9
100
AcDb2dPolyline
 66
     1
 10
0.0
 20
0.0
 30
0.0
  0
VERTEX
  5
4F
330
4E
100
AcDbEntity
  8
_U+30EC_U+30A4_U+30E4_U+30FC 1
 62
   179
420
  2234388
370
     9
100
AcDbVertex
100
AcDb2dVertex
 10
75.04521530765928
 20
-83.63383914575815
 30
0.0
  0
VERTEX
  5
50
330
4E
100
AcDbEntity
  8
_U+30EC_U+30A4_U+30E4_U+30FC 1
 62
   179
420
  2234388
370
     9
100
AcDbVertex
100
AcDb2dVertex
 10
75.04521530765928
 20
-82.63406692378592
 30
0.0
  0
SEQEND
  5
51
330
4E
100
AcDbEntity
  8
_U+30EC_U+30A4_U+30E4_U+30FC 1
 62
   179
420
  2234388
370
     9
  0
POLYLINE
  5
52
330
4A
100
AcDbEntity
  8
_U+30EC_U+30A4_U+30E4_U+30FC 1
 62
   179
420
  2234388
370
     9
100
AcDb2dPolyline
 66
     1
 10
0.0
 20
0.0
 30
0.0
  0
VERTEX
  5
53
330
52
100
AcDbEntity
  8
_U+30EC_U+30A4_U+30E4_U+30FC 1
 62
   179
420
  2234388
370
     9
100
AcDbVertex
100
AcDb2dVertex
 10
75.04521530765928
 20
-83.63383914575815
 30
0.0
  0
VERTEX
  5
54
330
52
100
AcDbEntity
  8
_U+30EC_U+30A4_U+30E4_U+30FC 1
 62
   179
420
  2234388
370
     9
100
AcDbVertex
100
AcDb2dVertex
 10
75.04521530765928
 20
-84.63361136773037
 30
0.0
  0
SEQEND
  5
55
330
52
100
AcDbEntity
  8
_U+30EC_U+30A4_U+30E4_U+30FC 1
 62
   179
420
  2234388
370
     9
  0
POLYLINE
  5
56
330
4A
100
AcDbEntity
  8
_U+30EC_U+30A4_U+30E4_U+30FC 1
 62
   179
420
  2234388
370
     9
100
AcDb2dPolyline
 66
     1
 10
0.0
 20
0.0
 30
0.0
  0
VERTEX
  5
57
330
56
100
AcDbEntity
  8
_U+30EC_U+30A4_U+30E4_U+30FC 1
 62
   179
420
  2234388
370
     9
100
AcDbVertex
100
AcDb2dVertex
 10
73.58517395601915
 20
-83.89842247902533
 30
0.0
  0
VERTEX
  5
58
330
56
100
AcDbEntity
  8
_U+30EC_U+30A4_U+30E4_U+30FC 1
 62
   179
420
  2234388
370
     9
100
AcDbVertex
100
AcDb2dVertex
 10
76.04495222659831
 20
-83.89842247902533
 30
0.0
  0
SEQEND
  5
59
330
56
100
AcDbEntity
  8
_U+30EC_U+30A4_U+30E4_U+30FC 1
 62
   179
420
  2234388
370
     9
  0
POLYLINE
  5
5A
330
4A
100
AcDbEntity
  8
_U+30EC_U+30A4_U+30E4_U+30FC 1
 62
   179
420
  2234388
370
     9
100
AcDb2dPolyline
 66
     1
 10
0.0
 20
0.0
 30
0.0
  0
VERTEX
  5
5B
330
5A
100
AcDbEntity
  8
_U+30EC_U+30A4_U+30E4_U+30FC 1
 62
   179
420
  2234388
370
     9
100
AcDbVertex
100
AcDb2dVertex
 10
73.58517395601915
 20
-84.63361136773037
 30
0.0
  0
VERTEX
  5
5C
330
5A
100
AcDbEntity
  8
_U+30EC_U+30A4_U+30E4_U+30FC 1
 62
   179
420
  2234388
370
     9
100
AcDbVertex
100
AcDb2dVertex
 10
76.04495222659831
 20
-84.63361136773037
 30
0.0
  0
SEQEND
  5
5D
330
5A
100
AcDbEntity
  8
_U+30EC_U+30A4_U+30E4_U+30FC 1
 62
   179
420
  2234388
370
     9
  0
INSERT
  5
5F
330
4A
100
AcDbEntity
  8
_U+30EC_U+30A4_U+30E4_U+30FC 1
100
AcDbBlockReference
  2
block 3
 10
0.0
 20
0.0
 30
0.0
  0
ENDBLK
  5
4D
330
4A
100
AcDbEntity
  8
0
100
AcDbBlockEnd
  0
BLOCK
  5
60
330
5E
100
AcDbEntity
  8
0
100
AcDbBlockBegin
  2
block 3
 70
     0
 10
0.0
 20
0.0
 30
0.0
  3
block 3
  1

  0
SPLINE
  5
62
330
5E
100
AcDbEntity
  8
_U+30EC_U+30A4_U+30E4_U+30FC 1
370
     0
100
AcDbSpline
210
0.0
220
0.0
230
1.0
 70
    11
 71
     3
 72
    29
 73
    25
 74
     0
 42
0.0000000001
 43
0.0000000001
 12
1.0
 22
0.0
 32
0.0
 13
1.0
 23
0.0
 33
0.0
 40
0.0
 40
0.0
 40
0.0
 40
0.0
 40
1.0
 40
1.0
 40
1.0
 40
2.0
 40
2.0
 40
2.0
 40
3.0
 40
3.0
 40
3.0
 40
4.0
 40
4.0
 40
4.0
 40
5.0
 40
5.0
 40
5.0
 40
6.0
 40
6.0
 40
6.0
 40
7.0
 40
7.0
 40
7.0
 40
8.0
 40
8.0
 40
8.0
 40
8.0
 10
77.74925942066686
 20
-84.49062226620374
 30
0.0
 10
77.95872122617004
 20
-84.59466414985829
 30
0.0
 10
77.97766925133892
 20
-84.76209579044142
 30
0.0
 10
77.97766925133892
 20
-84.87440590326057
 30
0.0
 10
77.97766925133892
 20
-85.02943520009681
 30
0.0
 10
77.93116046228805
 20
-85.16620549086123
 30
0.0
 10
77.74925942066686
 20
-85.25784503076888
 30
0.0
 10
77.55461152575025
 20
-85.35775279984112
 30
0.0
 10
77.31758895636506
 20
-85.37635631546146
 30
0.0
 10
77.15498044946126
 20
-85.37635631546146
 30
0.0
 10
77.01097545817781
 20
-85.37635631546146
 30
0.0
 10
76.75913897820605
 20
-85.35981985713227
 30
0.0
 10
76.56035696870714
 20
-85.25784503076888
 30
0.0
 10
76.35744084462593
 20
-85.15380314711433
 30
0.0
 10
76.33401419532622
 20
-84.99877385027808
 30
0.0
 10
76.33401419532622
 20
-84.87440590326057
 30
0.0
 10
76.33401419532622
 20
-84.72144366371548
 30
0.0
 10
76.37845592708595
 20
-84.5826063156599
 30
0.0
 10
76.56035696870714
 20
-84.49062226620374
 30
0.0
 10
76.7529378063326
 20
-84.3948486117138
 30
0.0
 10
76.98134763700466
 20
-84.37245549105967
 30
0.0
 10
77.15498044946126
 20
-84.37245549105967
 30
0.0
 10
77.32620169507817
 20
-84.37245549105967
 30
0.0
 10
77.55667858304139
 20
-84.39278155442264
 30
0.0
 10
77.74925942066686
 20
-84.49062226620374
 30
0.0
  0
SPLINE
  5
63
330
5E
100
AcDbEntity
  8
_U+30EC_U+30A4_U+30E4_U+30FC 1
370
     0
100
AcDbSpline
210
0.0
220
0.0
230
1.0
 70
    11
 71
     3
 72
    17
 73
    13
 74
     0
 42
0.0000000001
 43
0.0000000001
 12
1.0
 22
0.0
 32
0.0
 13
1.0
 23
0.0
 33
0.0
 40
0.0
 40
0.0
 40
0.0
 40
0.0
 40
1.0
 40
1.0
 40
1.0
 40
2.0
 40
2.0
 40
2.0
 40
3.0
 40
3.0
 40
3.0
 40
4.0
 40
4.0
 40
4.0
 40
4.0
 10
76.52659503295169
 20
-84.87440590326057
 30
0.0
 10
76.52659503295169
 20
-85.11521807767953
 30
0.0
 10
76.81012639138775
 20
-85.16000431898777
 30
0.0
 10
77.15498044946126
 20
-85.16000431898777
 30
0.0
 10
77.47434080094392
 20
-85.16000431898777
 30
0.0
 10
77.78302135642231
 20
-85.12520885458676
 30
0.0
 10
77.78302135642231
 20
-84.87440590326057
 30
0.0
 10
77.78302135642231
 20
-84.63566078613276
 30
0.0
 10
77.50190156482591
 20
-84.58880748753336
 30
0.0
 10
77.15498044946126
 20
-84.58880748753336
 30
0.0
 10
76.83527558843008
 20
-84.58880748753336
 30
0.0
 10
76.52659503295169
 20
-84.625325499677
 30
0.0
 10
76.52659503295169
 20
-84.87440590326057
 30
0.0
  0
HATCH
  5
64
330
5E
100
AcDbEntity
  8
_U+30EC_U+30A4_U+30E4_U+30FC 1
 62
   179
420
  2234388
100
AcDbHatch
 10
0.0
 20
0.0
 30
0.0
210
0.0
220
0.0
230
1.0
  2
SOLID
 70
     1
 71
     0
 91
        2
 92
        1
 93
        1
 72
     4
 94
        3
 73
     0
 74
     1
 95
       29
 96
       25
 40
0.0
 40
0.0
 40
0.0
 40
0.0
 40
1.0
 40
1.0
 40
1.0
 40
2.0
 40
2.0
 40
2.0
 40
3.0
 40
3.0
 40
3.0
 40
4.0
 40
4.0
 40
4.0
 40
5.0
 40
5.0
 40
5.0
 40
6.0
 40
6.0
 40
6.0
 40
7.0
 40
7.0
 40
7.0
 40
8.0
 40
8.0
 40
8.0
 40
8.0
 10
77.74925942066686
 20
-84.49062226620374
 10
77.95872122617004
 20
-84.59466414985829
 10
77.97766925133892
 20
-84.76209579044142
 10
77.97766925133892
 20
-84.87440590326057
 10
77.97766925133892
 20
-85.02943520009681
 10
77.93116046228805
 20
-85.16620549086123
 10
77.74925942066686
 20
-85.25784503076888
 10
77.55461152575025
 20
-85.35775279984112
 10
77.31758895636506
 20
-85.37635631546146
 10
77.15498044946126
 20
-85.37635631546146
 10
77.01097545817781
 20
-85.37635631546146
 10
76.75913897820605
 20
-85.35981985713227
 10
76.56035696870714
 20
-85.25784503076888
 10
76.35744084462593
 20
-85.15380314711433
 10
76.33401419532622
 20
-84.99877385027808
 10
76.33401419532622
 20
-84.87440590326057
 10
76.33401419532622
 20
-84.72144366371548
 10
76.37845592708595
 20
-84.5826063156599
 10
76.56035696870714
 20
-84.49062226620374
 10
76.7529378063326
 20
-84.3948486117138
 10
76.98134763700466
 20
-84.37245549105967
 10
77.15498044946126
 20
-84.37245549105967
 10
77.32620169507817
 20
-84.37245549105967
 10
77.55667858304139
 20
-84.39278155442264
 10
77.74925942066686
 20
-84.49062226620374
 97
        0
 97
        0
 92
        1
 93
        1
 72
     4
 94
        3
 73
     0
 74
     1
 95
       17
 96
       13
 40
0.0
 40
0.0
 40
0.0
 40
0.0
 40
1.0
 40
1.0
 40
1.0
 40
2.0
 40
2.0
 40
2.0
 40
3.0
 40
3.0
 40
3.0
 40
4.0
 40
4.0
 40
4.0
 40
4.0
 10
76.52659503295169
 20
-84.87440590326057
 10
76.52659503295169
 20
-85.11521807767953
 10
76.81012639138775
 20
-85.16000431898777
 10
77.15498044946126
 20
-85.16000431898777
 10
77.47434080094392
 20
-85.16000431898777
 10
77.78302135642231
 20
-85.12520885458676
 10
77.78302135642231
 20
-84.87440590326057
 10
77.78302135642231
 20
-84.63566078613276
 10
77.50190156482591
 20
-84.58880748753336
 10
77.15498044946126
 20
-84.58880748753336
 10
76.83527558843008
 20
-84.58880748753336
 10
76.52659503295169
 20
-84.625325499677
 10
76.52659503295169
 20
-84.87440590326057
 97
        0
 97
        0
 75
     2
 76
     1
 98
        0
  0
POLYLINE
  5
65
330
5E
100
AcDbEntity
  8
_U+30EC_U+30A4_U+30E4_U+30FC 1
370
     0
100
AcDb2dPolyline
 66
     1
 10
0.0
 20
0.0
 30
0.0
  0
VERTEX
  5
66
330
65
100
AcDbEntity
  8
_U+30EC_U+30A4_U+30E4_U+30FC 1
370
     0
100
AcDbVertex
100
AcDb2dVertex
 10
77.92702634770575
 20
-84.16506074284763
 30
0.0
  0
VERTEX
  5
67
330
65
100
AcDbEntity
  8
_U+30EC_U+30A4_U+30E4_U+30FC 1
370
     0
100
AcDbVertex
100
AcDb2dVertex
 10
77.67518986773399
 20
-84.16506074284763
 30
0.0
  0
VERTEX
  5
68
330
65
100
AcDbEntity
  8
_U+30EC_U+30A4_U+30E4_U+30FC 1
370
     0
100
AcDbVertex
100
AcDb2dVertex
 10
77.67518986773399
 20
-83.92252602068604
 30
0.0
  0
VERTEX
  5
69
330
65
100
AcDbEntity
  8
_U+30EC_U+30A4_U+30E4_U+30FC 1
370
     0
100
AcDbVertex
100
AcDb2dVertex
 10
77.92702634770575
 20
-83.92252602068604
 30
0.0
  0
VERTEX
  5
6A
330
65
100
AcDbEntity
  8
_U+30EC_U+30A4_U+30E4_U+30FC 1
370
     0
100
AcDbVertex
100
AcDb2dVertex
 10
77.92702634770575
 20
-84.16506074284763
 30
0.0
  0
SEQEND
  5
6B
330
65
100
AcDbEntity
  8
_U+30EC_U+30A4_U+30E4_U+30FC 1
370
     0
  0
HATCH
  5
6C
330
5E
100
AcDbEntity
  8
_U+30EC_U+30A4_U+30E4_U+30FC 1
 62
   179
420
  2234388
100
AcDbHatch
 10
0.0
 20
0.0
 30
0.0
210
0.0
220
0.0
230
1.0
  2
SOLID
 70
     1
 71
     0
 91
        1
 92
        1
 93
        4
 72
     1
 10
77.92702634770575
 20
-84.16506074284763
 11
77.67518986773399
 21
-84.16506074284763
 72
     1
 10
77.67518986773399
 20
-84.16506074284763
 11
77.67518986773399
 21
-83.92252602068604
 72
     1
 10
77.67518986773399
 20
-83.92252602068604
 11
77.92702634770575
 21
-83.92252602068604
 72
     1
 10
77.92702634770575
 20
-83.92252602068604
 11
77.92702634770575
 21
-84.16506074284763
 97
        0
 75
     2
 76
     1
 98
        0
  0
SPLINE
  5
6D
330
5E
100
AcDbEntity
  8
_U+30EC_U+30A4_U+30E4_U+30FC 1
370
     0
100
AcDbSpline
210
0.0
220
0.0
230
1.0
 70
    11
 71
     3
 72
    29
 73
    25
 74
     0
 42
0.0000000001
 43
0.0000000001
 12
1.0
 22
0.0
 32
0.0
 13
1.0
 23
0.0
 33
0.0
 40
0.0
 40
0.0
 40
0.0
 40
0.0
 40
1.0
 40
1.0
 40
1.0
 40
2.0
 40
2.0
 40
2.0
 40
3.0
 40
3.0
 40
3.0
 40
4.0
 40
4.0
 40
4.0
 40
5.0
 40
5.0
 40
5.0
 40
6.0
 40
6.0
 40
6.0
 40
7.0
 40
7.0
 40
7.0
 40
8.0
 40
8.0
 40
8.0
 40
8.0
 10
77.97766925133892
 20
-83.21283635072457
 30
0.0
 10
77.97766925133892
 20
-83.46984047392421
 30
0.0
 10
77.84020994147745
 20
-83.71444225337694
 30
0.0
 10
77.49122176882165
 20
-83.71444225337694
 30
0.0
 10
77.23525117426757
 20
-83.71444225337694
 30
0.0
 10
77.14016653887468
 20
-83.57801647216105
 30
0.0
 10
77.07884383923724
 20
-83.47604164579766
 30
0.0
 10
77.01958819689094
 20
-83.59627547823288
 30
0.0
 10
76.90521102678065
 20
-83.6696560120687
 30
0.0
 10
76.74432506761947
 20
-83.6696560120687
 30
0.0
 10
76.46940644789655
 20
-83.6696560120687
 30
0.0
 10
76.33401419532622
 20
-83.47810870308881
 30
0.0
 10
76.33401419532622
 20
-83.21283635072457
 30
0.0
 10
76.33401419532622
 20
-82.93929576919574
 30
0.0
 10
76.47801918660967
 20
-82.75567217983192
 30
0.0
 10
76.74432506761947
 20
-82.75567217983192
 30
0.0
 10
76.90521102678065
 20
-82.75567217983192
 30
0.0
 10
77.01958819689094
 20
-82.83111977095889
 30
0.0
 10
77.07884383923724
 20
-82.95169811294264
 30
0.0
 10
77.12948674287041
 20
-82.8659152353599
 30
0.0
 10
77.2245713782633
 20
-82.71295299581482
 30
0.0
 10
77.48708765423935
 20
-82.71295299581482
 30
0.0
 10
77.861569533486
 20
-82.71295299581482
 30
0.0
 10
77.97766925133892
 20
-82.98235946276135
 30
0.0
 10
77.97766925133892
 20
-83.21283635072457
 30
0.0
  0
SPLINE
  5
6E
330
5E
100
AcDbEntity
  8
_U+30EC_U+30A4_U+30E4_U+30FC 1
370
     0
100
AcDbSpline
210
0.0
220
0.0
230
1.0
 70
    11
 71
     3
 72
    17
 73
    13
 74
     0
 42
0.0000000001
 43
0.0000000001
 12
1.0
 22
0.0
 32
0.0
 13
1.0
 23
0.0
 33
0.0
 40
0.0
 40
0.0
 40
0.0
 40
0.0
 40
1.0
 40
1.0
 40
1.0
 40
2.0
 40
2.0
 40
2.0
 40
3.0
 40
3.0
 40
3.0
 40
4.0
 40
4.0
 40
4.0
 40
4.0
 10
76.52659503295169
 20
-83.21283635072457
 30
0.0
 10
76.52659503295169
 20
-83.37199976214312
 30
0.0
 10
76.62167966834458
 20
-83.45330401559501
 30
0.0
 10
76.7570719209149
 20
-83.45330401559501
 30
0.0
 10
76.8797173201898
 20
-83.45330401559501
 30
0.0
 10
76.99822860488239
 20
-83.38405759634149
 30
0.0
 10
76.99822860488239
 20
-83.21283635072457
 30
0.0
 10
76.99822860488239
 20
-83.04127059555913
 30
0.0
 10
76.8797173201898
 20
-82.97202417630561
 30
0.0
 10
76.7570719209149
 20
-82.97202417630561
 30
0.0
 10
76.62167966834458
 20
-82.97202417630561
 30
0.0
 10
76.52659503295169
 20
-83.05573999659718
 30
0.0
 10
76.52659503295169
 20
-83.21283635072457
 30
0.0
  0
SPLINE
  5
6F
330
5E
100
AcDbEntity
  8
_U+30EC_U+30A4_U+30E4_U+30FC 1
370
     0
100
AcDbSpline
210
0.0
220
0.0
230
1.0
 70
    11
 71
     3
 72
    17
 73
    13
 74
     0
 42
0.0000000001
 43
0.0000000001
 12
1.0
 22
0.0
 32
0.0
 13
1.0
 23
0.0
 33
0.0
 40
0.0
 40
0.0
 40
0.0
 40
0.0
 40
1.0
 40
1.0
 40
1.0
 40
2.0
 40
2.0
 40
2.0
 40
3.0
 40
3.0
 40
3.0
 40
4.0
 40
4.0
 40
4.0
 40
4.0
 10
77.18667532792556
 20
-83.21283635072457
 30
0.0
 10
77.18667532792556
 20
-83.35132918923162
 30
0.0
 10
77.27349173415385
 20
-83.49843476645178
 30
0.0
 10
77.47640785823506
 20
-83.49843476645178
 30
0.0
 10
77.68173554915596
 20
-83.49843476645178
 30
0.0
 10
77.78302135642231
 20
-83.37578936717689
 30
0.0
 10
77.78302135642231
 20
-83.21283635072457
 30
0.0
 10
77.78302135642231
 20
-83.03334687594305
 30
0.0
 10
77.66037595714741
 20
-82.92723793499736
 30
0.0
 10
77.48260903010852
 20
-82.92723793499736
 30
0.0
 10
77.26074488085843
 20
-82.92723793499736
 30
0.0
 10
77.18667532792556
 20
-83.08433428912475
 30
0.0
 10
77.18667532792556
 20
-83.21283635072457
 30
0.0
  0
HATCH
  5
70
330
5E
100
AcDbEntity
  8
_U+30EC_U+30A4_U+30E4_U+30FC 1
 62
   179
420
  2234388
100
AcDbHatch
 10
0.0
 20
0.0
 30
0.0
210
0.0
220
0.0
230
1.0
  2
SOLID
 70
     1
 71
     0
 91
        3
 92
        1
 93
        1
 72
     4
 94
        3
 73
     0
 74
     1
 95
       29
 96
       25
 40
0.0
 40
0.0
 40
0.0
 40
0.0
 40
1.0
 40
1.0
 40
1.0
 40
2.0
 40
2.0
 40
2.0
 40
3.0
 40
3.0
 40
3.0
 40
4.0
 40
4.0
 40
4.0
 40
5.0
 40
5.0
 40
5.0
 40
6.0
 40
6.0
 40
6.0
 40
7.0
 40
7.0
 40
7.0
 40
8.0
 40
8.0
 40
8.0
 40
8.0
 10
77.97766925133892
 20
-83.21283635072457
 10
77.97766925133892
 20
-83.46984047392421
 10
77.84020994147745
 20
-83.71444225337694
 10
77.49122176882165
 20
-83.71444225337694
 10
77.23525117426757
 20
-83.71444225337694
 10
77.14016653887468
 20
-83.57801647216105
 10
77.07884383923724
 20
-83.47604164579766
 10
77.01958819689094
 20
-83.59627547823288
 10
76.90521102678065
 20
-83.6696560120687
 10
76.74432506761947
 20
-83.6696560120687
 10
76.46940644789655
 20
-83.6696560120687
 10
76.33401419532622
 20
-83.47810870308881
 10
76.33401419532622
 20
-83.21283635072457
 10
76.33401419532622
 20
-82.93929576919574
 10
76.47801918660967
 20
-82.75567217983192
 10
76.74432506761947
 20
-82.75567217983192
 10
76.90521102678065
 20
-82.75567217983192
 10
77.01958819689094
 20
-82.83111977095889
 10
77.07884383923724
 20
-82.95169811294264
 10
77.12948674287041
 20
-82.8659152353599
 10
77.2245713782633
 20
-82.71295299581482
 10
77.48708765423935
 20
-82.71295299581482
 10
77.861569533486
 20
-82.71295299581482
 10
77.97766925133892
 20
-82.98235946276135
 10
77.97766925133892
 20
-83.21283635072457
 97
        0
 97
        0
 92
        1
 93
        1
 72
     4
 94
        3
 73
     0
 74
     1
 95
       17
 96
       13
 40
0.0
 40
0.0
 40
0.0
 40
0.0
 40
1.0
 40
1.0
 40
1.0
 40
2.0
 40
2.0
 40
2.0
 40
3.0
 40
3.0
 40
3.0
 40
4.0
 40
4.0
 40
4.0
 40
4.0
 10
76.52659503295169
 20
-83.21283635072457
 10
76.52659503295169
 20
-83.37199976214312
 10
76.62167966834458
 20
-83.45330401559501
 10
76.7570719209149
 20
-83.45330401559501
 10
76.8797173201898
 20
-83.45330401559501
 10
76.99822860488239
 20
-83.38405759634149
 10
76.99822860488239
 20
-83.21283635072457
 10
76.99822860488239
 20
-83.04127059555913
 10
76.8797173201898
 20
-82.97202417630561
 10
76.7570719209149
 20
-82.97202417630561
 10
76.62167966834458
 20
-82.97202417630561
 10
76.52659503295169
 20
-83.05573999659718
 10
76.52659503295169
 20
-83.21283635072457
 97
        0
 97
        0
 92
        1
 93
        1
 72
     4
 94
        3
 73
     0
 74
     1
 95
       17
 96
       13
 40
0.0
 40
0.0
 40
0.0
 40
0.0
 40
1.0
 40
1.0
 40
1.0
 40
2.0
 40
2.0
 40
2.0
 40
3.0
 40
3.0
 40
3.0
 40
4.0
 40
4.0
 40
4.0
 40
4.0
 10
77.18667532792556
 20
-83.21283635072457
 10
77.18667532792556
 20
-83.35132918923162
 10
77.27349173415385
 20
-83.49843476645178
 10
77.47640785823506
 20
-83.49843476645178
 10
77.68173554915596
 20
-83.49843476645178
 10
77.78302135642231
 20
-83.37578936717689
 10
77.78302135642231
 20
-83.21283635072457
 10
77.78302135642231
 20
-83.03334687594305
 10
77.66037595714741
 20
-82.92723793499736
 10
77.48260903010852
 20
-82.92723793499736
 10
77.26074488085843
 20
-82.92723793499736
 10
77.18667532792556
 20
-83.08433428912475
 10
77.18667532792556
 20
-83.21283635072457
 97
        0
 97
        0
 75
     2
 76
     1
 98
        0
  0
ENDBLK
  5
61
330
5E
100
AcDbEntity
  8
0
100
AcDbBlockEnd
  0
BLOCK
  5
73
330
71
100
AcDbEntity
  8
0
100
AcDbBlockBegin
  2
block 4
 70
     0
 10
0.0
 20
0.0
 30
0.0
  3
block 4
  1

  0
POLYLINE
  5
75
330
71
100
AcDbEntity
  8
_U+30EC_U+30A4_U+30E4_U+30FC 1
 62
   179
420
  2234388
370
     9
100
AcDb2dPolyline
 66
     1
 10
0.0
 20
0.0
 30
0.0
  0
VERTEX
  5
76
330
75
100
AcDbEntity
  8
_U+30EC_U+30A4_U+30E4_U+30FC 1
 62
   179
420
  2234388
370
     9
100
AcDbVertex
100
AcDb2dVertex
 10
46.64487630999007
 20
-101.1338746969389
 30
0.0
  0
VERTEX
  5
77
330
75
100
AcDbEntity
  8
_U+30EC_U+30A4_U+30E4_U+30FC 1
 62
   179
420
  2234388
370
     9
100
AcDbVertex
100
AcDb2dVertex
 10
51.64472507132218
 20
-101.1338746969389
 30
0.0
  0
SEQEND
  5
78
330
75
100
AcDbEntity
  8
_U+30EC_U+30A4_U+30E4_U+30FC 1
 62
   179
420
  2234388
370
     9
  0
POLYLINE
  5
79
330
71
100
AcDbEntity
  8
_U+30EC_U+30A4_U+30E4_U+30FC 1
 62
   179
420
  2234388
370
     9
100
AcDb2dPolyline
 66
     1
 10
0.0
 20
0.0
 30
0.0
  0
VERTEX
  5
7A
330
79
100
AcDbEntity
  8
_U+30EC_U+30A4_U+30E4_U+30FC 1
 62
   179
420
  2234388
370
     9
100
AcDbVertex
100
AcDb2dVertex
 10
46.64487630999007
 20
-99.67383330841518
 30
0.0
  0
VERTEX
  5
7B
330
79
100
AcDbEntity
  8
_U+30EC_U+30A4_U+30E4_U+30FC 1
 62
   179
420
  2234388
370
     9
100
AcDbVertex
100
AcDb2dVertex
 10
46.64487630999007
 20
-102.1336469189108
 30
0.0
  0
SEQEND
  5
7C
330
79
100
AcDbEntity
  8
_U+30EC_U+30A4_U+30E4_U+30FC 1
 62
   179
420
  2234388
370
     9
  0
POLYLINE
  5
7D
330
71
100
AcDbEntity
  8
_U+30EC_U+30A4_U+30E4_U+30FC 1
 62
   179
420
  2234388
370
     9
100
AcDb2dPolyline
 66
     1
 10
0.0
 20
0.0
 30
0.0
  0
VERTEX
  5
7E
330
7D
100
AcDbEntity
  8
_U+30EC_U+30A4_U+30E4_U+30FC 1
 62
   179
420
  2234388
370
     9
100
AcDbVertex
100
AcDb2dVertex
 10
51.64472507132218
 20
-99.67383330841518
 30
0.0
  0
VERTEX
  5
7F
330
7D
100
AcDbEntity
  8
_U+30EC_U+30A4_U+30E4_U+30FC 1
 62
   179
420
  2234388
370
     9
100
AcDbVertex
100
AcDb2dVertex
 10
51.64472507132218
 20
-102.1336469189108
 30
0.0
  0
SEQEND
  5
80
330
7D
100
AcDbEntity
  8
_U+30EC_U+30A4_U+30E4_U+30FC 1
 62
   179
420
  2234388
370
     9
  0
INSERT
  5
82
330
71
100
AcDbEntity
  8
_U+30EC_U+30A4_U+30E4_U+30FC 1
100
AcDbBlockReference
  2
block 5
 10
0.0
 20
0.0
 30
0.0
  0
ENDBLK
  5
74
330
71
100
AcDbEntity
  8
0
100
AcDbBlockEnd
  0
BLOCK
  5
83
330
81
100
AcDbEntity
  8
0
100
AcDbBlockBegin
  2
block 5
 70
     0
 10
0.0
 20
0.0
 30
0.0
  3
block 5
  1

  0
SPLINE
  5
85
330
81
100
AcDbEntity
  8
_U+30EC_U+30A4_U+30E4_U+30FC 1
370
     0
100
AcDbSpline
210
0.0
220
0.0
230
1.0
 70
    11
 71
     3
 72
    53
 73
    49
 74
     0
 42
0.0000000001
 43
0.0000000001
 12
1.0
 22
0.0
 32
0.0
 13
1.0
 23
0.0
 33
0.0
 40
0.0
 40
0.0
 40
0.0
 40
0.0
 40
1.0
 40
1.0
 40
1.0
 40
2.0
 40
2.0
 40
2.0
 40
3.0
 40
3.0
 40
3.0
 40
4.0
 40
4.0
 40
4.0
 40
5.0
 40
5.0
 40
5.0
 40
6.0
 40
6.0
 40
6.0
 40
7.0
 40
7.0
 40
7.0
 40
8.0
 40
8.0
 40
8.0
 40
9.0
 40
9.0
 40
9.0
 40
10.0
 40
10.0
 40
10.0
 40
11.0
 40
11.0
 40
11.0
 40
12.0
 40
12.0
 40
12.0
 40
13.0
 40
13.0
 40
13.0
 40
14.0
 40
14.0
 40
14.0
 40
15.0
 40
15.0
 40
15.0
 40
16.0
 40
16.0
 40
16.0
 40
16.0
 10
49.12757838398547
 20
-100.5389105651431
 30
0.0
 10
49.0521307928585
 20
-100.5389105651431
 30
0.0
 10
48.95411782630314
 20
-100.5220295972653
 30
0.0
 10
48.85627711452204
 20
-100.4586398403367
 30
0.0
 10
48.68901772871317
 20
-100.3487412943573
 30
0.0
 10
48.66851941057593
 20
-100.2174831563692
 30
0.0
 10
48.6502604045041
 20
-100.1096516676809
 30
0.0
 10
48.6502604045041
 20
-100.1096516676809
 30
0.0
 10
48.86437308891238
 20
-100.1096516676809
 30
0.0
 10
48.86437308891238
 20
-100.1096516676809
 30
0.0
 10
48.91742755938523
 20
-100.3084336771798
 30
0.0
 10
49.03990070388586
 20
-100.338061498353
 30
0.0
 10
49.12964544127662
 20
-100.338061498353
 30
0.0
 10
49.26434867474989
 20
-100.338061498353
 30
0.0
 10
49.41110974242153
 20
-100.2384982388293
 30
0.0
 10
49.41110974242153
 20
-100.0059542935749
 30
0.0
 10
49.41110974242153
 20
-99.74998369902085
 30
0.0
 10
49.23782143951346
 20
-99.68004826067028
 30
0.0
 10
49.12137721211202
 20
-99.68004826067028
 30
0.0
 10
49.09088811706756
 20
-99.68004826067028
 30
0.0
 10
48.95411782630314
 20
-99.68004826067028
 30
0.0
 10
48.86850720349468
 20
-99.80923934136715
 30
0.0
 10
48.86850720349468
 20
-99.80923934136715
 30
0.0
 10
48.69918076039465
 20
-99.79029131619826
 30
0.0
 10
48.69918076039465
 20
-99.79029131619826
 30
0.0
 10
48.69918076039465
 20
-99.79029131619826
 30
0.0
 10
48.81545273302184
 20
-98.94383135547238
 30
0.0
 10
48.81545273302184
 20
-98.94383135547238
 30
0.0
 10
48.81545273302184
 20
-98.94383135547238
 30
0.0
 10
49.56613903925777
 20
-98.94383135547238
 30
0.0
 10
49.56613903925777
 20
-98.94383135547238
 30
0.0
 10
49.56613903925777
 20
-98.94383135547238
 30
0.0
 10
49.56613903925777
 20
-99.138479250389
 30
0.0
 10
49.56613903925777
 20
-99.138479250389
 30
0.0
 10
49.56613903925777
 20
-99.138479250389
 30
0.0
 10
48.97254908714923
 20
-99.138479250389
 30
0.0
 10
48.97254908714923
 20
-99.138479250389
 30
0.0
 10
48.97254908714923
 20
-99.138479250389
 30
0.0
 10
48.9093315849949
 20
-99.56153697597767
 30
0.0
 10
48.9093315849949
 20
-99.56153697597767
 30
0.0
 10
48.96841497256693
 20
-99.52777504022222
 30
0.0
 10
49.0479966782762
 20
-99.4874674230448
 30
0.0
 10
49.16220159361223
 20
-99.4874674230448
 30
0.0
 10
49.40714788261349
 20
-99.4874674230448
 30
0.0
 10
49.63555771328556
 20
-99.67384708879682
 30
0.0
 10
49.63555771328556
 20
-99.98700626840603
 30
0.0
 10
49.63555771328556
 20
-100.3042995625975
 30
0.0
 10
49.41937797158613
 20
-100.5389105651431
 30
0.0
 10
49.12757838398547
 20
-100.5389105651431
 30
0.0
  0
HATCH
  5
86
330
81
100
AcDbEntity
  8
_U+30EC_U+30A4_U+30E4_U+30FC 1
 62
   179
420
  2234388
100
AcDbHatch
 10
0.0
 20
0.0
 30
0.0
210
0.0
220
0.0
230
1.0
  2
SOLID
 70
     1
 71
     0
 91
        1
 92
        1
 93
        1
 72
     4
 94
        3
 73
     0
 74
     1
 95
       53
 96
       49
 40
0.0
 40
0.0
 40
0.0
 40
0.0
 40
1.0
 40
1.0
 40
1.0
 40
2.0
 40
2.0
 40
2.0
 40
3.0
 40
3.0
 40
3.0
 40
4.0
 40
4.0
 40
4.0
 40
5.0
 40
5.0
 40
5.0
 40
6.0
 40
6.0
 40
6.0
 40
7.0
 40
7.0
 40
7.0
 40
8.0
 40
8.0
 40
8.0
 40
9.0
 40
9.0
 40
9.0
 40
10.0
 40
10.0
 40
10.0
 40
11.0
 40
11.0
 40
11.0
 40
12.0
 40
12.0
 40
12.0
 40
13.0
 40
13.0
 40
13.0
 40
14.0
 40
14.0
 40
14.0
 40
15.0
 40
15.0
 40
15.0
 40
16.0
 40
16.0
 40
16.0
 40
16.0
 10
49.12757838398547
 20
-100.5389105651431
 10
49.0521307928585
 20
-100.5389105651431
 10
48.95411782630314
 20
-100.5220295972653
 10
48.85627711452204
 20
-100.4586398403367
 10
48.68901772871317
 20
-100.3487412943573
 10
48.66851941057593
 20
-100.2174831563692
 10
48.6502604045041
 20
-100.1096516676809
 10
48.6502604045041
 20
-100.1096516676809
 10
48.86437308891238
 20
-100.1096516676809
 10
48.86437308891238
 20
-100.1096516676809
 10
48.91742755938523
 20
-100.3084336771798
 10
49.03990070388586
 20
-100.338061498353
 10
49.12964544127662
 20
-100.338061498353
 10
49.26434867474989
 20
-100.338061498353
 10
49.41110974242153
 20
-100.2384982388293
 10
49.41110974242153
 20
-100.0059542935749
 10
49.41110974242153
 20
-99.74998369902085
 10
49.23782143951346
 20
-99.68004826067028
 10
49.12137721211202
 20
-99.68004826067028
 10
49.09088811706756
 20
-99.68004826067028
 10
48.95411782630314
 20
-99.68004826067028
 10
48.86850720349468
 20
-99.80923934136715
 10
48.86850720349468
 20
-99.80923934136715
 10
48.69918076039465
 20
-99.79029131619826
 10
48.69918076039465
 20
-99.79029131619826
 10
48.69918076039465
 20
-99.79029131619826
 10
48.81545273302184
 20
-98.94383135547238
 10
48.81545273302184
 20
-98.94383135547238
 10
48.81545273302184
 20
-98.94383135547238
 10
49.56613903925777
 20
-98.94383135547238
 10
49.56613903925777
 20
-98.94383135547238
 10
49.56613903925777
 20
-98.94383135547238
 10
49.56613903925777
 20
-99.138479250389
 10
49.56613903925777
 20
-99.138479250389
 10
49.56613903925777
 20
-99.138479250389
 10
48.97254908714923
 20
-99.138479250389
 10
48.97254908714923
 20
-99.138479250389
 10
48.97254908714923
 20
-99.138479250389
 10
48.9093315849949
 20
-99.56153697597767
 10
48.9093315849949
 20
-99.56153697597767
 10
48.96841497256693
 20
-99.52777504022222
 10
49.0479966782762
 20
-99.4874674230448
 10
49.16220159361223
 20
-99.4874674230448
 10
49.40714788261349
 20
-99.4874674230448
 10
49.63555771328556
 20
-99.67384708879682
 10
49.63555771328556
 20
-99.98700626840603
 10
49.63555771328556
 20
-100.3042995625975
 10
49.41937797158613
 20
-100.5389105651431
 10
49.12757838398547
 20
-100.5389105651431
 97
        0
 97
        0
 75
     2
 76
     1
 98
        0
  0
ENDBLK
  5
84
330
81
100
AcDbEntity
  8
0
100
AcDbBlockEnd
  0
BLOCK
  5
89
330
87
100
AcDbEntity
  8
0
100
AcDbBlockBegin
  2
block 6
 70
     0
 10
0.0
 20
0.0
 30
0.0
  3
block 6
  1

  0
POLYLINE
  5
8B
330
87
100
AcDbEntity
  8
_U+30EC_U+30A4_U+30E4_U+30FC 1
 62
   179
420
  2234388
370
     9
100
AcDb2dPolyline
 66
     1
 10
0.0
 20
0.0
 30
0.0
  0
VERTEX
  5
8C
330
8B
100
AcDbEntity
  8
_U+30EC_U+30A4_U+30E4_U+30FC 1
 62
   179
420
  2234388
370
     9
100
AcDbVertex
100
AcDb2dVertex
 10
75.04521530765928
 20
-84.63361136773037
 30
0.0
  0
VERTEX
  5
8D
330
8B
100
AcDbEntity
  8
_U+30EC_U+30A4_U+30E4_U+30FC 1
 62
   179
420
  2234388
370
     9
100
AcDbVertex
100
AcDb2dVertex
 10
75.04521530765928
 20
-94.13412858757766
 30
0.0
  0
SEQEND
  5
8E
330
8B
100
AcDbEntity
  8
_U+30EC_U+30A4_U+30E4_U+30FC 1
 62
   179
420
  2234388
370
     9
  0
POLYLINE
  5
8F
330
87
100
AcDbEntity
  8
_U+30EC_U+30A4_U+30E4_U+30FC 1
 62
   179
420
  2234388
370
     9
100
AcDb2dPolyline
 66
     1
 10
0.0
 20
0.0
 30
0.0
  0
VERTEX
  5
90
330
8F
100
AcDbEntity
  8
_U+30EC_U+30A4_U+30E4_U+30FC 1
 62
   179
420
  2234388
370
     9
100
AcDbVertex
100
AcDb2dVertex
 10
73.58517395601915
 20
-84.63361136773037
 30
0.0
  0
VERTEX
  5
91
330
8F
100
AcDbEntity
  8
_U+30EC_U+30A4_U+30E4_U+30FC 1
 62
   179
420
  2234388
370
     9
100
AcDbVertex
100
AcDb2dVertex
 10
76.04495222659831
 20
-84.63361136773037
 30
0.0
  0
SEQEND
  5
92
330
8F
100
AcDbEntity
  8
_U+30EC_U+30A4_U+30E4_U+30FC 1
 62
   179
420
  2234388
370
     9
  0
POLYLINE
  5
93
330
87
100
AcDbEntity
  8
_U+30EC_U+30A4_U+30E4_U+30FC 1
 62
   179
420
  2234388
370
     9
100
AcDb2dPolyline
 66
     1
 10
0.0
 20
0.0
 30
0.0
  0
VERTEX
  5
94
330
93
100
AcDbEntity
  8
_U+30EC_U+30A4_U+30E4_U+30FC 1
 62
   179
420
  2234388
370
     9
100
AcDbVertex
100
AcDb2dVertex
 10
54.18514833984392
 20
-94.13412858757766
 30
0.0
  0
VERTEX
  5
95
330
93
100
AcDbEntity
  8
_U+30EC_U+30A4_U+30E4_U+30FC 1
 62
   179
420
  2234388
370
     9
100
AcDbVertex
100
AcDb2dVertex
 10
76.04495222659831
 20
-94.13412858757766
 30
0.0
  0
SEQEND
  5
96
330
93
100
AcDbEntity
  8
_U+30EC_U+30A4_U+30E4_U+30FC 1
 62
   179
420
  2234388
370
     9
  0
INSERT
  5
98
330
87
100
AcDbEntity
  8
_U+30EC_U+30A4_U+30E4_U+30FC 1
100
AcDbBlockReference
  2
block 7
 10
0.0
 20
0.0
 30
0.0
  0
ENDBLK
  5
8A
330
87
100
AcDbEntity
  8
0
100
AcDbBlockEnd
  0
BLOCK
  5
99
330
97
100
AcDbEntity
  8
0
100
AcDbBlockBegin
  2
block 7
 70
     0
 10
0.0
 20
0.0
 30
0.0
  3
block 7
  1

  0
SPLINE
  5
9B
330
97
100
AcDbEntity
  8
_U+30EC_U+30A4_U+30E4_U+30FC 1
370
     0
100
AcDbSpline
210
0.0
220
0.0
230
1.0
 70
    11
 71
     3
 72
    32
 73
    28
 74
     0
 42
0.0000000001
 43
0.0000000001
 12
1.0
 22
0.0
 32
0.0
 13
1.0
 23
0.0
 33
0.0
 40
0.0
 40
0.0
 40
0.0
 40
0.0
 40
1.0
 40
1.0
 40
1.0
 40
2.0
 40
2.0
 40
2.0
 40
3.0
 40
3.0
 40
3.0
 40
4.0
 40
4.0
 40
4.0
 40
5.0
 40
5.0
 40
5.0
 40
6.0
 40
6.0
 40
6.0
 40
7.0
 40
7.0
 40
7.0
 40
8.0
 40
8.0
 40
8.0
 40
9.0
 40
9.0
 40
9.0
 40
9.0
 10
74.44989147444309
 20
-90.25495603212377
 30
0.0
 10
74.44989147444309
 20
-90.4223876727069
 30
0.0
 10
74.38030054564103
 20
-90.65906573254357
 30
0.0
 10
74.04819334086295
 20
-90.69558374468721
 30
0.0
 10
74.04819334086295
 20
-90.69558374468721
 30
0.0
 10
74.04819334086295
 20
-90.48956703466928
 30
0.0
 10
74.04819334086295
 20
-90.48956703466928
 30
0.0
 10
74.10744898320925
 20
-90.47957625776205
 30
0.0
 10
74.25524357952646
 20
-90.44891490794333
 30
0.0
 10
74.25524357952646
 20
-90.25288897483262
 30
0.0
 10
74.25524357952646
 20
-89.97142467368771
 30
0.0
 10
73.92554794158806
 20
-89.93456215199554
 30
0.0
 10
73.72022025066717
 20
-89.92250431779716
 30
0.0
 10
73.8004909754735
 20
-90.01035425267102
 30
0.0
 10
73.85767956052864
 20
-90.07546655734225
 30
0.0
 10
73.85767956052864
 20
-90.25082191754147
 30
0.0
 10
73.85767956052864
 20
-90.42445472999806
 30
0.0
 10
73.75191512913148
 20
-90.71625431759873
 30
0.0
 10
73.34573837142051
 20
-90.71625431759873
 30
0.0
 10
73.02637801993785
 20
-90.71625431759873
 30
0.0
 10
72.80623641843039
 20
-90.5243624990703
 30
0.0
 10
72.80623641843039
 20
-90.21843801998011
 30
0.0
 10
72.80623641843039
 20
-89.72268877965267
 30
0.0
 10
73.36055228200709
 20
-89.71235349319691
 30
0.0
 10
73.57414820209257
 20
-89.71235349319691
 30
0.0
 10
73.8046250900558
 20
-89.71235349319691
 30
0.0
 10
74.44989147444309
 20
-89.73061249926874
 30
0.0
 10
74.44989147444309
 20
-90.25495603212377
 30
0.0
  0
SPLINE
  5
9C
330
97
100
AcDbEntity
  8
_U+30EC_U+30A4_U+30E4_U+30FC 1
370
     0
100
AcDbSpline
210
0.0
220
0.0
230
1.0
 70
    11
 71
     3
 72
    17
 73
    13
 74
     0
 42
0.0000000001
 43
0.0000000001
 12
1.0
 22
0.0
 32
0.0
 13
1.0
 23
0.0
 33
0.0
 40
0.0
 40
0.0
 40
0.0
 40
0.0
 40
1.0
 40
1.0
 40
1.0
 40
2.0
 40
2.0
 40
2.0
 40
3.0
 40
3.0
 40
3.0
 40
4.0
 40
4.0
 40
4.0
 40
4.0
 10
72.99881725605586
 20
-90.21637096268897
 30
0.0
 10
72.99881725605586
 20
-90.33040362325073
 30
0.0
 10
73.056005841111
 20
-90.49990232112503
 30
0.0
 10
73.34160425683821
 20
-90.49990232112503
 30
0.0
 10
73.56794703021913
 20
-90.49990232112503
 30
0.0
 10
73.66303166561202
 20
-90.36519908765176
 30
0.0
 10
73.66303166561202
 20
-90.23462996876079
 30
0.0
 10
73.66303166561202
 20
-89.98175996014345
 30
0.0
 10
73.45356986010883
 20
-89.94489743845128
 30
0.0
 10
73.33712563270738
 20
-89.94489743845128
 30
0.0
 10
73.16177027250818
 20
-89.94489743845128
 30
0.0
 10
72.99881725605586
 20
-90.03688148790745
 30
0.0
 10
72.99881725605586
 20
-90.21637096268897
 30
0.0
  0
HATCH
  5
9D
330
97
100
AcDbEntity
  8
_U+30EC_U+30A4_U+30E4_U+30FC 1
 62
   179
420
  2234388
100
AcDbHatch
 10
0.0
 20
0.0
 30
0.0
210
0.0
220
0.0
230
1.0
  2
SOLID
 70
     1
 71
     0
 91
        2
 92
        1
 93
        1
 72
     4
 94
        3
 73
     0
 74
     1
 95
       32
 96
       28
 40
0.0
 40
0.0
 40
0.0
 40
0.0
 40
1.0
 40
1.0
 40
1.0
 40
2.0
 40
2.0
 40
2.0
 40
3.0
 40
3.0
 40
3.0
 40
4.0
 40
4.0
 40
4.0
 40
5.0
 40
5.0
 40
5.0
 40
6.0
 40
6.0
 40
6.0
 40
7.0
 40
7.0
 40
7.0
 40
8.0
 40
8.0
 40
8.0
 40
9.0
 40
9.0
 40
9.0
 40
9.0
 10
74.44989147444309
 20
-90.25495603212377
 10
74.44989147444309
 20
-90.4223876727069
 10
74.38030054564103
 20
-90.65906573254357
 10
74.04819334086295
 20
-90.69558374468721
 10
74.04819334086295
 20
-90.69558374468721
 10
74.04819334086295
 20
-90.48956703466928
 10
74.04819334086295
 20
-90.48956703466928
 10
74.10744898320925
 20
-90.47957625776205
 10
74.25524357952646
 20
-90.44891490794333
 10
74.25524357952646
 20
-90.25288897483262
 10
74.25524357952646
 20
-89.97142467368771
 10
73.92554794158806
 20
-89.93456215199554
 10
73.72022025066717
 20
-89.92250431779716
 10
73.8004909754735
 20
-90.01035425267102
 10
73.85767956052864
 20
-90.07546655734225
 10
73.85767956052864
 20
-90.25082191754147
 10
73.85767956052864
 20
-90.42445472999806
 10
73.75191512913148
 20
-90.71625431759873
 10
73.34573837142051
 20
-90.71625431759873
 10
73.02637801993785
 20
-90.71625431759873
 10
72.80623641843039
 20
-90.5243624990703
 10
72.80623641843039
 20
-90.21843801998011
 10
72.80623641843039
 20
-89.72268877965267
 10
73.36055228200709
 20
-89.71235349319691
 10
73.57414820209257
 20
-89.71235349319691
 10
73.8046250900558
 20
-89.71235349319691
 10
74.44989147444309
 20
-89.73061249926874
 10
74.44989147444309
 20
-90.25495603212377
 97
        0
 97
        0
 92
        1
 93
        1
 72
     4
 94
        3
 73
     0
 74
     1
 95
       17
 96
       13
 40
0.0
 40
0.0
 40
0.0
 40
0.0
 40
1.0
 40
1.0
 40
1.0
 40
2.0
 40
2.0
 40
2.0
 40
3.0
 40
3.0
 40
3.0
 40
4.0
 40
4.0
 40
4.0
 40
4.0
 10
72.99881725605586
 20
-90.21637096268897
 10
72.99881725605586
 20
-90.33040362325073
 10
73.056005841111
 20
-90.49990232112503
 10
73.34160425683821
 20
-90.49990232112503
 10
73.56794703021913
 20
-90.49990232112503
 10
73.66303166561202
 20
-90.36519908765176
 10
73.66303166561202
 20
-90.23462996876079
 10
73.66303166561202
 20
-89.98175996014345
 10
73.45356986010883
 20
-89.94489743845128
 10
73.33712563270738
 20
-89.94489743845128
 10
73.16177027250818
 20
-89.94489743845128
 10
72.99881725605586
 20
-90.03688148790745
 10
72.99881725605586
 20
-90.21637096268897
 97
        0
 97
        0
 75
     2
 76
     1
 98
        0
  0
POLYLINE
  5
9E
330
97
100
AcDbEntity
  8
_U+30EC_U+30A4_U+30E4_U+30FC 1
370
     0
100
AcDb2dPolyline
 66
     1
 10
0.0
 20
0.0
 30
0.0
  0
VERTEX
  5
9F
330
9E
100
AcDbEntity
  8
_U+30EC_U+30A4_U+30E4_U+30FC 1
370
     0
100
AcDbVertex
100
AcDb2dVertex
 10
74.39924857080992
 20
-89.50495874498488
 30
0.0
  0
VERTEX
  5
A0
330
9E
100
AcDbEntity
  8
_U+30EC_U+30A4_U+30E4_U+30FC 1
370
     0
100
AcDbVertex
100
AcDb2dVertex
 10
74.14741209083815
 20
-89.50495874498488
 30
0.0
  0
VERTEX
  5
A1
330
9E
100
AcDbEntity
  8
_U+30EC_U+30A4_U+30E4_U+30FC 1
370
     0
100
AcDbVertex
100
AcDb2dVertex
 10
74.14741209083815
 20
-89.26242402282328
 30
0.0
  0
VERTEX
  5
A2
330
9E
100
AcDbEntity
  8
_U+30EC_U+30A4_U+30E4_U+30FC 1
370
     0
100
AcDbVertex
100
AcDb2dVertex
 10
74.39924857080992
 20
-89.26242402282328
 30
0.0
  0
VERTEX
  5
A3
330
9E
100
AcDbEntity
  8
_U+30EC_U+30A4_U+30E4_U+30FC 1
370
     0
100
AcDbVertex
100
AcDb2dVertex
 10
74.39924857080992
 20
-89.50495874498488
 30
0.0
  0
SEQEND
  5
A4
330
9E
100
AcDbEntity
  8
_U+30EC_U+30A4_U+30E4_U+30FC 1
370
     0
  0
HATCH
  5
A5
330
97
100
AcDbEntity
  8
_U+30EC_U+30A4_U+30E4_U+30FC 1
 62
   179
420
  2234388
100
AcDbHatch
 10
0.0
 20
0.0
 30
0.0
210
0.0
220
0.0
230
1.0
  2
SOLID
 70
     1
 71
     0
 91
        1
 92
        1
 93
        4
 72
     1
 10
74.39924857080992
 20
-89.50495874498488
 11
74.14741209083815
 21
-89.50495874498488
 72
     1
 10
74.14741209083815
 20
-89.50495874498488
 11
74.14741209083815
 21
-89.26242402282328
 72
     1
 10
74.14741209083815
 20
-89.26242402282328
 11
74.39924857080992
 21
-89.26242402282328
 72
     1
 10
74.39924857080992
 20
-89.26242402282328
 11
74.39924857080992
 21
-89.50495874498488
 97
        0
 75
     2
 76
     1
 98
        0
  0
SPLINE
  5
A6
330
97
100
AcDbEntity
  8
_U+30EC_U+30A4_U+30E4_U+30FC 1
370
     0
100
AcDbSpline
210
0.0
220
0.0
230
1.0
 70
    11
 71
     3
 72
    53
 73
    49
 74
     0
 42
0.0000000001
 43
0.0000000001
 12
1.0
 22
0.0
 32
0.0
 13
1.0
 23
0.0
 33
0.0
 40
0.0
 40
0.0
 40
0.0
 40
0.0
 40
1.0
 40
1.0
 40
1.0
 40
2.0
 40
2.0
 40
2.0
 40
3.0
 40
3.0
 40
3.0
 40
4.0
 40
4.0
 40
4.0
 40
5.0
 40
5.0
 40
5.0
 40
6.0
 40
6.0
 40
6.0
 40
7.0
 40
7.0
 40
7.0
 40
8.0
 40
8.0
 40
8.0
 40
9.0
 40
9.0
 40
9.0
 40
10.0
 40
10.0
 40
10.0
 40
11.0
 40
11.0
 40
11.0
 40
12.0
 40
12.0
 40
12.0
 40
13.0
 40
13.0
 40
13.0
 40
14.0
 40
14.0
 40
14.0
 40
15.0
 40
15.0
 40
15.0
 40
16.0
 40
16.0
 40
16.0
 40
16.0
 10
74.44989147444309
 20
-88.57099335893365
 30
0.0
 10
74.44989147444309
 20
-88.64644095006062
 30
0.0
 10
74.43301050656537
 20
-88.74428166184171
 30
0.0
 10
74.36962074963677
 20
-88.84246688317133
 30
0.0
 10
74.25972220365729
 20
-89.00955401420595
 30
0.0
 10
74.12846406566928
 20
-89.02988007756892
 30
0.0
 10
74.02063257698096
 20
-89.04848359318927
 30
0.0
 10
74.02063257698096
 20
-89.04848359318927
 30
0.0
 10
74.02063257698096
 20
-88.83419865400673
 30
0.0
 10
74.02063257698096
 20
-88.83419865400673
 30
0.0
 10
74.21941458647987
 20
-88.78114418353388
 30
0.0
 10
74.24904240765302
 20
-88.65884329380752
 30
0.0
 10
74.24904240765302
 20
-88.56892630164249
 30
0.0
 10
74.24904240765302
 20
-88.43422306816923
 30
0.0
 10
74.1494791481293
 20
-88.28746200049758
 30
0.0
 10
73.91693520287494
 20
-88.28746200049758
 30
0.0
 10
73.66096460832087
 20
-88.28746200049758
 30
0.0
 10
73.5910291699703
 20
-88.46075030340565
 30
0.0
 10
73.5910291699703
 20
-88.57719453080709
 30
0.0
 10
73.5910291699703
 20
-88.60785588062582
 30
0.0
 10
73.5910291699703
 20
-88.74428166184171
 30
0.0
 10
73.72022025066717
 20
-88.83006453942443
 30
0.0
 10
73.72022025066717
 20
-88.83006453942443
 30
0.0
 10
73.7012722254983
 20
-88.99956323729873
 30
0.0
 10
73.7012722254983
 20
-88.99956323729873
 30
0.0
 10
73.7012722254983
 20
-88.99956323729873
 30
0.0
 10
72.8548122647724
 20
-88.88311900989729
 30
0.0
 10
72.8548122647724
 20
-88.88311900989729
 30
0.0
 10
72.8548122647724
 20
-88.88311900989729
 30
0.0
 10
72.8548122647724
 20
-88.13243270366134
 30
0.0
 10
72.8548122647724
 20
-88.13243270366134
 30
0.0
 10
72.8548122647724
 20
-88.13243270366134
 30
0.0
 10
73.04946015968903
 20
-88.13243270366134
 30
0.0
 10
73.04946015968903
 20
-88.13243270366134
 30
0.0
 10
73.04946015968903
 20
-88.13243270366134
 30
0.0
 10
73.04946015968903
 20
-88.72602265576988
 30
0.0
 10
73.04946015968903
 20
-88.72602265576988
 30
0.0
 10
73.04946015968903
 20
-88.72602265576988
 30
0.0
 10
73.47251788527771
 20
-88.78941241269848
 30
0.0
 10
73.47251788527771
 20
-88.78941241269848
 30
0.0
 10
73.43875594952226
 20
-88.73015677035218
 30
0.0
 10
73.39844833234484
 20
-88.65057506464292
 30
0.0
 10
73.39844833234484
 20
-88.53619789453262
 30
0.0
 10
73.39844833234484
 20
-88.29159611507988
 30
0.0
 10
73.58482799809686
 20
-88.0628417748593
 30
0.0
 10
73.89798717770606
 20
-88.0628417748593
 30
0.0
 10
74.21528047189757
 20
-88.0628417748593
 30
0.0
 10
74.44989147444309
 20
-88.27919377133298
 30
0.0
 10
74.44989147444309
 20
-88.57099335893365
 30
0.0
  0
HATCH
  5
A7
330
97
100
AcDbEntity
  8
_U+30EC_U+30A4_U+30E4_U+30FC 1
 62
   179
420
  2234388
100
AcDbHatch
 10
0.0
 20
0.0
 30
0.0
210
0.0
220
0.0
230
1.0
  2
SOLID
 70
     1
 71
     0
 91
        1
 92
        1
 93
        1
 72
     4
 94
        3
 73
     0
 74
     1
 95
       53
 96
       49
 40
0.0
 40
0.0
 40
0.0
 40
0.0
 40
1.0
 40
1.0
 40
1.0
 40
2.0
 40
2.0
 40
2.0
 40
3.0
 40
3.0
 40
3.0
 40
4.0
 40
4.0
 40
4.0
 40
5.0
 40
5.0
 40
5.0
 40
6.0
 40
6.0
 40
6.0
 40
7.0
 40
7.0
 40
7.0
 40
8.0
 40
8.0
 40
8.0
 40
9.0
 40
9.0
 40
9.0
 40
10.0
 40
10.0
 40
10.0
 40
11.0
 40
11.0
 40
11.0
 40
12.0
 40
12.0
 40
12.0
 40
13.0
 40
13.0
 40
13.0
 40
14.0
 40
14.0
 40
14.0
 40
15.0
 40
15.0
 40
15.0
 40
16.0
 40
16.0
 40
16.0
 40
16.0
 10
74.44989147444309
 20
-88.57099335893365
 10
74.44989147444309
 20
-88.64644095006062
 10
74.43301050656537
 20
-88.74428166184171
 10
74.36962074963677
 20
-88.84246688317133
 10
74.25972220365729
 20
-89.00955401420595
 10
74.12846406566928
 20
-89.02988007756892
 10
74.02063257698096
 20
-89.04848359318927
 10
74.02063257698096
 20
-89.04848359318927
 10
74.02063257698096
 20
-88.83419865400673
 10
74.02063257698096
 20
-88.83419865400673
 10
74.21941458647987
 20
-88.78114418353388
 10
74.24904240765302
 20
-88.65884329380752
 10
74.24904240765302
 20
-88.56892630164249
 10
74.24904240765302
 20
-88.43422306816923
 10
74.1494791481293
 20
-88.28746200049758
 10
73.91693520287494
 20
-88.28746200049758
 10
73.66096460832087
 20
-88.28746200049758
 10
73.5910291699703
 20
-88.46075030340565
 10
73.5910291699703
 20
-88.57719453080709
 10
73.5910291699703
 20
-88.60785588062582
 10
73.5910291699703
 20
-88.74428166184171
 10
73.72022025066717
 20
-88.83006453942443
 10
73.72022025066717
 20
-88.83006453942443
 10
73.7012722254983
 20
-88.99956323729873
 10
73.7012722254983
 20
-88.99956323729873
 10
73.7012722254983
 20
-88.99956323729873
 10
72.8548122647724
 20
-88.88311900989729
 10
72.8548122647724
 20
-88.88311900989729
 10
72.8548122647724
 20
-88.88311900989729
 10
72.8548122647724
 20
-88.13243270366134
 10
72.8548122647724
 20
-88.13243270366134
 10
72.8548122647724
 20
-88.13243270366134
 10
73.04946015968903
 20
-88.13243270366134
 10
73.04946015968903
 20
-88.13243270366134
 10
73.04946015968903
 20
-88.13243270366134
 10
73.04946015968903
 20
-88.72602265576988
 10
73.04946015968903
 20
-88.72602265576988
 10
73.04946015968903
 20
-88.72602265576988
 10
73.47251788527771
 20
-88.78941241269848
 10
73.47251788527771
 20
-88.78941241269848
 10
73.43875594952226
 20
-88.73015677035218
 10
73.39844833234484
 20
-88.65057506464292
 10
73.39844833234484
 20
-88.53619789453262
 10
73.39844833234484
 20
-88.29159611507988
 10
73.58482799809686
 20
-88.0628417748593
 10
73.89798717770606
 20
-88.0628417748593
 10
74.21528047189757
 20
-88.0628417748593
 10
74.44989147444309
 20
-88.27919377133298
 10
74.44989147444309
 20
-88.57099335893365
 97
        0
 97
        0
 75
     2
 76
     1
 98
        0
  0
ENDBLK
  5
9A
330
97
100
AcDbEntity
  8
0
100
AcDbBlockEnd
  0
BLOCK
  5
AA
330
A8
100
AcDbEntity
  8
0
100
AcDbBlockBegin
  2
block 8
 70
     0
 10
0.0
 20
0.0
 30
0.0
  3
block 8
  1

  0
POLYLINE
  5
AC
330
A8
100
AcDbEntity
  8
_U+30EC_U+30A4_U+30E4_U+30FC 1
 62
   179
420
  2234388
370
     9
100
AcDb2dPolyline
 66
     1
 10
0.0
 20
0.0
 30
0.0
  0
VERTEX
  5
AD
330
AC
100
AcDbEntity
  8
_U+30EC_U+30A4_U+30E4_U+30FC 1
 62
   179
420
  2234388
370
     9
100
AcDbVertex
100
AcDb2dVertex
 10
55.64483691371527
 20
-94.13412858757766
 30
0.0
  0
VERTEX
  5
AE
330
AC
100
AcDbEntity
  8
_U+30EC_U+30A4_U+30E4_U+30FC 1
 62
   179
420
  2234388
370
     9
100
AcDbVertex
100
AcDb2dVertex
 10
55.64483691371527
 20
-97.13411553127202
 30
0.0
  0
SEQEND
  5
AF
330
AC
100
AcDbEntity
  8
_U+30EC_U+30A4_U+30E4_U+30FC 1
 62
   179
420
  2234388
370
     9
  0
POLYLINE
  5
B0
330
A8
100
AcDbEntity
  8
_U+30EC_U+30A4_U+30E4_U+30FC 1
 62
   179
420
  2234388
370
     9
100
AcDb2dPolyline
 66
     1
 10
0.0
 20
0.0
 30
0.0
  0
VERTEX
  5
B1
330
B0
100
AcDbEntity
  8
_U+30EC_U+30A4_U+30E4_U+30FC 1
 62
   179
420
  2234388
370
     9
100
AcDbVertex
100
AcDb2dVertex
 10
54.18514833984392
 20
-94.13412858757766
 30
0.0
  0
VERTEX
  5
B2
330
B0
100
AcDbEntity
  8
_U+30EC_U+30A4_U+30E4_U+30FC 1
 62
   179
420
  2234388
370
     9
100
AcDbVertex
100
AcDb2dVertex
 10
56.64496188819996
 20
-94.13412858757766
 30
0.0
  0
SEQEND
  5
B3
330
B0
100
AcDbEntity
  8
_U+30EC_U+30A4_U+30E4_U+30FC 1
 62
   179
420
  2234388
370
     9
  0
POLYLINE
  5
B4
330
A8
100
AcDbEntity
  8
_U+30EC_U+30A4_U+30E4_U+30FC 1
 62
   179
420
  2234388
370
     9
100
AcDb2dPolyline
 66
     1
 10
0.0
 20
0.0
 30
0.0
  0
VERTEX
  5
B5
330
B4
100
AcDbEntity
  8
_U+30EC_U+30A4_U+30E4_U+30FC 1
 62
   179
420
  2234388
370
     9
100
AcDbVertex
100
AcDb2dVertex
 10
54.18514833984392
 20
-97.13411553127202
 30
0.0
  0
VERTEX
  5
B6
330
B4
100
AcDbEntity
  8
_U+30EC_U+30A4_U+30E4_U+30FC 1
 62
   179
420
  2234388
370
     9
100
AcDbVertex
100
AcDb2dVertex
 10
56.64496188819996
 20
-97.13411553127202
 30
0.0
  0
SEQEND
  5
B7
330
B4
100
AcDbEntity
  8
_U+30EC_U+30A4_U+30E4_U+30FC 1
 62
   179
420
  2234388
370
     9
  0
INSERT
  5
B9
330
A8
100
AcDbEntity
  8
_U+30EC_U+30A4_U+30E4_U+30FC 1
100
AcDbBlockReference
  2
block 9
 10
0.0
 20
0.0
 30
0.0
  0
ENDBLK
  5
AB
330
A8
100
AcDbEntity
  8
0
100
AcDbBlockEnd
  0
BLOCK
  5
BA
330
B8
100
AcDbEntity
  8
0
100
AcDbBlockBegin
  2
block 9
 70
     0
 10
0.0
 20
0.0
 30
0.0
  3
block 9
  1

  0
SPLINE
  5
BC
330
B8
100
AcDbEntity
  8
_U+30EC_U+30A4_U+30E4_U+30FC 1
370
     0
100
AcDbSpline
210
0.0
220
0.0
230
1.0
 70
    11
 71
     3
 72
    62
 73
    58
 74
     0
 42
0.0000000001
 43
0.0000000001
 12
1.0
 22
0.0
 32
0.0
 13
1.0
 23
0.0
 33
0.0
 40
0.0
 40
0.0
 40
0.0
 40
0.0
 40
1.0
 40
1.0
 40
1.0
 40
2.0
 40
2.0
 40
2.0
 40
3.0
 40
3.0
 40
3.0
 40
4.0
 40
4.0
 40
4.0
 40
5.0
 40
5.0
 40
5.0
 40
6.0
 40
6.0
 40
6.0
 40
7.0
 40
7.0
 40
7.0
 40
8.0
 40
8.0
 40
8.0
 40
9.0
 40
9.0
 40
9.0
 40
10.0
 40
10.0
 40
10.0
 40
11.0
 40
11.0
 40
11.0
 40
12.0
 40
12.0
 40
12.0
 40
13.0
 40
13.0
 40
13.0
 40
14.0
 40
14.0
 40
14.0
 40
15.0
 40
15.0
 40
15.0
 40
16.0
 40
16.0
 40
16.0
 40
17.0
 40
17.0
 40
17.0
 40
18.0
 40
18.0
 40
18.0
 40
19.0
 40
19.0
 40
19.0
 40
19.0
 10
55.0498697779042
 20
-95.64136282331188
 30
0.0
 10
55.0498697779042
 20
-95.73334687276805
 30
0.0
 10
55.02885469544417
 20
-95.9434976973683
 30
0.0
 10
54.84281953924069
 20
-96.06373152980352
 30
0.0
 10
54.73050942642154
 20
-96.13538951589672
 30
0.0
 10
54.63129067644635
 20
-96.13917912093049
 30
0.0
 10
54.5465413275092
 20
-96.14331323551279
 30
0.0
 10
54.5465413275092
 20
-96.14331323551279
 30
0.0
 10
54.5465413275092
 20
-95.9310953536214
 30
0.0
 10
54.5465413275092
 20
-95.9310953536214
 30
0.0
 10
54.62061088044207
 20
-95.92902829633024
 30
0.0
 10
54.85522188298759
 20
-95.91903751942303
 30
0.0
 10
54.85522188298759
 20
-95.64549693789418
 30
0.0
 10
54.85522188298759
 20
-95.51286076171206
 30
0.0
 10
54.78563095418554
 20
-95.36609969404043
 30
0.0
 10
54.55722112351347
 20
-95.36609969404043
 30
0.0
 10
54.44077689611203
 20
-95.36609969404043
 30
0.0
 10
54.39220104977001
 20
-95.4029622157326
 30
0.0
 10
54.36050617130571
 20
-95.43327905600279
 30
0.0
 10
54.28643661837284
 20
-95.50493704209599
 30
0.0
 10
54.27368976507741
 20
-95.61690264536661
 30
0.0
 10
54.27368976507741
 20
-95.66995711583947
 30
0.0
 10
54.27368976507741
 20
-95.68856063145981
 30
0.0
 10
54.27575682236856
 20
-95.72301158631231
 30
0.0
 10
54.27989093695086
 20
-95.74953882154873
 30
0.0
 10
54.27989093695086
 20
-95.74953882154873
 30
0.0
 10
54.08524304203425
 20
-95.74953882154873
 30
0.0
 10
54.08524304203425
 20
-95.74953882154873
 30
0.0
 10
54.09178872345622
 20
-95.71302080940508
 30
0.0
 10
54.09385578074737
 20
-95.67202417313061
 30
0.0
 10
54.09385578074737
 20
-95.66582300125717
 30
0.0
 10
54.09385578074737
 20
-95.60277775387709
 30
0.0
 10
54.07249618873882
 20
-95.41088593534867
 30
0.0
 10
53.83581812890216
 20
-95.41088593534867
 30
0.0
 10
53.65805120186327
 20
-95.41088593534867
 30
0.0
 10
53.60292967409927
 20
-95.53732093965733
 30
0.0
 10
53.60292967409927
 20
-95.64342988060304
 30
0.0
 10
53.60292967409927
 20
-95.89871145606004
 30
0.0
 10
53.83581812890216
 20
-95.90663517567613
 30
0.0
 10
53.90747611499535
 20
-95.91076929025843
 30
0.0
 10
53.90747611499535
 20
-95.91076929025843
 30
0.0
 10
53.90747611499535
 20
-96.10679522336913
 30
0.0
 10
53.90747611499535
 20
-96.10679522336913
 30
0.0
 10
53.78276365842931
 20
-96.09852699420453
 30
0.0
 10
53.4062147218915
 20
-96.07199975896812
 30
0.0
 10
53.4062147218915
 20
-95.63137204640466
 30
0.0
 10
53.4062147218915
 20
-95.41502004993097
 30
0.0
 10
53.53333874529722
 20
-95.18247610467661
 30
0.0
 10
53.82927244748019
 20
-95.18247610467661
 30
0.0
 10
54.0156521132322
 20
-95.18247610467661
 30
0.0
 10
54.09798989532967
 20
-95.27411564458426
 30
0.0
 10
54.15931259496712
 20
-95.37023380862273
 30
0.0
 10
54.18687335884912
 20
-95.31097816627643
 30
0.0
 10
54.26714408365544
 20
-95.13562280607721
 30
0.0
 10
54.54447427021805
 20
-95.13562280607721
 30
0.0
 10
54.88278264686959
 20
-95.13562280607721
 30
0.0
 10
55.0498697779042
 20
-95.37436792320503
 30
0.0
 10
55.0498697779042
 20
-95.64136282331188
 30
0.0
  0
HATCH
  5
BD
330
B8
100
AcDbEntity
  8
_U+30EC_U+30A4_U+30E4_U+30FC 1
 62
   179
420
  2234388
100
AcDbHatch
 10
0.0
 20
0.0
 30
0.0
210
0.0
220
0.0
230
1.0
  2
SOLID
 70
     1
 71
     0
 91
        1
 92
        1
 93
        1
 72
     4
 94
        3
 73
     0
 74
     1
 95
       62
 96
       58
 40
0.0
 40
0.0
 40
0.0
 40
0.0
 40
1.0
 40
1.0
 40
1.0
 40
2.0
 40
2.0
 40
2.0
 40
3.0
 40
3.0
 40
3.0
 40
4.0
 40
4.0
 40
4.0
 40
5.0
 40
5.0
 40
5.0
 40
6.0
 40
6.0
 40
6.0
 40
7.0
 40
7.0
 40
7.0
 40
8.0
 40
8.0
 40
8.0
 40
9.0
 40
9.0
 40
9.0
 40
10.0
 40
10.0
 40
10.0
 40
11.0
 40
11.0
 40
11.0
 40
12.0
 40
12.0
 40
12.0
 40
13.0
 40
13.0
 40
13.0
 40
14.0
 40
14.0
 40
14.0
 40
15.0
 40
15.0
 40
15.0
 40
16.0
 40
16.0
 40
16.0
 40
17.0
 40
17.0
 40
17.0
 40
18.0
 40
18.0
 40
18.0
 40
19.0
 40
19.0
 40
19.0
 40
19.0
 10
55.0498697779042
 20
-95.64136282331188
 10
55.0498697779042
 20
-95.73334687276805
 10
55.02885469544417
 20
-95.9434976973683
 10
54.84281953924069
 20
-96.06373152980352
 10
54.73050942642154
 20
-96.13538951589672
 10
54.63129067644635
 20
-96.13917912093049
 10
54.5465413275092
 20
-96.14331323551279
 10
54.5465413275092
 20
-96.14331323551279
 10
54.5465413275092
 20
-95.9310953536214
 10
54.5465413275092
 20
-95.9310953536214
 10
54.62061088044207
 20
-95.92902829633024
 10
54.85522188298759
 20
-95.91903751942303
 10
54.85522188298759
 20
-95.64549693789418
 10
54.85522188298759
 20
-95.51286076171206
 10
54.78563095418554
 20
-95.36609969404043
 10
54.55722112351347
 20
-95.36609969404043
 10
54.44077689611203
 20
-95.36609969404043
 10
54.39220104977001
 20
-95.4029622157326
 10
54.36050617130571
 20
-95.43327905600279
 10
54.28643661837284
 20
-95.50493704209599
 10
54.27368976507741
 20
-95.61690264536661
 10
54.27368976507741
 20
-95.66995711583947
 10
54.27368976507741
 20
-95.68856063145981
 10
54.27575682236856
 20
-95.72301158631231
 10
54.27989093695086
 20
-95.74953882154873
 10
54.27989093695086
 20
-95.74953882154873
 10
54.08524304203425
 20
-95.74953882154873
 10
54.08524304203425
 20
-95.74953882154873
 10
54.09178872345622
 20
-95.71302080940508
 10
54.09385578074737
 20
-95.67202417313061
 10
54.09385578074737
 20
-95.66582300125717
 10
54.09385578074737
 20
-95.60277775387709
 10
54.07249618873882
 20
-95.41088593534867
 10
53.83581812890216
 20
-95.41088593534867
 10
53.65805120186327
 20
-95.41088593534867
 10
53.60292967409927
 20
-95.53732093965733
 10
53.60292967409927
 20
-95.64342988060304
 10
53.60292967409927
 20
-95.89871145606004
 10
53.83581812890216
 20
-95.90663517567613
 10
53.90747611499535
 20
-95.91076929025843
 10
53.90747611499535
 20
-95.91076929025843
 10
53.90747611499535
 20
-96.10679522336913
 10
53.90747611499535
 20
-96.10679522336913
 10
53.78276365842931
 20
-96.09852699420453
 10
53.4062147218915
 20
-96.07199975896812
 10
53.4062147218915
 20
-95.63137204640466
 10
53.4062147218915
 20
-95.41502004993097
 10
53.53333874529722
 20
-95.18247610467661
 10
53.82927244748019
 20
-95.18247610467661
 10
54.0156521132322
 20
-95.18247610467661
 10
54.09798989532967
 20
-95.27411564458426
 10
54.15931259496712
 20
-95.37023380862273
 10
54.18687335884912
 20
-95.31097816627643
 10
54.26714408365544
 20
-95.13562280607721
 10
54.54447427021805
 20
-95.13562280607721
 10
54.88278264686959
 20
-95.13562280607721
 10
55.0498697779042
 20
-95.37436792320503
 10
55.0498697779042
 20
-95.64136282331188
 97
        0
 97
        0
 75
     2
 76
     1
 98
        0
  0
ENDBLK
  5
BB
330
B8
100
AcDbEntity
  8
0
100
AcDbBlockEnd
  0
BLOCK
  5
C0
330
BE
100
AcDbEntity
  8
0
100
AcDbBlockBegin
  2
block 10
 70
     0
 10
0.0
 20
0.0
 30
0.0
  3
block 10
  1

  0
POLYLINE
  5
C2
330
BE
100
AcDbEntity
  8
_U+30EC_U+30A4_U+30E4_U+30FC 1
 62
   179
420
  2234388
370
     9
100
AcDb2dPolyline
 66
     1
 10
0.0
 20
0.0
 30
0.0
  0
VERTEX
  5
C3
330
C2
100
AcDbEntity
  8
_U+30EC_U+30A4_U+30E4_U+30FC 1
 62
   179
420
  2234388
370
     9
100
AcDbVertex
100
AcDb2dVertex
 10
48.04494544093799
 20
-79.63407998009158
 30
0.0
  0
VERTEX
  5
C4
330
C2
100
AcDbEntity
  8
_U+30EC_U+30A4_U+30E4_U+30FC 1
 62
   179
420
  2234388
370
     9
100
AcDbVertex
100
AcDb2dVertex
 10
71.04475068749741
 20
-79.63407998009158
 30
0.0
  0
SEQEND
  5
C5
330
C2
100
AcDbEntity
  8
_U+30EC_U+30A4_U+30E4_U+30FC 1
 62
   179
420
  2234388
370
     9
  0
POLYLINE
  5
C6
330
BE
100
AcDbEntity
  8
_U+30EC_U+30A4_U+30E4_U+30FC 1
 62
   179
420
  2234388
370
     9
100
AcDb2dPolyline
 66
     1
 10
0.0
 20
0.0
 30
0.0
  0
VERTEX
  5
C7
330
C6
100
AcDbEntity
  8
_U+30EC_U+30A4_U+30E4_U+30FC 1
 62
   179
420
  2234388
370
     9
100
AcDbVertex
100
AcDb2dVertex
 10
48.04494544093799
 20
-81.09408609083745
 30
0.0
  0
VERTEX
  5
C8
330
C6
100
AcDbEntity
  8
_U+30EC_U+30A4_U+30E4_U+30FC 1
 62
   179
420
  2234388
370
     9
100
AcDbVertex
100
AcDb2dVertex
 10
48.04494544093799
 20
-78.63360220256384
 30
0.0
  0
SEQEND
  5
C9
330
C6
100
AcDbEntity
  8
_U+30EC_U+30A4_U+30E4_U+30FC 1
 62
   179
420
  2234388
370
     9
  0
POLYLINE
  5
CA
330
BE
100
AcDbEntity
  8
_U+30EC_U+30A4_U+30E4_U+30FC 1
 62
   179
420
  2234388
370
     9
100
AcDb2dPolyline
 66
     1
 10
0.0
 20
0.0
 30
0.0
  0
VERTEX
  5
CB
330
CA
100
AcDbEntity
  8
_U+30EC_U+30A4_U+30E4_U+30FC 1
 62
   179
420
  2234388
370
     9
100
AcDbVertex
100
AcDb2dVertex
 10
71.04475068749741
 20
-81.09408609083745
 30
0.0
  0
VERTEX
  5
CC
330
CA
100
AcDbEntity
  8
_U+30EC_U+30A4_U+30E4_U+30FC 1
 62
   179
420
  2234388
370
     9
100
AcDbVertex
100
AcDb2dVertex
 10
71.04475068749741
 20
-78.63360220256384
 30
0.0
  0
SEQEND
  5
CD
330
CA
100
AcDbEntity
  8
_U+30EC_U+30A4_U+30E4_U+30FC 1
 62
   179
420
  2234388
370
     9
  0
INSERT
  5
CF
330
BE
100
AcDbEntity
  8
_U+30EC_U+30A4_U+30E4_U+30FC 1
100
AcDbBlockReference
  2
block 11
 10
0.0
 20
0.0
 30
0.0
  0
ENDBLK
  5
C1
330
BE
100
AcDbEntity
  8
0
100
AcDbBlockEnd
  0
BLOCK
  5
D0
330
CE
100
AcDbEntity
  8
0
100
AcDbBlockBegin
  2
block 11
 70
     0
 10
0.0
 20
0.0
 30
0.0
  3
block 11
  1

  0
SPLINE
  5
D2
330
CE
100
AcDbEntity
  8
_U+30EC_U+30A4_U+30E4_U+30FC 1
370
     0
100
AcDbSpline
210
0.0
220
0.0
230
1.0
 70
    11
 71
     3
 72
    44
 73
    40
 74
     0
 42
0.0000000001
 43
0.0000000001
 12
1.0
 22
0.0
 32
0.0
 13
1.0
 23
0.0
 33
0.0
 40
0.0
 40
0.0
 40
0.0
 40
0.0
 40
1.0
 40
1.0
 40
1.0
 40
2.0
 40
2.0
 40
2.0
 40
3.0
 40
3.0
 40
3.0
 40
4.0
 40
4.0
 40
4.0
 40
5.0
 40
5.0
 40
5.0
 40
6.0
 40
6.0
 40
6.0
 40
7.0
 40
7.0
 40
7.0
 40
8.0
 40
8.0
 40
8.0
 40
9.0
 40
9.0
 40
9.0
 40
10.0
 40
10.0
 40
10.0
 40
11.0
 40
11.0
 40
11.0
 40
12.0
 40
12.0
 40
12.0
 40
13.0
 40
13.0
 40
13.0
 40
13.0
 10
59.06909042577092
 20
-78.40641138447826
 30
0.0
 10
58.85893960117068
 20
-78.56505803157401
 30
0.0
 10
58.76919486377992
 20
-78.6391275845069
 30
0.0
 10
58.72216931040627
 20
-78.78296032101606
 30
0.0
 10
58.72216931040627
 20
-78.78296032101606
 30
0.0
 10
59.47302787141647
 20
-78.78296032101606
 30
0.0
 10
59.47302787141647
 20
-78.78296032101606
 30
0.0
 10
59.47302787141647
 20
-78.78296032101606
 30
0.0
 10
59.47302787141647
 20
-78.9881157571627
 30
0.0
 10
59.47302787141647
 20
-78.9881157571627
 30
0.0
 10
59.47302787141647
 20
-78.9881157571627
 30
0.0
 10
58.48152939076157
 20
-78.9881157571627
 30
0.0
 10
58.48152939076157
 20
-78.9881157571627
 30
0.0
 10
58.51201848580602
 20
-78.63051484579377
 30
0.0
 10
58.57540824273462
 20
-78.55231117827859
 30
0.0
 10
58.94661728127029
 20
-78.25396590925595
 30
0.0
 10
59.19345837278844
 20
-78.05518389975704
 30
0.0
 10
59.25667587494278
 20
-77.98748777347188
 30
0.0
 10
59.25667587494278
 20
-77.85002846361041
 30
0.0
 10
59.25667587494278
 20
-77.73151717891781
 30
0.0
 10
59.18742945568926
 20
-77.60043129570406
 30
0.0
 10
58.99760469445199
 20
-77.60043129570406
 30
0.0
 10
58.74662948835154
 20
-77.60043129570406
 30
0.0
 10
58.7385335139612
 20
-77.83090818366728
 30
0.0
 10
58.7343993993789
 20
-77.94735241106872
 30
0.0
 10
58.7343993993789
 20
-77.94735241106872
 30
0.0
 10
58.51821965767947
 20
-77.94735241106872
 30
0.0
 10
58.51821965767947
 20
-77.94735241106872
 30
0.0
 10
58.52631563206981
 20
-77.82040064243726
 30
0.0
 10
58.5364786637513
 20
-77.70826278439239
 30
0.0
 10
58.61416556694368
 20
-77.58975149969979
 30
0.0
 10
58.72010225311512
 20
-77.42903779531288
 30
0.0
 10
58.8997639826709
 20
-77.39510360478317
 30
0.0
 10
59.01190184071578
 20
-77.39510360478317
 30
0.0
 10
59.27924125037116
 20
-77.39510360478317
 30
0.0
 10
59.47905678851566
 20
-77.57924395846977
 30
0.0
 10
59.47905678851566
 20
-77.85209552090156
 30
0.0
 10
59.47905678851566
 20
-78.08050535157362
 30
0.0
 10
59.36691893047077
 20
-78.18006861109735
 30
0.0
 10
59.06909042577092
 20
-78.40641138447826
 30
0.0
  0
HATCH
  5
D3
330
CE
100
AcDbEntity
  8
_U+30EC_U+30A4_U+30E4_U+30FC 1
 62
   179
420
  2234388
100
AcDbHatch
 10
0.0
 20
0.0
 30
0.0
210
0.0
220
0.0
230
1.0
  2
SOLID
 70
     1
 71
     0
 91
        1
 92
        1
 93
        1
 72
     4
 94
        3
 73
     0
 74
     1
 95
       44
 96
       40
 40
0.0
 40
0.0
 40
0.0
 40
0.0
 40
1.0
 40
1.0
 40
1.0
 40
2.0
 40
2.0
 40
2.0
 40
3.0
 40
3.0
 40
3.0
 40
4.0
 40
4.0
 40
4.0
 40
5.0
 40
5.0
 40
5.0
 40
6.0
 40
6.0
 40
6.0
 40
7.0
 40
7.0
 40
7.0
 40
8.0
 40
8.0
 40
8.0
 40
9.0
 40
9.0
 40
9.0
 40
10.0
 40
10.0
 40
10.0
 40
11.0
 40
11.0
 40
11.0
 40
12.0
 40
12.0
 40
12.0
 40
13.0
 40
13.0
 40
13.0
 40
13.0
 10
59.06909042577092
 20
-78.40641138447826
 10
58.85893960117068
 20
-78.56505803157401
 10
58.76919486377992
 20
-78.6391275845069
 10
58.72216931040627
 20
-78.78296032101606
 10
58.72216931040627
 20
-78.78296032101606
 10
59.47302787141647
 20
-78.78296032101606
 10
59.47302787141647
 20
-78.78296032101606
 10
59.47302787141647
 20
-78.78296032101606
 10
59.47302787141647
 20
-78.9881157571627
 10
59.47302787141647
 20
-78.9881157571627
 10
59.47302787141647
 20
-78.9881157571627
 10
58.48152939076157
 20
-78.9881157571627
 10
58.48152939076157
 20
-78.9881157571627
 10
58.51201848580602
 20
-78.63051484579377
 10
58.57540824273462
 20
-78.55231117827859
 10
58.94661728127029
 20
-78.25396590925595
 10
59.19345837278844
 20
-78.05518389975704
 10
59.25667587494278
 20
-77.98748777347188
 10
59.25667587494278
 20
-77.85002846361041
 10
59.25667587494278
 20
-77.73151717891781
 10
59.18742945568926
 20
-77.60043129570406
 10
58.99760469445199
 20
-77.60043129570406
 10
58.74662948835154
 20
-77.60043129570406
 10
58.7385335139612
 20
-77.83090818366728
 10
58.7343993993789
 20
-77.94735241106872
 10
58.7343993993789
 20
-77.94735241106872
 10
58.51821965767947
 20
-77.94735241106872
 10
58.51821965767947
 20
-77.94735241106872
 10
58.52631563206981
 20
-77.82040064243726
 10
58.5364786637513
 20
-77.70826278439239
 10
58.61416556694368
 20
-77.58975149969979
 10
58.72010225311512
 20
-77.42903779531288
 10
58.8997639826709
 20
-77.39510360478317
 10
59.01190184071578
 20
-77.39510360478317
 10
59.27924125037116
 20
-77.39510360478317
 10
59.47905678851566
 20
-77.57924395846977
 10
59.47905678851566
 20
-77.85209552090156
 10
59.47905678851566
 20
-78.08050535157362
 10
59.36691893047077
 20
-78.18006861109735
 10
59.06909042577092
 20
-78.40641138447826
 97
        0
 97
        0
 75
     2
 76
     1
 98
        0
  0
SPLINE
  5
D4
330
CE
100
AcDbEntity
  8
_U+30EC_U+30A4_U+30E4_U+30FC 1
370
     0
100
AcDbSpline
210
0.0
220
0.0
230
1.0
 70
    11
 71
     3
 72
    62
 73
    58
 74
     0
 42
0.0000000001
 43
0.0000000001
 12
1.0
 22
0.0
 32
0.0
 13
1.0
 23
0.0
 33
0.0
 40
0.0
 40
0.0
 40
0.0
 40
0.0
 40
1.0
 40
1.0
 40
1.0
 40
2.0
 40
2.0
 40
2.0
 40
3.0
 40
3.0
 40
3.0
 40
4.0
 40
4.0
 40
4.0
 40
5.0
 40
5.0
 40
5.0
 40
6.0
 40
6.0
 40
6.0
 40
7.0
 40
7.0
 40
7.0
 40
8.0
 40
8.0
 40
8.0
 40
9.0
 40
9.0
 40
9.0
 40
10.0
 40
10.0
 40
10.0
 40
11.0
 40
11.0
 40
11.0
 40
12.0
 40
12.0
 40
12.0
 40
13.0
 40
13.0
 40
13.0
 40
14.0
 40
14.0
 40
14.0
 40
15.0
 40
15.0
 40
15.0
 40
16.0
 40
16.0
 40
16.0
 40
17.0
 40
17.0
 40
17.0
 40
18.0
 40
18.0
 40
18.0
 40
19.0
 40
19.0
 40
19.0
 40
19.0
 10
60.10451387386276
 20
-79.03893091557013
 30
0.0
 10
60.01270207918085
 20
-79.03893091557013
 30
0.0
 10
59.80255125458061
 20
-79.01774357833584
 30
0.0
 10
59.6823174221454
 20
-78.8315361673581
 30
0.0
 10
59.61083169082646
 20
-78.7193983093132
 30
0.0
 10
59.60669757624416
 20
-78.62000730456376
 30
0.0
 10
59.60273571643612
 20
-78.53543021040088
 30
0.0
 10
59.60273571643612
 20
-78.53543021040088
 30
0.0
 10
59.81478134355325
 20
-78.53543021040088
 30
0.0
 10
59.81478134355325
 20
-78.53543021040088
 30
0.0
 10
59.8168484008444
 20
-78.60949976333374
 30
0.0
 10
59.82701143252589
 20
-78.84428302065352
 30
0.0
 10
60.10055201405473
 20
-78.84428302065352
 30
0.0
 10
60.23301593546258
 20
-78.84428302065352
 30
0.0
 10
60.37994925790849
 20
-78.77451983707721
 30
0.0
 10
60.37994925790849
 20
-78.54593775163087
 30
0.0
 10
60.37994925790849
 20
-78.4296657790037
 30
0.0
 10
60.34325899099058
 20
-78.38091767788741
 30
0.0
 10
60.31259764117186
 20
-78.34922279942312
 30
0.0
 10
60.24128416462718
 20
-78.27515324649025
 30
0.0
 10
60.12897405180804
 20
-78.26257864796908
 30
0.0
 10
60.07591958133519
 20
-78.26257864796908
 30
0.0
 10
60.05766057526336
 20
-78.26257864796908
 30
0.0
 10
60.02286511086234
 20
-78.26464570526024
 30
0.0
 10
59.99633787562592
 20
-78.26877981984254
 30
0.0
 10
59.99633787562592
 20
-78.26877981984254
 30
0.0
 10
59.99633787562592
 20
-78.07413192492592
 30
0.0
 10
59.99633787562592
 20
-78.07413192492592
 30
0.0
 10
60.03320039731809
 20
-78.08050535157362
 30
0.0
 10
60.07402477881831
 20
-78.08274466363903
 30
0.0
 10
60.08005369591749
 20
-78.08274466363903
 30
0.0
 10
60.14327119807182
 20
-78.08274466363903
 30
0.0
 10
60.33516301660024
 20
-78.06155732640475
 30
0.0
 10
60.33516301660024
 20
-77.82453475701956
 30
0.0
 10
60.33516301660024
 20
-77.64694008475493
 30
0.0
 10
60.20855575751731
 20
-77.59181855699094
 30
0.0
 10
60.10244681657161
 20
-77.59181855699094
 30
0.0
 10
59.84750975066313
 20
-77.59181855699094
 30
0.0
 10
59.83941377627279
 20
-77.82453475701956
 30
0.0
 10
59.83527966169049
 20
-77.89653725266129
 30
0.0
 10
59.83527966169049
 20
-77.89653725266129
 30
0.0
 10
59.63942598335404
 20
-77.89653725266129
 30
0.0
 10
59.63942598335404
 20
-77.89653725266129
 30
0.0
 10
59.64752195774437
 20
-77.77165254132098
 30
0.0
 10
59.6740491929808
 20
-77.39510360478317
 30
0.0
 10
60.11467690554425
 20
-77.39510360478317
 30
0.0
 10
60.33102890201794
 20
-77.39510360478317
 30
0.0
 10
60.5635728472723
 20
-77.52205537341463
 30
0.0
 10
60.5635728472723
 20
-77.81816133037185
 30
0.0
 10
60.5635728472723
 20
-78.00436874134961
 30
0.0
 10
60.4717610525904
 20
-78.08687877822133
 30
0.0
 10
60.37581514332619
 20
-78.14820147785879
 30
0.0
 10
60.43507078567249
 20
-78.17576224174078
 30
0.0
 10
60.6104261458717
 20
-78.25620522132137
 30
0.0
 10
60.6104261458717
 20
-78.53336315310972
 30
0.0
 10
60.6104261458717
 20
-78.87184378453551
 30
0.0
 10
60.37185328351815
 20
-79.03893091557013
 30
0.0
 10
60.10451387386276
 20
-79.03893091557013
 30
0.0
  0
HATCH
  5
D5
330
CE
100
AcDbEntity
  8
_U+30EC_U+30A4_U+30E4_U+30FC 1
 62
   179
420
  2234388
100
AcDbHatch
 10
0.0
 20
0.0
 30
0.0
210
0.0
220
0.0
230
1.0
  2
SOLID
 70
     1
 71
     0
 91
        1
 92
        1
 93
        1
 72
     4
 94
        3
 73
     0
 74
     1
 95
       62
 96
       58
 40
0.0
 40
0.0
 40
0.0
 40
0.0
 40
1.0
 40
1.0
 40
1.0
 40
2.0
 40
2.0
 40
2.0
 40
3.0
 40
3.0
 40
3.0
 40
4.0
 40
4.0
 40
4.0
 40
5.0
 40
5.0
 40
5.0
 40
6.0
 40
6.0
 40
6.0
 40
7.0
 40
7.0
 40
7.0
 40
8.0
 40
8.0
 40
8.0
 40
9.0
 40
9.0
 40
9.0
 40
10.0
 40
10.0
 40
10.0
 40
11.0
 40
11.0
 40
11.0
 40
12.0
 40
12.0
 40
12.0
 40
13.0
 40
13.0
 40
13.0
 40
14.0
 40
14.0
 40
14.0
 40
15.0
 40
15.0
 40
15.0
 40
16.0
 40
16.0
 40
16.0
 40
17.0
 40
17.0
 40
17.0
 40
18.0
 40
18.0
 40
18.0
 40
19.0
 40
19.0
 40
19.0
 40
19.0
 10
60.10451387386276
 20
-79.03893091557013
 10
60.01270207918085
 20
-79.03893091557013
 10
59.80255125458061
 20
-79.01774357833584
 10
59.6823174221454
 20
-78.8315361673581
 10
59.61083169082646
 20
-78.7193983093132
 10
59.60669757624416
 20
-78.62000730456376
 10
59.60273571643612
 20
-78.53543021040088
 10
59.60273571643612
 20
-78.53543021040088
 10
59.81478134355325
 20
-78.53543021040088
 10
59.81478134355325
 20
-78.53543021040088
 10
59.8168484008444
 20
-78.60949976333374
 10
59.82701143252589
 20
-78.84428302065352
 10
60.10055201405473
 20
-78.84428302065352
 10
60.23301593546258
 20
-78.84428302065352
 10
60.37994925790849
 20
-78.77451983707721
 10
60.37994925790849
 20
-78.54593775163087
 10
60.37994925790849
 20
-78.4296657790037
 10
60.34325899099058
 20
-78.38091767788741
 10
60.31259764117186
 20
-78.34922279942312
 10
60.24128416462718
 20
-78.27515324649025
 10
60.12897405180804
 20
-78.26257864796908
 10
60.07591958133519
 20
-78.26257864796908
 10
60.05766057526336
 20
-78.26257864796908
 10
60.02286511086234
 20
-78.26464570526024
 10
59.99633787562592
 20
-78.26877981984254
 10
59.99633787562592
 20
-78.26877981984254
 10
59.99633787562592
 20
-78.07413192492592
 10
59.99633787562592
 20
-78.07413192492592
 10
60.03320039731809
 20
-78.08050535157362
 10
60.07402477881831
 20
-78.08274466363903
 10
60.08005369591749
 20
-78.08274466363903
 10
60.14327119807182
 20
-78.08274466363903
 10
60.33516301660024
 20
-78.06155732640475
 10
60.33516301660024
 20
-77.82453475701956
 10
60.33516301660024
 20
-77.64694008475493
 10
60.20855575751731
 20
-77.59181855699094
 10
60.10244681657161
 20
-77.59181855699094
 10
59.84750975066313
 20
-77.59181855699094
 10
59.83941377627279
 20
-77.82453475701956
 10
59.83527966169049
 20
-77.89653725266129
 10
59.83527966169049
 20
-77.89653725266129
 10
59.63942598335404
 20
-77.89653725266129
 10
59.63942598335404
 20
-77.89653725266129
 10
59.64752195774437
 20
-77.77165254132098
 10
59.6740491929808
 20
-77.39510360478317
 10
60.11467690554425
 20
-77.39510360478317
 10
60.33102890201794
 20
-77.39510360478317
 10
60.5635728472723
 20
-77.52205537341463
 10
60.5635728472723
 20
-77.81816133037185
 10
60.5635728472723
 20
-78.00436874134961
 10
60.4717610525904
 20
-78.08687877822133
 10
60.37581514332619
 20
-78.14820147785879
 10
60.43507078567249
 20
-78.17576224174078
 10
60.6104261458717
 20
-78.25620522132137
 10
60.6104261458717
 20
-78.53336315310972
 10
60.6104261458717
 20
-78.87184378453551
 10
60.37185328351815
 20
-79.03893091557013
 10
60.10451387386276
 20
-79.03893091557013
 97
        0
 97
        0
 75
     2
 76
     1
 98
        0
  0
ENDBLK
  5
D1
330
CE
100
AcDbEntity
  8
0
100
AcDbBlockEnd
  0
BLOCK
  5
D8
330
D6
100
AcDbEntity
  8
0
100
AcDbBlockBegin
  2
block 12
 70
     0
 10
0.0
 20
0.0
 30
0.0
  3
block 12
  1

  0
POLYLINE
  5
DA
330
D6
100
AcDbEntity
  8
_U+30EC_U+30A4_U+30E4_U+30FC 1
 62
   179
420
  2234388
370
    25
100
AcDb2dPolyline
 66
     1
 10
0.0
 20
0.0
 30
0.0
  0
VERTEX
  5
DB
330
DA
100
AcDbEntity
  8
_U+30EC_U+30A4_U+30E4_U+30FC 1
 62
   179
420
  2234388
370
    25
100
AcDbVertex
100
AcDb2dVertex
 10
50.61948231970053
 20
-94.39871192084486
 30
0.0
  0
VERTEX
  5
DC
330
DA
100
AcDbEntity
  8
_U+30EC_U+30A4_U+30E4_U+30FC 1
 62
   179
420
  2234388
370
    25
100
AcDbVertex
100
AcDb2dVertex
 10
51.49419479738476
 20
-94.39871192084486
 30
0.0
  0
SEQEND
  5
DD
330
DA
100
AcDbEntity
  8
_U+30EC_U+30A4_U+30E4_U+30FC 1
 62
   179
420
  2234388
370
    25
  0
POLYLINE
  5
DE
330
D6
100
AcDbEntity
  8
_U+30EC_U+30A4_U+30E4_U+30FC 1
 62
   179
420
  2234388
370
    25
100
AcDb2dPolyline
 66
     1
 10
0.0
 20
0.0
 30
0.0
  0
VERTEX
  5
DF
330
DE
100
AcDbEntity
  8
_U+30EC_U+30A4_U+30E4_U+30FC 1
 62
   179
420
  2234388
370
    25
100
AcDbVertex
100
AcDb2dVertex
 10
71.04475068749741
 20
-83.93698109012684
 30
0.0
  0
VERTEX
  5
E0
330
DE
100
AcDbEntity
  8
_U+30EC_U+30A4_U+30E4_U+30FC 1
 62
   179
420
  2234388
370
    25
100
AcDbVertex
100
AcDb2dVertex
 10
71.04475068749741
 20
-84.74590053436893
 30
0.0
  0
SEQEND
  5
E1
330
DE
100
AcDbEntity
  8
_U+30EC_U+30A4_U+30E4_U+30FC 1
 62
   179
420
  2234388
370
    25
  0
POLYLINE
  5
E2
330
D6
100
AcDbEntity
  8
_U+30EC_U+30A4_U+30E4_U+30FC 1
 62
   179
420
  2234388
370
    25
100
AcDb2dPolyline
 66
     1
 10
0.0
 20
0.0
 30
0.0
  0
VERTEX
  5
E3
330
E2
100
AcDbEntity
  8
_U+30EC_U+30A4_U+30E4_U+30FC 1
 62
   179
420
  2234388
370
    25
100
AcDbVertex
100
AcDb2dVertex
 10
48.72570070134826
 20
-84.72180581215277
 30
0.0
  0
VERTEX
  5
E4
330
E2
100
AcDbEntity
  8
_U+30EC_U+30A4_U+30E4_U+30FC 1
 62
   179
420
  2234388
370
    25
100
AcDbVertex
100
AcDb2dVertex
 10
71.04475068749741
 20
-84.72180581215277
 30
0.0
  0
SEQEND
  5
E5
330
E2
100
AcDbEntity
  8
_U+30EC_U+30A4_U+30E4_U+30FC 1
 62
   179
420
  2234388
370
    25
  0
POLYLINE
  5
E6
330
D6
100
AcDbEntity
  8
_U+30EC_U+30A4_U+30E4_U+30FC 1
 62
   179
420
  2234388
370
    25
100
AcDb2dPolyline
 66
     1
 10
0.0
 20
0.0
 30
0.0
  0
VERTEX
  5
E7
330
E6
100
AcDbEntity
  8
_U+30EC_U+30A4_U+30E4_U+30FC 1
 62
   179
420
  2234388
370
    25
100
AcDbVertex
100
AcDb2dVertex
 10
46.64487630999007
 20
-97.13411553127202
 30
0.0
  0
VERTEX
  5
E8
330
E6
100
AcDbEntity
  8
_U+30EC_U+30A4_U+30E4_U+30FC 1
 62
   179
420
  2234388
370
    25
100
AcDbVertex
100
AcDb2dVertex
 10
51.4331995211631
 20
-97.13411553127202
 30
0.0
  0
SEQEND
  5
E9
330
E6
100
AcDbEntity
  8
_U+30EC_U+30A4_U+30E4_U+30FC 1
 62
   179
420
  2234388
370
    25
  0
POLYLINE
  5
EA
330
D6
100
AcDbEntity
  8
_U+30EC_U+30A4_U+30E4_U+30FC 1
 62
   179
420
  2234388
370
    25
100
AcDb2dPolyline
 66
     1
 10
0.0
 20
0.0
 30
0.0
  0
VERTEX
  5
EB
330
EA
100
AcDbEntity
  8
_U+30EC_U+30A4_U+30E4_U+30FC 1
 62
   179
420
  2234388
370
    25
100
AcDbVertex
100
AcDb2dVertex
 10
48.04494544093799
 20
-83.89842247902533
 30
0.0
  0
VERTEX
  5
EC
330
EA
100
AcDbEntity
  8
_U+30EC_U+30A4_U+30E4_U+30FC 1
 62
   179
420
  2234388
370
    25
100
AcDbVertex
100
AcDb2dVertex
 10
71.04475068749741
 20
-83.89842247902533
 30
0.0
  0
SEQEND
  5
ED
330
EA
100
AcDbEntity
  8
_U+30EC_U+30A4_U+30E4_U+30FC 1
 62
   179
420
  2234388
370
    25
  0
POLYLINE
  5
EE
330
D6
100
AcDbEntity
  8
_U+30EC_U+30A4_U+30E4_U+30FC 1
 62
   179
420
  2234388
370
    25
100
AcDb2dPolyline
 66
     1
 10
0.0
 20
0.0
 30
0.0
  0
VERTEX
  5
EF
330
EE
100
AcDbEntity
  8
_U+30EC_U+30A4_U+30E4_U+30FC 1
 62
   179
420
  2234388
370
    25
100
AcDbVertex
100
AcDb2dVertex
 10
51.46833618693335
 20
-94.39871192084486
 30
0.0
  0
VERTEX
  5
F0
330
EE
100
AcDbEntity
  8
_U+30EC_U+30A4_U+30E4_U+30FC 1
 62
   179
420
  2234388
370
    25
100
AcDbVertex
100
AcDb2dVertex
 10
51.46833618693335
 20
-97.13411553127202
 30
0.0
  0
SEQEND
  5
F1
330
EE
100
AcDbEntity
  8
_U+30EC_U+30A4_U+30E4_U+30FC 1
 62
   179
420
  2234388
370
    25
  0
POLYLINE
  5
F2
330
D6
100
AcDbEntity
  8
_U+30EC_U+30A4_U+30E4_U+30FC 1
 62
   179
420
  2234388
370
    25
100
AcDb2dPolyline
 66
     1
 10
0.0
 20
0.0
 30
0.0
  0
VERTEX
  5
F3
330
F2
100
AcDbEntity
  8
_U+30EC_U+30A4_U+30E4_U+30FC 1
 62
   179
420
  2234388
370
    25
100
AcDbVertex
100
AcDb2dVertex
 10
46.64487630999007
 20
-96.39825636478929
 30
0.0
  0
VERTEX
  5
F4
330
F2
100
AcDbEntity
  8
_U+30EC_U+30A4_U+30E4_U+30FC 1
 62
   179
420
  2234388
370
    25
100
AcDbVertex
100
AcDb2dVertex
 10
47.14476240834802
 20
-96.39825636478929
 30
0.0
  0
SEQEND
  5
F5
330
F2
100
AcDbEntity
  8
_U+30EC_U+30A4_U+30E4_U+30FC 1
 62
   179
420
  2234388
370
    25
  0
POLYLINE
  5
F6
330
D6
100
AcDbEntity
  8
_U+30EC_U+30A4_U+30E4_U+30FC 1
 62
   179
420
  2234388
370
    25
100
AcDb2dPolyline
 66
     1
 10
0.0
 20
0.0
 30
0.0
  0
VERTEX
  5
F7
330
F6
100
AcDbEntity
  8
_U+30EC_U+30A4_U+30E4_U+30FC 1
 62
   179
420
  2234388
370
    25
100
AcDbVertex
100
AcDb2dVertex
 10
50.64495287460628
 20
-94.39871192084486
 30
0.0
  0
VERTEX
  5
F8
330
F6
100
AcDbEntity
  8
_U+30EC_U+30A4_U+30E4_U+30FC 1
 62
   179
420
  2234388
370
    25
100
AcDbVertex
100
AcDb2dVertex
 10
50.64495287460628
 20
-96.39825636478929
 30
0.0
  0
SEQEND
  5
F9
330
F6
100
AcDbEntity
  8
_U+30EC_U+30A4_U+30E4_U+30FC 1
 62
   179
420
  2234388
370
    25
  0
POLYLINE
  5
FA
330
D6
100
AcDbEntity
  8
_U+30EC_U+30A4_U+30E4_U+30FC 1
 62
   179
420
  2234388
370
    25
100
AcDb2dPolyline
 66
     1
 10
0.0
 20
0.0
 30
0.0
  0
VERTEX
  5
FB
330
FA
100
AcDbEntity
  8
_U+30EC_U+30A4_U+30E4_U+30FC 1
 62
   179
420
  2234388
370
    25
100
AcDbVertex
100
AcDb2dVertex
 10
46.64487630999007
 20
-96.33073469813961
 30
0.0
  0
VERTEX
  5
FC
330
FA
100
AcDbEntity
  8
_U+30EC_U+30A4_U+30E4_U+30FC 1
 62
   179
420
  2234388
370
    25
100
AcDbVertex
100
AcDb2dVertex
 10
46.64487630999007
 20
-97.00044803130554
 30
0.0
  0
SEQEND
  5
FD
330
FA
100
AcDbEntity
  8
_U+30EC_U+30A4_U+30E4_U+30FC 1
 62
   179
420
  2234388
370
    25
  0
POLYLINE
  5
FE
330
D6
100
AcDbEntity
  8
_U+30EC_U+30A4_U+30E4_U+30FC 1
 62
   179
420
  2234388
370
    25
100
AcDb2dPolyline
 66
     1
 10
0.0
 20
0.0
 30
0.0
  0
VERTEX
  5
FF
330
FE
100
AcDbEntity
  8
_U+30EC_U+30A4_U+30E4_U+30FC 1
 62
   179
420
  2234388
370
    25
100
AcDbVertex
100
AcDb2dVertex
 10
47.88199738953958
 20
-96.39825636478929
 30
0.0
  0
VERTEX
  5
100
330
FE
100
AcDbEntity
  8
_U+30EC_U+30A4_U+30E4_U+30FC 1
 62
   179
420
  2234388
370
    25
100
AcDbVertex
100
AcDb2dVertex
 10
50.64495287460628
 20
-96.39825636478929
 30
0.0
  0
SEQEND
  5
101
330
FE
100
AcDbEntity
  8
_U+30EC_U+30A4_U+30E4_U+30FC 1
 62
   179
420
  2234388
370
    25
  0
POLYLINE
  5
102
330
D6
100
AcDbEntity
  8
_U+30EC_U+30A4_U+30E4_U+30FC 1
 62
   179
420
  2234388
370
    25
100
AcDb2dPolyline
 66
     1
 10
0.0
 20
0.0
 30
0.0
  0
VERTEX
  5
103
330
102
100
AcDbEntity
  8
_U+30EC_U+30A4_U+30E4_U+30FC 1
 62
   179
420
  2234388
370
    25
100
AcDbVertex
100
AcDb2dVertex
 10
48.04494544093799
 20
-83.89842247902533
 30
0.0
  0
VERTEX
  5
104
330
102
100
AcDbEntity
  8
_U+30EC_U+30A4_U+30E4_U+30FC 1
 62
   179
420
  2234388
370
    25
100
AcDbVertex
100
AcDb2dVertex
 10
47.14476240834802
 20
-96.39825636478929
 30
0.0
  0
SEQEND
  5
105
330
102
100
AcDbEntity
  8
_U+30EC_U+30A4_U+30E4_U+30FC 1
 62
   179
420
  2234388
370
    25
  0
POLYLINE
  5
106
330
D6
100
AcDbEntity
  8
_U+30EC_U+30A4_U+30E4_U+30FC 1
 62
   179
420
  2234388
370
    25
100
AcDb2dPolyline
 66
     1
 10
0.0
 20
0.0
 30
0.0
  0
VERTEX
  5
107
330
106
100
AcDbEntity
  8
_U+30EC_U+30A4_U+30E4_U+30FC 1
 62
   179
420
  2234388
370
    25
100
AcDbVertex
100
AcDb2dVertex
 10
48.72570070134826
 20
-84.81000025657515
 30
0.0
  0
VERTEX
  5
108
330
106
100
AcDbEntity
  8
_U+30EC_U+30A4_U+30E4_U+30FC 1
 62
   179
420
  2234388
370
    25
100
AcDbVertex
100
AcDb2dVertex
 10
47.88199738953958
 20
-96.39825636478929
 30
0.0
  0
SEQEND
  5
109
330
106
100
AcDbEntity
  8
_U+30EC_U+30A4_U+30E4_U+30FC 1
 62
   179
420
  2234388
370
    25
  0
ENDBLK
  5
D9
330
D6
100
AcDbEntity
  8
0
100
AcDbBlockEnd
  0
ENDSEC
  0
SECTION
  2
ENTITIES
  0
SPLINE
  5
41
330
1F
100
AcDbEntity
  8
_U+30EC_U+30A4_U+30E4_U+30FC 1
 62
   179
420
  2234388
370
     9
100
AcDbSpline
210
0.0
220
0.0
230
1.0
 70
    11
 71
     3
 72
    17
 73
    13
 74
     0
 42
0.0000000001
 43
0.0000000001
 12
1.0
 22
0.0
 32
0.0
 13
1.0
 23
0.0
 33
0.0
 40
0.0
 40
0.0
 40
0.0
 40
0.0
 40
1.0
 40
1.0
 40
1.0
 40
2.0
 40
2.0
 40
2.0
 40
3.0
 40
3.0
 40
3.0
 40
4.0
 40
4.0
 40
4.0
 40
4.0
 10
71.14465735161525
 20
-79.63407998009158
 30
0.0
 10
71.14465735161525
 20
-79.5789408134385
 30
0.0
 10
71.09989164889159
 20
-79.53417331344994
 30
0.0
 10
71.04475068749741
 20
-79.53417331344994
 30
0.0
 10
70.98964680001434
 20
-79.53417331344994
 30
0.0
 10
70.94484402337957
 20
-79.5789408134385
 30
0.0
 10
70.94484402337957
 20
-79.63407998009158
 30
0.0
 10
70.94484402337957
 20
-79.6891838689665
 30
0.0
 10
70.98964680001434
 20
-79.73398664673321
 30
0.0
 10
71.04475068749741
 20
-79.73398664673321
 30
0.0
 10
71.09989164889159
 20
-79.73398664673321
 30
0.0
 10
71.14465735161525
 20
-79.6891838689665
 30
0.0
 10
71.14465735161525
 20
-79.63407998009158
 30
0.0
  0
SPLINE
  5
42
330
1F
100
AcDbEntity
  8
_U+30EC_U+30A4_U+30E4_U+30FC 1
 62
   179
420
  2234388
370
     9
100
AcDbSpline
210
0.0
220
0.0
230
1.0
 70
    11
 71
     3
 72
    17
 73
    13
 74
     0
 42
0.0000000001
 43
0.0000000001
 12
1.0
 22
0.0
 32
0.0
 13
1.0
 23
0.0
 33
0.0
 40
0.0
 40
0.0
 40
0.0
 40
0.0
 40
1.0
 40
1.0
 40
1.0
 40
2.0
 40
2.0
 40
2.0
 40
3.0
 40
3.0
 40
3.0
 40
4.0
 40
4.0
 40
4.0
 40
4.0
 10
75.14441641623955
 20
-83.93355914568338
 30
0.0
 10
75.14441641623955
 20
-83.8784199790303
 30
0.0
 10
75.09964891738167
 20
-83.83365247904175
 30
0.0
 10
75.04450975212173
 20
-83.83365247904175
 30
0.0
 10
74.98940586463866
 20
-83.83365247904175
 30
0.0
 10
74.94460308800389
 20
-83.8784199790303
 30
0.0
 10
74.94460308800389
 20
-83.93355914568338
 30
0.0
 10
74.94460308800389
 20
-83.9886630345583
 30
0.0
 10
74.98940586463866
 20
-84.03346581232502
 30
0.0
 10
75.04450975212173
 20
-84.03346581232502
 30
0.0
 10
75.09964891738167
 20
-84.03346581232502
 30
0.0
 10
75.14441641623955
 20
-83.9886630345583
 30
0.0
 10
75.14441641623955
 20
-83.93355914568338
 30
0.0
  0
SPLINE
  5
43
330
1F
100
AcDbEntity
  8
_U+30EC_U+30A4_U+30E4_U+30FC 1
 62
   179
420
  2234388
370
     9
100
AcDbSpline
210
0.0
220
0.0
230
1.0
 70
    11
 71
     3
 72
    17
 73
    13
 74
     0
 42
0.0000000001
 43
0.0000000001
 12
1.0
 22
0.0
 32
0.0
 13
1.0
 23
0.0
 33
0.0
 40
0.0
 40
0.0
 40
0.0
 40
0.0
 40
1.0
 40
1.0
 40
1.0
 40
2.0
 40
2.0
 40
2.0
 40
3.0
 40
3.0
 40
3.0
 40
4.0
 40
4.0
 40
4.0
 40
4.0
 10
75.14512197177712
 20
-94.13412858757766
 30
0.0
 10
75.14512197177712
 20
-94.07902469870275
 30
0.0
 10
75.10031919514235
 20
-94.03422192093603
 30
0.0
 10
75.04521530765928
 20
-94.03422192093603
 30
0.0
 10
74.98940586463866
 20
-94.03422192093603
 30
0.0
 10
74.94460308800389
 20
-94.07902469870275
 30
0.0
 10
74.94460308800389
 20
-94.13412858757766
 30
0.0
 10
74.94460308800389
 20
-94.18926775423074
 30
0.0
 10
74.98940586463866
 20
-94.23403525421931
 30
0.0
 10
75.04521530765928
 20
-94.23403525421931
 30
0.0
 10
75.10031919514235
 20
-94.23403525421931
 30
0.0
 10
75.14512197177712
 20
-94.18926775423074
 30
0.0
 10
75.14512197177712
 20
-94.13412858757766
 30
0.0
  0
SPLINE
  5
44
330
1F
100
AcDbEntity
  8
_U+30EC_U+30A4_U+30E4_U+30FC 1
 62
   179
420
  2234388
370
     9
100
AcDbSpline
210
0.0
220
0.0
230
1.0
 70
    11
 71
     3
 72
    17
 73
    13
 74
     0
 42
0.0000000001
 43
0.0000000001
 12
1.0
 22
0.0
 32
0.0
 13
1.0
 23
0.0
 33
0.0
 40
0.0
 40
0.0
 40
0.0
 40
0.0
 40
1.0
 40
1.0
 40
1.0
 40
2.0
 40
2.0
 40
2.0
 40
3.0
 40
3.0
 40
3.0
 40
4.0
 40
4.0
 40
4.0
 40
4.0
 10
75.14512197177712
 20
-84.63361136773037
 30
0.0
 10
75.14512197177712
 20
-84.5784722010776
 30
0.0
 10
75.10031919514235
 20
-84.53366942331088
 30
0.0
 10
75.04521530765928
 20
-84.53366942331088
 30
0.0
 10
74.98940586463866
 20
-84.53366942331088
 30
0.0
 10
74.94460308800389
 20
-84.5784722010776
 30
0.0
 10
74.94460308800389
 20
-84.63361136773037
 30
0.0
 10
74.94460308800389
 20
-84.68942081216113
 30
0.0
 10
74.98940586463866
 20
-84.73418831214968
 30
0.0
 10
75.04521530765928
 20
-84.73418831214968
 30
0.0
 10
75.10031919514235
 20
-84.73418831214968
 30
0.0
 10
75.14512197177712
 20
-84.68942081216113
 30
0.0
 10
75.14512197177712
 20
-84.63361136773037
 30
0.0
  0
SPLINE
  5
45
330
1F
100
AcDbEntity
  8
_U+30EC_U+30A4_U+30E4_U+30FC 1
 62
   179
420
  2234388
370
     9
100
AcDbSpline
210
0.0
220
0.0
230
1.0
 70
    11
 71
     3
 72
    17
 73
    13
 74
     0
 42
0.0000000001
 43
0.0000000001
 12
1.0
 22
0.0
 32
0.0
 13
1.0
 23
0.0
 33
0.0
 40
0.0
 40
0.0
 40
0.0
 40
0.0
 40
1.0
 40
1.0
 40
1.0
 40
2.0
 40
2.0
 40
2.0
 40
3.0
 40
3.0
 40
3.0
 40
4.0
 40
4.0
 40
4.0
 40
4.0
 10
55.74509635560189
 20
-94.13412858757766
 30
0.0
 10
55.74509635560189
 20
-94.07902469870275
 30
0.0
 10
55.70029357896713
 20
-94.03422192093603
 30
0.0
 10
55.64483691371527
 20
-94.03422192093603
 30
0.0
 10
55.58969774845532
 20
-94.03422192093603
 30
0.0
 10
55.54493024959744
 20
-94.07902469870275
 30
0.0
 10
55.54493024959744
 20
-94.13412858757766
 30
0.0
 10
55.54493024959744
 20
-94.18926775423074
 30
0.0
 10
55.58969774845532
 20
-94.23403525421931
 30
0.0
 10
55.64483691371527
 20
-94.23403525421931
 30
0.0
 10
55.70029357896713
 20
-94.23403525421931
 30
0.0
 10
55.74509635560189
 20
-94.18926775423074
 30
0.0
 10
55.74509635560189
 20
-94.13412858757766
 30
0.0
  0
SPLINE
  5
46
330
1F
100
AcDbEntity
  8
_U+30EC_U+30A4_U+30E4_U+30FC 1
 62
   179
420
  2234388
370
     9
100
AcDbSpline
210
0.0
220
0.0
230
1.0
 70
    11
 71
     3
 72
    17
 73
    13
 74
     0
 42
0.0000000001
 43
0.0000000001
 12
1.0
 22
0.0
 32
0.0
 13
1.0
 23
0.0
 33
0.0
 40
0.0
 40
0.0
 40
0.0
 40
0.0
 40
1.0
 40
1.0
 40
1.0
 40
2.0
 40
2.0
 40
2.0
 40
3.0
 40
3.0
 40
3.0
 40
4.0
 40
4.0
 40
4.0
 40
4.0
 10
55.74509635560189
 20
-97.13411553127202
 30
0.0
 10
55.74509635560189
 20
-97.07901164239709
 30
0.0
 10
55.70029357896713
 20
-97.03420886463037
 30
0.0
 10
55.64483691371527
 20
-97.03420886463037
 30
0.0
 10
55.58969774845532
 20
-97.03420886463037
 30
0.0
 10
55.54493024959744
 20
-97.07901164239709
 30
0.0
 10
55.54493024959744
 20
-97.13411553127202
 30
0.0
 10
55.54493024959744
 20
-97.1892546979251
 30
0.0
 10
55.58969774845532
 20
-97.23402219791365
 30
0.0
 10
55.64483691371527
 20
-97.23402219791365
 30
0.0
 10
55.70029357896713
 20
-97.23402219791365
 30
0.0
 10
55.74509635560189
 20
-97.1892546979251
 30
0.0
 10
55.74509635560189
 20
-97.13411553127202
 30
0.0
  0
SPLINE
  5
47
330
1F
100
AcDbEntity
  8
_U+30EC_U+30A4_U+30E4_U+30FC 1
 62
   179
420
  2234388
370
     9
100
AcDbSpline
210
0.0
220
0.0
230
1.0
 70
    11
 71
     3
 72
    17
 73
    13
 74
     0
 42
0.0000000001
 43
0.0000000001
 12
1.0
 22
0.0
 32
0.0
 13
1.0
 23
0.0
 33
0.0
 40
0.0
 40
0.0
 40
0.0
 40
0.0
 40
1.0
 40
1.0
 40
1.0
 40
2.0
 40
2.0
 40
2.0
 40
3.0
 40
3.0
 40
3.0
 40
4.0
 40
4.0
 40
4.0
 40
4.0
 10
51.74463173544002
 20
-101.1338746969389
 30
0.0
 10
51.74463173544002
 20
-101.0787708080633
 30
0.0
 10
51.69986423658214
 20
-101.0339680302973
 30
0.0
 10
51.64472507132218
 20
-101.0339680302973
 30
0.0
 10
51.58962118383911
 20
-101.0339680302973
 30
0.0
 10
51.54481840720435
 20
-101.0787708080633
 30
0.0
 10
51.54481840720435
 20
-101.1338746969389
 30
0.0
 10
51.54481840720435
 20
-101.1890138635913
 30
0.0
 10
51.58962118383911
 20
-101.2337813635805
 30
0.0
 10
51.64472507132218
 20
-101.2337813635805
 30
0.0
 10
51.69986423658214
 20
-101.2337813635805
 30
0.0
 10
51.74463173544002
 20
-101.1890138635913
 30
0.0
 10
51.74463173544002
 20
-101.1338746969389
 30
0.0
  0
SPLINE
  5
48
330
1F
100
AcDbEntity
  8
_U+30EC_U+30A4_U+30E4_U+30FC 1
 62
   179
420
  2234388
370
     9
100
AcDbSpline
210
0.0
220
0.0
230
1.0
 70
    11
 71
     3
 72
    17
 73
    13
 74
     0
 42
0.0000000001
 43
0.0000000001
 12
1.0
 22
0.0
 32
0.0
 13
1.0
 23
0.0
 33
0.0
 40
0.0
 40
0.0
 40
0.0
 40
0.0
 40
1.0
 40
1.0
 40
1.0
 40
2.0
 40
2.0
 40
2.0
 40
3.0
 40
3.0
 40
3.0
 40
4.0
 40
4.0
 40
4.0
 40
4.0
 10
46.74513575187667
 20
-101.1338746969389
 30
0.0
 10
46.74513575187667
 20
-101.0787708080633
 30
0.0
 10
46.70033297524191
 20
-101.0339680302973
 30
0.0
 10
46.64487630999007
 20
-101.0339680302973
 30
0.0
 10
46.58941964473821
 20
-101.0339680302973
 30
0.0
 10
46.54496964587223
 20
-101.0787708080633
 30
0.0
 10
46.54496964587223
 20
-101.1338746969389
 30
0.0
 10
46.54496964587223
 20
-101.1890138635913
 30
0.0
 10
46.58941964473821
 20
-101.2337813635805
 30
0.0
 10
46.64487630999007
 20
-101.2337813635805
 30
0.0
 10
46.70033297524191
 20
-101.2337813635805
 30
0.0
 10
46.74513575187667
 20
-101.1890138635913
 30
0.0
 10
46.74513575187667
 20
-101.1338746969389
 30
0.0
  0
SPLINE
  5
49
330
1F
100
AcDbEntity
  8
_U+30EC_U+30A4_U+30E4_U+30FC 1
 62
   179
420
  2234388
370
     9
100
AcDbSpline
210
0.0
220
0.0
230
1.0
 70
    11
 71
     3
 72
    17
 73
    13
 74
     0
 42
0.0000000001
 43
0.0000000001
 12
1.0
 22
0.0
 32
0.0
 13
1.0
 23
0.0
 33
0.0
 40
0.0
 40
0.0
 40
0.0
 40
0.0
 40
1.0
 40
1.0
 40
1.0
 40
2.0
 40
2.0
 40
2.0
 40
3.0
 40
3.0
 40
3.0
 40
4.0
 40
4.0
 40
4.0
 40
4.0
 10
48.14485210505583
 20
-79.63407998009158
 30
0.0
 10
48.14485210505583
 20
-79.5789408134385
 30
0.0
 10
48.10008460619794
 20
-79.53417331344994
 30
0.0
 10
48.04494544093799
 20
-79.53417331344994
 30
0.0
 10
47.98948877568614
 20
-79.53417331344994
 30
0.0
 10
47.94472127682825
 20
-79.5789408134385
 30
0.0
 10
47.94472127682825
 20
-79.63407998009158
 30
0.0
 10
47.94472127682825
 20
-79.6891838689665
 30
0.0
 10
47.98948877568614
 20
-79.73398664673321
 30
0.0
 10
48.04494544093799
 20
-79.73398664673321
 30
0.0
 10
48.10008460619794
 20
-79.73398664673321
 30
0.0
 10
48.14485210505583
 20
-79.6891838689665
 30
0.0
 10
48.14485210505583
 20
-79.63407998009158
 30
0.0
  0
INSERT
  5
4B
330
1F
100
AcDbEntity
  8
_U+30EC_U+30A4_U+30E4_U+30FC 1
100
AcDbBlockReference
  2
block 2
 10
0.0
 20
0.0
 30
0.0
  0
INSERT
  5
72
330
1F
100
AcDbEntity
  8
_U+30EC_U+30A4_U+30E4_U+30FC 1
100
AcDbBlockReference
  2
block 4
 10
0.0
 20
0.0
 30
0.0
  0
INSERT
  5
88
330
1F
100
AcDbEntity
  8
_U+30EC_U+30A4_U+30E4_U+30FC 1
100
AcDbBlockReference
  2
block 6
 10
0.0
 20
0.0
 30
0.0
  0
INSERT
  5
A9
330
1F
100
AcDbEntity
  8
_U+30EC_U+30A4_U+30E4_U+30FC 1
100
AcDbBlockReference
  2
block 8
 10
0.0
 20
0.0
 30
0.0
  0
INSERT
  5
BF
330
1F
100
AcDbEntity
  8
_U+30EC_U+30A4_U+30E4_U+30FC 1
100
AcDbBlockReference
  2
block 10
 10
0.0
 20
0.0
 30
0.0
  0
INSERT
  5
D7
330
1F
100
AcDbEntity
  8
_U+30EC_U+30A4_U+30E4_U+30FC 1
100
AcDbBlockReference
  2
block 12
 10
0.0
 20
0.0
 30
0.0
  0
ENDSEC
  0
SECTION
  2
OBJECTS
  0
DICTIONARY
  5
C
330
0
100
AcDbDictionary
281
     1
  3
ACAD_GROUP
350
D
  3
ACAD_LAYOUT
350
1A
  3
ACAD_MATERIAL
350
3B
  3
ACAD_MLEADERSTYLE
350
10B
  3
ACAD_MLINESTYLE
350
17
  3
ACAD_PLOTSETTINGS
350
19
  3
ACAD_PLOTSTYLENAME
350
E
  3
ACAD_TABLESTYLE
350
10A
  3
ACAD_VISUALSTYLE
350
2A
  0
SUN
  5
3F
330
29
100
AcDbSun
 90
        1
290
     0
 63
     7
421
 16777215
 40
1.0
291
     1
 91
  2455826
 92
 54000000
292
     0
 70
     2
 71
   256
280
     1
  0
DICTIONARY
  5
D
102
{ACAD_REACTORS
330
C
102
}
330
C
100
AcDbDictionary
281
     1
  0
DICTIONARY
  5
1A
102
{ACAD_REACTORS
330
C
102
}
330
C
100
AcDbDictionary
281
     1
  3
Layout1
350
1E
  3
Layout2
350
26
  3
Model
350
22
  0
DICTIONARY
  5
3B
102
{ACAD_REACTORS
330
C
102
}
330
C
100
AcDbDictionary
281
     1
  3
ByBlock
350
3D
  3
ByLayer
350
3C
  3
Global
350
3E
  0
DICTIONARY
  5
10B
102
{ACAD_REACTORS
330
C
102
}
330
C
100
AcDbDictionary
281
     1
  0
DICTIONARY
  5
17
102
{ACAD_REACTORS
330
C
102
}
330
C
100
AcDbDictionary
281
     1
  3
Standard
350
18
  0
DICTIONARY
  5
19
102
{ACAD_REACTORS
330
C
102
}
330
C
100
AcDbDictionary
281
     1
  0
ACDBDICTIONARYWDFLT
  5
E
102
{ACAD_REACTORS
330
C
102
}
330
C
100
AcDbDictionary
281
     1
  3
Normal
350
F
100
AcDbDictionaryWithDefault
340
F
  0
DICTIONARY
  5
10A
102
{ACAD_REACTORS
330
C
102
}
330
C
100
AcDbDictionary
281
     1
  0
DICTIONARY
  5
2A
102
{ACAD_REACTORS
330
C
102
}
330
C
100
AcDbDictionary
281
     1
  3
2dWireframe
350
2F
  3
3D Hidden
350
31
  3
3dWireframe
350
30
  3
Basic
350
32
  3
Brighten
350
36
  3
ColorChange
350
3A
  3
Conceptual
350
34
  3
Dim
350
35
  3
Facepattern
350
39
  3
Flat
350
2B
  3
FlatWithEdges
350
2C
  3
Gouraud
350
2D
  3
GouraudWithEdges
350
2E
  3
Linepattern
350
38
  3
Realistic
350
33
  3
Thicken
350
37
  0
LAYOUT
  5
1E
102
{ACAD_REACTORS
330
1A
102
}
330
1A
100
AcDbPlotSettings
  1

  2
none_device
  4

  6

 40
0.0
 41
0.0
 42
0.0
 43
0.0
 44
0.0
 45
0.0
 46
0.0
 47
0.0
 48
0.0
 49
0.0
140
0.0
141
0.0
142
1.0
143
1.0
 70
   688
 72
     0
 73
     0
 74
     5
  7

 75
    16
 76
     0
 77
     2
 78
   300
147
1.0
148
0.0
149
0.0
100
AcDbLayout
  1
Layout1
 70
     1
 71
     1
 10
0.0
 20
0.0
 11
12.0
 21
9.0
 12
0.0
 22
0.0
 32
0.0
 14
1.000000000000000E+20
 24
1.000000000000000E+20
 34
1.000000000000000E+20
 15
-1.000000000000000E+20
 25
-1.000000000000000E+20
 35
-1.000000000000000E+20
146
0.0
 13
0.0
 23
0.0
 33
0.0
 16
1.0
 26
0.0
 36
0.0
 17
0.0
 27
1.0
 37
0.0
 76
     0
330
1B
  0
LAYOUT
  5
26
102
{ACAD_REACTORS
330
1A
102
}
330
1A
100
AcDbPlotSettings
  1

  2
none_device
  4

  6

 40
0.0
 41
0.0
 42
0.0
 43
0.0
 44
0.0
 45
0.0
 46
0.0
 47
0.0
 48
0.0
 49
0.0
140
0.0
141
0.0
142
1.0
143
1.0
 70
   688
 72
     0
 73
     0
 74
     5
  7

 75
    16
 76
     0
 77
     2
 78
   300
147
1.0
148
0.0
149
0.0
100
AcDbLayout
  1
Layout2
 70
     1
 71
     2
 10
0.0
 20
0.0
 11
0.0
 21
0.0
 12
0.0
 22
0.0
 32
0.0
 14
0.0
 24
0.0
 34
0.0
 15
0.0
 25
0.0
 35
0.0
146
0.0
 13
0.0
 23
0.0
 33
0.0
 16
1.0
 26
0.0
 36
0.0
 17
0.0
 27
1.0
 37
0.0
 76
     0
330
23
  0
LAYOUT
  5
22
102
{ACAD_REACTORS
330
1A
102
}
330
1A
100
AcDbPlotSettings
  1

  2
none_device
  4

  6

 40
0.0
 41
0.0
 42
0.0
 43
0.0
 44
0.0
 45
0.0
 46
0.0
 47
0.0
 48
0.0
 49
0.0
140
0.0
141
0.0
142
1.0
143
1.0
 70
  1712
 72
     0
 73
     0
 74
     0
  7

 75
     0
 76
     0
 77
     2
 78
   300
147
1.0
148
0.0
149
0.0
100
AcDbLayout
  1
Model
 70
     1
 71
     0
 10
0.0
 20
0.0
 11
12.0
 21
9.0
 12
0.0
 22
0.0
 32
0.0
 14
1.000000000000000E+20
 24
1.000000000000000E+20
 34
1.000000000000000E+20
 15
-1.000000000000000E+20
 25
-1.000000000000000E+20
 35
-1.000000000000000E+20
146
0.0
 13
0.0
 23
0.0
 33
0.0
 16
1.0
 26
0.0
 36
0.0
 17
0.0
 27
1.0
 37
0.0
 76
     0
330
1F
331
29
  0
MATERIAL
  5
3D
102
{ACAD_REACTORS
330
3B
102
}
330
3B
100
AcDbMaterial
  1
ByBlock
 72
     1
 94
      127
  0
MATERIAL
  5
3C
102
{ACAD_REACTORS
330
3B
102
}
330
3B
100
AcDbMaterial
  1
ByLayer
 72
     1
 94
      127
  0
MATERIAL
  5
3E
102
{ACAD_REACTORS
330
3B
102
}
330
3B
100
AcDbMaterial
  1
Global
 72
     1
 94
      127
  0
MLINESTYLE
  5
18
102
{ACAD_REACTORS
330
17
102
}
330
17
100
AcDbMlineStyle
  2
Standard
 70
     0
  3

 62
   256
 51
90.0
 52
90.0
 71
     2
 49
0.5
 62
   256
  6
BYLAYER
 49
-0.5
 62
   256
  6
BYLAYER
  0
ACDBPLACEHOLDER
  5
F
102
{ACAD_REACTORS
330
E
102
}
330
E
  0
VISUALSTYLE
  5
2F
102
{ACAD_REACTORS
330
2A
102
}
330
2A
100
AcDbVisualStyle
  2
2dWireframe
 70
     4
177
     2
291
     0
 71
     0
176
     1
 72
     2
176
     1
 73
     0
176
     1
 90
        0
176
     1
 40
-0.6
176
     1
 41
-30.0
176
     1
 62
     5
 63
     7
421
 16777215
176
     1
 74
     1
176
     1
 91
        4
176
     1
 64
     7
176
     1
 65
   257
176
     1
 75
     1
176
     1
175
     1
176
     1
 42
1.0
176
     1
 92
        0
176
     1
 66
   257
176
     1
 43
1.0
176
     1
 76
     1
176
     1
 77
     6
176
     1
 78
     2
176
     1
 67
     7
176
     1
 79
     5
176
     1
170
     0
176
     1
171
     0
176
     1
290
     0
176
     1
 93
        1
176
     1
 44
0.0
176
     1
173
     0
176
     1
  0
VISUALSTYLE
  5
31
102
{ACAD_REACTORS
330
2A
102
}
330
2A
100
AcDbVisualStyle
  2
3D Hidden
 70
     6
177
     2
291
     0
 71
     1
176
     1
 72
     2
176
     1
 73
     2
176
     1
 90
        0
176
     1
 40
-0.6
176
     1
 41
-30.0
176
     1
 62
     5
 63
     7
421
 16777215
176
     1
 74
     2
176
     1
 91
        2
176
     1
 64
     7
176
     1
 65
   257
176
     1
 75
     2
176
     1
175
     1
176
     1
 42
40.0
176
     1
 92
        0
176
     1
 66
   257
176
     1
 43
1.0
176
     1
 76
     1
176
     1
 77
     6
176
     1
 78
     2
176
     1
 67
     7
176
     1
 79
     3
176
     1
170
     0
176
     1
171
     0
176
     1
290
     0
176
     1
 93
        1
176
     1
 44
0.0
176
     1
173
     0
176
     1
  0
VISUALSTYLE
  5
30
102
{ACAD_REACTORS
330
2A
102
}
330
2A
100
AcDbVisualStyle
  2
3dWireframe
 70
     5
177
     2
291
     0
 71
     0
176
     1
 72
     2
176
     1
 73
     0
176
     1
 90
        0
176
     1
 40
-0.6
176
     1
 41
-30.0
176
     1
 62
     5
 63
     7
421
 16777215
176
     1
 74
     1
176
     1
 91
        4
176
     1
 64
     7
176
     1
 65
   257
176
     1
 75
     1
176
     1
175
     1
176
     1
 42
1.0
176
     1
 92
        0
176
     1
 66
   257
176
     1
 43
1.0
176
     1
 76
     1
176
     1
 77
     6
176
     1
 78
     2
176
     1
 67
     7
176
     1
 79
     5
176
     1
170
     0
176
     1
171
     0
176
     1
290
     0
176
     1
 93
        1
176
     1
 44
0.0
176
     1
173
     0
176
     1
  0
VISUALSTYLE
  5
32
102
{ACAD_REACTORS
330
2A
102
}
330
2A
100
AcDbVisualStyle
  2
Basic
 70
     7
177
     2
291
     1
 71
     1
176
     1
 72
     0
176
     1
 73
     1
176
     1
 90
        0
176
     1
 40
-0.6
176
     1
 41
-30.0
176
     1
 62
     5
 63
     7
421
 16777215
176
     1
 74
     0
176
     1
 91
        4
176
     1
 64
     7
176
     1
 65
   257
176
     1
 75
     1
176
     1
175
     1
176
     1
 42
1.0
176
     1
 92
        8
176
     1
 66
     7
176
     1
 43
1.0
176
     1
 76
     1
176
     1
 77
     6
176
     1
 78
     2
176
     1
 67
     7
176
     1
 79
     5
176
     1
170
     0
176
     1
171
     0
176
     1
290
     0
176
     1
 93
        1
176
     1
 44
0.0
176
     1
173
     0
176
     1
  0
VISUALSTYLE
  5
36
102
{ACAD_REACTORS
330
2A
102
}
330
2A
100
AcDbVisualStyle
  2
Brighten
 70
    12
177
     2
291
     1
 71
     2
176
     1
 72
     2
176
     1
 73
     0
176
     1
 90
        0
176
     1
 40
-0.6
176
     1
 41
-30.0
176
     1
 62
     5
 63
     7
421
 16777215
176
     1
 74
     1
176
     1
 91
        4
176
     1
 64
     7
176
     1
 65
   257
176
     1
 75
     1
176
     1
175
     1
176
     1
 42
1.0
176
     1
 92
        8
176
     1
 66
     7
176
     1
 43
1.0
176
     1
 76
     1
176
     1
 77
     6
176
     1
 78
     2
176
     1
 67
     7
176
     1
 79
     5
176
     1
170
     0
176
     1
171
     0
176
     1
290
     0
176
     1
 93
        1
176
     1
 44
50.0
176
     1
173
     0
176
     1
  0
VISUALSTYLE
  5
3A
102
{ACAD_REACTORS
330
2A
102
}
330
2A
100
AcDbVisualStyle
  2
ColorChange
 70
    16
177
     2
291
     1
 71
     2
176
     1
 72
     2
176
     1
 73
     3
176
     1
 90
        0
176
     1
 40
-0.6
176
     1
 41
-30.0
176
     1
 62
     5
 63
     8
421
  8421504
176
     1
 74
     1
176
     1
 91
        4
176
     1
 64
     7
176
     1
 65
   257
176
     1
 75
     1
176
     1
175
     1
176
     1
 42
1.0
176
     1
 92
        8
176
     1
 66
     8
424
  8421504
176
     1
 43
1.0
176
     1
 76
     1
176
     1
 77
     6
176
     1
 78
     2
176
     1
 67
     7
176
     1
 79
     5
176
     1
170
     0
176
     1
171
     0
176
     1
290
     0
176
     1
 93
        1
176
     1
 44
0.0
176
     1
173
     0
176
     1
  0
VISUALSTYLE
  5
34
102
{ACAD_REACTORS
330
2A
102
}
330
2A
100
AcDbVisualStyle
  2
Conceptual
 70
     9
177
     2
291
     0
 71
     3
176
     1
 72
     2
176
     1
 73
     0
176
     1
 90
        0
176
     1
 40
-0.6
176
     1
 41
-30.0
176
     1
 62
     5
 63
     7
421
 16777215
176
     1
 74
     2
176
     1
 91
        2
176
     1
 64
     7
176
     1
 65
   257
176
     1
 75
     1
176
     1
175
     1
176
     1
 42
40.0
176
     1
 92
        8
176
     1
 66
     7
176
     1
 43
1.0
176
     1
 76
     1
176
     1
 77
     6
176
     1
 78
     2
176
     1
 67
     7
176
     1
 79
     3
176
     1
170
     0
176
     1
171
     0
176
     1
290
     0
176
     1
 93
        1
176
     1
 44
0.0
176
     1
173
     0
176
     1
  0
VISUALSTYLE
  5
35
102
{ACAD_REACTORS
330
2A
102
}
330
2A
100
AcDbVisualStyle
  2
Dim
 70
    11
177
     2
291
     1
 71
     2
176
     1
 72
     2
176
     1
 73
     0
176
     1
 90
        0
176
     1
 40
-0.6
176
     1
 41
-30.0
176
     1
 62
     5
 63
     7
421
 16777215
176
     1
 74
     1
176
     1
 91
        4
176
     1
 64
     7
176
     1
 65
   257
176
     1
 75
     1
176
     1
175
     1
176
     1
 42
1.0
176
     1
 92
        8
176
     1
 66
     7
176
     1
 43
1.0
176
     1
 76
     1
176
     1
 77
     6
176
     1
 78
     2
176
     1
 67
     7
176
     1
 79
     5
176
     1
170
     0
176
     1
171
     0
176
     1
290
     0
176
     1
 93
        1
176
     1
 44
-50.0
176
     1
173
     0
176
     1
  0
VISUALSTYLE
  5
39
102
{ACAD_REACTORS
330
2A
102
}
330
2A
100
AcDbVisualStyle
  2
Facepattern
 70
    15
177
     2
291
     1
 71
     2
176
     1
 72
     2
176
     1
 73
     0
176
     1
 90
        0
176
     1
 40
-0.6
176
     1
 41
-30.0
176
     1
 62
     5
 63
     7
421
 16777215
176
     1
 74
     1
176
     1
 91
        4
176
     1
 64
     7
176
     1
 65
   257
176
     1
 75
     1
176
     1
175
     1
176
     1
 42
1.0
176
     1
 92
        8
176
     1
 66
     7
176
     1
 43
1.0
176
     1
 76
     1
176
     1
 77
     6
176
     1
 78
     2
176
     1
 67
     7
176
     1
 79
     5
176
     1
170
     0
176
     1
171
     0
176
     1
290
     0
176
     1
 93
        1
176
     1
 44
0.0
176
     1
173
     0
176
     1
  0
VISUALSTYLE
  5
2B
102
{ACAD_REACTORS
330
2A
102
}
330
2A
100
AcDbVisualStyle
  2
Flat
 70
     0
177
     2
291
     1
 71
     2
176
     1
 72
     1
176
     1
 73
     1
176
     1
 90
        2
176
     1
 40
-0.6
176
     1
 41
30.0
176
     1
 62
     5
 63
     7
421
 16777215
176
     1
 74
     0
176
     1
 91
        4
176
     1
 64
     7
176
     1
 65
   257
176
     1
 75
     1
176
     1
175
     1
176
     1
 42
1.0
176
     1
 92
        8
176
     1
 66
     7
176
     1
 43
1.0
176
     1
 76
     1
176
     1
 77
     6
176
     1
 78
     2
176
     1
 67
     7
176
     1
 79
     5
176
     1
170
     0
176
     1
171
     0
176
     1
290
     0
176
     1
 93
       13
176
     1
 44
0.0
176
     1
173
     0
176
     1
  0
VISUALSTYLE
  5
2C
102
{ACAD_REACTORS
330
2A
102
}
330
2A
100
AcDbVisualStyle
  2
FlatWithEdges
 70
     1
177
     2
291
     1
 71
     2
176
     1
 72
     1
176
     1
 73
     1
176
     1
 90
        2
176
     1
 40
-0.6
176
     1
 41
30.0
176
     1
 62
     5
 63
     7
421
 16777215
176
     1
 74
     1
176
     1
 91
        4
176
     1
 64
     7
176
     1
 65
   257
176
     1
 75
     1
176
     1
175
     1
176
     1
 42
1.0
176
     1
 92
        0
176
     1
 66
   257
176
     1
 43
1.0
176
     1
 76
     1
176
     1
 77
     6
176
     1
 78
     2
176
     1
 67
     7
176
     1
 79
     5
176
     1
170
     0
176
     1
171
     0
176
     1
290
     0
176
     1
 93
       13
176
     1
 44
0.0
176
     1
173
     0
176
     1
  0
VISUALSTYLE
  5
2D
102
{ACAD_REACTORS
330
2A
102
}
330
2A
100
AcDbVisualStyle
  2
Gouraud
 70
     2
177
     2
291
     1
 71
     2
176
     1
 72
     2
176
     1
 73
     1
176
     1
 90
        2
176
     1
 40
-0.6
176
     1
 41
30.0
176
     1
 62
     5
 63
     7
421
 16777215
176
     1
 74
     0
176
     1
 91
        4
176
     1
 64
     7
176
     1
 65
   257
176
     1
 75
     1
176
     1
175
     1
176
     1
 42
1.0
176
     1
 92
        0
176
     1
 66
     7
176
     1
 43
1.0
176
     1
 76
     1
176
     1
 77
     6
176
     1
 78
     2
176
     1
 67
     7
176
     1
 79
     5
176
     1
170
     0
176
     1
171
     0
176
     1
290
     0
176
     1
 93
       13
176
     1
 44
0.0
176
     1
173
     0
176
     1
  0
VISUALSTYLE
  5
2E
102
{ACAD_REACTORS
330
2A
102
}
330
2A
100
AcDbVisualStyle
  2
GouraudWithEdges
 70
     3
177
     2
291
     1
 71
     2
176
     1
 72
     2
176
     1
 73
     1
176
     1
 90
        2
176
     1
 40
-0.6
176
     1
 41
30.0
176
     1
 62
     5
 63
     7
421
 16777215
176
     1
 74
     1
176
     1
 91
        4
176
     1
 64
     7
176
     1
 65
   257
176
     1
 75
     1
176
     1
175
     1
176
     1
 42
1.0
176
     1
 92
        0
176
     1
 66
   257
176
     1
 43
1.0
176
     1
 76
     1
176
     1
 77
     6
176
     1
 78
     2
176
     1
 67
     7
176
     1
 79
     5
176
     1
170
     0
176
     1
171
     0
176
     1
290
     0
176
     1
 93
       13
176
     1
 44
0.0
176
     1
173
     0
176
     1
  0
VISUALSTYLE
  5
38
102
{ACAD_REACTORS
330
2A
102
}
330
2A
100
AcDbVisualStyle
  2
Linepattern
 70
    14
177
     2
291
     1
 71
     2
176
     1
 72
     2
176
     1
 73
     0
176
     1
 90
        0
176
     1
 40
-0.6
176
     1
 41
-30.0
176
     1
 62
     5
 63
     7
421
 16777215
176
     1
 74
     1
176
     1
 91
        4
176
     1
 64
     7
176
     1
 65
   257
176
     1
 75
     7
176
     1
175
     7
176
     1
 42
1.0
176
     1
 92
        8
176
     1
 66
     7
176
     1
 43
1.0
176
     1
 76
     1
176
     1
 77
     6
176
     1
 78
     2
176
     1
 67
     7
176
     1
 79
     5
176
     1
170
     0
176
     1
171
     0
176
     1
290
     0
176
     1
 93
        1
176
     1
 44
0.0
176
     1
173
     0
176
     1
  0
VISUALSTYLE
  5
33
102
{ACAD_REACTORS
330
2A
102
}
330
2A
100
AcDbVisualStyle
  2
Realistic
 70
     8
177
     2
291
     0
 71
     2
176
     1
 72
     2
176
     1
 73
     0
176
     1
 90
        0
176
     1
 40
-0.6
176
     1
 41
-30.0
176
     1
 62
     5
 63
     7
421
 16777215
176
     1
 74
     1
176
     1
 91
        0
176
     1
 64
     7
176
     1
 65
   257
176
     1
 75
     1
176
     1
175
     1
176
     1
 42
1.0
176
     1
 92
        8
176
     1
 66
     8
424
  7895160
176
     1
 43
1.0
176
     1
 76
     1
176
     1
 77
     6
176
     1
 78
     2
176
     1
 67
     7
176
     1
 79
     5
176
     1
170
     0
176
     1
171
     0
176
     1
290
     0
176
     1
 93
       13
176
     1
 44
0.0
176
     1
173
     0
176
     1
  0
VISUALSTYLE
  5
37
102
{ACAD_REACTORS
330
2A
102
}
330
2A
100
AcDbVisualStyle
  2
Thicken
 70
    13
177
     2
291
     1
 71
     2
176
     1
 72
     2
176
     1
 73
     0
176
     1
 90
        0
176
     1
 40
-0.6
176
     1
 41
-30.0
176
     1
 62
     5
 63
     7
421
 16777215
176
     1
 74
     1
176
     1
 91
        4
176
     1
 64
     7
176
     1
 65
   257
176
     1
 75
     1
176
     1
175
     1
176
     1
 42
1.0
176
     1
 92
       12
176
     1
 66
     7
176
     1
 43
1.0
176
     1
 76
     1
176
     1
 77
     6
176
     1
 78
     2
176
     1
 67
     7
176
     1
 79
     5
176
     1
170
     0
176
     1
171
     0
176
     1
290
     0
176
     1
 93
        1
176
     1
 44
0.0
176
     1
173
     0
176
     1
  0
ENDSEC
  0
EOF
