  0
SECTION
  2
HEADER
  9
$ACADVER
  1
AC1024
  9
$ACADMAINTVER
 70
     6
  9
$DWGCODEPAGE
  3
UNDEFINED
  9
$INSBASE
 10
0.0
 20
0.0
 30
0.0
  9
$EXTMIN
 10
1.000000000000000E+20
 20
1.000000000000000E+20
 30
1.000000000000000E+20
  9
$EXTMAX
 10
-1.000000000000000E+20
 20
-1.000000000000000E+20
 30
-1.000000000000000E+20
  9
$LIMMIN
 10
0.0
 20
0.0
  9
$LIMMAX
 10
12.0
 20
9.0
  9
$ORTHOMODE
 70
     0
  9
$REGENMODE
 70
     1
  9
$FILLMODE
 70
     1
  9
$QTEXTMODE
 70
     0
  9
$MIRRTEXT
 70
     1
  9
$LTSCALE
 40
1.0
  9
$ATTMODE
 70
     1
  9
$TEXTSIZE
 40
0.2
  9
$TRACEWID
 40
0.05
  9
$TEXTSTYLE
  7
Standard
  9
$CLAYER
  8
0
  9
$CELTYPE
  6
ByLayer
  9
$CECOLOR
 62
   256
  9
$CELTSCALE
 40
1.0
  9
$DISPSILH
 70
     0
  9
$DIMSCALE
 40
1.0
  9
$DIMASZ
 40
0.18
  9
$DIMEXO
 40
0.0625
  9
$DIMDLI
 40
0.38
  9
$DIMRND
 40
0.0
  9
$DIMDLE
 40
0.0
  9
$DIMEXE
 40
0.18
  9
$DIMTP
 40
0.0
  9
$DIMTM
 40
0.0
  9
$DIMTXT
 40
0.18
  9
$DIMCEN
 40
0.09
  9
$DIMTSZ
 40
0.0
  9
$DIMTOL
 70
     0
  9
$DIMLIM
 70
     0
  9
$DIMTIH
 70
     1
  9
$DIMTOH
 70
     1
  9
$DIMSE1
 70
     0
  9
$DIMSE2
 70
     0
  9
$DIMTAD
 70
     0
  9
$DIMZIN
 70
     0
  9
$DIMBLK
  1

  9
$DIMASO
 70
     1
  9
$DIMSHO
 70
     1
  9
$DIMPOST
  1

  9
$DIMAPOST
  1

  9
$DIMALT
 70
     0
  9
$DIMALTD
 70
     2
  9
$DIMALTF
 40
25.4
  9
$DIMLFAC
 40
1.0
  9
$DIMTOFL
 70
     0
  9
$DIMTVP
 40
0.0
  9
$DIMTIX
 70
     0
  9
$DIMSOXD
 70
     0
  9
$DIMSAH
 70
     0
  9
$DIMBLK1
  1

  9
$DIMBLK2
  1

  9
$DIMSTYLE
  2
Standard
  9
$DIMCLRD
 70
     0
  9
$DIMCLRE
 70
     0
  9
$DIMCLRT
 70
     0
  9
$DIMTFAC
 40
1.0
  9
$DIMGAP
 40
0.09
  9
$DIMJUST
 70
     0
  9
$DIMSD1
 70
     0
  9
$DIMSD2
 70
     0
  9
$DIMTOLJ
 70
     1
  9
$DIMTZIN
 70
     0
  9
$DIMALTZ
 70
     0
  9
$DIMALTTZ
 70
     0
  9
$DIMUPT
 70
     0
  9
$DIMDEC
 70
     4
  9
$DIMTDEC
 70
     4
  9
$DIMALTU
 70
     2
  9
$DIMALTTD
 70
     2
  9
$DIMTXSTY
  7
Standard
  9
$DIMAUNIT
 70
     0
  9
$DIMADEC
 70
     0
  9
$DIMALTRND
 40
0.0
  9
$DIMAZIN
 70
     0
  9
$DIMDSEP
 70
    46
  9
$DIMATFIT
 70
     3
  9
$DIMFRAC
 70
     0
  9
$DIMLDRBLK
  1

  9
$DIMLUNIT
 70
     2
  9
$DIMLWD
 70
    -2
  9
$DIMLWE
 70
    -2
  9
$DIMTMOVE
 70
     0
  9
$DIMFXL
 40
1.0
  9
$DIMFXLON
 70
     0
  9
$DIMJOGANG
 40
0.7853981633974483
  9
$DIMTFILL
 70
     0
  9
$DIMTFILLCLR
 70
     0
  9
$DIMARCSYM
 70
     0
  9
$DIMLTYPE
  6

  9
$DIMLTEX1
  6

  9
$DIMLTEX2
  6

  9
$DIMTXTDIRECTION
 70
     0
  9
$LUNITS
 70
     2
  9
$LUPREC
 70
     4
  9
$SKETCHINC
 40
0.1
  9
$FILLETRAD
 40
0.5
  9
$AUNITS
 70
     0
  9
$AUPREC
 70
     0
  9
$MENU
  1
.
  9
$ELEVATION
 40
0.0
  9
$PELEVATION
 40
0.0
  9
$THICKNESS
 40
0.0
  9
$LIMCHECK
 70
     0
  9
$CHAMFERA
 40
0.5
  9
$CHAMFERB
 40
0.5
  9
$CHAMFERC
 40
1.0
  9
$CHAMFERD
 40
0.0
  9
$SKPOLY
 70
     0
  9
$TDCREATE
 40
2457917.588958322
  9
$TDUCREATE
 40
2457917.213958333
  9
$TDUPDATE
 40
2457917.588958322
  9
$TDUUPDATE
 40
2457917.213958333
  9
$TDINDWG
 40
0.0000000116
  9
$TDUSRTIMER
 40
0.0000000116
  9
$USRTIMER
 70
     1
  9
$ANGBASE
 50
0.0
  9
$ANGDIR
 70
     0
  9
$PDMODE
 70
     0
  9
$PDSIZE
 40
0.0
  9
$PLINEWID
 40
0.0
  9
$SPLFRAME
 70
     0
  9
$SPLINETYPE
 70
     6
  9
$SPLINESEGS
 70
     8
  9
$HANDSEED
  5
EC
  9
$SURFTAB1
 70
     6
  9
$SURFTAB2
 70
     6
  9
$SURFTYPE
 70
     6
  9
$SURFU
 70
     6
  9
$SURFV
 70
     6
  9
$UCSBASE
  2

  9
$UCSNAME
  2

  9
$UCSORG
 10
0.0
 20
0.0
 30
0.0
  9
$UCSXDIR
 10
1.0
 20
0.0
 30
0.0
  9
$UCSYDIR
 10
0.0
 20
1.0
 30
0.0
  9
$UCSORTHOREF
  2

  9
$UCSORTHOVIEW
 70
     0
  9
$UCSORGTOP
 10
0.0
 20
0.0
 30
0.0
  9
$UCSORGBOTTOM
 10
0.0
 20
0.0
 30
0.0
  9
$UCSORGLEFT
 10
0.0
 20
0.0
 30
0.0
  9
$UCSORGRIGHT
 10
0.0
 20
0.0
 30
0.0
  9
$UCSORGFRONT
 10
0.0
 20
0.0
 30
0.0
  9
$UCSORGBACK
 10
0.0
 20
0.0
 30
0.0
  9
$PUCSBASE
  2

  9
$PUCSNAME
  2

  9
$PUCSORG
 10
0.0
 20
0.0
 30
0.0
  9
$PUCSXDIR
 10
1.0
 20
0.0
 30
0.0
  9
$PUCSYDIR
 10
0.0
 20
1.0
 30
0.0
  9
$PUCSORTHOREF
  2

  9
$PUCSORTHOVIEW
 70
     0
  9
$PUCSORGTOP
 10
0.0
 20
0.0
 30
0.0
  9
$PUCSORGBOTTOM
 10
0.0
 20
0.0
 30
0.0
  9
$PUCSORGLEFT
 10
0.0
 20
0.0
 30
0.0
  9
$PUCSORGRIGHT
 10
0.0
 20
0.0
 30
0.0
  9
$PUCSORGFRONT
 10
0.0
 20
0.0
 30
0.0
  9
$PUCSORGBACK
 10
0.0
 20
0.0
 30
0.0
  9
$USERI1
 70
     0
  9
$USERI2
 70
     0
  9
$USERI3
 70
     0
  9
$USERI4
 70
     0
  9
$USERI5
 70
     0
  9
$USERR1
 40
0.0
  9
$USERR2
 40
0.0
  9
$USERR3
 40
0.0
  9
$USERR4
 40
0.0
  9
$USERR5
 40
0.0
  9
$WORLDVIEW
 70
     1
  9
$SHADEDGE
 70
     3
  9
$SHADEDIF
 70
    70
  9
$TILEMODE
 70
     1
  9
$MAXACTVP
 70
    64
  9
$PINSBASE
 10
0.0
 20
0.0
 30
0.0
  9
$PLIMCHECK
 70
     0
  9
$PEXTMIN
 10
1.000000000000000E+20
 20
1.000000000000000E+20
 30
1.000000000000000E+20
  9
$PEXTMAX
 10
-1.000000000000000E+20
 20
-1.000000000000000E+20
 30
-1.000000000000000E+20
  9
$PLIMMIN
 10
0.0
 20
0.0
  9
$PLIMMAX
 10
12.0
 20
9.0
  9
$UNITMODE
 70
     0
  9
$VISRETAIN
 70
     1
  9
$PLINEGEN
 70
     0
  9
$PSLTSCALE
 70
     1
  9
$TREEDEPTH
 70
  3020
  9
$CMLSTYLE
  2
Standard
  9
$CMLJUST
 70
     0
  9
$CMLSCALE
 40
1.0
  9
$PROXYGRAPHICS
 70
     1
  9
$MEASUREMENT
 70
     0
  9
$CELWEIGHT
370
    -1
  9
$ENDCAPS
280
     0
  9
$JOINSTYLE
280
     0
  9
$LWDISPLAY
290
     1
  9
$INSUNITS
 70
     1
  9
$HYPERLINKBASE
  1

  9
$STYLESHEET
  1

  9
$XEDIT
290
     1
  9
$CEPSNTYPE
380
     0
  9
$PSTYLEMODE
290
     1
  9
$FINGERPRINTGUID
  2
{88917605-E570-F8F5-B998-838C8BC51618}
  9
$VERSIONGUID
  2
{FAEB1C32-E019-11D5-929B-00C0DF256EC4}
  9
$EXTNAMES
290
     1
  9
$PSVPSCALE
 40
0.0
  9
$OLESTARTUP
290
     0
  9
$SORTENTS
280
   127
  9
$INDEXCTL
280
     0
  9
$HIDETEXT
280
     1
  9
$XCLIPFRAME
280
     2
  9
$HALOGAP
280
     0
  9
$OBSCOLOR
 70
   257
  9
$OBSLTYPE
280
     0
  9
$INTERSECTIONDISPLAY
280
     0
  9
$INTERSECTIONCOLOR
 70
   257
  9
$DIMASSOC
280
     2
  9
$PROJECTNAME
  1

  9
$CAMERADISPLAY
290
     0
  9
$LENSLENGTH
 40
50.0
  9
$CAMERAHEIGHT
 40
0.0
  9
$STEPSPERSEC
 40
2.0
  9
$STEPSIZE
 40
6.0
  9
$3DDWFPREC
 40
2.0
  9
$PSOLWIDTH
 40
0.25
  9
$PSOLHEIGHT
 40
4.0
  9
$LOFTANG1
 40
1.570796326794897
  9
$LOFTANG2
 40
1.570796326794897
  9
$LOFTMAG1
 40
0.0
  9
$LOFTMAG2
 40
0.0
  9
$LOFTPARAM
 70
     7
  9
$LOFTNORMALS
280
     1
  9
$LATITUDE
 40
37.795
  9
$LONGITUDE
 40
-122.394
  9
$NORTHDIRECTION
 40
0.0
  9
$TIMEZONE
 70
 -8000
  9
$LIGHTGLYPHDISPLAY
280
     1
  9
$TILEMODELIGHTSYNCH
280
     1
  9
$CMATERIAL
347
3C
  9
$SOLIDHIST
280
     1
  9
$SHOWHIST
280
     1
  9
$DWFFRAME
280
     2
  9
$DGNFRAME
280
     2
  9
$REALWORLDSCALE
290
     1
  9
$INTERFERECOLOR
 62
   256
  9
$CSHADOW
280
     0
  9
$SHADOWPLANELOCATION
 40
0.0
  0
ENDSEC
  0
SECTION
  2
CLASSES
  0
CLASS
  1
ACDBDICTIONARYWDFLT
  2
AcDbDictionaryWithDefault
  3
ObjectDBX Classes
 90
        0
 91
        4
280
     0
281
     0
  0
CLASS
  1
VISUALSTYLE
  2
AcDbVisualStyle
  3
ObjectDBX Classes
 90
     4095
 91
        4
280
     0
281
     0
  0
CLASS
  1
MATERIAL
  2
AcDbMaterial
  3
ObjectDBX Classes
 90
     1153
 91
        4
280
     0
281
     0
  0
CLASS
  1
SUN
  2
AcDbSun
  3
SCENEOE
 90
     1024
 91
        4
280
     0
281
     0
  0
ENDSEC
  0
SECTION
  2
TABLES
  0
TABLE
  2
VPORT
  5
8
330
0
100
AcDbSymbolTable
 70
     1
  0
VPORT
  5
29
330
8
100
AcDbSymbolTableRecord
100
AcDbViewportTableRecord
  2
*Active
 70
     0
 10
0.0
 20
0.0
 11
1.0
 21
1.0
 12
0.0
 22
0.0
 13
0.0
 23
0.0
 14
0.5
 24
0.5
 15
0.5
 25
0.5
 16
0.0
 26
0.0
 36
1.0
 17
63.499999984125
 27
-89.00059456108309
 37
0.0
 40
178.0011891221662
 41
0.7134783795241226
 42
50.0
 43
0.0
 44
0.0
 50
0.0
 51
0.0
 71
     0
 72
   100
 73
     1
 74
     3
 75
     0
 76
     0
 77
     0
 78
     0
281
     0
 65
     1
110
0.0
120
0.0
130
0.0
111
1.0
121
0.0
131
0.0
112
0.0
122
1.0
132
0.0
 79
     0
146
0.0
 60
     3
 61
     5
292
     1
282
     1
141
0.0
142
0.0
 63
   250
361
3F
  0
ENDTAB
  0
TABLE
  2
LTYPE
  5
5
330
0
100
AcDbSymbolTable
 70
     1
  0
LTYPE
  5
14
330
5
100
AcDbSymbolTableRecord
100
AcDbLinetypeTableRecord
  2
ByBlock
 70
     0
  3

 72
    65
 73
     0
 40
0.0
  0
LTYPE
  5
15
330
5
100
AcDbSymbolTableRecord
100
AcDbLinetypeTableRecord
  2
ByLayer
 70
     0
  3

 72
    65
 73
     0
 40
0.0
  0
LTYPE
  5
16
330
5
100
AcDbSymbolTableRecord
100
AcDbLinetypeTableRecord
  2
Continuous
 70
     0
  3
Solid line
 72
    65
 73
     0
 40
0.0
  0
ENDTAB
  0
TABLE
  2
LAYER
  5
2
330
0
100
AcDbSymbolTable
 70
     2
  0
LAYER
  5
10
330
2
100
AcDbSymbolTableRecord
100
AcDbLayerTableRecord
  2
0
 70
     0
 62
     7
  6
Continuous
370
    -3
390
F
347
3E
  0
LAYER
  5
40
330
2
100
AcDbSymbolTableRecord
100
AcDbLayerTableRecord
  2
_U+30EC_U+30A4_U+30E4_U+30FC 1
 70
     0
 62
     7
  6
Continuous
370
    -3
390
F
347
3E
  0
ENDTAB
  0
TABLE
  2
STYLE
  5
3
330
0
100
AcDbSymbolTable
 70
     1
  0
STYLE
  5
11
330
3
100
AcDbSymbolTableRecord
100
AcDbTextStyleTableRecord
  2
Standard
 70
     0
 40
0.0
 41
1.0
 50
0.0
 71
     0
 42
0.2
  3
txt
  4

  0
ENDTAB
  0
TABLE
  2
VIEW
  5
6
330
0
100
AcDbSymbolTable
 70
     0
  0
ENDTAB
  0
TABLE
  2
UCS
  5
7
330
0
100
AcDbSymbolTable
 70
     0
  0
ENDTAB
  0
TABLE
  2
APPID
  5
9
330
0
100
AcDbSymbolTable
 70
     1
  0
APPID
  5
12
330
9
100
AcDbSymbolTableRecord
100
AcDbRegAppTableRecord
  2
ACAD
 70
     0
  0
ENDTAB
  0
TABLE
  2
DIMSTYLE
  5
A
330
0
100
AcDbSymbolTable
 70
     1
100
AcDbDimStyleTable
  0
DIMSTYLE
105
27
330
A
100
AcDbSymbolTableRecord
100
AcDbDimStyleTableRecord
  2
Standard
 70
     0
178
     0
340
11
  0
ENDTAB
  0
TABLE
  2
BLOCK_RECORD
  5
1
330
0
100
AcDbSymbolTable
 70
     6
  0
BLOCK_RECORD
  5
1F
330
1
100
AcDbSymbolTableRecord
100
AcDbBlockTableRecord
  2
*Model_Space
340
22
 70
     0
280
     1
281
     0
  0
BLOCK_RECORD
  5
1B
330
1
100
AcDbSymbolTableRecord
100
AcDbBlockTableRecord
  2
*Paper_Space
340
1E
 70
     0
280
     1
281
     0
  0
BLOCK_RECORD
  5
23
330
1
100
AcDbSymbolTableRecord
100
AcDbBlockTableRecord
  2
*Paper_Space0
340
26
 70
     0
280
     1
281
     0
  0
BLOCK_RECORD
  5
89
330
1
100
AcDbSymbolTableRecord
100
AcDbBlockTableRecord
  2
block 2
340
0
102
{BLKREFS
331
8A
102
}
 70
     0
280
     1
281
     0
  0
BLOCK_RECORD
  5
A4
330
1
100
AcDbSymbolTableRecord
100
AcDbBlockTableRecord
  2
block 3
340
0
102
{BLKREFS
331
A5
102
}
 70
     0
280
     1
281
     0
  0
BLOCK_RECORD
  5
BD
330
1
100
AcDbSymbolTableRecord
100
AcDbBlockTableRecord
  2
block 4
340
0
102
{BLKREFS
331
BE
102
}
 70
     0
280
     1
281
     0
  0
BLOCK_RECORD
  5
CF
330
1
100
AcDbSymbolTableRecord
100
AcDbBlockTableRecord
  2
block 5
340
0
102
{BLKREFS
331
D0
102
}
 70
     0
280
     1
281
     0
  0
BLOCK_RECORD
  5
E3
330
1
100
AcDbSymbolTableRecord
100
AcDbBlockTableRecord
  2
block 6
340
0
102
{BLKREFS
331
E4
102
}
 70
     0
280
     1
281
     0
  0
ENDTAB
  0
ENDSEC
  0
SECTION
  2
BLOCKS
  0
BLOCK
  5
20
330
1F
100
AcDbEntity
  8
0
100
AcDbBlockBegin
  2
*Model_Space
 70
     0
 10
0.0
 20
0.0
 30
0.0
  3
*Model_Space
  1

  0
ENDBLK
  5
21
330
1F
100
AcDbEntity
  8
0
100
AcDbBlockEnd
  0
BLOCK
  5
1C
330
1B
100
AcDbEntity
 67
     1
  8
0
100
AcDbBlockBegin
  2
*Paper_Space
 70
     0
 10
0.0
 20
0.0
 30
0.0
  3
*Paper_Space
  1

  0
ENDBLK
  5
1D
330
1B
100
AcDbEntity
 67
     1
  8
0
100
AcDbBlockEnd
  0
BLOCK
  5
24
330
23
100
AcDbEntity
  8
0
100
AcDbBlockBegin
  2
*Paper_Space0
 70
     0
 10
0.0
 20
0.0
 30
0.0
  3
*Paper_Space0
  1

  0
ENDBLK
  5
25
330
23
100
AcDbEntity
  8
0
100
AcDbBlockEnd
  0
BLOCK
  5
8B
330
89
100
AcDbEntity
  8
0
100
AcDbBlockBegin
  2
block 2
 70
     0
 10
0.0
 20
0.0
 30
0.0
  3
block 2
  1

  0
SPLINE
  5
8D
330
89
100
AcDbEntity
  8
_U+30EC_U+30A4_U+30E4_U+30FC 1
370
     0
100
AcDbSpline
210
0.0
220
0.0
230
1.0
 70
    11
 71
     3
 72
    29
 73
    25
 74
     0
 42
0.0000000001
 43
0.0000000001
 12
1.0
 22
0.0
 32
0.0
 13
1.0
 23
0.0
 33
0.0
 40
0.0
 40
0.0
 40
0.0
 40
0.0
 40
1.0
 40
1.0
 40
1.0
 40
2.0
 40
2.0
 40
2.0
 40
3.0
 40
3.0
 40
3.0
 40
4.0
 40
4.0
 40
4.0
 40
5.0
 40
5.0
 40
5.0
 40
6.0
 40
6.0
 40
6.0
 40
7.0
 40
7.0
 40
7.0
 40
8.0
 40
8.0
 40
8.0
 40
8.0
 10
74.00065102316651
 20
-83.3096435338601
 30
0.0
 10
74.2101128286697
 20
-83.42505423261596
 30
0.0
 10
74.22906085383858
 20
-83.6104003697224
 30
0.0
 10
74.22906085383858
 20
-83.73476831673992
 30
0.0
 10
74.22906085383858
 20
-83.90633407190536
 30
0.0
 10
74.1825520647877
 20
-84.05791827325636
 30
0.0
 10
74.00065102316651
 20
-84.15954859007122
 30
0.0
 10
73.8060031282499
 20
-84.27048066469628
 30
0.0
 10
73.56932506841322
 20
-84.29080672805925
 30
0.0
 10
73.40637205196091
 20
-84.29080672805925
 30
0.0
 10
73.26236706067746
 20
-84.29080672805925
 30
0.0
 10
73.0105305807057
 20
-84.27254772198742
 30
0.0
 10
72.81174857120679
 20
-84.15954859007122
 30
0.0
 10
72.60883244712558
 20
-84.04448240086388
 30
0.0
 10
72.58540579782587
 20
-83.87257213614991
 30
0.0
 10
72.58540579782587
 20
-83.73476831673992
 30
0.0
 10
72.58540579782587
 20
-83.5649251093171
 30
0.0
 10
72.6298475295856
 20
-83.41127385067496
 30
0.0
 10
72.81174857120679
 20
-83.3096435338601
 30
0.0
 10
73.00432940883225
 20
-83.20319008336587
 30
0.0
 10
73.23273923950431
 20
-83.17838539587207
 30
0.0
 10
73.40637205196091
 20
-83.17838539587207
 30
0.0
 10
73.57759329757782
 20
-83.17838539587207
 30
0.0
 10
73.80807018554104
 20
-83.20112302607473
 30
0.0
 10
74.00065102316651
 20
-83.3096435338601
 30
0.0
  0
SPLINE
  5
8E
330
89
100
AcDbEntity
  8
_U+30EC_U+30A4_U+30E4_U+30FC 1
370
     0
100
AcDbSpline
210
0.0
220
0.0
230
1.0
 70
    11
 71
     3
 72
    17
 73
    13
 74
     0
 42
0.0000000001
 43
0.0000000001
 12
1.0
 22
0.0
 32
0.0
 13
1.0
 23
0.0
 33
0.0
 40
0.0
 40
0.0
 40
0.0
 40
0.0
 40
1.0
 40
1.0
 40
1.0
 40
2.0
 40
2.0
 40
2.0
 40
3.0
 40
3.0
 40
3.0
 40
4.0
 40
4.0
 40
4.0
 40
4.0
 10
72.77798663545134
 20
-83.73476831673992
 30
0.0
 10
72.77798663545134
 20
-84.00141870729826
 30
0.0
 10
73.0615179938874
 20
-84.05102808228585
 30
0.0
 10
73.40637205196091
 20
-84.05102808228585
 30
0.0
 10
73.72573240344357
 20
-84.05102808228585
 30
0.0
 10
74.03441295892196
 20
-84.01278752239959
 30
0.0
 10
74.03441295892196
 20
-83.73476831673992
 30
0.0
 10
74.03441295892196
 20
-83.47018498347273
 30
0.0
 10
73.75329316732557
 20
-83.41816404164547
 30
0.0
 10
73.40637205196091
 20
-83.41816404164547
 30
0.0
 10
73.08666719092973
 20
-83.41816404164547
 30
0.0
 10
72.77798663545134
 20
-83.45881616837141
 30
0.0
 10
72.77798663545134
 20
-83.73476831673992
 30
0.0
  0
HATCH
  5
8F
330
89
100
AcDbEntity
  8
_U+30EC_U+30A4_U+30E4_U+30FC 1
 62
     7
420
 16777215
100
AcDbHatch
 10
0.0
 20
0.0
 30
0.0
210
0.0
220
0.0
230
1.0
  2
SOLID
 70
     1
 71
     0
 91
        2
 92
        1
 93
        1
 72
     4
 94
        3
 73
     0
 74
     1
 95
       29
 96
       25
 40
0.0
 40
0.0
 40
0.0
 40
0.0
 40
1.0
 40
1.0
 40
1.0
 40
2.0
 40
2.0
 40
2.0
 40
3.0
 40
3.0
 40
3.0
 40
4.0
 40
4.0
 40
4.0
 40
5.0
 40
5.0
 40
5.0
 40
6.0
 40
6.0
 40
6.0
 40
7.0
 40
7.0
 40
7.0
 40
8.0
 40
8.0
 40
8.0
 40
8.0
 10
74.00065102316651
 20
-83.3096435338601
 10
74.2101128286697
 20
-83.42505423261596
 10
74.22906085383858
 20
-83.6104003697224
 10
74.22906085383858
 20
-83.73476831673992
 10
74.22906085383858
 20
-83.90633407190536
 10
74.1825520647877
 20
-84.05791827325636
 10
74.00065102316651
 20
-84.15954859007122
 10
73.8060031282499
 20
-84.27048066469628
 10
73.56932506841322
 20
-84.29080672805925
 10
73.40637205196091
 20
-84.29080672805925
 10
73.26236706067746
 20
-84.29080672805925
 10
73.0105305807057
 20
-84.27254772198742
 10
72.81174857120679
 20
-84.15954859007122
 10
72.60883244712558
 20
-84.04448240086388
 10
72.58540579782587
 20
-83.87257213614991
 10
72.58540579782587
 20
-83.73476831673992
 10
72.58540579782587
 20
-83.5649251093171
 10
72.6298475295856
 20
-83.41127385067496
 10
72.81174857120679
 20
-83.3096435338601
 10
73.00432940883225
 20
-83.20319008336587
 10
73.23273923950431
 20
-83.17838539587207
 10
73.40637205196091
 20
-83.17838539587207
 10
73.57759329757782
 20
-83.17838539587207
 10
73.80807018554104
 20
-83.20112302607473
 10
74.00065102316651
 20
-83.3096435338601
 97
        0
 97
        0
 92
        1
 93
        1
 72
     4
 94
        3
 73
     0
 74
     1
 95
       17
 96
       13
 40
0.0
 40
0.0
 40
0.0
 40
0.0
 40
1.0
 40
1.0
 40
1.0
 40
2.0
 40
2.0
 40
2.0
 40
3.0
 40
3.0
 40
3.0
 40
4.0
 40
4.0
 40
4.0
 40
4.0
 10
72.77798663545134
 20
-83.73476831673992
 10
72.77798663545134
 20
-84.00141870729826
 10
73.0615179938874
 20
-84.05102808228585
 10
73.40637205196091
 20
-84.05102808228585
 10
73.72573240344357
 20
-84.05102808228585
 10
74.03441295892196
 20
-84.01278752239959
 10
74.03441295892196
 20
-83.73476831673992
 10
74.03441295892196
 20
-83.47018498347273
 10
73.75329316732557
 20
-83.41816404164547
 10
73.40637205196091
 20
-83.41816404164547
 10
73.08666719092973
 20
-83.41816404164547
 10
72.77798663545134
 20
-83.45881616837141
 10
72.77798663545134
 20
-83.73476831673992
 97
        0
 97
        0
 75
     2
 76
     1
 98
        0
  0
POLYLINE
  5
90
330
89
100
AcDbEntity
  8
_U+30EC_U+30A4_U+30E4_U+30FC 1
370
     0
100
AcDb2dPolyline
 66
     1
 10
0.0
 20
0.0
 30
0.0
  0
VERTEX
  5
91
330
90
100
AcDbEntity
  8
_U+30EC_U+30A4_U+30E4_U+30FC 1
370
     0
100
AcDbVertex
100
AcDb2dVertex
 10
74.1784179502054
 20
-82.94721948881181
 30
0.0
  0
VERTEX
  5
92
330
90
100
AcDbEntity
  8
_U+30EC_U+30A4_U+30E4_U+30FC 1
370
     0
100
AcDbVertex
100
AcDb2dVertex
 10
73.92658147023364
 20
-82.94721948881181
 30
0.0
  0
VERTEX
  5
93
330
90
100
AcDbEntity
  8
_U+30EC_U+30A4_U+30E4_U+30FC 1
370
     0
100
AcDbVertex
100
AcDb2dVertex
 10
73.92658147023364
 20
-82.6781575314138
 30
0.0
  0
VERTEX
  5
94
330
90
100
AcDbEntity
  8
_U+30EC_U+30A4_U+30E4_U+30FC 1
370
     0
100
AcDbVertex
100
AcDb2dVertex
 10
74.1784179502054
 20
-82.6781575314138
 30
0.0
  0
VERTEX
  5
95
330
90
100
AcDbEntity
  8
_U+30EC_U+30A4_U+30E4_U+30FC 1
370
     0
100
AcDbVertex
100
AcDb2dVertex
 10
74.1784179502054
 20
-82.94721948881181
 30
0.0
  0
SEQEND
  5
96
330
90
100
AcDbEntity
  8
_U+30EC_U+30A4_U+30E4_U+30FC 1
370
     0
  0
HATCH
  5
97
330
89
100
AcDbEntity
  8
_U+30EC_U+30A4_U+30E4_U+30FC 1
 62
     7
420
 16777215
100
AcDbHatch
 10
0.0
 20
0.0
 30
0.0
210
0.0
220
0.0
230
1.0
  2
SOLID
 70
     1
 71
     0
 91
        1
 92
        1
 93
        4
 72
     1
 10
74.1784179502054
 20
-82.94721948881181
 11
73.92658147023364
 21
-82.94721948881181
 72
     1
 10
73.92658147023364
 20
-82.94721948881181
 11
73.92658147023364
 21
-82.6781575314138
 72
     1
 10
73.92658147023364
 20
-82.6781575314138
 11
74.1784179502054
 21
-82.6781575314138
 72
     1
 10
74.1784179502054
 20
-82.6781575314138
 11
74.1784179502054
 21
-82.94721948881181
 97
        0
 75
     2
 76
     1
 98
        0
  0
SPLINE
  5
98
330
89
100
AcDbEntity
  8
_U+30EC_U+30A4_U+30E4_U+30FC 1
370
     0
100
AcDbSpline
210
0.0
220
0.0
230
1.0
 70
    11
 71
     3
 72
    29
 73
    25
 74
     0
 42
0.0000000001
 43
0.0000000001
 12
1.0
 22
0.0
 32
0.0
 13
1.0
 23
0.0
 33
0.0
 40
0.0
 40
0.0
 40
0.0
 40
0.0
 40
1.0
 40
1.0
 40
1.0
 40
2.0
 40
2.0
 40
2.0
 40
3.0
 40
3.0
 40
3.0
 40
4.0
 40
4.0
 40
4.0
 40
5.0
 40
5.0
 40
5.0
 40
6.0
 40
6.0
 40
6.0
 40
7.0
 40
7.0
 40
7.0
 40
8.0
 40
8.0
 40
8.0
 40
8.0
 10
74.22906085383858
 20
-81.89095321303421
 30
0.0
 10
74.22906085383858
 20
-82.17586260966438
 30
0.0
 10
74.0916015439771
 20
-82.44699162435353
 30
0.0
 10
73.7426133713213
 20
-82.44699162435353
 30
0.0
 10
73.48664277676723
 20
-82.44699162435353
 30
0.0
 10
73.39155814137433
 20
-82.29540742300254
 30
0.0
 10
73.33023544173689
 20
-82.18240829108635
 30
0.0
 10
73.27097979939059
 20
-82.31573348636552
 30
0.0
 10
73.1566026292803
 20
-82.39738224936593
 30
0.0
 10
72.99571667011912
 20
-82.39738224936593
 30
0.0
 10
72.7207980503962
 20
-82.39738224936593
 30
0.0
 10
72.58540579782587
 20
-82.18481985792602
 30
0.0
 10
72.58540579782587
 20
-81.89095321303421
 30
0.0
 10
72.58540579782587
 20
-81.58778481033222
 30
0.0
 10
72.72941078910932
 20
-81.38452417670248
 30
0.0
 10
72.99571667011912
 20
-81.38452417670248
 30
0.0
 10
73.1566026292803
 20
-81.38452417670248
 30
0.0
 10
73.27097979939059
 20
-81.46789548744553
 30
0.0
 10
73.33023544173689
 20
-81.60156519227323
 30
0.0
 10
73.38087834537006
 20
-81.50648055688033
 30
0.0
 10
73.47596298076296
 20
-81.33698185900603
 30
0.0
 10
73.738479256739
 20
-81.33698185900603
 30
0.0
 10
74.11296113598566
 20
-81.33698185900603
 30
0.0
 10
74.22906085383858
 20
-81.63532712802868
 30
0.0
 10
74.22906085383858
 20
-81.89095321303421
 30
0.0
  0
SPLINE
  5
99
330
89
100
AcDbEntity
  8
_U+30EC_U+30A4_U+30E4_U+30FC 1
370
     0
100
AcDbSpline
210
0.0
220
0.0
230
1.0
 70
    11
 71
     3
 72
    17
 73
    13
 74
     0
 42
0.0000000001
 43
0.0000000001
 12
1.0
 22
0.0
 32
0.0
 13
1.0
 23
0.0
 33
0.0
 40
0.0
 40
0.0
 40
0.0
 40
0.0
 40
1.0
 40
1.0
 40
1.0
 40
2.0
 40
2.0
 40
2.0
 40
3.0
 40
3.0
 40
3.0
 40
4.0
 40
4.0
 40
4.0
 40
4.0
 10
72.77798663545134
 20
-81.89095321303421
 30
0.0
 10
72.77798663545134
 20
-82.06699759233048
 30
0.0
 10
72.87307127084424
 20
-82.15760360359255
 30
0.0
 10
73.00846352341455
 20
-82.15760360359255
 30
0.0
 10
73.13110892268945
 20
-82.15760360359255
 30
0.0
 10
73.24962020738204
 20
-82.08077797427147
 30
0.0
 10
73.24962020738204
 20
-81.89095321303421
 30
0.0
 10
73.24962020738204
 20
-81.70078394224842
 30
0.0
 10
73.13110892268945
 20
-81.62395831292734
 30
0.0
 10
73.00846352341455
 20
-81.62395831292734
 30
0.0
 10
72.87307127084424
 20
-81.62395831292734
 30
0.0
 10
72.77798663545134
 20
-81.71663138148057
 30
0.0
 10
72.77798663545134
 20
-81.89095321303421
 30
0.0
  0
SPLINE
  5
9A
330
89
100
AcDbEntity
  8
_U+30EC_U+30A4_U+30E4_U+30FC 1
370
     0
100
AcDbSpline
210
0.0
220
0.0
230
1.0
 70
    11
 71
     3
 72
    17
 73
    13
 74
     0
 42
0.0000000001
 43
0.0000000001
 12
1.0
 22
0.0
 32
0.0
 13
1.0
 23
0.0
 33
0.0
 40
0.0
 40
0.0
 40
0.0
 40
0.0
 40
1.0
 40
1.0
 40
1.0
 40
2.0
 40
2.0
 40
2.0
 40
3.0
 40
3.0
 40
3.0
 40
4.0
 40
4.0
 40
4.0
 40
4.0
 10
73.43806693042521
 20
-81.89095321303421
 30
0.0
 10
73.43806693042521
 20
-82.04460447167635
 30
0.0
 10
73.5248833366535
 20
-82.20721297858015
 30
0.0
 10
73.72779946073472
 20
-82.20721297858015
 30
0.0
 10
73.93312715165561
 20
-82.20721297858015
 30
0.0
 10
74.03441295892196
 20
-82.07182072600983
 30
0.0
 10
74.03441295892196
 20
-81.89095321303421
 30
0.0
 10
74.03441295892196
 20
-81.69182669398677
 30
0.0
 10
73.91176755964706
 20
-81.57434893793975
 30
0.0
 10
73.73400063260817
 20
-81.57434893793975
 30
0.0
 10
73.51213648335808
 20
-81.57434893793975
 30
0.0
 10
73.43806693042521
 20
-81.74832625994486
 30
0.0
 10
73.43806693042521
 20
-81.89095321303421
 30
0.0
  0
HATCH
  5
9B
330
89
100
AcDbEntity
  8
_U+30EC_U+30A4_U+30E4_U+30FC 1
 62
     7
420
 16777215
100
AcDbHatch
 10
0.0
 20
0.0
 30
0.0
210
0.0
220
0.0
230
1.0
  2
SOLID
 70
     1
 71
     0
 91
        3
 92
        1
 93
        1
 72
     4
 94
        3
 73
     0
 74
     1
 95
       29
 96
       25
 40
0.0
 40
0.0
 40
0.0
 40
0.0
 40
1.0
 40
1.0
 40
1.0
 40
2.0
 40
2.0
 40
2.0
 40
3.0
 40
3.0
 40
3.0
 40
4.0
 40
4.0
 40
4.0
 40
5.0
 40
5.0
 40
5.0
 40
6.0
 40
6.0
 40
6.0
 40
7.0
 40
7.0
 40
7.0
 40
8.0
 40
8.0
 40
8.0
 40
8.0
 10
74.22906085383858
 20
-81.89095321303421
 10
74.22906085383858
 20
-82.17586260966438
 10
74.0916015439771
 20
-82.44699162435353
 10
73.7426133713213
 20
-82.44699162435353
 10
73.48664277676723
 20
-82.44699162435353
 10
73.39155814137433
 20
-82.29540742300254
 10
73.33023544173689
 20
-82.18240829108635
 10
73.27097979939059
 20
-82.31573348636552
 10
73.1566026292803
 20
-82.39738224936593
 10
72.99571667011912
 20
-82.39738224936593
 10
72.7207980503962
 20
-82.39738224936593
 10
72.58540579782587
 20
-82.18481985792602
 10
72.58540579782587
 20
-81.89095321303421
 10
72.58540579782587
 20
-81.58778481033222
 10
72.72941078910932
 20
-81.38452417670248
 10
72.99571667011912
 20
-81.38452417670248
 10
73.1566026292803
 20
-81.38452417670248
 10
73.27097979939059
 20
-81.46789548744553
 10
73.33023544173689
 20
-81.60156519227323
 10
73.38087834537006
 20
-81.50648055688033
 10
73.47596298076296
 20
-81.33698185900603
 10
73.738479256739
 20
-81.33698185900603
 10
74.11296113598566
 20
-81.33698185900603
 10
74.22906085383858
 20
-81.63532712802868
 10
74.22906085383858
 20
-81.89095321303421
 97
        0
 97
        0
 92
        1
 93
        1
 72
     4
 94
        3
 73
     0
 74
     1
 95
       17
 96
       13
 40
0.0
 40
0.0
 40
0.0
 40
0.0
 40
1.0
 40
1.0
 40
1.0
 40
2.0
 40
2.0
 40
2.0
 40
3.0
 40
3.0
 40
3.0
 40
4.0
 40
4.0
 40
4.0
 40
4.0
 10
72.77798663545134
 20
-81.89095321303421
 10
72.77798663545134
 20
-82.06699759233048
 10
72.87307127084424
 20
-82.15760360359255
 10
73.00846352341455
 20
-82.15760360359255
 10
73.13110892268945
 20
-82.15760360359255
 10
73.24962020738204
 20
-82.08077797427147
 10
73.24962020738204
 20
-81.89095321303421
 10
73.24962020738204
 20
-81.70078394224842
 10
73.13110892268945
 20
-81.62395831292734
 10
73.00846352341455
 20
-81.62395831292734
 10
72.87307127084424
 20
-81.62395831292734
 10
72.77798663545134
 20
-81.71663138148057
 10
72.77798663545134
 20
-81.89095321303421
 97
        0
 97
        0
 92
        1
 93
        1
 72
     4
 94
        3
 73
     0
 74
     1
 95
       17
 96
       13
 40
0.0
 40
0.0
 40
0.0
 40
0.0
 40
1.0
 40
1.0
 40
1.0
 40
2.0
 40
2.0
 40
2.0
 40
3.0
 40
3.0
 40
3.0
 40
4.0
 40
4.0
 40
4.0
 40
4.0
 10
73.43806693042521
 20
-81.89095321303421
 10
73.43806693042521
 20
-82.04460447167635
 10
73.5248833366535
 20
-82.20721297858015
 10
73.72779946073472
 20
-82.20721297858015
 10
73.93312715165561
 20
-82.20721297858015
 10
74.03441295892196
 20
-82.07182072600983
 10
74.03441295892196
 20
-81.89095321303421
 10
74.03441295892196
 20
-81.69182669398677
 10
73.91176755964706
 20
-81.57434893793975
 10
73.73400063260817
 20
-81.57434893793975
 10
73.51213648335808
 20
-81.57434893793975
 10
73.43806693042521
 20
-81.74832625994486
 10
73.43806693042521
 20
-81.89095321303421
 97
        0
 97
        0
 75
     2
 76
     1
 98
        0
  0
ENDBLK
  5
8C
330
89
100
AcDbEntity
  8
0
100
AcDbBlockEnd
  0
BLOCK
  5
A6
330
A4
100
AcDbEntity
  8
0
100
AcDbBlockBegin
  2
block 3
 70
     0
 10
0.0
 20
0.0
 30
0.0
  3
block 3
  1

  0
SPLINE
  5
A8
330
A4
100
AcDbEntity
  8
_U+30EC_U+30A4_U+30E4_U+30FC 1
370
     0
100
AcDbSpline
210
0.0
220
0.0
230
1.0
 70
    11
 71
     3
 72
    32
 73
    28
 74
     0
 42
0.0000000001
 43
0.0000000001
 12
1.0
 22
0.0
 32
0.0
 13
1.0
 23
0.0
 33
0.0
 40
0.0
 40
0.0
 40
0.0
 40
0.0
 40
1.0
 40
1.0
 40
1.0
 40
2.0
 40
2.0
 40
2.0
 40
3.0
 40
3.0
 40
3.0
 40
4.0
 40
4.0
 40
4.0
 40
5.0
 40
5.0
 40
5.0
 40
6.0
 40
6.0
 40
6.0
 40
7.0
 40
7.0
 40
7.0
 40
8.0
 40
8.0
 40
8.0
 40
9.0
 40
9.0
 40
9.0
 40
9.0
 10
74.22906085383858
 20
-90.77964407452731
 30
0.0
 10
74.22906085383858
 20
-91.33154837126433
 30
0.0
 10
73.6750894998104
 20
-91.34050561952598
 30
0.0
 10
73.46114907017639
 20
-91.34050561952598
 30
0.0
 10
73.23067218221317
 20
-91.34050561952598
 30
0.0
 10
72.58333874053473
 20
-91.32017955616301
 30
0.0
 10
72.58333874053473
 20
-90.73899194780137
 30
0.0
 10
72.58333874053473
 20
-90.55364581069493
 30
0.0
 10
72.6532741788853
 20
-90.29147404426742
 30
0.0
 10
72.98538138366338
 20
-90.25082191754147
 30
0.0
 10
72.98538138366338
 20
-90.25082191754147
 30
0.0
 10
72.98538138366338
 20
-90.47923174821354
 30
0.0
 10
72.98538138366338
 20
-90.47923174821354
 30
0.0
 10
72.92819279860824
 20
-90.49025605376633
 30
0.0
 10
72.78005369274248
 20
-90.5243624990703
 30
0.0
 10
72.78005369274248
 20
-90.74140351464104
 30
0.0
 10
72.78005369274248
 20
-91.05352916560467
 30
0.0
 10
73.10802678293827
 20
-91.09624834962177
 30
0.0
 10
73.31300996431064
 20
-91.11002873156278
 30
0.0
 10
73.23480629679547
 20
-91.01046547203906
 30
0.0
 10
73.17555065444917
 20
-90.9381184668488
 30
0.0
 10
73.17555065444917
 20
-90.74381508148072
 30
0.0
 10
73.17555065444917
 20
-90.55157875340377
 30
0.0
 10
73.28372665268601
 20
-90.22808428733882
 30
0.0
 10
73.68990341039697
 20
-90.22808428733882
 30
0.0
 10
74.00926376187964
 20
-90.22808428733882
 30
0.0
 10
74.22906085383858
 20
-90.44064667877873
 30
0.0
 10
74.22906085383858
 20
-90.77964407452731
 30
0.0
  0
SPLINE
  5
A9
330
A4
100
AcDbEntity
  8
_U+30EC_U+30A4_U+30E4_U+30FC 1
370
     0
100
AcDbSpline
210
0.0
220
0.0
230
1.0
 70
    11
 71
     3
 72
    17
 73
    13
 74
     0
 42
0.0000000001
 43
0.0000000001
 12
1.0
 22
0.0
 32
0.0
 13
1.0
 23
0.0
 33
0.0
 40
0.0
 40
0.0
 40
0.0
 40
0.0
 40
1.0
 40
1.0
 40
1.0
 40
2.0
 40
2.0
 40
2.0
 40
3.0
 40
3.0
 40
3.0
 40
4.0
 40
4.0
 40
4.0
 40
4.0
 10
73.37019854936578
 20
-90.76172957800402
 30
0.0
 10
73.37019854936578
 20
-91.04216035050335
 30
0.0
 10
73.58172741216012
 20
-91.0828124772293
 30
0.0
 10
73.69817163956156
 20
-91.0828124772293
 30
0.0
 10
73.87387150930931
 20
-91.0828124772293
 30
0.0
 10
74.03682452576163
 20
-90.98118216041443
 30
0.0
 10
74.03682452576163
 20
-90.78446720820666
 30
0.0
 10
74.03682452576163
 20
-90.65562063705832
 30
0.0
 10
73.97756888341533
 20
-90.4678629331122
 30
0.0
 10
73.69197046768812
 20
-90.4678629331122
 30
0.0
 10
73.46769475159836
 20
-90.4678629331122
 30
0.0
 10
73.37019854936578
 20
-90.61703556762352
 30
0.0
 10
73.37019854936578
 20
-90.76172957800402
 30
0.0
  0
HATCH
  5
AA
330
A4
100
AcDbEntity
  8
_U+30EC_U+30A4_U+30E4_U+30FC 1
 62
     7
420
 16777215
100
AcDbHatch
 10
0.0
 20
0.0
 30
0.0
210
0.0
220
0.0
230
1.0
  2
SOLID
 70
     1
 71
     0
 91
        2
 92
        1
 93
        1
 72
     4
 94
        3
 73
     0
 74
     1
 95
       32
 96
       28
 40
0.0
 40
0.0
 40
0.0
 40
0.0
 40
1.0
 40
1.0
 40
1.0
 40
2.0
 40
2.0
 40
2.0
 40
3.0
 40
3.0
 40
3.0
 40
4.0
 40
4.0
 40
4.0
 40
5.0
 40
5.0
 40
5.0
 40
6.0
 40
6.0
 40
6.0
 40
7.0
 40
7.0
 40
7.0
 40
8.0
 40
8.0
 40
8.0
 40
9.0
 40
9.0
 40
9.0
 40
9.0
 10
74.22906085383858
 20
-90.77964407452731
 10
74.22906085383858
 20
-91.33154837126433
 10
73.6750894998104
 20
-91.34050561952598
 10
73.46114907017639
 20
-91.34050561952598
 10
73.23067218221317
 20
-91.34050561952598
 10
72.58333874053473
 20
-91.32017955616301
 10
72.58333874053473
 20
-90.73899194780137
 10
72.58333874053473
 20
-90.55364581069493
 10
72.6532741788853
 20
-90.29147404426742
 10
72.98538138366338
 20
-90.25082191754147
 10
72.98538138366338
 20
-90.25082191754147
 10
72.98538138366338
 20
-90.47923174821354
 10
72.98538138366338
 20
-90.47923174821354
 10
72.92819279860824
 20
-90.49025605376633
 10
72.78005369274248
 20
-90.5243624990703
 10
72.78005369274248
 20
-90.74140351464104
 10
72.78005369274248
 20
-91.05352916560467
 10
73.10802678293827
 20
-91.09624834962177
 10
73.31300996431064
 20
-91.11002873156278
 10
73.23480629679547
 20
-91.01046547203906
 10
73.17555065444917
 20
-90.9381184668488
 10
73.17555065444917
 20
-90.74381508148072
 10
73.17555065444917
 20
-90.55157875340377
 10
73.28372665268601
 20
-90.22808428733882
 10
73.68990341039697
 20
-90.22808428733882
 10
74.00926376187964
 20
-90.22808428733882
 10
74.22906085383858
 20
-90.44064667877873
 10
74.22906085383858
 20
-90.77964407452731
 97
        0
 97
        0
 92
        1
 93
        1
 72
     4
 94
        3
 73
     0
 74
     1
 95
       17
 96
       13
 40
0.0
 40
0.0
 40
0.0
 40
0.0
 40
1.0
 40
1.0
 40
1.0
 40
2.0
 40
2.0
 40
2.0
 40
3.0
 40
3.0
 40
3.0
 40
4.0
 40
4.0
 40
4.0
 40
4.0
 10
73.37019854936578
 20
-90.76172957800402
 10
73.37019854936578
 20
-91.04216035050335
 10
73.58172741216012
 20
-91.0828124772293
 10
73.69817163956156
 20
-91.0828124772293
 10
73.87387150930931
 20
-91.0828124772293
 10
74.03682452576163
 20
-90.98118216041443
 10
74.03682452576163
 20
-90.78446720820666
 10
74.03682452576163
 20
-90.65562063705832
 10
73.97756888341533
 20
-90.4678629331122
 10
73.69197046768812
 20
-90.4678629331122
 10
73.46769475159836
 20
-90.4678629331122
 10
73.37019854936578
 20
-90.61703556762352
 10
73.37019854936578
 20
-90.76172957800402
 97
        0
 97
        0
 75
     2
 76
     1
 98
        0
  0
POLYLINE
  5
AB
330
A4
100
AcDbEntity
  8
_U+30EC_U+30A4_U+30E4_U+30FC 1
370
     0
100
AcDb2dPolyline
 66
     1
 10
0.0
 20
0.0
 30
0.0
  0
VERTEX
  5
AC
330
AB
100
AcDbEntity
  8
_U+30EC_U+30A4_U+30E4_U+30FC 1
370
     0
100
AcDbVertex
100
AcDb2dVertex
 10
74.1784179502054
 20
-89.99691838027856
 30
0.0
  0
VERTEX
  5
AD
330
AB
100
AcDbEntity
  8
_U+30EC_U+30A4_U+30E4_U+30FC 1
370
     0
100
AcDbVertex
100
AcDb2dVertex
 10
73.92658147023364
 20
-89.99691838027856
 30
0.0
  0
VERTEX
  5
AE
330
AB
100
AcDbEntity
  8
_U+30EC_U+30A4_U+30E4_U+30FC 1
370
     0
100
AcDbVertex
100
AcDb2dVertex
 10
73.92658147023364
 20
-89.72785642288054
 30
0.0
  0
VERTEX
  5
AF
330
AB
100
AcDbEntity
  8
_U+30EC_U+30A4_U+30E4_U+30FC 1
370
     0
100
AcDbVertex
100
AcDb2dVertex
 10
74.1784179502054
 20
-89.72785642288054
 30
0.0
  0
VERTEX
  5
B0
330
AB
100
AcDbEntity
  8
_U+30EC_U+30A4_U+30E4_U+30FC 1
370
     0
100
AcDbVertex
100
AcDb2dVertex
 10
74.1784179502054
 20
-89.99691838027856
 30
0.0
  0
SEQEND
  5
B1
330
AB
100
AcDbEntity
  8
_U+30EC_U+30A4_U+30E4_U+30FC 1
370
     0
  0
HATCH
  5
B2
330
A4
100
AcDbEntity
  8
_U+30EC_U+30A4_U+30E4_U+30FC 1
 62
     7
420
 16777215
100
AcDbHatch
 10
0.0
 20
0.0
 30
0.0
210
0.0
220
0.0
230
1.0
  2
SOLID
 70
     1
 71
     0
 91
        1
 92
        1
 93
        4
 72
     1
 10
74.1784179502054
 20
-89.99691838027856
 11
73.92658147023364
 21
-89.99691838027856
 72
     1
 10
73.92658147023364
 20
-89.99691838027856
 11
73.92658147023364
 21
-89.72785642288054
 72
     1
 10
73.92658147023364
 20
-89.72785642288054
 11
74.1784179502054
 21
-89.72785642288054
 72
     1
 10
74.1784179502054
 20
-89.72785642288054
 11
74.1784179502054
 21
-89.99691838027856
 97
        0
 75
     2
 76
     1
 98
        0
  0
SPLINE
  5
B3
330
A4
100
AcDbEntity
  8
_U+30EC_U+30A4_U+30E4_U+30FC 1
370
     0
100
AcDbSpline
210
0.0
220
0.0
230
1.0
 70
    11
 71
     3
 72
    53
 73
    49
 74
     0
 42
0.0000000001
 43
0.0000000001
 12
1.0
 22
0.0
 32
0.0
 13
1.0
 23
0.0
 33
0.0
 40
0.0
 40
0.0
 40
0.0
 40
0.0
 40
1.0
 40
1.0
 40
1.0
 40
2.0
 40
2.0
 40
2.0
 40
3.0
 40
3.0
 40
3.0
 40
4.0
 40
4.0
 40
4.0
 40
5.0
 40
5.0
 40
5.0
 40
6.0
 40
6.0
 40
6.0
 40
7.0
 40
7.0
 40
7.0
 40
8.0
 40
8.0
 40
8.0
 40
9.0
 40
9.0
 40
9.0
 40
10.0
 40
10.0
 40
10.0
 40
11.0
 40
11.0
 40
11.0
 40
12.0
 40
12.0
 40
12.0
 40
13.0
 40
13.0
 40
13.0
 40
14.0
 40
14.0
 40
14.0
 40
15.0
 40
15.0
 40
15.0
 40
16.0
 40
16.0
 40
16.0
 40
16.0
 10
74.22906085383858
 20
-88.96097816786393
 30
0.0
 10
74.22906085383858
 20
-89.0446939881555
 30
0.0
 10
74.21217988596085
 20
-89.15286998639235
 30
0.0
 10
74.14879012903225
 20
-89.26173500372624
 30
0.0
 10
74.03889158305277
 20
-89.44708114083268
 30
0.0
 10
73.90763344506476
 20
-89.46947426148681
 30
0.0
 10
73.79980195637644
 20
-89.48980032484978
 30
0.0
 10
73.79980195637644
 20
-89.48980032484978
 30
0.0
 10
73.79980195637644
 20
-89.25243324591607
 30
0.0
 10
73.79980195637644
 20
-89.25243324591607
 30
0.0
 10
73.99858396587535
 20
-89.19386662266682
 30
0.0
 10
74.0282117870485
 20
-89.05812986054796
 30
0.0
 10
74.0282117870485
 20
-88.95856660102424
 30
0.0
 10
74.0282117870485
 20
-88.80939396651293
 30
0.0
 10
73.92864852752479
 20
-88.64644095006062
 30
0.0
 10
73.69610458227042
 20
-88.64644095006062
 30
0.0
 10
73.44013398771637
 20
-88.64644095006062
 30
0.0
 10
73.37019854936578
 20
-88.83867727813755
 30
0.0
 10
73.37019854936578
 20
-88.9675238492859
 30
0.0
 10
73.37019854936578
 20
-89.00163029458987
 30
0.0
 10
73.37019854936578
 20
-89.15286998639235
 30
0.0
 10
73.49938963006265
 20
-89.24795462178524
 30
0.0
 10
73.49938963006265
 20
-89.24795462178524
 30
0.0
 10
73.48044160489378
 20
-89.43571232573136
 30
0.0
 10
73.48044160489378
 20
-89.43571232573136
 30
0.0
 10
73.48044160489378
 20
-89.43571232573136
 30
0.0
 10
72.6339816441679
 20
-89.30686575458301
 30
0.0
 10
72.6339816441679
 20
-89.30686575458301
 30
0.0
 10
72.6339816441679
 20
-89.30686575458301
 30
0.0
 10
72.6339816441679
 20
-88.47487519489518
 30
0.0
 10
72.6339816441679
 20
-88.47487519489518
 30
0.0
 10
72.6339816441679
 20
-88.47487519489518
 30
0.0
 10
72.82862953908452
 20
-88.47487519489518
 30
0.0
 10
72.82862953908452
 20
-88.47487519489518
 30
0.0
 10
72.82862953908452
 20
-88.47487519489518
 30
0.0
 10
72.82862953908452
 20
-89.13254392302937
 30
0.0
 10
72.82862953908452
 20
-89.13254392302937
 30
0.0
 10
72.82862953908452
 20
-89.13254392302937
 30
0.0
 10
73.2516872646732
 20
-89.20282387092847
 30
0.0
 10
73.2516872646732
 20
-89.20282387092847
 30
0.0
 10
73.21792532891774
 20
-89.13736705670871
 30
0.0
 10
73.17761771174033
 20
-89.04917261228633
 30
0.0
 10
73.17761771174033
 20
-88.92239309842913
 30
0.0
 10
73.17761771174033
 20
-88.65126408373996
 30
0.0
 10
73.36399737749234
 20
-88.3980495655741
 30
0.0
 10
73.67715655710155
 20
-88.3980495655741
 30
0.0
 10
73.99444985129306
 20
-88.3980495655741
 30
0.0
 10
74.22906085383858
 20
-88.63748370179897
 30
0.0
 10
74.22906085383858
 20
-88.96097816786393
 30
0.0
  0
HATCH
  5
B4
330
A4
100
AcDbEntity
  8
_U+30EC_U+30A4_U+30E4_U+30FC 1
 62
     7
420
 16777215
100
AcDbHatch
 10
0.0
 20
0.0
 30
0.0
210
0.0
220
0.0
230
1.0
  2
SOLID
 70
     1
 71
     0
 91
        1
 92
        1
 93
        1
 72
     4
 94
        3
 73
     0
 74
     1
 95
       53
 96
       49
 40
0.0
 40
0.0
 40
0.0
 40
0.0
 40
1.0
 40
1.0
 40
1.0
 40
2.0
 40
2.0
 40
2.0
 40
3.0
 40
3.0
 40
3.0
 40
4.0
 40
4.0
 40
4.0
 40
5.0
 40
5.0
 40
5.0
 40
6.0
 40
6.0
 40
6.0
 40
7.0
 40
7.0
 40
7.0
 40
8.0
 40
8.0
 40
8.0
 40
9.0
 40
9.0
 40
9.0
 40
10.0
 40
10.0
 40
10.0
 40
11.0
 40
11.0
 40
11.0
 40
12.0
 40
12.0
 40
12.0
 40
13.0
 40
13.0
 40
13.0
 40
14.0
 40
14.0
 40
14.0
 40
15.0
 40
15.0
 40
15.0
 40
16.0
 40
16.0
 40
16.0
 40
16.0
 10
74.22906085383858
 20
-88.96097816786393
 10
74.22906085383858
 20
-89.0446939881555
 10
74.21217988596085
 20
-89.15286998639235
 10
74.14879012903225
 20
-89.26173500372624
 10
74.03889158305277
 20
-89.44708114083268
 10
73.90763344506476
 20
-89.46947426148681
 10
73.79980195637644
 20
-89.48980032484978
 10
73.79980195637644
 20
-89.48980032484978
 10
73.79980195637644
 20
-89.25243324591607
 10
73.79980195637644
 20
-89.25243324591607
 10
73.99858396587535
 20
-89.19386662266682
 10
74.0282117870485
 20
-89.05812986054796
 10
74.0282117870485
 20
-88.95856660102424
 10
74.0282117870485
 20
-88.80939396651293
 10
73.92864852752479
 20
-88.64644095006062
 10
73.69610458227042
 20
-88.64644095006062
 10
73.44013398771637
 20
-88.64644095006062
 10
73.37019854936578
 20
-88.83867727813755
 10
73.37019854936578
 20
-88.9675238492859
 10
73.37019854936578
 20
-89.00163029458987
 10
73.37019854936578
 20
-89.15286998639235
 10
73.49938963006265
 20
-89.24795462178524
 10
73.49938963006265
 20
-89.24795462178524
 10
73.48044160489378
 20
-89.43571232573136
 10
73.48044160489378
 20
-89.43571232573136
 10
73.48044160489378
 20
-89.43571232573136
 10
72.6339816441679
 20
-89.30686575458301
 10
72.6339816441679
 20
-89.30686575458301
 10
72.6339816441679
 20
-89.30686575458301
 10
72.6339816441679
 20
-88.47487519489518
 10
72.6339816441679
 20
-88.47487519489518
 10
72.6339816441679
 20
-88.47487519489518
 10
72.82862953908452
 20
-88.47487519489518
 10
72.82862953908452
 20
-88.47487519489518
 10
72.82862953908452
 20
-88.47487519489518
 10
72.82862953908452
 20
-89.13254392302937
 10
72.82862953908452
 20
-89.13254392302937
 10
72.82862953908452
 20
-89.13254392302937
 10
73.2516872646732
 20
-89.20282387092847
 10
73.2516872646732
 20
-89.20282387092847
 10
73.21792532891774
 20
-89.13736705670871
 10
73.17761771174033
 20
-89.04917261228633
 10
73.17761771174033
 20
-88.92239309842913
 10
73.17761771174033
 20
-88.65126408373996
 10
73.36399737749234
 20
-88.3980495655741
 10
73.67715655710155
 20
-88.3980495655741
 10
73.99444985129306
 20
-88.3980495655741
 10
74.22906085383858
 20
-88.63748370179897
 10
74.22906085383858
 20
-88.96097816786393
 97
        0
 97
        0
 75
     2
 76
     1
 98
        0
  0
ENDBLK
  5
A7
330
A4
100
AcDbEntity
  8
0
100
AcDbBlockEnd
  0
BLOCK
  5
BF
330
BD
100
AcDbEntity
  8
0
100
AcDbBlockBegin
  2
block 4
 70
     0
 10
0.0
 20
0.0
 30
0.0
  3
block 4
  1

  0
SPLINE
  5
C1
330
BD
100
AcDbEntity
  8
_U+30EC_U+30A4_U+30E4_U+30FC 1
370
     0
100
AcDbSpline
210
0.0
220
0.0
230
1.0
 70
    11
 71
     3
 72
    62
 73
    58
 74
     0
 42
0.0000000001
 43
0.0000000001
 12
1.0
 22
0.0
 32
0.0
 13
1.0
 23
0.0
 33
0.0
 40
0.0
 40
0.0
 40
0.0
 40
0.0
 40
1.0
 40
1.0
 40
1.0
 40
2.0
 40
2.0
 40
2.0
 40
3.0
 40
3.0
 40
3.0
 40
4.0
 40
4.0
 40
4.0
 40
5.0
 40
5.0
 40
5.0
 40
6.0
 40
6.0
 40
6.0
 40
7.0
 40
7.0
 40
7.0
 40
8.0
 40
8.0
 40
8.0
 40
9.0
 40
9.0
 40
9.0
 40
10.0
 40
10.0
 40
10.0
 40
11.0
 40
11.0
 40
11.0
 40
12.0
 40
12.0
 40
12.0
 40
13.0
 40
13.0
 40
13.0
 40
14.0
 40
14.0
 40
14.0
 40
15.0
 40
15.0
 40
15.0
 40
16.0
 40
16.0
 40
16.0
 40
17.0
 40
17.0
 40
17.0
 40
18.0
 40
18.0
 40
18.0
 40
19.0
 40
19.0
 40
19.0
 40
19.0
 10
74.22906085383858
 20
-94.62299259787203
 30
0.0
 10
74.22906085383858
 20
-94.7246229146869
 30
0.0
 10
74.20804577137855
 20
-94.9575113694898
 30
0.0
 10
74.02201061517506
 20
-95.09083656476896
 30
0.0
 10
73.90970050235592
 20
-95.17007376092971
 30
0.0
 10
73.81048175238071
 20
-95.17455238506054
 30
0.0
 10
73.72573240344357
 20
-95.17903100919136
 30
0.0
 10
73.72573240344357
 20
-95.17903100919136
 30
0.0
 10
73.72573240344357
 20
-94.94407549709732
 30
0.0
 10
73.72573240344357
 20
-94.94407549709732
 30
0.0
 10
73.79980195637644
 20
-94.94166393025765
 30
0.0
 10
74.03441295892196
 20
-94.93029511515633
 30
0.0
 10
74.03441295892196
 20
-94.62747122200285
 30
0.0
 10
74.03441295892196
 20
-94.4803656447827
 30
0.0
 10
73.9648220301199
 20
-94.3177571378789
 30
0.0
 10
73.73641219944784
 20
-94.3177571378789
 30
0.0
 10
73.6199679720464
 20
-94.3177571378789
 30
0.0
 10
73.57139212570438
 20
-94.35840926460484
 30
0.0
 10
73.53969724724008
 20
-94.3921712003603
 30
0.0
 10
73.4656276943072
 20
-94.47140839652104
 30
0.0
 10
73.45288084101178
 20
-94.59577634353856
 30
0.0
 10
73.45288084101178
 20
-94.65468747633633
 30
0.0
 10
73.45288084101178
 20
-94.67501353969931
 30
0.0
 10
73.45494789830293
 20
-94.71325409958558
 30
0.0
 10
73.45908201288523
 20
-94.74288192075873
 30
0.0
 10
73.45908201288523
 20
-94.74288192075873
 30
0.0
 10
73.26443411796862
 20
-94.74288192075873
 30
0.0
 10
73.26443411796862
 20
-94.74288192075873
 30
0.0
 10
73.27097979939059
 20
-94.70222979403277
 30
0.0
 10
73.27304685668174
 20
-94.65675453362748
 30
0.0
 10
73.27304685668174
 20
-94.65020885220551
 30
0.0
 10
73.27304685668174
 20
-94.57992890430641
 30
0.0
 10
73.2516872646732
 20
-94.3673665128665
 30
0.0
 10
73.01500920483653
 20
-94.3673665128665
 30
0.0
 10
72.83724227779764
 20
-94.3673665128665
 30
0.0
 10
72.78212075003364
 20
-94.50758189911616
 30
0.0
 10
72.78212075003364
 20
-94.62505965516318
 30
0.0
 10
72.78212075003364
 20
-94.9079019945022
 30
0.0
 10
73.01500920483653
 20
-94.91685924276385
 30
0.0
 10
73.08666719092973
 20
-94.92133786689467
 30
0.0
 10
73.08666719092973
 20
-94.92133786689467
 30
0.0
 10
73.08666719092973
 20
-95.1383788824654
 30
0.0
 10
73.08666719092973
 20
-95.1383788824654
 30
0.0
 10
72.96195473436369
 20
-95.12942163420377
 30
0.0
 10
72.58540579782587
 20
-95.10013832257914
 30
0.0
 10
72.58540579782587
 20
-94.6116237827707
 30
0.0
 10
72.58540579782587
 20
-94.37184513699732
 30
0.0
 10
72.7125298212316
 20
-94.11415199470063
 30
0.0
 10
73.00846352341455
 20
-94.11415199470063
 30
0.0
 10
73.19484318916658
 20
-94.11415199470063
 30
0.0
 10
73.27718097126404
 20
-94.21612682106402
 30
0.0
 10
73.33850367090149
 20
-94.32223576200973
 30
0.0
 10
73.36606443478348
 20
-94.25677894778998
 30
0.0
 10
73.44633515958981
 20
-94.06213105287335
 30
0.0
 10
73.72366534615242
 20
-94.06213105287335
 30
0.0
 10
74.06197372280396
 20
-94.06213105287335
 30
0.0
 10
74.22906085383858
 20
-94.32671438614055
 30
0.0
 10
74.22906085383858
 20
-94.62299259787203
 30
0.0
  0
HATCH
  5
C2
330
BD
100
AcDbEntity
  8
_U+30EC_U+30A4_U+30E4_U+30FC 1
 62
     7
420
 16777215
100
AcDbHatch
 10
0.0
 20
0.0
 30
0.0
210
0.0
220
0.0
230
1.0
  2
SOLID
 70
     1
 71
     0
 91
        1
 92
        1
 93
        1
 72
     4
 94
        3
 73
     0
 74
     1
 95
       62
 96
       58
 40
0.0
 40
0.0
 40
0.0
 40
0.0
 40
1.0
 40
1.0
 40
1.0
 40
2.0
 40
2.0
 40
2.0
 40
3.0
 40
3.0
 40
3.0
 40
4.0
 40
4.0
 40
4.0
 40
5.0
 40
5.0
 40
5.0
 40
6.0
 40
6.0
 40
6.0
 40
7.0
 40
7.0
 40
7.0
 40
8.0
 40
8.0
 40
8.0
 40
9.0
 40
9.0
 40
9.0
 40
10.0
 40
10.0
 40
10.0
 40
11.0
 40
11.0
 40
11.0
 40
12.0
 40
12.0
 40
12.0
 40
13.0
 40
13.0
 40
13.0
 40
14.0
 40
14.0
 40
14.0
 40
15.0
 40
15.0
 40
15.0
 40
16.0
 40
16.0
 40
16.0
 40
17.0
 40
17.0
 40
17.0
 40
18.0
 40
18.0
 40
18.0
 40
19.0
 40
19.0
 40
19.0
 40
19.0
 10
74.22906085383858
 20
-94.62299259787203
 10
74.22906085383858
 20
-94.7246229146869
 10
74.20804577137855
 20
-94.9575113694898
 10
74.02201061517506
 20
-95.09083656476896
 10
73.90970050235592
 20
-95.17007376092971
 10
73.81048175238071
 20
-95.17455238506054
 10
73.72573240344357
 20
-95.17903100919136
 10
73.72573240344357
 20
-95.17903100919136
 10
73.72573240344357
 20
-94.94407549709732
 10
73.72573240344357
 20
-94.94407549709732
 10
73.79980195637644
 20
-94.94166393025765
 10
74.03441295892196
 20
-94.93029511515633
 10
74.03441295892196
 20
-94.62747122200285
 10
74.03441295892196
 20
-94.4803656447827
 10
73.9648220301199
 20
-94.3177571378789
 10
73.73641219944784
 20
-94.3177571378789
 10
73.6199679720464
 20
-94.3177571378789
 10
73.57139212570438
 20
-94.35840926460484
 10
73.53969724724008
 20
-94.3921712003603
 10
73.4656276943072
 20
-94.47140839652104
 10
73.45288084101178
 20
-94.59577634353856
 10
73.45288084101178
 20
-94.65468747633633
 10
73.45288084101178
 20
-94.67501353969931
 10
73.45494789830293
 20
-94.71325409958558
 10
73.45908201288523
 20
-94.74288192075873
 10
73.45908201288523
 20
-94.74288192075873
 10
73.26443411796862
 20
-94.74288192075873
 10
73.26443411796862
 20
-94.74288192075873
 10
73.27097979939059
 20
-94.70222979403277
 10
73.27304685668174
 20
-94.65675453362748
 10
73.27304685668174
 20
-94.65020885220551
 10
73.27304685668174
 20
-94.57992890430641
 10
73.2516872646732
 20
-94.3673665128665
 10
73.01500920483653
 20
-94.3673665128665
 10
72.83724227779764
 20
-94.3673665128665
 10
72.78212075003364
 20
-94.50758189911616
 10
72.78212075003364
 20
-94.62505965516318
 10
72.78212075003364
 20
-94.9079019945022
 10
73.01500920483653
 20
-94.91685924276385
 10
73.08666719092973
 20
-94.92133786689467
 10
73.08666719092973
 20
-94.92133786689467
 10
73.08666719092973
 20
-95.1383788824654
 10
73.08666719092973
 20
-95.1383788824654
 10
72.96195473436369
 20
-95.12942163420377
 10
72.58540579782587
 20
-95.10013832257914
 10
72.58540579782587
 20
-94.6116237827707
 10
72.58540579782587
 20
-94.37184513699732
 10
72.7125298212316
 20
-94.11415199470063
 10
73.00846352341455
 20
-94.11415199470063
 10
73.19484318916658
 20
-94.11415199470063
 10
73.27718097126404
 20
-94.21612682106402
 10
73.33850367090149
 20
-94.32223576200973
 10
73.36606443478348
 20
-94.25677894778998
 10
73.44633515958981
 20
-94.06213105287335
 10
73.72366534615242
 20
-94.06213105287335
 10
74.06197372280396
 20
-94.06213105287335
 10
74.22906085383858
 20
-94.32671438614055
 10
74.22906085383858
 20
-94.62299259787203
 97
        0
 97
        0
 75
     2
 76
     1
 98
        0
  0
ENDBLK
  5
C0
330
BD
100
AcDbEntity
  8
0
100
AcDbBlockEnd
  0
BLOCK
  5
D1
330
CF
100
AcDbEntity
  8
0
100
AcDbBlockBegin
  2
block 5
 70
     0
 10
0.0
 20
0.0
 30
0.0
  3
block 5
  1

  0
SPLINE
  5
D3
330
CF
100
AcDbEntity
  8
_U+30EC_U+30A4_U+30E4_U+30FC 1
370
     0
100
AcDbSpline
210
0.0
220
0.0
230
1.0
 70
    11
 71
     3
 72
    44
 73
    40
 74
     0
 42
0.0000000001
 43
0.0000000001
 12
1.0
 22
0.0
 32
0.0
 13
1.0
 23
0.0
 33
0.0
 40
0.0
 40
0.0
 40
0.0
 40
0.0
 40
1.0
 40
1.0
 40
1.0
 40
2.0
 40
2.0
 40
2.0
 40
3.0
 40
3.0
 40
3.0
 40
4.0
 40
4.0
 40
4.0
 40
5.0
 40
5.0
 40
5.0
 40
6.0
 40
6.0
 40
6.0
 40
7.0
 40
7.0
 40
7.0
 40
8.0
 40
8.0
 40
8.0
 40
9.0
 40
9.0
 40
9.0
 40
10.0
 40
10.0
 40
10.0
 40
11.0
 40
11.0
 40
11.0
 40
12.0
 40
12.0
 40
12.0
 40
13.0
 40
13.0
 40
13.0
 40
13.0
 10
60.5001830903437
 20
-79.87918970442257
 30
0.0
 10
60.26729463554082
 20
-80.03783635151832
 30
0.0
 10
60.16773137601709
 20
-80.11190590445119
 30
0.0
 10
60.11605494373835
 20
-80.25573864096037
 30
0.0
 10
60.11605494373835
 20
-80.25573864096037
 30
0.0
 10
60.94770099387766
 20
-80.25573864096037
 30
0.0
 10
60.94770099387766
 20
-80.25573864096037
 30
0.0
 10
60.94770099387766
 20
-80.25573864096037
 30
0.0
 10
60.94770099387766
 20
-80.460894077107
 30
0.0
 10
60.94770099387766
 20
-80.460894077107
 30
0.0
 10
60.94770099387766
 20
-80.460894077107
 30
0.0
 10
59.84906004363149
 20
-80.460894077107
 30
0.0
 10
59.84906004363149
 20
-80.460894077107
 30
0.0
 10
59.88316648893546
 20
-80.10329316573807
 30
0.0
 10
59.95310192728603
 20
-80.0250894982229
 30
0.0
 10
60.36444632822487
 20
-79.72674422920026
 30
0.0
 10
60.6379869097537
 20
-79.52796221970135
 30
0.0
 10
60.7082668576528
 20
-79.46026609341618
 30
0.0
 10
60.7082668576528
 20
-79.32280678355473
 30
0.0
 10
60.7082668576528
 20
-79.20429549886212
 30
0.0
 10
60.63144122833172
 20
-79.07320961564837
 30
0.0
 10
60.42094589418296
 20
-79.07320961564837
 30
0.0
 10
60.1429266885233
 20
-79.07320961564837
 30
0.0
 10
60.13396944026165
 20
-79.30368650361159
 30
0.0
 10
60.12949081613083
 20
-79.42013073101303
 30
0.0
 10
60.12949081613083
 20
-79.42013073101303
 30
0.0
 10
59.88971217035743
 20
-79.42013073101303
 30
0.0
 10
59.88971217035743
 20
-79.42013073101303
 30
0.0
 10
59.89901392816761
 20
-79.29317896238157
 30
0.0
 10
59.91003823372041
 20
-79.18104110433669
 30
0.0
 10
59.99616562085166
 20
-79.0625298196441
 30
0.0
 10
60.11364337689867
 20
-78.90181611525719
 30
0.0
 10
60.31242538639759
 20
-78.86788192472748
 30
0.0
 10
60.43679333341511
 20
-78.86788192472748
 30
0.0
 10
60.73307154514659
 20
-78.86788192472748
 30
0.0
 10
60.95459118484816
 20
-79.05202227841409
 30
0.0
 10
60.95459118484816
 20
-79.32487384084587
 30
0.0
 10
60.95459118484816
 20
-79.55328367151793
 30
0.0
 10
60.83022323783064
 20
-79.65284693104165
 30
0.0
 10
60.5001830903437
 20
-79.87918970442257
 30
0.0
  0
HATCH
  5
D4
330
CF
100
AcDbEntity
  8
_U+30EC_U+30A4_U+30E4_U+30FC 1
 62
     7
420
 16777215
100
AcDbHatch
 10
0.0
 20
0.0
 30
0.0
210
0.0
220
0.0
230
1.0
  2
SOLID
 70
     1
 71
     0
 91
        1
 92
        1
 93
        1
 72
     4
 94
        3
 73
     0
 74
     1
 95
       44
 96
       40
 40
0.0
 40
0.0
 40
0.0
 40
0.0
 40
1.0
 40
1.0
 40
1.0
 40
2.0
 40
2.0
 40
2.0
 40
3.0
 40
3.0
 40
3.0
 40
4.0
 40
4.0
 40
4.0
 40
5.0
 40
5.0
 40
5.0
 40
6.0
 40
6.0
 40
6.0
 40
7.0
 40
7.0
 40
7.0
 40
8.0
 40
8.0
 40
8.0
 40
9.0
 40
9.0
 40
9.0
 40
10.0
 40
10.0
 40
10.0
 40
11.0
 40
11.0
 40
11.0
 40
12.0
 40
12.0
 40
12.0
 40
13.0
 40
13.0
 40
13.0
 40
13.0
 10
60.5001830903437
 20
-79.87918970442257
 10
60.26729463554082
 20
-80.03783635151832
 10
60.16773137601709
 20
-80.11190590445119
 10
60.11605494373835
 20
-80.25573864096037
 10
60.11605494373835
 20
-80.25573864096037
 10
60.94770099387766
 20
-80.25573864096037
 10
60.94770099387766
 20
-80.25573864096037
 10
60.94770099387766
 20
-80.25573864096037
 10
60.94770099387766
 20
-80.460894077107
 10
60.94770099387766
 20
-80.460894077107
 10
60.94770099387766
 20
-80.460894077107
 10
59.84906004363149
 20
-80.460894077107
 10
59.84906004363149
 20
-80.460894077107
 10
59.88316648893546
 20
-80.10329316573807
 10
59.95310192728603
 20
-80.0250894982229
 10
60.36444632822487
 20
-79.72674422920026
 10
60.6379869097537
 20
-79.52796221970135
 10
60.7082668576528
 20
-79.46026609341618
 10
60.7082668576528
 20
-79.32280678355473
 10
60.7082668576528
 20
-79.20429549886212
 10
60.63144122833172
 20
-79.07320961564837
 10
60.42094589418296
 20
-79.07320961564837
 10
60.1429266885233
 20
-79.07320961564837
 10
60.13396944026165
 20
-79.30368650361159
 10
60.12949081613083
 20
-79.42013073101303
 10
60.12949081613083
 20
-79.42013073101303
 10
59.88971217035743
 20
-79.42013073101303
 10
59.88971217035743
 20
-79.42013073101303
 10
59.89901392816761
 20
-79.29317896238157
 10
59.91003823372041
 20
-79.18104110433669
 10
59.99616562085166
 20
-79.0625298196441
 10
60.11364337689867
 20
-78.90181611525719
 10
60.31242538639759
 20
-78.86788192472748
 10
60.43679333341511
 20
-78.86788192472748
 10
60.73307154514659
 20
-78.86788192472748
 10
60.95459118484816
 20
-79.05202227841409
 10
60.95459118484816
 20
-79.32487384084587
 10
60.95459118484816
 20
-79.55328367151793
 10
60.83022323783064
 20
-79.65284693104165
 10
60.5001830903437
 20
-79.87918970442257
 97
        0
 97
        0
 75
     2
 76
     1
 98
        0
  0
SPLINE
  5
D5
330
CF
100
AcDbEntity
  8
_U+30EC_U+30A4_U+30E4_U+30FC 1
370
     0
100
AcDbSpline
210
0.0
220
0.0
230
1.0
 70
    11
 71
     3
 72
    26
 73
    22
 74
     0
 42
0.0000000001
 43
0.0000000001
 12
1.0
 22
0.0
 32
0.0
 13
1.0
 23
0.0
 33
0.0
 40
0.0
 40
0.0
 40
0.0
 40
0.0
 40
1.0
 40
1.0
 40
1.0
 40
2.0
 40
2.0
 40
2.0
 40
3.0
 40
3.0
 40
3.0
 40
4.0
 40
4.0
 40
4.0
 40
5.0
 40
5.0
 40
5.0
 40
6.0
 40
6.0
 40
6.0
 40
7.0
 40
7.0
 40
7.0
 40
7.0
 10
61.60640325065743
 20
-80.460894077107
 30
0.0
 10
61.60640325065743
 20
-80.460894077107
 30
0.0
 10
61.60640325065743
 20
-79.35656871931016
 30
0.0
 10
61.60640325065743
 20
-79.35656871931016
 30
0.0
 10
61.60640325065743
 20
-79.35656871931016
 30
0.0
 10
61.25396998251637
 20
-79.35656871931016
 30
0.0
 10
61.25396998251637
 20
-79.35656871931016
 30
0.0
 10
61.25396998251637
 20
-79.35656871931016
 30
0.0
 10
61.25396998251637
 20
-79.2086018682187
 30
0.0
 10
61.25396998251637
 20
-79.2086018682187
 30
0.0
 10
61.60881481749711
 20
-79.19378795763211
 30
0.0
 10
61.6584241924847
 20
-79.03083494117979
 30
0.0
 10
61.690119070949
 20
-78.91663002584376
 30
0.0
 10
61.690119070949
 20
-78.91663002584376
 30
0.0
 10
61.84618189643082
 20
-78.91663002584376
 30
0.0
 10
61.84618189643082
 20
-78.91663002584376
 30
0.0
 10
61.84618189643082
 20
-78.91663002584376
 30
0.0
 10
61.84618189643082
 20
-80.460894077107
 30
0.0
 10
61.84618189643082
 20
-80.460894077107
 30
0.0
 10
61.84618189643082
 20
-80.460894077107
 30
0.0
 10
61.60640325065743
 20
-80.460894077107
 30
0.0
 10
61.60640325065743
 20
-80.460894077107
 30
0.0
  0
HATCH
  5
D6
330
CF
100
AcDbEntity
  8
_U+30EC_U+30A4_U+30E4_U+30FC 1
 62
     7
420
 16777215
100
AcDbHatch
 10
0.0
 20
0.0
 30
0.0
210
0.0
220
0.0
230
1.0
  2
SOLID
 70
     1
 71
     0
 91
        1
 92
        1
 93
        1
 72
     4
 94
        3
 73
     0
 74
     1
 95
       26
 96
       22
 40
0.0
 40
0.0
 40
0.0
 40
0.0
 40
1.0
 40
1.0
 40
1.0
 40
2.0
 40
2.0
 40
2.0
 40
3.0
 40
3.0
 40
3.0
 40
4.0
 40
4.0
 40
4.0
 40
5.0
 40
5.0
 40
5.0
 40
6.0
 40
6.0
 40
6.0
 40
7.0
 40
7.0
 40
7.0
 40
7.0
 10
61.60640325065743
 20
-80.460894077107
 10
61.60640325065743
 20
-80.460894077107
 10
61.60640325065743
 20
-79.35656871931016
 10
61.60640325065743
 20
-79.35656871931016
 10
61.60640325065743
 20
-79.35656871931016
 10
61.25396998251637
 20
-79.35656871931016
 10
61.25396998251637
 20
-79.35656871931016
 10
61.25396998251637
 20
-79.35656871931016
 10
61.25396998251637
 20
-79.2086018682187
 10
61.25396998251637
 20
-79.2086018682187
 10
61.60881481749711
 20
-79.19378795763211
 10
61.6584241924847
 20
-79.03083494117979
 10
61.690119070949
 20
-78.91663002584376
 10
61.690119070949
 20
-78.91663002584376
 10
61.84618189643082
 20
-78.91663002584376
 10
61.84618189643082
 20
-78.91663002584376
 10
61.84618189643082
 20
-78.91663002584376
 10
61.84618189643082
 20
-80.460894077107
 10
61.84618189643082
 20
-80.460894077107
 10
61.84618189643082
 20
-80.460894077107
 10
61.60640325065743
 20
-80.460894077107
 10
61.60640325065743
 20
-80.460894077107
 97
        0
 97
        0
 75
     2
 76
     1
 98
        0
  0
ENDBLK
  5
D2
330
CF
100
AcDbEntity
  8
0
100
AcDbBlockEnd
  0
BLOCK
  5
E5
330
E3
100
AcDbEntity
  8
0
100
AcDbBlockBegin
  2
block 6
 70
     0
 10
0.0
 20
0.0
 30
0.0
  3
block 6
  1

  0
SPLINE
  5
E7
330
E3
100
AcDbEntity
  8
_U+30EC_U+30A4_U+30E4_U+30FC 1
370
     0
100
AcDbSpline
210
0.0
220
0.0
230
1.0
 70
    11
 71
     3
 72
    32
 73
    28
 74
     0
 42
0.0000000001
 43
0.0000000001
 12
1.0
 22
0.0
 32
0.0
 13
1.0
 23
0.0
 33
0.0
 40
0.0
 40
0.0
 40
0.0
 40
0.0
 40
1.0
 40
1.0
 40
1.0
 40
2.0
 40
2.0
 40
2.0
 40
3.0
 40
3.0
 40
3.0
 40
4.0
 40
4.0
 40
4.0
 40
5.0
 40
5.0
 40
5.0
 40
6.0
 40
6.0
 40
6.0
 40
7.0
 40
7.0
 40
7.0
 40
8.0
 40
8.0
 40
8.0
 40
9.0
 40
9.0
 40
9.0
 40
9.0
 10
53.5343722739428
 20
-98.81188419838732
 30
0.0
 10
52.98264023198004
 20
-98.81188419838732
 30
0.0
 10
52.97368298371839
 20
-98.25791284435914
 30
0.0
 10
52.97368298371839
 20
-98.04397241472512
 30
0.0
 10
52.97368298371839
 20
-97.81349552676191
 30
0.0
 10
52.99400904708136
 20
-97.16616208508347
 30
0.0
 10
53.57502440066875
 20
-97.16616208508347
 30
0.0
 10
53.76054279254945
 20
-97.16616208508347
 30
0.0
 10
54.02271455897696
 20
-97.23609752343404
 30
0.0
 10
54.06336668570291
 20
-97.56820472821212
 30
0.0
 10
54.06336668570291
 20
-97.56820472821212
 30
0.0
 10
53.83512910980511
 20
-97.56820472821212
 30
0.0
 10
53.83512910980511
 20
-97.56820472821212
 30
0.0
 10
53.82376029470378
 20
-97.51101614315698
 30
0.0
 10
53.78982610417408
 20
-97.36287703729123
 30
0.0
 10
53.57278508860333
 20
-97.36287703729123
 30
0.0
 10
53.26083169241396
 20
-97.36287703729123
 30
0.0
 10
53.2179402536226
 20
-97.69085012748701
 30
0.0
 10
53.20433212645587
 20
-97.89583330885938
 30
0.0
 10
53.30372313120532
 20
-97.81762964134421
 30
0.0
 10
53.37607013639557
 20
-97.75837399899791
 30
0.0
 10
53.57054577653792
 20
-97.75837399899791
 30
0.0
 10
53.76278210461486
 20
-97.75837399899791
 30
0.0
 10
54.08610431590556
 20
-97.86654999723476
 30
0.0
 10
54.08610431590556
 20
-98.27272675494571
 30
0.0
 10
54.08610431590556
 20
-98.59208710642837
 30
0.0
 10
53.87354192446564
 20
-98.81188419838732
 30
0.0
 10
53.5343722739428
 20
-98.81188419838732
 30
0.0
  0
SPLINE
  5
E8
330
E3
100
AcDbEntity
  8
_U+30EC_U+30A4_U+30E4_U+30FC 1
370
     0
100
AcDbSpline
210
0.0
220
0.0
230
1.0
 70
    11
 71
     3
 72
    17
 73
    13
 74
     0
 42
0.0000000001
 43
0.0000000001
 12
1.0
 22
0.0
 32
0.0
 13
1.0
 23
0.0
 33
0.0
 40
0.0
 40
0.0
 40
0.0
 40
0.0
 40
1.0
 40
1.0
 40
1.0
 40
2.0
 40
2.0
 40
2.0
 40
3.0
 40
3.0
 40
3.0
 40
4.0
 40
4.0
 40
4.0
 40
4.0
 10
53.55245902524036
 20
-97.95302189391452
 30
0.0
 10
53.27202825274102
 20
-97.95302189391452
 30
0.0
 10
53.23137612601508
 20
-98.16455075670886
 30
0.0
 10
53.23137612601508
 20
-98.28099498411031
 30
0.0
 10
53.23137612601508
 20
-98.45669485385805
 30
0.0
 10
53.33317869760421
 20
-98.61964787031037
 30
0.0
 10
53.52989364981197
 20
-98.61964787031037
 30
0.0
 10
53.65874022096032
 20
-98.61964787031037
 30
0.0
 10
53.84632567013217
 20
-98.56039222796407
 30
0.0
 10
53.84632567013217
 20
-98.27479381223687
 30
0.0
 10
53.84632567013217
 20
-98.0505180961471
 30
0.0
 10
53.69715303562085
 20
-97.95302189391452
 30
0.0
 10
53.55245902524036
 20
-97.95302189391452
 30
0.0
  0
HATCH
  5
E9
330
E3
100
AcDbEntity
  8
_U+30EC_U+30A4_U+30E4_U+30FC 1
 62
     7
420
 16777215
100
AcDbHatch
 10
0.0
 20
0.0
 30
0.0
210
0.0
220
0.0
230
1.0
  2
SOLID
 70
     1
 71
     0
 91
        2
 92
        1
 93
        1
 72
     4
 94
        3
 73
     0
 74
     1
 95
       32
 96
       28
 40
0.0
 40
0.0
 40
0.0
 40
0.0
 40
1.0
 40
1.0
 40
1.0
 40
2.0
 40
2.0
 40
2.0
 40
3.0
 40
3.0
 40
3.0
 40
4.0
 40
4.0
 40
4.0
 40
5.0
 40
5.0
 40
5.0
 40
6.0
 40
6.0
 40
6.0
 40
7.0
 40
7.0
 40
7.0
 40
8.0
 40
8.0
 40
8.0
 40
9.0
 40
9.0
 40
9.0
 40
9.0
 10
53.5343722739428
 20
-98.81188419838732
 10
52.98264023198004
 20
-98.81188419838732
 10
52.97368298371839
 20
-98.25791284435914
 10
52.97368298371839
 20
-98.04397241472512
 10
52.97368298371839
 20
-97.81349552676191
 10
52.99400904708136
 20
-97.16616208508347
 10
53.57502440066875
 20
-97.16616208508347
 10
53.76054279254945
 20
-97.16616208508347
 10
54.02271455897696
 20
-97.23609752343404
 10
54.06336668570291
 20
-97.56820472821212
 10
54.06336668570291
 20
-97.56820472821212
 10
53.83512910980511
 20
-97.56820472821212
 10
53.83512910980511
 20
-97.56820472821212
 10
53.82376029470378
 20
-97.51101614315698
 10
53.78982610417408
 20
-97.36287703729123
 10
53.57278508860333
 20
-97.36287703729123
 10
53.26083169241396
 20
-97.36287703729123
 10
53.2179402536226
 20
-97.69085012748701
 10
53.20433212645587
 20
-97.89583330885938
 10
53.30372313120532
 20
-97.81762964134421
 10
53.37607013639557
 20
-97.75837399899791
 10
53.57054577653792
 20
-97.75837399899791
 10
53.76278210461486
 20
-97.75837399899791
 10
54.08610431590556
 20
-97.86654999723476
 10
54.08610431590556
 20
-98.27272675494571
 10
54.08610431590556
 20
-98.59208710642837
 10
53.87354192446564
 20
-98.81188419838732
 10
53.5343722739428
 20
-98.81188419838732
 97
        0
 97
        0
 92
        1
 93
        1
 72
     4
 94
        3
 73
     0
 74
     1
 95
       17
 96
       13
 40
0.0
 40
0.0
 40
0.0
 40
0.0
 40
1.0
 40
1.0
 40
1.0
 40
2.0
 40
2.0
 40
2.0
 40
3.0
 40
3.0
 40
3.0
 40
4.0
 40
4.0
 40
4.0
 40
4.0
 10
53.55245902524036
 20
-97.95302189391452
 10
53.27202825274102
 20
-97.95302189391452
 10
53.23137612601508
 20
-98.16455075670886
 10
53.23137612601508
 20
-98.28099498411031
 10
53.23137612601508
 20
-98.45669485385805
 10
53.33317869760421
 20
-98.61964787031037
 10
53.52989364981197
 20
-98.61964787031037
 10
53.65874022096032
 20
-98.61964787031037
 10
53.84632567013217
 20
-98.56039222796407
 10
53.84632567013217
 20
-98.27479381223687
 10
53.84632567013217
 20
-98.0505180961471
 10
53.69715303562085
 20
-97.95302189391452
 10
53.55245902524036
 20
-97.95302189391452
 97
        0
 97
        0
 75
     2
 76
     1
 98
        0
  0
ENDBLK
  5
E6
330
E3
100
AcDbEntity
  8
0
100
AcDbBlockEnd
  0
ENDSEC
  0
SECTION
  2
ENTITIES
  0
POLYLINE
  5
41
330
1F
100
AcDbEntity
  8
_U+30EC_U+30A4_U+30E4_U+30FC 1
 62
     7
420
 16777215
370
    25
100
AcDb2dPolyline
 66
     1
 10
0.0
 20
0.0
 30
0.0
  0
VERTEX
  5
42
330
41
100
AcDbEntity
  8
_U+30EC_U+30A4_U+30E4_U+30FC 1
 62
     7
420
 16777215
370
    25
100
AcDbVertex
100
AcDb2dVertex
 10
50.53008843309227
 20
-85.81266525632451
 30
0.0
  0
VERTEX
  5
43
330
41
100
AcDbEntity
  8
_U+30EC_U+30A4_U+30E4_U+30FC 1
 62
     7
420
 16777215
370
    25
100
AcDbVertex
100
AcDb2dVertex
 10
71.52982011956671
 20
-85.81266525632451
 30
0.0
  0
SEQEND
  5
44
330
41
100
AcDbEntity
  8
_U+30EC_U+30A4_U+30E4_U+30FC 1
 62
     7
420
 16777215
370
    25
  0
POLYLINE
  5
45
330
1F
100
AcDbEntity
  8
_U+30EC_U+30A4_U+30E4_U+30FC 1
 62
     7
420
 16777215
370
    25
100
AcDb2dPolyline
 66
     1
 10
0.0
 20
0.0
 30
0.0
  0
VERTEX
  5
46
330
45
100
AcDbEntity
  8
_U+30EC_U+30A4_U+30E4_U+30FC 1
 62
     7
420
 16777215
370
    25
100
AcDbVertex
100
AcDb2dVertex
 10
51.33001202379562
 20
-86.61280053390233
 30
0.0
  0
VERTEX
  5
47
330
45
100
AcDbEntity
  8
_U+30EC_U+30A4_U+30E4_U+30FC 1
 62
     7
420
 16777215
370
    25
100
AcDbVertex
100
AcDb2dVertex
 10
71.52982011956671
 20
-86.61280053390233
 30
0.0
  0
SEQEND
  5
48
330
45
100
AcDbEntity
  8
_U+30EC_U+30A4_U+30E4_U+30FC 1
 62
     7
420
 16777215
370
    25
  0
POLYLINE
  5
49
330
1F
100
AcDbEntity
  8
_U+30EC_U+30A4_U+30E4_U+30FC 1
 62
     7
420
 16777215
370
    25
100
AcDb2dPolyline
 66
     1
 10
0.0
 20
0.0
 30
0.0
  0
VERTEX
  5
4A
330
49
100
AcDbEntity
  8
_U+30EC_U+30A4_U+30E4_U+30FC 1
 62
     7
420
 16777215
370
    25
100
AcDbVertex
100
AcDb2dVertex
 10
71.52982011956671
 20
-85.81266525632451
 30
0.0
  0
VERTEX
  5
4B
330
49
100
AcDbEntity
  8
_U+30EC_U+30A4_U+30E4_U+30FC 1
 62
     7
420
 16777215
370
    25
100
AcDbVertex
100
AcDb2dVertex
 10
71.52982011956671
 20
-86.61280053390233
 30
0.0
  0
SEQEND
  5
4C
330
49
100
AcDbEntity
  8
_U+30EC_U+30A4_U+30E4_U+30FC 1
 62
     7
420
 16777215
370
    25
  0
POLYLINE
  5
4D
330
1F
100
AcDbEntity
  8
_U+30EC_U+30A4_U+30E4_U+30FC 1
 62
     7
420
 16777215
370
    25
100
AcDb2dPolyline
 66
     1
 10
0.0
 20
0.0
 30
0.0
  0
VERTEX
  5
4E
330
4D
100
AcDbEntity
  8
_U+30EC_U+30A4_U+30E4_U+30FC 1
 62
     7
420
 16777215
370
    25
100
AcDbVertex
100
AcDb2dVertex
 10
50.53008843309227
 20
-85.81266525632451
 30
0.0
  0
VERTEX
  5
4F
330
4D
100
AcDbEntity
  8
_U+30EC_U+30A4_U+30E4_U+30FC 1
 62
     7
420
 16777215
370
    25
100
AcDbVertex
100
AcDb2dVertex
 10
50.53008843309227
 20
-96.11300025374939
 30
0.0
  0
SEQEND
  5
50
330
4D
100
AcDbEntity
  8
_U+30EC_U+30A4_U+30E4_U+30FC 1
 62
     7
420
 16777215
370
    25
  0
POLYLINE
  5
51
330
1F
100
AcDbEntity
  8
_U+30EC_U+30A4_U+30E4_U+30FC 1
 62
     7
420
 16777215
370
    25
100
AcDb2dPolyline
 66
     1
 10
0.0
 20
0.0
 30
0.0
  0
VERTEX
  5
52
330
51
100
AcDbEntity
  8
_U+30EC_U+30A4_U+30E4_U+30FC 1
 62
     7
420
 16777215
370
    25
100
AcDbVertex
100
AcDb2dVertex
 10
51.33001202379562
 20
-86.61280053390233
 30
0.0
  0
VERTEX
  5
53
330
51
100
AcDbEntity
  8
_U+30EC_U+30A4_U+30E4_U+30FC 1
 62
     7
420
 16777215
370
    25
100
AcDbVertex
100
AcDb2dVertex
 10
51.33001202379562
 20
-95.31304136506077
 30
0.0
  0
SEQEND
  5
54
330
51
100
AcDbEntity
  8
_U+30EC_U+30A4_U+30E4_U+30FC 1
 62
     7
420
 16777215
370
    25
  0
POLYLINE
  5
55
330
1F
100
AcDbEntity
  8
_U+30EC_U+30A4_U+30E4_U+30FC 1
 62
     7
420
 16777215
370
    25
100
AcDb2dPolyline
 66
     1
 10
0.0
 20
0.0
 30
0.0
  0
VERTEX
  5
56
330
55
100
AcDbEntity
  8
_U+30EC_U+30A4_U+30E4_U+30FC 1
 62
     7
420
 16777215
370
    25
100
AcDbVertex
100
AcDb2dVertex
 10
54.52998860882409
 20
-93.11301331005505
 30
0.0
  0
VERTEX
  5
57
330
55
100
AcDbEntity
  8
_U+30EC_U+30A4_U+30E4_U+30FC 1
 62
     7
420
 16777215
370
    25
100
AcDbVertex
100
AcDb2dVertex
 10
56.53006216890908
 20
-93.11301331005505
 30
0.0
  0
SEQEND
  5
58
330
55
100
AcDbEntity
  8
_U+30EC_U+30A4_U+30E4_U+30FC 1
 62
     7
420
 16777215
370
    25
  0
POLYLINE
  5
59
330
1F
100
AcDbEntity
  8
_U+30EC_U+30A4_U+30E4_U+30FC 1
 62
     7
420
 16777215
370
    25
100
AcDb2dPolyline
 66
     1
 10
0.0
 20
0.0
 30
0.0
  0
VERTEX
  5
5A
330
59
100
AcDbEntity
  8
_U+30EC_U+30A4_U+30E4_U+30FC 1
 62
     7
420
 16777215
370
    25
100
AcDbVertex
100
AcDb2dVertex
 10
50.53008843309227
 20
-96.11300025374939
 30
0.0
  0
VERTEX
  5
5B
330
59
100
AcDbEntity
  8
_U+30EC_U+30A4_U+30E4_U+30FC 1
 62
     7
420
 16777215
370
    25
100
AcDbVertex
100
AcDb2dVertex
 10
56.53006216890908
 20
-96.11300025374939
 30
0.0
  0
SEQEND
  5
5C
330
59
100
AcDbEntity
  8
_U+30EC_U+30A4_U+30E4_U+30FC 1
 62
     7
420
 16777215
370
    25
  0
POLYLINE
  5
5D
330
1F
100
AcDbEntity
  8
_U+30EC_U+30A4_U+30E4_U+30FC 1
 62
     7
420
 16777215
370
    25
100
AcDb2dPolyline
 66
     1
 10
0.0
 20
0.0
 30
0.0
  0
VERTEX
  5
5E
330
5D
100
AcDbEntity
  8
_U+30EC_U+30A4_U+30E4_U+30FC 1
 62
     7
420
 16777215
370
    25
100
AcDbVertex
100
AcDb2dVertex
 10
56.53006216890908
 20
-93.11301331005505
 30
0.0
  0
VERTEX
  5
5F
330
5D
100
AcDbEntity
  8
_U+30EC_U+30A4_U+30E4_U+30FC 1
 62
     7
420
 16777215
370
    25
100
AcDbVertex
100
AcDb2dVertex
 10
56.53006216890908
 20
-96.11300025374939
 30
0.0
  0
SEQEND
  5
60
330
5D
100
AcDbEntity
  8
_U+30EC_U+30A4_U+30E4_U+30FC 1
 62
     7
420
 16777215
370
    25
  0
POLYLINE
  5
61
330
1F
100
AcDbEntity
  8
_U+30EC_U+30A4_U+30E4_U+30FC 1
 62
     7
420
 16777215
370
    25
100
AcDb2dPolyline
 66
     1
 10
0.0
 20
0.0
 30
0.0
  0
VERTEX
  5
62
330
61
100
AcDbEntity
  8
_U+30EC_U+30A4_U+30E4_U+30FC 1
 62
     7
420
 16777215
370
    25
100
AcDbVertex
100
AcDb2dVertex
 10
54.52998860882409
 20
-93.11301331005505
 30
0.0
  0
VERTEX
  5
63
330
61
100
AcDbEntity
  8
_U+30EC_U+30A4_U+30E4_U+30FC 1
 62
     7
420
 16777215
370
    25
100
AcDbVertex
100
AcDb2dVertex
 10
54.52998860882409
 20
-93.91297219874367
 30
0.0
  0
SEQEND
  5
64
330
61
100
AcDbEntity
  8
_U+30EC_U+30A4_U+30E4_U+30FC 1
 62
     7
420
 16777215
370
    25
  0
POLYLINE
  5
65
330
1F
100
AcDbEntity
  8
_U+30EC_U+30A4_U+30E4_U+30FC 1
 62
     7
420
 16777215
370
    25
100
AcDb2dPolyline
 66
     1
 10
0.0
 20
0.0
 30
0.0
  0
VERTEX
  5
66
330
65
100
AcDbEntity
  8
_U+30EC_U+30A4_U+30E4_U+30FC 1
 62
     7
420
 16777215
370
    25
100
AcDbVertex
100
AcDb2dVertex
 10
51.33001202379562
 20
-95.31304136506077
 30
0.0
  0
VERTEX
  5
67
330
65
100
AcDbEntity
  8
_U+30EC_U+30A4_U+30E4_U+30FC 1
 62
     7
420
 16777215
370
    25
100
AcDbVertex
100
AcDb2dVertex
 10
55.73010330042884
 20
-95.31304136506077
 30
0.0
  0
SEQEND
  5
68
330
65
100
AcDbEntity
  8
_U+30EC_U+30A4_U+30E4_U+30FC 1
 62
     7
420
 16777215
370
    25
  0
POLYLINE
  5
69
330
1F
100
AcDbEntity
  8
_U+30EC_U+30A4_U+30E4_U+30FC 1
 62
     7
420
 16777215
370
    25
100
AcDb2dPolyline
 66
     1
 10
0.0
 20
0.0
 30
0.0
  0
VERTEX
  5
6A
330
69
100
AcDbEntity
  8
_U+30EC_U+30A4_U+30E4_U+30FC 1
 62
     7
420
 16777215
370
    25
100
AcDbVertex
100
AcDb2dVertex
 10
55.73010330042884
 20
-93.91297219874367
 30
0.0
  0
VERTEX
  5
6B
330
69
100
AcDbEntity
  8
_U+30EC_U+30A4_U+30E4_U+30FC 1
 62
     7
420
 16777215
370
    25
100
AcDbVertex
100
AcDb2dVertex
 10
55.73010330042884
 20
-95.31304136506077
 30
0.0
  0
SEQEND
  5
6C
330
69
100
AcDbEntity
  8
_U+30EC_U+30A4_U+30E4_U+30FC 1
 62
     7
420
 16777215
370
    25
  0
POLYLINE
  5
6D
330
1F
100
AcDbEntity
  8
_U+30EC_U+30A4_U+30E4_U+30FC 1
 62
     7
420
 16777215
370
    25
100
AcDb2dPolyline
 66
     1
 10
0.0
 20
0.0
 30
0.0
  0
VERTEX
  5
6E
330
6D
100
AcDbEntity
  8
_U+30EC_U+30A4_U+30E4_U+30FC 1
 62
     7
420
 16777215
370
    25
100
AcDbVertex
100
AcDb2dVertex
 10
54.52998860882409
 20
-93.91297219874367
 30
0.0
  0
VERTEX
  5
6F
330
6D
100
AcDbEntity
  8
_U+30EC_U+30A4_U+30E4_U+30FC 1
 62
     7
420
 16777215
370
    25
100
AcDbVertex
100
AcDb2dVertex
 10
55.73010330042884
 20
-93.91297219874367
 30
0.0
  0
SEQEND
  5
70
330
6D
100
AcDbEntity
  8
_U+30EC_U+30A4_U+30E4_U+30FC 1
 62
     7
420
 16777215
370
    25
  0
SPLINE
  5
71
330
1F
100
AcDbEntity
  8
_U+30EC_U+30A4_U+30E4_U+30FC 1
 62
     7
420
 16777215
370
     9
100
AcDbSpline
210
0.0
220
0.0
230
1.0
 70
    11
 71
     3
 72
    17
 73
    13
 74
     0
 42
0.0000000001
 43
0.0000000001
 12
1.0
 22
0.0
 32
0.0
 13
1.0
 23
0.0
 33
0.0
 40
0.0
 40
0.0
 40
0.0
 40
0.0
 40
1.0
 40
1.0
 40
1.0
 40
2.0
 40
2.0
 40
2.0
 40
3.0
 40
3.0
 40
3.0
 40
4.0
 40
4.0
 40
4.0
 40
4.0
 10
75.63019140384641
 20
-85.81266525632451
 30
0.0
 10
75.63019140384641
 20
-85.7575613674496
 30
0.0
 10
75.58538862721164
 20
-85.71275858968286
 30
0.0
 10
75.53028473972857
 20
-85.71275858968286
 30
0.0
 10
75.47514557446861
 20
-85.71275858968286
 30
0.0
 10
75.43037807561073
 20
-85.7575613674496
 30
0.0
 10
75.43037807561073
 20
-85.81266525632451
 30
0.0
 10
75.43037807561073
 20
-85.86847470075494
 30
0.0
 10
75.47514557446861
 20
-85.91327747852166
 30
0.0
 10
75.53028473972857
 20
-85.91327747852166
 30
0.0
 10
75.58538862721164
 20
-85.91327747852166
 30
0.0
 10
75.63019140384641
 20
-85.86847470075494
 30
0.0
 10
75.63019140384641
 20
-85.81266525632451
 30
0.0
  0
SPLINE
  5
72
330
1F
100
AcDbEntity
  8
_U+30EC_U+30A4_U+30E4_U+30FC 1
 62
     7
420
 16777215
370
     9
100
AcDbSpline
210
0.0
220
0.0
230
1.0
 70
    11
 71
     3
 72
    17
 73
    13
 74
     0
 42
0.0000000001
 43
0.0000000001
 12
1.0
 22
0.0
 32
0.0
 13
1.0
 23
0.0
 33
0.0
 40
0.0
 40
0.0
 40
0.0
 40
0.0
 40
1.0
 40
1.0
 40
1.0
 40
2.0
 40
2.0
 40
2.0
 40
3.0
 40
3.0
 40
3.0
 40
4.0
 40
4.0
 40
4.0
 40
4.0
 10
75.63019140384641
 20
-86.61280053390233
 30
0.0
 10
75.63019140384641
 20
-86.5576966450271
 30
0.0
 10
75.58538862721164
 20
-86.5128938672607
 30
0.0
 10
75.53028473972857
 20
-86.5128938672607
 30
0.0
 10
75.47514557446861
 20
-86.5128938672607
 30
0.0
 10
75.43037807561073
 20
-86.5576966450271
 30
0.0
 10
75.43037807561073
 20
-86.61280053390233
 30
0.0
 10
75.43037807561073
 20
-86.66860997833277
 30
0.0
 10
75.47514557446861
 20
-86.71341275609949
 30
0.0
 10
75.53028473972857
 20
-86.71341275609949
 30
0.0
 10
75.58538862721164
 20
-86.71341275609949
 30
0.0
 10
75.63019140384641
 20
-86.66860997833277
 30
0.0
 10
75.63019140384641
 20
-86.61280053390233
 30
0.0
  0
SPLINE
  5
73
330
1F
100
AcDbEntity
  8
_U+30EC_U+30A4_U+30E4_U+30FC 1
 62
     7
420
 16777215
370
     9
100
AcDbSpline
210
0.0
220
0.0
230
1.0
 70
    11
 71
     3
 72
    17
 73
    13
 74
     0
 42
0.0000000001
 43
0.0000000001
 12
1.0
 22
0.0
 32
0.0
 13
1.0
 23
0.0
 33
0.0
 40
0.0
 40
0.0
 40
0.0
 40
0.0
 40
1.0
 40
1.0
 40
1.0
 40
2.0
 40
2.0
 40
2.0
 40
3.0
 40
3.0
 40
3.0
 40
4.0
 40
4.0
 40
4.0
 40
4.0
 10
71.6304323392221
 20
-81.81290609065795
 30
0.0
 10
71.6304323392221
 20
-81.75780220178271
 30
0.0
 10
71.58562956258733
 20
-81.7129994240163
 30
0.0
 10
71.52982011956671
 20
-81.7129994240163
 30
0.0
 10
71.47471623208364
 20
-81.7129994240163
 30
0.0
 10
71.42991345544887
 20
-81.75780220178271
 30
0.0
 10
71.42991345544887
 20
-81.81290609065795
 30
0.0
 10
71.42991345544887
 20
-81.8680452573107
 30
0.0
 10
71.47471623208364
 20
-81.91281275729958
 30
0.0
 10
71.52982011956671
 20
-81.91281275729958
 30
0.0
 10
71.58562956258733
 20
-81.91281275729958
 30
0.0
 10
71.6304323392221
 20
-81.8680452573107
 30
0.0
 10
71.6304323392221
 20
-81.81290609065795
 30
0.0
  0
SPLINE
  5
74
330
1F
100
AcDbEntity
  8
_U+30EC_U+30A4_U+30E4_U+30FC 1
 62
     7
420
 16777215
370
     9
100
AcDbSpline
210
0.0
220
0.0
230
1.0
 70
    11
 71
     3
 72
    17
 73
    13
 74
     0
 42
0.0000000001
 43
0.0000000001
 12
1.0
 22
0.0
 32
0.0
 13
1.0
 23
0.0
 33
0.0
 40
0.0
 40
0.0
 40
0.0
 40
0.0
 40
1.0
 40
1.0
 40
1.0
 40
2.0
 40
2.0
 40
2.0
 40
3.0
 40
3.0
 40
3.0
 40
4.0
 40
4.0
 40
4.0
 40
4.0
 10
56.63032161079569
 20
-100.1127594194163
 30
0.0
 10
56.63032161079569
 20
-100.0576202527632
 30
0.0
 10
56.58551883416092
 20
-100.0128527527746
 30
0.0
 10
56.53006216890908
 20
-100.0128527527746
 30
0.0
 10
56.47492300364912
 20
-100.0128527527746
 30
0.0
 10
56.43015550479124
 20
-100.0576202527632
 30
0.0
 10
56.43015550479124
 20
-100.1127594194163
 30
0.0
 10
56.43015550479124
 20
-100.1678633082912
 30
0.0
 10
56.47492300364912
 20
-100.2126660860579
 30
0.0
 10
56.53006216890908
 20
-100.2126660860579
 30
0.0
 10
56.58551883416092
 20
-100.2126660860579
 30
0.0
 10
56.63032161079569
 20
-100.1678633082912
 30
0.0
 10
56.63032161079569
 20
-100.1127594194163
 30
0.0
  0
SPLINE
  5
75
330
1F
100
AcDbEntity
  8
_U+30EC_U+30A4_U+30E4_U+30FC 1
 62
     7
420
 16777215
370
     9
100
AcDbSpline
210
0.0
220
0.0
230
1.0
 70
    11
 71
     3
 72
    17
 73
    13
 74
     0
 42
0.0000000001
 43
0.0000000001
 12
1.0
 22
0.0
 32
0.0
 13
1.0
 23
0.0
 33
0.0
 40
0.0
 40
0.0
 40
0.0
 40
0.0
 40
1.0
 40
1.0
 40
1.0
 40
2.0
 40
2.0
 40
2.0
 40
3.0
 40
3.0
 40
3.0
 40
4.0
 40
4.0
 40
4.0
 40
4.0
 10
50.62999509721011
 20
-100.1127594194163
 30
0.0
 10
50.62999509721011
 20
-100.0576202527632
 30
0.0
 10
50.58519232057534
 20
-100.0128527527746
 30
0.0
 10
50.53008843309227
 20
-100.0128527527746
 30
0.0
 10
50.47494926783232
 20
-100.0128527527746
 30
0.0
 10
50.43018176897444
 20
-100.0576202527632
 30
0.0
 10
50.43018176897444
 20
-100.1127594194163
 30
0.0
 10
50.43018176897444
 20
-100.1678633082912
 30
0.0
 10
50.47494926783232
 20
-100.2126660860579
 30
0.0
 10
50.53008843309227
 20
-100.2126660860579
 30
0.0
 10
50.58519232057534
 20
-100.2126660860579
 30
0.0
 10
50.62999509721011
 20
-100.1678633082912
 30
0.0
 10
50.62999509721011
 20
-100.1127594194163
 30
0.0
  0
SPLINE
  5
76
330
1F
100
AcDbEntity
  8
_U+30EC_U+30A4_U+30E4_U+30FC 1
 62
     7
420
 16777215
370
     9
100
AcDbSpline
210
0.0
220
0.0
230
1.0
 70
    11
 71
     3
 72
    17
 73
    13
 74
     0
 42
0.0000000001
 43
0.0000000001
 12
1.0
 22
0.0
 32
0.0
 13
1.0
 23
0.0
 33
0.0
 40
0.0
 40
0.0
 40
0.0
 40
0.0
 40
1.0
 40
1.0
 40
1.0
 40
2.0
 40
2.0
 40
2.0
 40
3.0
 40
3.0
 40
3.0
 40
4.0
 40
4.0
 40
4.0
 40
4.0
 10
50.62999509721011
 20
-81.81290609065795
 30
0.0
 10
50.62999509721011
 20
-81.75780220178271
 30
0.0
 10
50.58519232057534
 20
-81.7129994240163
 30
0.0
 10
50.53008843309227
 20
-81.7129994240163
 30
0.0
 10
50.47494926783232
 20
-81.7129994240163
 30
0.0
 10
50.43018176897444
 20
-81.75780220178271
 30
0.0
 10
50.43018176897444
 20
-81.81290609065795
 30
0.0
 10
50.43018176897444
 20
-81.8680452573107
 30
0.0
 10
50.47494926783232
 20
-81.91281275729958
 30
0.0
 10
50.53008843309227
 20
-81.91281275729958
 30
0.0
 10
50.58519232057534
 20
-81.91281275729958
 30
0.0
 10
50.62999509721011
 20
-81.8680452573107
 30
0.0
 10
50.62999509721011
 20
-81.81290609065795
 30
0.0
  0
SPLINE
  5
77
330
1F
100
AcDbEntity
  8
_U+30EC_U+30A4_U+30E4_U+30FC 1
 62
     7
420
 16777215
370
     9
100
AcDbSpline
210
0.0
220
0.0
230
1.0
 70
    11
 71
     3
 72
    17
 73
    13
 74
     0
 42
0.0000000001
 43
0.0000000001
 12
1.0
 22
0.0
 32
0.0
 13
1.0
 23
0.0
 33
0.0
 40
0.0
 40
0.0
 40
0.0
 40
0.0
 40
1.0
 40
1.0
 40
1.0
 40
2.0
 40
2.0
 40
2.0
 40
3.0
 40
3.0
 40
3.0
 40
4.0
 40
4.0
 40
4.0
 40
4.0
 10
75.63019140384641
 20
-96.11300025374939
 30
0.0
 10
75.63019140384641
 20
-96.05786108709695
 30
0.0
 10
75.58538862721164
 20
-96.01309358710776
 30
0.0
 10
75.53028473972857
 20
-96.01309358710776
 30
0.0
 10
75.47514557446861
 20
-96.01309358710776
 30
0.0
 10
75.43037807561073
 20
-96.05786108709695
 30
0.0
 10
75.43037807561073
 20
-96.11300025374939
 30
0.0
 10
75.43037807561073
 20
-96.16810414262495
 30
0.0
 10
75.47514557446861
 20
-96.21290692039103
 30
0.0
 10
75.53028473972857
 20
-96.21290692039103
 30
0.0
 10
75.58538862721164
 20
-96.21290692039103
 30
0.0
 10
75.63019140384641
 20
-96.16810414262495
 30
0.0
 10
75.63019140384641
 20
-96.11300025374939
 30
0.0
  0
SPLINE
  5
78
330
1F
100
AcDbEntity
  8
_U+30EC_U+30A4_U+30E4_U+30FC 1
 62
     7
420
 16777215
370
     9
100
AcDbSpline
210
0.0
220
0.0
230
1.0
 70
    11
 71
     3
 72
    17
 73
    13
 74
     0
 42
0.0000000001
 43
0.0000000001
 12
1.0
 22
0.0
 32
0.0
 13
1.0
 23
0.0
 33
0.0
 40
0.0
 40
0.0
 40
0.0
 40
0.0
 40
1.0
 40
1.0
 40
1.0
 40
2.0
 40
2.0
 40
2.0
 40
3.0
 40
3.0
 40
3.0
 40
4.0
 40
4.0
 40
4.0
 40
4.0
 10
75.63019140384641
 20
-93.11301331005505
 30
0.0
 10
75.63019140384641
 20
-93.05787414340197
 30
0.0
 10
75.58538862721164
 20
-93.01310664341341
 30
0.0
 10
75.53028473972857
 20
-93.01310664341341
 30
0.0
 10
75.47514557446861
 20
-93.01310664341341
 30
0.0
 10
75.43037807561073
 20
-93.05787414340197
 30
0.0
 10
75.43037807561073
 20
-93.11301331005505
 30
0.0
 10
75.43037807561073
 20
-93.16811719892996
 30
0.0
 10
75.47514557446861
 20
-93.21291997669668
 30
0.0
 10
75.53028473972857
 20
-93.21291997669668
 30
0.0
 10
75.58538862721164
 20
-93.21291997669668
 30
0.0
 10
75.63019140384641
 20
-93.16811719892996
 30
0.0
 10
75.63019140384641
 20
-93.11301331005505
 30
0.0
  0
POLYLINE
  5
79
330
1F
100
AcDbEntity
  8
_U+30EC_U+30A4_U+30E4_U+30FC 1
 62
     7
420
 16777215
370
     9
100
AcDb2dPolyline
 66
     1
 10
0.0
 20
0.0
 30
0.0
  0
VERTEX
  5
7A
330
79
100
AcDbEntity
  8
_U+30EC_U+30A4_U+30E4_U+30FC 1
 62
     7
420
 16777215
370
     9
100
AcDbVertex
100
AcDb2dVertex
 10
75.53028473972857
 20
-85.81266525632451
 30
0.0
  0
VERTEX
  5
7B
330
79
100
AcDbEntity
  8
_U+30EC_U+30A4_U+30E4_U+30FC 1
 62
     7
420
 16777215
370
     9
100
AcDbVertex
100
AcDb2dVertex
 10
75.53028473972857
 20
-80.55528859097224
 30
0.0
  0
SEQEND
  5
7C
330
79
100
AcDbEntity
  8
_U+30EC_U+30A4_U+30E4_U+30FC 1
 62
     7
420
 16777215
370
     9
  0
POLYLINE
  5
7D
330
1F
100
AcDbEntity
  8
_U+30EC_U+30A4_U+30E4_U+30FC 1
 62
     7
420
 16777215
370
     9
100
AcDb2dPolyline
 66
     1
 10
0.0
 20
0.0
 30
0.0
  0
VERTEX
  5
7E
330
7D
100
AcDbEntity
  8
_U+30EC_U+30A4_U+30E4_U+30FC 1
 62
     7
420
 16777215
370
     9
100
AcDbVertex
100
AcDb2dVertex
 10
75.53028473972857
 20
-85.81266525632451
 30
0.0
  0
VERTEX
  5
7F
330
7D
100
AcDbEntity
  8
_U+30EC_U+30A4_U+30E4_U+30FC 1
 62
     7
420
 16777215
370
     9
100
AcDbVertex
100
AcDb2dVertex
 10
75.53028473972857
 20
-86.61280053390233
 30
0.0
  0
SEQEND
  5
80
330
7D
100
AcDbEntity
  8
_U+30EC_U+30A4_U+30E4_U+30FC 1
 62
     7
420
 16777215
370
     9
  0
POLYLINE
  5
81
330
1F
100
AcDbEntity
  8
_U+30EC_U+30A4_U+30E4_U+30FC 1
 62
     7
420
 16777215
370
     9
100
AcDb2dPolyline
 66
     1
 10
0.0
 20
0.0
 30
0.0
  0
VERTEX
  5
82
330
81
100
AcDbEntity
  8
_U+30EC_U+30A4_U+30E4_U+30FC 1
 62
     7
420
 16777215
370
     9
100
AcDbVertex
100
AcDb2dVertex
 10
74.07024338808844
 20
-85.81266525632451
 30
0.0
  0
VERTEX
  5
83
330
81
100
AcDbEntity
  8
_U+30EC_U+30A4_U+30E4_U+30FC 1
 62
     7
420
 16777215
370
     9
100
AcDbVertex
100
AcDb2dVertex
 10
76.5300216586676
 20
-85.81266525632451
 30
0.0
  0
SEQEND
  5
84
330
81
100
AcDbEntity
  8
_U+30EC_U+30A4_U+30E4_U+30FC 1
 62
     7
420
 16777215
370
     9
  0
POLYLINE
  5
85
330
1F
100
AcDbEntity
  8
_U+30EC_U+30A4_U+30E4_U+30FC 1
 62
     7
420
 16777215
370
     9
100
AcDb2dPolyline
 66
     1
 10
0.0
 20
0.0
 30
0.0
  0
VERTEX
  5
86
330
85
100
AcDbEntity
  8
_U+30EC_U+30A4_U+30E4_U+30FC 1
 62
     7
420
 16777215
370
     9
100
AcDbVertex
100
AcDb2dVertex
 10
74.07024338808844
 20
-86.61280053390233
 30
0.0
  0
VERTEX
  5
87
330
85
100
AcDbEntity
  8
_U+30EC_U+30A4_U+30E4_U+30FC 1
 62
     7
420
 16777215
370
     9
100
AcDbVertex
100
AcDb2dVertex
 10
76.5300216586676
 20
-86.61280053390233
 30
0.0
  0
SEQEND
  5
88
330
85
100
AcDbEntity
  8
_U+30EC_U+30A4_U+30E4_U+30FC 1
 62
     7
420
 16777215
370
     9
  0
INSERT
  5
8A
330
1F
100
AcDbEntity
  8
_U+30EC_U+30A4_U+30E4_U+30FC 1
100
AcDbBlockReference
  2
block 2
 10
0.0
 20
0.0
 30
0.0
  0
POLYLINE
  5
9C
330
1F
100
AcDbEntity
  8
_U+30EC_U+30A4_U+30E4_U+30FC 1
 62
     7
420
 16777215
370
     9
100
AcDb2dPolyline
 66
     1
 10
0.0
 20
0.0
 30
0.0
  0
VERTEX
  5
9D
330
9C
100
AcDbEntity
  8
_U+30EC_U+30A4_U+30E4_U+30FC 1
 62
     7
420
 16777215
370
     9
100
AcDbVertex
100
AcDb2dVertex
 10
75.53028473972857
 20
-93.11301331005505
 30
0.0
  0
VERTEX
  5
9E
330
9C
100
AcDbEntity
  8
_U+30EC_U+30A4_U+30E4_U+30FC 1
 62
     7
420
 16777215
370
     9
100
AcDbVertex
100
AcDb2dVertex
 10
75.53028473972857
 20
-86.61280053390233
 30
0.0
  0
SEQEND
  5
9F
330
9C
100
AcDbEntity
  8
_U+30EC_U+30A4_U+30E4_U+30FC 1
 62
     7
420
 16777215
370
     9
  0
POLYLINE
  5
A0
330
1F
100
AcDbEntity
  8
_U+30EC_U+30A4_U+30E4_U+30FC 1
 62
     7
420
 16777215
370
     9
100
AcDb2dPolyline
 66
     1
 10
0.0
 20
0.0
 30
0.0
  0
VERTEX
  5
A1
330
A0
100
AcDbEntity
  8
_U+30EC_U+30A4_U+30E4_U+30FC 1
 62
     7
420
 16777215
370
     9
100
AcDbVertex
100
AcDb2dVertex
 10
59.07013265966204
 20
-93.11301331005505
 30
0.0
  0
VERTEX
  5
A2
330
A0
100
AcDbEntity
  8
_U+30EC_U+30A4_U+30E4_U+30FC 1
 62
     7
420
 16777215
370
     9
100
AcDbVertex
100
AcDb2dVertex
 10
76.5300216586676
 20
-93.11301331005505
 30
0.0
  0
SEQEND
  5
A3
330
A0
100
AcDbEntity
  8
_U+30EC_U+30A4_U+30E4_U+30FC 1
 62
     7
420
 16777215
370
     9
  0
INSERT
  5
A5
330
1F
100
AcDbEntity
  8
_U+30EC_U+30A4_U+30E4_U+30FC 1
100
AcDbBlockReference
  2
block 3
 10
0.0
 20
0.0
 30
0.0
  0
POLYLINE
  5
B5
330
1F
100
AcDbEntity
  8
_U+30EC_U+30A4_U+30E4_U+30FC 1
 62
     7
420
 16777215
370
     9
100
AcDb2dPolyline
 66
     1
 10
0.0
 20
0.0
 30
0.0
  0
VERTEX
  5
B6
330
B5
100
AcDbEntity
  8
_U+30EC_U+30A4_U+30E4_U+30FC 1
 62
     7
420
 16777215
370
     9
100
AcDbVertex
100
AcDb2dVertex
 10
75.53028473972857
 20
-93.11301331005505
 30
0.0
  0
VERTEX
  5
B7
330
B5
100
AcDbEntity
  8
_U+30EC_U+30A4_U+30E4_U+30FC 1
 62
     7
420
 16777215
370
     9
100
AcDbVertex
100
AcDb2dVertex
 10
75.53028473972857
 20
-96.11300025374939
 30
0.0
  0
SEQEND
  5
B8
330
B5
100
AcDbEntity
  8
_U+30EC_U+30A4_U+30E4_U+30FC 1
 62
     7
420
 16777215
370
     9
  0
POLYLINE
  5
B9
330
1F
100
AcDbEntity
  8
_U+30EC_U+30A4_U+30E4_U+30FC 1
 62
     7
420
 16777215
370
     9
100
AcDb2dPolyline
 66
     1
 10
0.0
 20
0.0
 30
0.0
  0
VERTEX
  5
BA
330
B9
100
AcDbEntity
  8
_U+30EC_U+30A4_U+30E4_U+30FC 1
 62
     7
420
 16777215
370
     9
100
AcDbVertex
100
AcDb2dVertex
 10
59.07013265966204
 20
-96.11300025374939
 30
0.0
  0
VERTEX
  5
BB
330
B9
100
AcDbEntity
  8
_U+30EC_U+30A4_U+30E4_U+30FC 1
 62
     7
420
 16777215
370
     9
100
AcDbVertex
100
AcDb2dVertex
 10
76.5300216586676
 20
-96.11300025374939
 30
0.0
  0
SEQEND
  5
BC
330
B9
100
AcDbEntity
  8
_U+30EC_U+30A4_U+30E4_U+30FC 1
 62
     7
420
 16777215
370
     9
  0
INSERT
  5
BE
330
1F
100
AcDbEntity
  8
_U+30EC_U+30A4_U+30E4_U+30FC 1
100
AcDbBlockReference
  2
block 4
 10
0.0
 20
0.0
 30
0.0
  0
POLYLINE
  5
C3
330
1F
100
AcDbEntity
  8
_U+30EC_U+30A4_U+30E4_U+30FC 1
 62
     7
420
 16777215
370
     9
100
AcDb2dPolyline
 66
     1
 10
0.0
 20
0.0
 30
0.0
  0
VERTEX
  5
C4
330
C3
100
AcDbEntity
  8
_U+30EC_U+30A4_U+30E4_U+30FC 1
 62
     7
420
 16777215
370
     9
100
AcDbVertex
100
AcDb2dVertex
 10
50.53008843309227
 20
-81.81290609065795
 30
0.0
  0
VERTEX
  5
C5
330
C3
100
AcDbEntity
  8
_U+30EC_U+30A4_U+30E4_U+30FC 1
 62
     7
420
 16777215
370
     9
100
AcDbVertex
100
AcDb2dVertex
 10
71.52982011956671
 20
-81.81290609065795
 30
0.0
  0
SEQEND
  5
C6
330
C3
100
AcDbEntity
  8
_U+30EC_U+30A4_U+30E4_U+30FC 1
 62
     7
420
 16777215
370
     9
  0
POLYLINE
  5
C7
330
1F
100
AcDbEntity
  8
_U+30EC_U+30A4_U+30E4_U+30FC 1
 62
     7
420
 16777215
370
     9
100
AcDb2dPolyline
 66
     1
 10
0.0
 20
0.0
 30
0.0
  0
VERTEX
  5
C8
330
C7
100
AcDbEntity
  8
_U+30EC_U+30A4_U+30E4_U+30FC 1
 62
     7
420
 16777215
370
     9
100
AcDbVertex
100
AcDb2dVertex
 10
50.53008843309227
 20
-83.27294747918165
 30
0.0
  0
VERTEX
  5
C9
330
C7
100
AcDbEntity
  8
_U+30EC_U+30A4_U+30E4_U+30FC 1
 62
     7
420
 16777215
370
     9
100
AcDbVertex
100
AcDb2dVertex
 10
50.53008843309227
 20
-80.81299275757469
 30
0.0
  0
SEQEND
  5
CA
330
C7
100
AcDbEntity
  8
_U+30EC_U+30A4_U+30E4_U+30FC 1
 62
     7
420
 16777215
370
     9
  0
POLYLINE
  5
CB
330
1F
100
AcDbEntity
  8
_U+30EC_U+30A4_U+30E4_U+30FC 1
 62
     7
420
 16777215
370
     9
100
AcDb2dPolyline
 66
     1
 10
0.0
 20
0.0
 30
0.0
  0
VERTEX
  5
CC
330
CB
100
AcDbEntity
  8
_U+30EC_U+30A4_U+30E4_U+30FC 1
 62
     7
420
 16777215
370
     9
100
AcDbVertex
100
AcDb2dVertex
 10
71.52982011956671
 20
-83.27294747918165
 30
0.0
  0
VERTEX
  5
CD
330
CB
100
AcDbEntity
  8
_U+30EC_U+30A4_U+30E4_U+30FC 1
 62
     7
420
 16777215
370
     9
100
AcDbVertex
100
AcDb2dVertex
 10
71.52982011956671
 20
-80.81299275757469
 30
0.0
  0
SEQEND
  5
CE
330
CB
100
AcDbEntity
  8
_U+30EC_U+30A4_U+30E4_U+30FC 1
 62
     7
420
 16777215
370
     9
  0
INSERT
  5
D0
330
1F
100
AcDbEntity
  8
_U+30EC_U+30A4_U+30E4_U+30FC 1
100
AcDbBlockReference
  2
block 5
 10
0.0
 20
0.0
 30
0.0
  0
POLYLINE
  5
D7
330
1F
100
AcDbEntity
  8
_U+30EC_U+30A4_U+30E4_U+30FC 1
 62
     7
420
 16777215
370
     9
100
AcDb2dPolyline
 66
     1
 10
0.0
 20
0.0
 30
0.0
  0
VERTEX
  5
D8
330
D7
100
AcDbEntity
  8
_U+30EC_U+30A4_U+30E4_U+30FC 1
 62
     7
420
 16777215
370
     9
100
AcDbVertex
100
AcDb2dVertex
 10
50.53008843309227
 20
-100.1127594194163
 30
0.0
  0
VERTEX
  5
D9
330
D7
100
AcDbEntity
  8
_U+30EC_U+30A4_U+30E4_U+30FC 1
 62
     7
420
 16777215
370
     9
100
AcDbVertex
100
AcDb2dVertex
 10
56.53006216890908
 20
-100.1127594194163
 30
0.0
  0
SEQEND
  5
DA
330
D7
100
AcDbEntity
  8
_U+30EC_U+30A4_U+30E4_U+30FC 1
 62
     7
420
 16777215
370
     9
  0
POLYLINE
  5
DB
330
1F
100
AcDbEntity
  8
_U+30EC_U+30A4_U+30E4_U+30FC 1
 62
     7
420
 16777215
370
     9
100
AcDb2dPolyline
 66
     1
 10
0.0
 20
0.0
 30
0.0
  0
VERTEX
  5
DC
330
DB
100
AcDbEntity
  8
_U+30EC_U+30A4_U+30E4_U+30FC 1
 62
     7
420
 16777215
370
     9
100
AcDbVertex
100
AcDb2dVertex
 10
50.53008843309227
 20
-98.65271803089257
 30
0.0
  0
VERTEX
  5
DD
330
DB
100
AcDbEntity
  8
_U+30EC_U+30A4_U+30E4_U+30FC 1
 62
     7
420
 16777215
370
     9
100
AcDbVertex
100
AcDb2dVertex
 10
50.53008843309227
 20
-101.1125316413888
 30
0.0
  0
SEQEND
  5
DE
330
DB
100
AcDbEntity
  8
_U+30EC_U+30A4_U+30E4_U+30FC 1
 62
     7
420
 16777215
370
     9
  0
POLYLINE
  5
DF
330
1F
100
AcDbEntity
  8
_U+30EC_U+30A4_U+30E4_U+30FC 1
 62
     7
420
 16777215
370
     9
100
AcDb2dPolyline
 66
     1
 10
0.0
 20
0.0
 30
0.0
  0
VERTEX
  5
E0
330
DF
100
AcDbEntity
  8
_U+30EC_U+30A4_U+30E4_U+30FC 1
 62
     7
420
 16777215
370
     9
100
AcDbVertex
100
AcDb2dVertex
 10
56.53006216890908
 20
-98.65271803089257
 30
0.0
  0
VERTEX
  5
E1
330
DF
100
AcDbEntity
  8
_U+30EC_U+30A4_U+30E4_U+30FC 1
 62
     7
420
 16777215
370
     9
100
AcDbVertex
100
AcDb2dVertex
 10
56.53006216890908
 20
-101.1125316413888
 30
0.0
  0
SEQEND
  5
E2
330
DF
100
AcDbEntity
  8
_U+30EC_U+30A4_U+30E4_U+30FC 1
 62
     7
420
 16777215
370
     9
  0
INSERT
  5
E4
330
1F
100
AcDbEntity
  8
_U+30EC_U+30A4_U+30E4_U+30FC 1
100
AcDbBlockReference
  2
block 6
 10
0.0
 20
0.0
 30
0.0
  0
ENDSEC
  0
SECTION
  2
OBJECTS
  0
DICTIONARY
  5
C
330
0
100
AcDbDictionary
281
     1
  3
ACAD_GROUP
350
D
  3
ACAD_LAYOUT
350
1A
  3
ACAD_MATERIAL
350
3B
  3
ACAD_MLEADERSTYLE
350
EB
  3
ACAD_MLINESTYLE
350
17
  3
ACAD_PLOTSETTINGS
350
19
  3
ACAD_PLOTSTYLENAME
350
E
  3
ACAD_TABLESTYLE
350
EA
  3
ACAD_VISUALSTYLE
350
2A
  0
SUN
  5
3F
330
29
100
AcDbSun
 90
        1
290
     0
 63
     7
421
 16777215
 40
1.0
291
     1
 91
  2455826
 92
 54000000
292
     0
 70
     2
 71
   256
280
     1
  0
DICTIONARY
  5
D
102
{ACAD_REACTORS
330
C
102
}
330
C
100
AcDbDictionary
281
     1
  0
DICTIONARY
  5
1A
102
{ACAD_REACTORS
330
C
102
}
330
C
100
AcDbDictionary
281
     1
  3
Layout1
350
1E
  3
Layout2
350
26
  3
Model
350
22
  0
DICTIONARY
  5
3B
102
{ACAD_REACTORS
330
C
102
}
330
C
100
AcDbDictionary
281
     1
  3
ByBlock
350
3D
  3
ByLayer
350
3C
  3
Global
350
3E
  0
DICTIONARY
  5
EB
102
{ACAD_REACTORS
330
C
102
}
330
C
100
AcDbDictionary
281
     1
  0
DICTIONARY
  5
17
102
{ACAD_REACTORS
330
C
102
}
330
C
100
AcDbDictionary
281
     1
  3
Standard
350
18
  0
DICTIONARY
  5
19
102
{ACAD_REACTORS
330
C
102
}
330
C
100
AcDbDictionary
281
     1
  0
ACDBDICTIONARYWDFLT
  5
E
102
{ACAD_REACTORS
330
C
102
}
330
C
100
AcDbDictionary
281
     1
  3
Normal
350
F
100
AcDbDictionaryWithDefault
340
F
  0
DICTIONARY
  5
EA
102
{ACAD_REACTORS
330
C
102
}
330
C
100
AcDbDictionary
281
     1
  0
DICTIONARY
  5
2A
102
{ACAD_REACTORS
330
C
102
}
330
C
100
AcDbDictionary
281
     1
  3
2dWireframe
350
2F
  3
3D Hidden
350
31
  3
3dWireframe
350
30
  3
Basic
350
32
  3
Brighten
350
36
  3
ColorChange
350
3A
  3
Conceptual
350
34
  3
Dim
350
35
  3
Facepattern
350
39
  3
Flat
350
2B
  3
FlatWithEdges
350
2C
  3
Gouraud
350
2D
  3
GouraudWithEdges
350
2E
  3
Linepattern
350
38
  3
Realistic
350
33
  3
Thicken
350
37
  0
LAYOUT
  5
1E
102
{ACAD_REACTORS
330
1A
102
}
330
1A
100
AcDbPlotSettings
  1

  2
none_device
  4

  6

 40
0.0
 41
0.0
 42
0.0
 43
0.0
 44
0.0
 45
0.0
 46
0.0
 47
0.0
 48
0.0
 49
0.0
140
0.0
141
0.0
142
1.0
143
1.0
 70
   688
 72
     0
 73
     0
 74
     5
  7

 75
    16
 76
     0
 77
     2
 78
   300
147
1.0
148
0.0
149
0.0
100
AcDbLayout
  1
Layout1
 70
     1
 71
     1
 10
0.0
 20
0.0
 11
12.0
 21
9.0
 12
0.0
 22
0.0
 32
0.0
 14
1.000000000000000E+20
 24
1.000000000000000E+20
 34
1.000000000000000E+20
 15
-1.000000000000000E+20
 25
-1.000000000000000E+20
 35
-1.000000000000000E+20
146
0.0
 13
0.0
 23
0.0
 33
0.0
 16
1.0
 26
0.0
 36
0.0
 17
0.0
 27
1.0
 37
0.0
 76
     0
330
1B
  0
LAYOUT
  5
26
102
{ACAD_REACTORS
330
1A
102
}
330
1A
100
AcDbPlotSettings
  1

  2
none_device
  4

  6

 40
0.0
 41
0.0
 42
0.0
 43
0.0
 44
0.0
 45
0.0
 46
0.0
 47
0.0
 48
0.0
 49
0.0
140
0.0
141
0.0
142
1.0
143
1.0
 70
   688
 72
     0
 73
     0
 74
     5
  7

 75
    16
 76
     0
 77
     2
 78
   300
147
1.0
148
0.0
149
0.0
100
AcDbLayout
  1
Layout2
 70
     1
 71
     2
 10
0.0
 20
0.0
 11
0.0
 21
0.0
 12
0.0
 22
0.0
 32
0.0
 14
0.0
 24
0.0
 34
0.0
 15
0.0
 25
0.0
 35
0.0
146
0.0
 13
0.0
 23
0.0
 33
0.0
 16
1.0
 26
0.0
 36
0.0
 17
0.0
 27
1.0
 37
0.0
 76
     0
330
23
  0
LAYOUT
  5
22
102
{ACAD_REACTORS
330
1A
102
}
330
1A
100
AcDbPlotSettings
  1

  2
none_device
  4

  6

 40
0.0
 41
0.0
 42
0.0
 43
0.0
 44
0.0
 45
0.0
 46
0.0
 47
0.0
 48
0.0
 49
0.0
140
0.0
141
0.0
142
1.0
143
1.0
 70
  1712
 72
     0
 73
     0
 74
     0
  7

 75
     0
 76
     0
 77
     2
 78
   300
147
1.0
148
0.0
149
0.0
100
AcDbLayout
  1
Model
 70
     1
 71
     0
 10
0.0
 20
0.0
 11
12.0
 21
9.0
 12
0.0
 22
0.0
 32
0.0
 14
1.000000000000000E+20
 24
1.000000000000000E+20
 34
1.000000000000000E+20
 15
-1.000000000000000E+20
 25
-1.000000000000000E+20
 35
-1.000000000000000E+20
146
0.0
 13
0.0
 23
0.0
 33
0.0
 16
1.0
 26
0.0
 36
0.0
 17
0.0
 27
1.0
 37
0.0
 76
     0
330
1F
331
29
  0
MATERIAL
  5
3D
102
{ACAD_REACTORS
330
3B
102
}
330
3B
100
AcDbMaterial
  1
ByBlock
 72
     1
 94
      127
  0
MATERIAL
  5
3C
102
{ACAD_REACTORS
330
3B
102
}
330
3B
100
AcDbMaterial
  1
ByLayer
 72
     1
 94
      127
  0
MATERIAL
  5
3E
102
{ACAD_REACTORS
330
3B
102
}
330
3B
100
AcDbMaterial
  1
Global
 72
     1
 94
      127
  0
MLINESTYLE
  5
18
102
{ACAD_REACTORS
330
17
102
}
330
17
100
AcDbMlineStyle
  2
Standard
 70
     0
  3

 62
   256
 51
90.0
 52
90.0
 71
     2
 49
0.5
 62
   256
  6
BYLAYER
 49
-0.5
 62
   256
  6
BYLAYER
  0
ACDBPLACEHOLDER
  5
F
102
{ACAD_REACTORS
330
E
102
}
330
E
  0
VISUALSTYLE
  5
2F
102
{ACAD_REACTORS
330
2A
102
}
330
2A
100
AcDbVisualStyle
  2
2dWireframe
 70
     4
177
     2
291
     0
 71
     0
176
     1
 72
     2
176
     1
 73
     0
176
     1
 90
        0
176
     1
 40
-0.6
176
     1
 41
-30.0
176
     1
 62
     5
 63
     7
421
 16777215
176
     1
 74
     1
176
     1
 91
        4
176
     1
 64
     7
176
     1
 65
   257
176
     1
 75
     1
176
     1
175
     1
176
     1
 42
1.0
176
     1
 92
        0
176
     1
 66
   257
176
     1
 43
1.0
176
     1
 76
     1
176
     1
 77
     6
176
     1
 78
     2
176
     1
 67
     7
176
     1
 79
     5
176
     1
170
     0
176
     1
171
     0
176
     1
290
     0
176
     1
 93
        1
176
     1
 44
0.0
176
     1
173
     0
176
     1
  0
VISUALSTYLE
  5
31
102
{ACAD_REACTORS
330
2A
102
}
330
2A
100
AcDbVisualStyle
  2
3D Hidden
 70
     6
177
     2
291
     0
 71
     1
176
     1
 72
     2
176
     1
 73
     2
176
     1
 90
        0
176
     1
 40
-0.6
176
     1
 41
-30.0
176
     1
 62
     5
 63
     7
421
 16777215
176
     1
 74
     2
176
     1
 91
        2
176
     1
 64
     7
176
     1
 65
   257
176
     1
 75
     2
176
     1
175
     1
176
     1
 42
40.0
176
     1
 92
        0
176
     1
 66
   257
176
     1
 43
1.0
176
     1
 76
     1
176
     1
 77
     6
176
     1
 78
     2
176
     1
 67
     7
176
     1
 79
     3
176
     1
170
     0
176
     1
171
     0
176
     1
290
     0
176
     1
 93
        1
176
     1
 44
0.0
176
     1
173
     0
176
     1
  0
VISUALSTYLE
  5
30
102
{ACAD_REACTORS
330
2A
102
}
330
2A
100
AcDbVisualStyle
  2
3dWireframe
 70
     5
177
     2
291
     0
 71
     0
176
     1
 72
     2
176
     1
 73
     0
176
     1
 90
        0
176
     1
 40
-0.6
176
     1
 41
-30.0
176
     1
 62
     5
 63
     7
421
 16777215
176
     1
 74
     1
176
     1
 91
        4
176
     1
 64
     7
176
     1
 65
   257
176
     1
 75
     1
176
     1
175
     1
176
     1
 42
1.0
176
     1
 92
        0
176
     1
 66
   257
176
     1
 43
1.0
176
     1
 76
     1
176
     1
 77
     6
176
     1
 78
     2
176
     1
 67
     7
176
     1
 79
     5
176
     1
170
     0
176
     1
171
     0
176
     1
290
     0
176
     1
 93
        1
176
     1
 44
0.0
176
     1
173
     0
176
     1
  0
VISUALSTYLE
  5
32
102
{ACAD_REACTORS
330
2A
102
}
330
2A
100
AcDbVisualStyle
  2
Basic
 70
     7
177
     2
291
     1
 71
     1
176
     1
 72
     0
176
     1
 73
     1
176
     1
 90
        0
176
     1
 40
-0.6
176
     1
 41
-30.0
176
     1
 62
     5
 63
     7
421
 16777215
176
     1
 74
     0
176
     1
 91
        4
176
     1
 64
     7
176
     1
 65
   257
176
     1
 75
     1
176
     1
175
     1
176
     1
 42
1.0
176
     1
 92
        8
176
     1
 66
     7
176
     1
 43
1.0
176
     1
 76
     1
176
     1
 77
     6
176
     1
 78
     2
176
     1
 67
     7
176
     1
 79
     5
176
     1
170
     0
176
     1
171
     0
176
     1
290
     0
176
     1
 93
        1
176
     1
 44
0.0
176
     1
173
     0
176
     1
  0
VISUALSTYLE
  5
36
102
{ACAD_REACTORS
330
2A
102
}
330
2A
100
AcDbVisualStyle
  2
Brighten
 70
    12
177
     2
291
     1
 71
     2
176
     1
 72
     2
176
     1
 73
     0
176
     1
 90
        0
176
     1
 40
-0.6
176
     1
 41
-30.0
176
     1
 62
     5
 63
     7
421
 16777215
176
     1
 74
     1
176
     1
 91
        4
176
     1
 64
     7
176
     1
 65
   257
176
     1
 75
     1
176
     1
175
     1
176
     1
 42
1.0
176
     1
 92
        8
176
     1
 66
     7
176
     1
 43
1.0
176
     1
 76
     1
176
     1
 77
     6
176
     1
 78
     2
176
     1
 67
     7
176
     1
 79
     5
176
     1
170
     0
176
     1
171
     0
176
     1
290
     0
176
     1
 93
        1
176
     1
 44
50.0
176
     1
173
     0
176
     1
  0
VISUALSTYLE
  5
3A
102
{ACAD_REACTORS
330
2A
102
}
330
2A
100
AcDbVisualStyle
  2
ColorChange
 70
    16
177
     2
291
     1
 71
     2
176
     1
 72
     2
176
     1
 73
     3
176
     1
 90
        0
176
     1
 40
-0.6
176
     1
 41
-30.0
176
     1
 62
     5
 63
     8
421
  8421504
176
     1
 74
     1
176
     1
 91
        4
176
     1
 64
     7
176
     1
 65
   257
176
     1
 75
     1
176
     1
175
     1
176
     1
 42
1.0
176
     1
 92
        8
176
     1
 66
     8
424
  8421504
176
     1
 43
1.0
176
     1
 76
     1
176
     1
 77
     6
176
     1
 78
     2
176
     1
 67
     7
176
     1
 79
     5
176
     1
170
     0
176
     1
171
     0
176
     1
290
     0
176
     1
 93
        1
176
     1
 44
0.0
176
     1
173
     0
176
     1
  0
VISUALSTYLE
  5
34
102
{ACAD_REACTORS
330
2A
102
}
330
2A
100
AcDbVisualStyle
  2
Conceptual
 70
     9
177
     2
291
     0
 71
     3
176
     1
 72
     2
176
     1
 73
     0
176
     1
 90
        0
176
     1
 40
-0.6
176
     1
 41
-30.0
176
     1
 62
     5
 63
     7
421
 16777215
176
     1
 74
     2
176
     1
 91
        2
176
     1
 64
     7
176
     1
 65
   257
176
     1
 75
     1
176
     1
175
     1
176
     1
 42
40.0
176
     1
 92
        8
176
     1
 66
     7
176
     1
 43
1.0
176
     1
 76
     1
176
     1
 77
     6
176
     1
 78
     2
176
     1
 67
     7
176
     1
 79
     3
176
     1
170
     0
176
     1
171
     0
176
     1
290
     0
176
     1
 93
        1
176
     1
 44
0.0
176
     1
173
     0
176
     1
  0
VISUALSTYLE
  5
35
102
{ACAD_REACTORS
330
2A
102
}
330
2A
100
AcDbVisualStyle
  2
Dim
 70
    11
177
     2
291
     1
 71
     2
176
     1
 72
     2
176
     1
 73
     0
176
     1
 90
        0
176
     1
 40
-0.6
176
     1
 41
-30.0
176
     1
 62
     5
 63
     7
421
 16777215
176
     1
 74
     1
176
     1
 91
        4
176
     1
 64
     7
176
     1
 65
   257
176
     1
 75
     1
176
     1
175
     1
176
     1
 42
1.0
176
     1
 92
        8
176
     1
 66
     7
176
     1
 43
1.0
176
     1
 76
     1
176
     1
 77
     6
176
     1
 78
     2
176
     1
 67
     7
176
     1
 79
     5
176
     1
170
     0
176
     1
171
     0
176
     1
290
     0
176
     1
 93
        1
176
     1
 44
-50.0
176
     1
173
     0
176
     1
  0
VISUALSTYLE
  5
39
102
{ACAD_REACTORS
330
2A
102
}
330
2A
100
AcDbVisualStyle
  2
Facepattern
 70
    15
177
     2
291
     1
 71
     2
176
     1
 72
     2
176
     1
 73
     0
176
     1
 90
        0
176
     1
 40
-0.6
176
     1
 41
-30.0
176
     1
 62
     5
 63
     7
421
 16777215
176
     1
 74
     1
176
     1
 91
        4
176
     1
 64
     7
176
     1
 65
   257
176
     1
 75
     1
176
     1
175
     1
176
     1
 42
1.0
176
     1
 92
        8
176
     1
 66
     7
176
     1
 43
1.0
176
     1
 76
     1
176
     1
 77
     6
176
     1
 78
     2
176
     1
 67
     7
176
     1
 79
     5
176
     1
170
     0
176
     1
171
     0
176
     1
290
     0
176
     1
 93
        1
176
     1
 44
0.0
176
     1
173
     0
176
     1
  0
VISUALSTYLE
  5
2B
102
{ACAD_REACTORS
330
2A
102
}
330
2A
100
AcDbVisualStyle
  2
Flat
 70
     0
177
     2
291
     1
 71
     2
176
     1
 72
     1
176
     1
 73
     1
176
     1
 90
        2
176
     1
 40
-0.6
176
     1
 41
30.0
176
     1
 62
     5
 63
     7
421
 16777215
176
     1
 74
     0
176
     1
 91
        4
176
     1
 64
     7
176
     1
 65
   257
176
     1
 75
     1
176
     1
175
     1
176
     1
 42
1.0
176
     1
 92
        8
176
     1
 66
     7
176
     1
 43
1.0
176
     1
 76
     1
176
     1
 77
     6
176
     1
 78
     2
176
     1
 67
     7
176
     1
 79
     5
176
     1
170
     0
176
     1
171
     0
176
     1
290
     0
176
     1
 93
       13
176
     1
 44
0.0
176
     1
173
     0
176
     1
  0
VISUALSTYLE
  5
2C
102
{ACAD_REACTORS
330
2A
102
}
330
2A
100
AcDbVisualStyle
  2
FlatWithEdges
 70
     1
177
     2
291
     1
 71
     2
176
     1
 72
     1
176
     1
 73
     1
176
     1
 90
        2
176
     1
 40
-0.6
176
     1
 41
30.0
176
     1
 62
     5
 63
     7
421
 16777215
176
     1
 74
     1
176
     1
 91
        4
176
     1
 64
     7
176
     1
 65
   257
176
     1
 75
     1
176
     1
175
     1
176
     1
 42
1.0
176
     1
 92
        0
176
     1
 66
   257
176
     1
 43
1.0
176
     1
 76
     1
176
     1
 77
     6
176
     1
 78
     2
176
     1
 67
     7
176
     1
 79
     5
176
     1
170
     0
176
     1
171
     0
176
     1
290
     0
176
     1
 93
       13
176
     1
 44
0.0
176
     1
173
     0
176
     1
  0
VISUALSTYLE
  5
2D
102
{ACAD_REACTORS
330
2A
102
}
330
2A
100
AcDbVisualStyle
  2
Gouraud
 70
     2
177
     2
291
     1
 71
     2
176
     1
 72
     2
176
     1
 73
     1
176
     1
 90
        2
176
     1
 40
-0.6
176
     1
 41
30.0
176
     1
 62
     5
 63
     7
421
 16777215
176
     1
 74
     0
176
     1
 91
        4
176
     1
 64
     7
176
     1
 65
   257
176
     1
 75
     1
176
     1
175
     1
176
     1
 42
1.0
176
     1
 92
        0
176
     1
 66
     7
176
     1
 43
1.0
176
     1
 76
     1
176
     1
 77
     6
176
     1
 78
     2
176
     1
 67
     7
176
     1
 79
     5
176
     1
170
     0
176
     1
171
     0
176
     1
290
     0
176
     1
 93
       13
176
     1
 44
0.0
176
     1
173
     0
176
     1
  0
VISUALSTYLE
  5
2E
102
{ACAD_REACTORS
330
2A
102
}
330
2A
100
AcDbVisualStyle
  2
GouraudWithEdges
 70
     3
177
     2
291
     1
 71
     2
176
     1
 72
     2
176
     1
 73
     1
176
     1
 90
        2
176
     1
 40
-0.6
176
     1
 41
30.0
176
     1
 62
     5
 63
     7
421
 16777215
176
     1
 74
     1
176
     1
 91
        4
176
     1
 64
     7
176
     1
 65
   257
176
     1
 75
     1
176
     1
175
     1
176
     1
 42
1.0
176
     1
 92
        0
176
     1
 66
   257
176
     1
 43
1.0
176
     1
 76
     1
176
     1
 77
     6
176
     1
 78
     2
176
     1
 67
     7
176
     1
 79
     5
176
     1
170
     0
176
     1
171
     0
176
     1
290
     0
176
     1
 93
       13
176
     1
 44
0.0
176
     1
173
     0
176
     1
  0
VISUALSTYLE
  5
38
102
{ACAD_REACTORS
330
2A
102
}
330
2A
100
AcDbVisualStyle
  2
Linepattern
 70
    14
177
     2
291
     1
 71
     2
176
     1
 72
     2
176
     1
 73
     0
176
     1
 90
        0
176
     1
 40
-0.6
176
     1
 41
-30.0
176
     1
 62
     5
 63
     7
421
 16777215
176
     1
 74
     1
176
     1
 91
        4
176
     1
 64
     7
176
     1
 65
   257
176
     1
 75
     7
176
     1
175
     7
176
     1
 42
1.0
176
     1
 92
        8
176
     1
 66
     7
176
     1
 43
1.0
176
     1
 76
     1
176
     1
 77
     6
176
     1
 78
     2
176
     1
 67
     7
176
     1
 79
     5
176
     1
170
     0
176
     1
171
     0
176
     1
290
     0
176
     1
 93
        1
176
     1
 44
0.0
176
     1
173
     0
176
     1
  0
VISUALSTYLE
  5
33
102
{ACAD_REACTORS
330
2A
102
}
330
2A
100
AcDbVisualStyle
  2
Realistic
 70
     8
177
     2
291
     0
 71
     2
176
     1
 72
     2
176
     1
 73
     0
176
     1
 90
        0
176
     1
 40
-0.6
176
     1
 41
-30.0
176
     1
 62
     5
 63
     7
421
 16777215
176
     1
 74
     1
176
     1
 91
        0
176
     1
 64
     7
176
     1
 65
   257
176
     1
 75
     1
176
     1
175
     1
176
     1
 42
1.0
176
     1
 92
        8
176
     1
 66
     8
424
  7895160
176
     1
 43
1.0
176
     1
 76
     1
176
     1
 77
     6
176
     1
 78
     2
176
     1
 67
     7
176
     1
 79
     5
176
     1
170
     0
176
     1
171
     0
176
     1
290
     0
176
     1
 93
       13
176
     1
 44
0.0
176
     1
173
     0
176
     1
  0
VISUALSTYLE
  5
37
102
{ACAD_REACTORS
330
2A
102
}
330
2A
100
AcDbVisualStyle
  2
Thicken
 70
    13
177
     2
291
     1
 71
     2
176
     1
 72
     2
176
     1
 73
     0
176
     1
 90
        0
176
     1
 40
-0.6
176
     1
 41
-30.0
176
     1
 62
     5
 63
     7
421
 16777215
176
     1
 74
     1
176
     1
 91
        4
176
     1
 64
     7
176
     1
 65
   257
176
     1
 75
     1
176
     1
175
     1
176
     1
 42
1.0
176
     1
 92
       12
176
     1
 66
     7
176
     1
 43
1.0
176
     1
 76
     1
176
     1
 77
     6
176
     1
 78
     2
176
     1
 67
     7
176
     1
 79
     5
176
     1
170
     0
176
     1
171
     0
176
     1
290
     0
176
     1
 93
        1
176
     1
 44
0.0
176
     1
173
     0
176
     1
  0
ENDSEC
  0
EOF
