  0
SECTION
  2
HEADER
  9
$ACADVER
  1
AC1024
  9
$ACADMAINTVER
 70
     6
  9
$DWGCODEPAGE
  3
UNDEFINED
  9
$INSBASE
 10
0.0
 20
0.0
 30
0.0
  9
$EXTMIN
 10
1.000000000000000E+20
 20
1.000000000000000E+20
 30
1.000000000000000E+20
  9
$EXTMAX
 10
-1.000000000000000E+20
 20
-1.000000000000000E+20
 30
-1.000000000000000E+20
  9
$LIMMIN
 10
0.0
 20
0.0
  9
$LIMMAX
 10
12.0
 20
9.0
  9
$ORTHOMODE
 70
     0
  9
$REGENMODE
 70
     1
  9
$FILLMODE
 70
     1
  9
$QTEXTMODE
 70
     0
  9
$MIRRTEXT
 70
     1
  9
$LTSCALE
 40
1.0
  9
$ATTMODE
 70
     1
  9
$TEXTSIZE
 40
0.2
  9
$TRACEWID
 40
0.05
  9
$TEXTSTYLE
  7
Standard
  9
$CLAYER
  8
0
  9
$CELTYPE
  6
ByLayer
  9
$CECOLOR
 62
   256
  9
$CELTSCALE
 40
1.0
  9
$DISPSILH
 70
     0
  9
$DIMSCALE
 40
1.0
  9
$DIMASZ
 40
0.18
  9
$DIMEXO
 40
0.0625
  9
$DIMDLI
 40
0.38
  9
$DIMRND
 40
0.0
  9
$DIMDLE
 40
0.0
  9
$DIMEXE
 40
0.18
  9
$DIMTP
 40
0.0
  9
$DIMTM
 40
0.0
  9
$DIMTXT
 40
0.18
  9
$DIMCEN
 40
0.09
  9
$DIMTSZ
 40
0.0
  9
$DIMTOL
 70
     0
  9
$DIMLIM
 70
     0
  9
$DIMTIH
 70
     1
  9
$DIMTOH
 70
     1
  9
$DIMSE1
 70
     0
  9
$DIMSE2
 70
     0
  9
$DIMTAD
 70
     0
  9
$DIMZIN
 70
     0
  9
$DIMBLK
  1

  9
$DIMASO
 70
     1
  9
$DIMSHO
 70
     1
  9
$DIMPOST
  1

  9
$DIMAPOST
  1

  9
$DIMALT
 70
     0
  9
$DIMALTD
 70
     2
  9
$DIMALTF
 40
25.4
  9
$DIMLFAC
 40
1.0
  9
$DIMTOFL
 70
     0
  9
$DIMTVP
 40
0.0
  9
$DIMTIX
 70
     0
  9
$DIMSOXD
 70
     0
  9
$DIMSAH
 70
     0
  9
$DIMBLK1
  1

  9
$DIMBLK2
  1

  9
$DIMSTYLE
  2
Standard
  9
$DIMCLRD
 70
     0
  9
$DIMCLRE
 70
     0
  9
$DIMCLRT
 70
     0
  9
$DIMTFAC
 40
1.0
  9
$DIMGAP
 40
0.09
  9
$DIMJUST
 70
     0
  9
$DIMSD1
 70
     0
  9
$DIMSD2
 70
     0
  9
$DIMTOLJ
 70
     1
  9
$DIMTZIN
 70
     0
  9
$DIMALTZ
 70
     0
  9
$DIMALTTZ
 70
     0
  9
$DIMUPT
 70
     0
  9
$DIMDEC
 70
     4
  9
$DIMTDEC
 70
     4
  9
$DIMALTU
 70
     2
  9
$DIMALTTD
 70
     2
  9
$DIMTXSTY
  7
Standard
  9
$DIMAUNIT
 70
     0
  9
$DIMADEC
 70
     0
  9
$DIMALTRND
 40
0.0
  9
$DIMAZIN
 70
     0
  9
$DIMDSEP
 70
    46
  9
$DIMATFIT
 70
     3
  9
$DIMFRAC
 70
     0
  9
$DIMLDRBLK
  1

  9
$DIMLUNIT
 70
     2
  9
$DIMLWD
 70
    -2
  9
$DIMLWE
 70
    -2
  9
$DIMTMOVE
 70
     0
  9
$DIMFXL
 40
1.0
  9
$DIMFXLON
 70
     0
  9
$DIMJOGANG
 40
0.7853981633974483
  9
$DIMTFILL
 70
     0
  9
$DIMTFILLCLR
 70
     0
  9
$DIMARCSYM
 70
     0
  9
$DIMLTYPE
  6

  9
$DIMLTEX1
  6

  9
$DIMLTEX2
  6

  9
$DIMTXTDIRECTION
 70
     0
  9
$LUNITS
 70
     2
  9
$LUPREC
 70
     4
  9
$SKETCHINC
 40
0.1
  9
$FILLETRAD
 40
0.5
  9
$AUNITS
 70
     0
  9
$AUPREC
 70
     0
  9
$MENU
  1
.
  9
$ELEVATION
 40
0.0
  9
$PELEVATION
 40
0.0
  9
$THICKNESS
 40
0.0
  9
$LIMCHECK
 70
     0
  9
$CHAMFERA
 40
0.5
  9
$CHAMFERB
 40
0.5
  9
$CHAMFERC
 40
1.0
  9
$CHAMFERD
 40
0.0
  9
$SKPOLY
 70
     0
  9
$TDCREATE
 40
2457917.588935185
  9
$TDUCREATE
 40
2457917.213935185
  9
$TDUPDATE
 40
2457917.588935185
  9
$TDUUPDATE
 40
2457917.213935185
  9
$TDINDWG
 40
0.0000000116
  9
$TDUSRTIMER
 40
0.0000000116
  9
$USRTIMER
 70
     1
  9
$ANGBASE
 50
0.0
  9
$ANGDIR
 70
     0
  9
$PDMODE
 70
     0
  9
$PDSIZE
 40
0.0
  9
$PLINEWID
 40
0.0
  9
$SPLFRAME
 70
     0
  9
$SPLINETYPE
 70
     6
  9
$SPLINESEGS
 70
     8
  9
$HANDSEED
  5
C5
  9
$SURFTAB1
 70
     6
  9
$SURFTAB2
 70
     6
  9
$SURFTYPE
 70
     6
  9
$SURFU
 70
     6
  9
$SURFV
 70
     6
  9
$UCSBASE
  2

  9
$UCSNAME
  2

  9
$UCSORG
 10
0.0
 20
0.0
 30
0.0
  9
$UCSXDIR
 10
1.0
 20
0.0
 30
0.0
  9
$UCSYDIR
 10
0.0
 20
1.0
 30
0.0
  9
$UCSORTHOREF
  2

  9
$UCSORTHOVIEW
 70
     0
  9
$UCSORGTOP
 10
0.0
 20
0.0
 30
0.0
  9
$UCSORGBOTTOM
 10
0.0
 20
0.0
 30
0.0
  9
$UCSORGLEFT
 10
0.0
 20
0.0
 30
0.0
  9
$UCSORGRIGHT
 10
0.0
 20
0.0
 30
0.0
  9
$UCSORGFRONT
 10
0.0
 20
0.0
 30
0.0
  9
$UCSORGBACK
 10
0.0
 20
0.0
 30
0.0
  9
$PUCSBASE
  2

  9
$PUCSNAME
  2

  9
$PUCSORG
 10
0.0
 20
0.0
 30
0.0
  9
$PUCSXDIR
 10
1.0
 20
0.0
 30
0.0
  9
$PUCSYDIR
 10
0.0
 20
1.0
 30
0.0
  9
$PUCSORTHOREF
  2

  9
$PUCSORTHOVIEW
 70
     0
  9
$PUCSORGTOP
 10
0.0
 20
0.0
 30
0.0
  9
$PUCSORGBOTTOM
 10
0.0
 20
0.0
 30
0.0
  9
$PUCSORGLEFT
 10
0.0
 20
0.0
 30
0.0
  9
$PUCSORGRIGHT
 10
0.0
 20
0.0
 30
0.0
  9
$PUCSORGFRONT
 10
0.0
 20
0.0
 30
0.0
  9
$PUCSORGBACK
 10
0.0
 20
0.0
 30
0.0
  9
$USERI1
 70
     0
  9
$USERI2
 70
     0
  9
$USERI3
 70
     0
  9
$USERI4
 70
     0
  9
$USERI5
 70
     0
  9
$USERR1
 40
0.0
  9
$USERR2
 40
0.0
  9
$USERR3
 40
0.0
  9
$USERR4
 40
0.0
  9
$USERR5
 40
0.0
  9
$WORLDVIEW
 70
     1
  9
$SHADEDGE
 70
     3
  9
$SHADEDIF
 70
    70
  9
$TILEMODE
 70
     1
  9
$MAXACTVP
 70
    64
  9
$PINSBASE
 10
0.0
 20
0.0
 30
0.0
  9
$PLIMCHECK
 70
     0
  9
$PEXTMIN
 10
1.000000000000000E+20
 20
1.000000000000000E+20
 30
1.000000000000000E+20
  9
$PEXTMAX
 10
-1.000000000000000E+20
 20
-1.000000000000000E+20
 30
-1.000000000000000E+20
  9
$PLIMMIN
 10
0.0
 20
0.0
  9
$PLIMMAX
 10
12.0
 20
9.0
  9
$UNITMODE
 70
     0
  9
$VISRETAIN
 70
     1
  9
$PLINEGEN
 70
     0
  9
$PSLTSCALE
 70
     1
  9
$TREEDEPTH
 70
  3020
  9
$CMLSTYLE
  2
Standard
  9
$CMLJUST
 70
     0
  9
$CMLSCALE
 40
1.0
  9
$PROXYGRAPHICS
 70
     1
  9
$MEASUREMENT
 70
     0
  9
$CELWEIGHT
370
    -1
  9
$ENDCAPS
280
     0
  9
$JOINSTYLE
280
     0
  9
$LWDISPLAY
290
     1
  9
$INSUNITS
 70
     1
  9
$HYPERLINKBASE
  1

  9
$STYLESHEET
  1

  9
$XEDIT
290
     1
  9
$CEPSNTYPE
380
     0
  9
$PSTYLEMODE
290
     1
  9
$FINGERPRINTGUID
  2
{ED8F5717-61DE-88F3-0967-D84D3606B0B4}
  9
$VERSIONGUID
  2
{FAEB1C32-E019-11D5-929B-00C0DF256EC4}
  9
$EXTNAMES
290
     1
  9
$PSVPSCALE
 40
0.0
  9
$OLESTARTUP
290
     0
  9
$SORTENTS
280
   127
  9
$INDEXCTL
280
     0
  9
$HIDETEXT
280
     1
  9
$XCLIPFRAME
280
     2
  9
$HALOGAP
280
     0
  9
$OBSCOLOR
 70
   257
  9
$OBSLTYPE
280
     0
  9
$INTERSECTIONDISPLAY
280
     0
  9
$INTERSECTIONCOLOR
 70
   257
  9
$DIMASSOC
280
     2
  9
$PROJECTNAME
  1

  9
$CAMERADISPLAY
290
     0
  9
$LENSLENGTH
 40
50.0
  9
$CAMERAHEIGHT
 40
0.0
  9
$STEPSPERSEC
 40
2.0
  9
$STEPSIZE
 40
6.0
  9
$3DDWFPREC
 40
2.0
  9
$PSOLWIDTH
 40
0.25
  9
$PSOLHEIGHT
 40
4.0
  9
$LOFTANG1
 40
1.570796326794897
  9
$LOFTANG2
 40
1.570796326794897
  9
$LOFTMAG1
 40
0.0
  9
$LOFTMAG2
 40
0.0
  9
$LOFTPARAM
 70
     7
  9
$LOFTNORMALS
280
     1
  9
$LATITUDE
 40
37.795
  9
$LONGITUDE
 40
-122.394
  9
$NORTHDIRECTION
 40
0.0
  9
$TIMEZONE
 70
 -8000
  9
$LIGHTGLYPHDISPLAY
280
     1
  9
$TILEMODELIGHTSYNCH
280
     1
  9
$CMATERIAL
347
3C
  9
$SOLIDHIST
280
     1
  9
$SHOWHIST
280
     1
  9
$DWFFRAME
280
     2
  9
$DGNFRAME
280
     2
  9
$REALWORLDSCALE
290
     1
  9
$INTERFERECOLOR
 62
   256
  9
$CSHADOW
280
     0
  9
$SHADOWPLANELOCATION
 40
0.0
  0
ENDSEC
  0
SECTION
  2
CLASSES
  0
CLASS
  1
ACDBDICTIONARYWDFLT
  2
AcDbDictionaryWithDefault
  3
ObjectDBX Classes
 90
        0
 91
        4
280
     0
281
     0
  0
CLASS
  1
VISUALSTYLE
  2
AcDbVisualStyle
  3
ObjectDBX Classes
 90
     4095
 91
        4
280
     0
281
     0
  0
CLASS
  1
MATERIAL
  2
AcDbMaterial
  3
ObjectDBX Classes
 90
     1153
 91
        4
280
     0
281
     0
  0
CLASS
  1
SUN
  2
AcDbSun
  3
SCENEOE
 90
     1024
 91
        4
280
     0
281
     0
  0
ENDSEC
  0
SECTION
  2
TABLES
  0
TABLE
  2
VPORT
  5
8
330
0
100
AcDbSymbolTable
 70
     1
  0
VPORT
  5
29
330
8
100
AcDbSymbolTableRecord
100
AcDbViewportTableRecord
  2
*Active
 70
     0
 10
0.0
 20
0.0
 11
1.0
 21
1.0
 12
0.0
 22
0.0
 13
0.0
 23
0.0
 14
0.5
 24
0.5
 15
0.5
 25
0.5
 16
0.0
 26
0.0
 36
1.0
 17
63.499999984125
 27
-89.00059456108309
 37
0.0
 40
178.0011891221662
 41
0.7134783795241226
 42
50.0
 43
0.0
 44
0.0
 50
0.0
 51
0.0
 71
     0
 72
   100
 73
     1
 74
     3
 75
     0
 76
     0
 77
     0
 78
     0
281
     0
 65
     1
110
0.0
120
0.0
130
0.0
111
1.0
121
0.0
131
0.0
112
0.0
122
1.0
132
0.0
 79
     0
146
0.0
 60
     3
 61
     5
292
     1
282
     1
141
0.0
142
0.0
 63
   250
361
3F
  0
ENDTAB
  0
TABLE
  2
LTYPE
  5
5
330
0
100
AcDbSymbolTable
 70
     1
  0
LTYPE
  5
14
330
5
100
AcDbSymbolTableRecord
100
AcDbLinetypeTableRecord
  2
ByBlock
 70
     0
  3

 72
    65
 73
     0
 40
0.0
  0
LTYPE
  5
15
330
5
100
AcDbSymbolTableRecord
100
AcDbLinetypeTableRecord
  2
ByLayer
 70
     0
  3

 72
    65
 73
     0
 40
0.0
  0
LTYPE
  5
16
330
5
100
AcDbSymbolTableRecord
100
AcDbLinetypeTableRecord
  2
Continuous
 70
     0
  3
Solid line
 72
    65
 73
     0
 40
0.0
  0
ENDTAB
  0
TABLE
  2
LAYER
  5
2
330
0
100
AcDbSymbolTable
 70
     2
  0
LAYER
  5
10
330
2
100
AcDbSymbolTableRecord
100
AcDbLayerTableRecord
  2
0
 70
     0
 62
     7
  6
Continuous
370
    -3
390
F
347
3E
  0
LAYER
  5
40
330
2
100
AcDbSymbolTableRecord
100
AcDbLayerTableRecord
  2
_U+30EC_U+30A4_U+30E4_U+30FC 1
 70
     0
 62
     7
  6
Continuous
370
    -3
390
F
347
3E
  0
ENDTAB
  0
TABLE
  2
STYLE
  5
3
330
0
100
AcDbSymbolTable
 70
     1
  0
STYLE
  5
11
330
3
100
AcDbSymbolTableRecord
100
AcDbTextStyleTableRecord
  2
Standard
 70
     0
 40
0.0
 41
1.0
 50
0.0
 71
     0
 42
0.2
  3
txt
  4

  0
ENDTAB
  0
TABLE
  2
VIEW
  5
6
330
0
100
AcDbSymbolTable
 70
     0
  0
ENDTAB
  0
TABLE
  2
UCS
  5
7
330
0
100
AcDbSymbolTable
 70
     0
  0
ENDTAB
  0
TABLE
  2
APPID
  5
9
330
0
100
AcDbSymbolTable
 70
     1
  0
APPID
  5
12
330
9
100
AcDbSymbolTableRecord
100
AcDbRegAppTableRecord
  2
ACAD
 70
     0
  0
ENDTAB
  0
TABLE
  2
DIMSTYLE
  5
A
330
0
100
AcDbSymbolTable
 70
     1
100
AcDbDimStyleTable
  0
DIMSTYLE
105
27
330
A
100
AcDbSymbolTableRecord
100
AcDbDimStyleTableRecord
  2
Standard
 70
     0
178
     0
340
11
  0
ENDTAB
  0
TABLE
  2
BLOCK_RECORD
  5
1
330
0
100
AcDbSymbolTable
 70
     6
  0
BLOCK_RECORD
  5
1F
330
1
100
AcDbSymbolTableRecord
100
AcDbBlockTableRecord
  2
*Model_Space
340
22
 70
     0
280
     1
281
     0
  0
BLOCK_RECORD
  5
1B
330
1
100
AcDbSymbolTableRecord
100
AcDbBlockTableRecord
  2
*Paper_Space
340
1E
 70
     0
280
     1
281
     0
  0
BLOCK_RECORD
  5
23
330
1
100
AcDbSymbolTableRecord
100
AcDbBlockTableRecord
  2
*Paper_Space0
340
26
 70
     0
280
     1
281
     0
  0
BLOCK_RECORD
  5
68
330
1
100
AcDbSymbolTableRecord
100
AcDbBlockTableRecord
  2
block 2
340
0
102
{BLKREFS
331
69
102
}
 70
     0
280
     1
281
     0
  0
BLOCK_RECORD
  5
83
330
1
100
AcDbSymbolTableRecord
100
AcDbBlockTableRecord
  2
block 3
340
0
102
{BLKREFS
331
84
102
}
 70
     0
280
     1
281
     0
  0
BLOCK_RECORD
  5
95
330
1
100
AcDbSymbolTableRecord
100
AcDbBlockTableRecord
  2
block 4
340
0
102
{BLKREFS
331
96
102
}
 70
     0
280
     1
281
     0
  0
BLOCK_RECORD
  5
AA
330
1
100
AcDbSymbolTableRecord
100
AcDbBlockTableRecord
  2
block 5
340
0
102
{BLKREFS
331
AB
102
}
 70
     0
280
     1
281
     0
  0
BLOCK_RECORD
  5
BA
330
1
100
AcDbSymbolTableRecord
100
AcDbBlockTableRecord
  2
block 6
340
0
102
{BLKREFS
331
BB
102
}
 70
     0
280
     1
281
     0
  0
ENDTAB
  0
ENDSEC
  0
SECTION
  2
BLOCKS
  0
BLOCK
  5
20
330
1F
100
AcDbEntity
  8
0
100
AcDbBlockBegin
  2
*Model_Space
 70
     0
 10
0.0
 20
0.0
 30
0.0
  3
*Model_Space
  1

  0
ENDBLK
  5
21
330
1F
100
AcDbEntity
  8
0
100
AcDbBlockEnd
  0
BLOCK
  5
1C
330
1B
100
AcDbEntity
 67
     1
  8
0
100
AcDbBlockBegin
  2
*Paper_Space
 70
     0
 10
0.0
 20
0.0
 30
0.0
  3
*Paper_Space
  1

  0
ENDBLK
  5
1D
330
1B
100
AcDbEntity
 67
     1
  8
0
100
AcDbBlockEnd
  0
BLOCK
  5
24
330
23
100
AcDbEntity
  8
0
100
AcDbBlockBegin
  2
*Paper_Space0
 70
     0
 10
0.0
 20
0.0
 30
0.0
  3
*Paper_Space0
  1

  0
ENDBLK
  5
25
330
23
100
AcDbEntity
  8
0
100
AcDbBlockEnd
  0
BLOCK
  5
6A
330
68
100
AcDbEntity
  8
0
100
AcDbBlockBegin
  2
block 2
 70
     0
 10
0.0
 20
0.0
 30
0.0
  3
block 2
  1

  0
SPLINE
  5
6C
330
68
100
AcDbEntity
  8
_U+30EC_U+30A4_U+30E4_U+30FC 1
370
     0
100
AcDbSpline
210
0.0
220
0.0
230
1.0
 70
    11
 71
     3
 72
    29
 73
    25
 74
     0
 42
0.0000000001
 43
0.0000000001
 12
1.0
 22
0.0
 32
0.0
 13
1.0
 23
0.0
 33
0.0
 40
0.0
 40
0.0
 40
0.0
 40
0.0
 40
1.0
 40
1.0
 40
1.0
 40
2.0
 40
2.0
 40
2.0
 40
3.0
 40
3.0
 40
3.0
 40
4.0
 40
4.0
 40
4.0
 40
5.0
 40
5.0
 40
5.0
 40
6.0
 40
6.0
 40
6.0
 40
7.0
 40
7.0
 40
7.0
 40
8.0
 40
8.0
 40
8.0
 40
8.0
 10
75.05312769391033
 20
-73.66027558922383
 30
0.0
 10
75.26258949941352
 20
-73.76845158746067
 30
0.0
 10
75.28153752458239
 20
-73.94173989036874
 30
0.0
 10
75.28153752458239
 20
-74.05818411777018
 30
0.0
 10
75.28153752458239
 20
-74.21907007693135
 30
0.0
 10
75.23502873553153
 20
-74.36066350137511
 30
0.0
 10
75.05312769391033
 20
-74.45574813676801
 30
0.0
 10
74.85847979899371
 20
-74.55944551087403
 30
0.0
 10
74.62145722960852
 20
-74.57873804559144
 30
0.0
 10
74.45884872270473
 20
-74.57873804559144
 30
0.0
 10
74.31484373142129
 20
-74.57873804559144
 30
0.0
 10
74.06300725144953
 20
-74.56151256816518
 30
0.0
 10
73.86422524195062
 20
-74.45574813676801
 30
0.0
 10
73.6613091178694
 20
-74.34791664807969
 30
0.0
 10
73.6378824685697
 20
-74.18703068891853
 30
0.0
 10
73.6378824685697
 20
-74.05818411777018
 30
0.0
 10
73.6378824685697
 20
-73.89936521590016
 30
0.0
 10
73.68232420032942
 20
-73.75570473416525
 30
0.0
 10
73.86422524195062
 20
-73.66027558922383
 30
0.0
 10
74.05680607957608
 20
-73.56105683924862
 30
0.0
 10
74.28521591024814
 20
-73.53763018994893
 30
0.0
 10
74.45884872270473
 20
-73.53763018994893
 30
0.0
 10
74.63006996832165
 20
-73.53763018994893
 30
0.0
 10
74.86054685628487
 20
-73.55898978195748
 30
0.0
 10
75.05312769391033
 20
-73.66027558922383
 30
0.0
  0
SPLINE
  5
6D
330
68
100
AcDbEntity
  8
_U+30EC_U+30A4_U+30E4_U+30FC 1
370
     0
100
AcDbSpline
210
0.0
220
0.0
230
1.0
 70
    11
 71
     3
 72
    17
 73
    13
 74
     0
 42
0.0000000001
 43
0.0000000001
 12
1.0
 22
0.0
 32
0.0
 13
1.0
 23
0.0
 33
0.0
 40
0.0
 40
0.0
 40
0.0
 40
0.0
 40
1.0
 40
1.0
 40
1.0
 40
2.0
 40
2.0
 40
2.0
 40
3.0
 40
3.0
 40
3.0
 40
4.0
 40
4.0
 40
4.0
 40
4.0
 10
73.83046330619517
 20
-74.05818411777018
 30
0.0
 10
73.83046330619517
 20
-74.3079535404508
 30
0.0
 10
74.11399466463122
 20
-74.35446232950167
 30
0.0
 10
74.45884872270473
 20
-74.35446232950167
 30
0.0
 10
74.7782090741874
 20
-74.35446232950167
 30
0.0
 10
75.08688962966578
 20
-74.31828882690654
 30
0.0
 10
75.08688962966578
 20
-74.05818411777018
 30
0.0
 10
75.08688962966578
 20
-73.81048175238071
 30
0.0
 10
74.8057698380694
 20
-73.76190590603869
 30
0.0
 10
74.45884872270473
 20
-73.76190590603869
 30
0.0
 10
74.13914386167355
 20
-73.76190590603869
 30
0.0
 10
73.83046330619517
 20
-73.80014646592497
 30
0.0
 10
73.83046330619517
 20
-74.05818411777018
 30
0.0
  0
HATCH
  5
6E
330
68
100
AcDbEntity
  8
_U+30EC_U+30A4_U+30E4_U+30FC 1
 62
     7
420
 16777215
100
AcDbHatch
 10
0.0
 20
0.0
 30
0.0
210
0.0
220
0.0
230
1.0
  2
SOLID
 70
     1
 71
     0
 91
        2
 92
        1
 93
        1
 72
     4
 94
        3
 73
     0
 74
     1
 95
       29
 96
       25
 40
0.0
 40
0.0
 40
0.0
 40
0.0
 40
1.0
 40
1.0
 40
1.0
 40
2.0
 40
2.0
 40
2.0
 40
3.0
 40
3.0
 40
3.0
 40
4.0
 40
4.0
 40
4.0
 40
5.0
 40
5.0
 40
5.0
 40
6.0
 40
6.0
 40
6.0
 40
7.0
 40
7.0
 40
7.0
 40
8.0
 40
8.0
 40
8.0
 40
8.0
 10
75.05312769391033
 20
-73.66027558922383
 10
75.26258949941352
 20
-73.76845158746067
 10
75.28153752458239
 20
-73.94173989036874
 10
75.28153752458239
 20
-74.05818411777018
 10
75.28153752458239
 20
-74.21907007693135
 10
75.23502873553153
 20
-74.36066350137511
 10
75.05312769391033
 20
-74.45574813676801
 10
74.85847979899371
 20
-74.55944551087403
 10
74.62145722960852
 20
-74.57873804559144
 10
74.45884872270473
 20
-74.57873804559144
 10
74.31484373142129
 20
-74.57873804559144
 10
74.06300725144953
 20
-74.56151256816518
 10
73.86422524195062
 20
-74.45574813676801
 10
73.6613091178694
 20
-74.34791664807969
 10
73.6378824685697
 20
-74.18703068891853
 10
73.6378824685697
 20
-74.05818411777018
 10
73.6378824685697
 20
-73.89936521590016
 10
73.68232420032942
 20
-73.75570473416525
 10
73.86422524195062
 20
-73.66027558922383
 10
74.05680607957608
 20
-73.56105683924862
 10
74.28521591024814
 20
-73.53763018994893
 10
74.45884872270473
 20
-73.53763018994893
 10
74.63006996832165
 20
-73.53763018994893
 10
74.86054685628487
 20
-73.55898978195748
 10
75.05312769391033
 20
-73.66027558922383
 97
        0
 97
        0
 92
        1
 93
        1
 72
     4
 94
        3
 73
     0
 74
     1
 95
       17
 96
       13
 40
0.0
 40
0.0
 40
0.0
 40
0.0
 40
1.0
 40
1.0
 40
1.0
 40
2.0
 40
2.0
 40
2.0
 40
3.0
 40
3.0
 40
3.0
 40
4.0
 40
4.0
 40
4.0
 40
4.0
 10
73.83046330619517
 20
-74.05818411777018
 10
73.83046330619517
 20
-74.3079535404508
 10
74.11399466463122
 20
-74.35446232950167
 10
74.45884872270473
 20
-74.35446232950167
 10
74.7782090741874
 20
-74.35446232950167
 10
75.08688962966578
 20
-74.31828882690654
 10
75.08688962966578
 20
-74.05818411777018
 10
75.08688962966578
 20
-73.81048175238071
 10
74.8057698380694
 20
-73.76190590603869
 10
74.45884872270473
 20
-73.76190590603869
 10
74.13914386167355
 20
-73.76190590603869
 10
73.83046330619517
 20
-73.80014646592497
 10
73.83046330619517
 20
-74.05818411777018
 97
        0
 97
        0
 75
     2
 76
     1
 98
        0
  0
POLYLINE
  5
6F
330
68
100
AcDbEntity
  8
_U+30EC_U+30A4_U+30E4_U+30FC 1
370
     0
100
AcDb2dPolyline
 66
     1
 10
0.0
 20
0.0
 30
0.0
  0
VERTEX
  5
70
330
6F
100
AcDbEntity
  8
_U+30EC_U+30A4_U+30E4_U+30FC 1
370
     0
100
AcDbVertex
100
AcDb2dVertex
 10
75.23089462094923
 20
-73.32127819347524
 30
0.0
  0
VERTEX
  5
71
330
6F
100
AcDbEntity
  8
_U+30EC_U+30A4_U+30E4_U+30FC 1
370
     0
100
AcDbVertex
100
AcDb2dVertex
 10
74.97905814097746
 20
-73.32127819347524
 30
0.0
  0
VERTEX
  5
72
330
6F
100
AcDbEntity
  8
_U+30EC_U+30A4_U+30E4_U+30FC 1
370
     0
100
AcDbVertex
100
AcDb2dVertex
 10
74.97905814097746
 20
-73.06944171350348
 30
0.0
  0
VERTEX
  5
73
330
6F
100
AcDbEntity
  8
_U+30EC_U+30A4_U+30E4_U+30FC 1
370
     0
100
AcDbVertex
100
AcDb2dVertex
 10
75.23089462094923
 20
-73.06944171350348
 30
0.0
  0
VERTEX
  5
74
330
6F
100
AcDbEntity
  8
_U+30EC_U+30A4_U+30E4_U+30FC 1
370
     0
100
AcDbVertex
100
AcDb2dVertex
 10
75.23089462094923
 20
-73.32127819347524
 30
0.0
  0
SEQEND
  5
75
330
6F
100
AcDbEntity
  8
_U+30EC_U+30A4_U+30E4_U+30FC 1
370
     0
  0
HATCH
  5
76
330
68
100
AcDbEntity
  8
_U+30EC_U+30A4_U+30E4_U+30FC 1
 62
     7
420
 16777215
100
AcDbHatch
 10
0.0
 20
0.0
 30
0.0
210
0.0
220
0.0
230
1.0
  2
SOLID
 70
     1
 71
     0
 91
        1
 92
        1
 93
        4
 72
     1
 10
75.23089462094923
 20
-73.32127819347524
 11
74.97905814097746
 21
-73.32127819347524
 72
     1
 10
74.97905814097746
 20
-73.32127819347524
 11
74.97905814097746
 21
-73.06944171350348
 72
     1
 10
74.97905814097746
 20
-73.06944171350348
 11
75.23089462094923
 21
-73.06944171350348
 72
     1
 10
75.23089462094923
 20
-73.06944171350348
 11
75.23089462094923
 21
-73.32127819347524
 97
        0
 75
     2
 76
     1
 98
        0
  0
SPLINE
  5
77
330
68
100
AcDbEntity
  8
_U+30EC_U+30A4_U+30E4_U+30FC 1
370
     0
100
AcDbSpline
210
0.0
220
0.0
230
1.0
 70
    11
 71
     3
 72
    29
 73
    25
 74
     0
 42
0.0000000001
 43
0.0000000001
 12
1.0
 22
0.0
 32
0.0
 13
1.0
 23
0.0
 33
0.0
 40
0.0
 40
0.0
 40
0.0
 40
0.0
 40
1.0
 40
1.0
 40
1.0
 40
2.0
 40
2.0
 40
2.0
 40
3.0
 40
3.0
 40
3.0
 40
4.0
 40
4.0
 40
4.0
 40
5.0
 40
5.0
 40
5.0
 40
6.0
 40
6.0
 40
6.0
 40
7.0
 40
7.0
 40
7.0
 40
8.0
 40
8.0
 40
8.0
 40
8.0
 10
75.28153752458239
 20
-72.33322480830559
 30
0.0
 10
75.28153752458239
 20
-72.59987519886393
 30
0.0
 10
75.14407821472093
 20
-72.85343422657832
 30
0.0
 10
74.79509004206513
 20
-72.85343422657832
 30
0.0
 10
74.53911944751106
 20
-72.85343422657832
 30
0.0
 10
74.44403481211816
 20
-72.71184080213455
 30
0.0
 10
74.38271211248072
 20
-72.60607637073737
 30
0.0
 10
74.32345647013442
 20
-72.73078882730341
 30
0.0
 10
74.20907930002413
 20
-72.80692543752744
 30
0.0
 10
74.04819334086295
 20
-72.80692543752744
 30
0.0
 10
73.77327472114001
 20
-72.80692543752744
 30
0.0
 10
73.6378824685697
 20
-72.60814342802853
 30
0.0
 10
73.6378824685697
 20
-72.33322480830559
 30
0.0
 10
73.6378824685697
 20
-72.04969344986952
 30
0.0
 10
73.78188745985314
 20
-71.85917966953521
 30
0.0
 10
74.04819334086295
 20
-71.85917966953521
 30
0.0
 10
74.20907930002413
 20
-71.85917966953521
 30
0.0
 10
74.32345647013442
 20
-71.9377278465989
 30
0.0
 10
74.38271211248072
 20
-72.06244030316495
 30
0.0
 10
74.4333550161139
 20
-71.9735568396455
 30
0.0
 10
74.52843965150679
 20
-71.81473793777549
 30
0.0
 10
74.79095592748283
 20
-71.81473793777549
 30
0.0
 10
75.16543780672947
 20
-71.81473793777549
 30
0.0
 10
75.28153752458239
 20
-72.09413518162924
 30
0.0
 10
75.28153752458239
 20
-72.33322480830559
 30
0.0
  0
SPLINE
  5
78
330
68
100
AcDbEntity
  8
_U+30EC_U+30A4_U+30E4_U+30FC 1
370
     0
100
AcDbSpline
210
0.0
220
0.0
230
1.0
 70
    11
 71
     3
 72
    17
 73
    13
 74
     0
 42
0.0000000001
 43
0.0000000001
 12
1.0
 22
0.0
 32
0.0
 13
1.0
 23
0.0
 33
0.0
 40
0.0
 40
0.0
 40
0.0
 40
0.0
 40
1.0
 40
1.0
 40
1.0
 40
2.0
 40
2.0
 40
2.0
 40
3.0
 40
3.0
 40
3.0
 40
4.0
 40
4.0
 40
4.0
 40
4.0
 10
73.83046330619517
 20
-72.33322480830559
 30
0.0
 10
73.83046330619517
 20
-72.49824488204905
 30
0.0
 10
73.92554794158806
 20
-72.58264972143768
 30
0.0
 10
74.06094019415838
 20
-72.58264972143768
 30
0.0
 10
74.18358559343328
 20
-72.58264972143768
 30
0.0
 10
74.30209687812587
 20
-72.51099173534448
 30
0.0
 10
74.30209687812587
 20
-72.33322480830559
 30
0.0
 10
74.30209687812587
 20
-72.1554578812667
 30
0.0
 10
74.18358559343328
 20
-72.08345538562497
 30
0.0
 10
74.06094019415838
 20
-72.08345538562497
 30
0.0
 10
73.92554794158806
 20
-72.08345538562497
 30
0.0
 10
73.83046330619517
 20
-72.17027179185327
 30
0.0
 10
73.83046330619517
 20
-72.33322480830559
 30
0.0
  0
SPLINE
  5
79
330
68
100
AcDbEntity
  8
_U+30EC_U+30A4_U+30E4_U+30FC 1
370
     0
100
AcDbSpline
210
0.0
220
0.0
230
1.0
 70
    11
 71
     3
 72
    17
 73
    13
 74
     0
 42
0.0000000001
 43
0.0000000001
 12
1.0
 22
0.0
 32
0.0
 13
1.0
 23
0.0
 33
0.0
 40
0.0
 40
0.0
 40
0.0
 40
0.0
 40
1.0
 40
1.0
 40
1.0
 40
2.0
 40
2.0
 40
2.0
 40
3.0
 40
3.0
 40
3.0
 40
4.0
 40
4.0
 40
4.0
 40
4.0
 10
74.49054360116904
 20
-72.33322480830559
 30
0.0
 10
74.49054360116904
 20
-72.4768852900405
 30
0.0
 10
74.57736000739733
 20
-72.62950302003708
 30
0.0
 10
74.78027613147854
 20
-72.62950302003708
 30
0.0
 10
74.98560382239944
 20
-72.62950302003708
 30
0.0
 10
75.08688962966578
 20
-72.50237899663135
 30
0.0
 10
75.08688962966578
 20
-72.33322480830559
 30
0.0
 10
75.08688962966578
 20
-72.1471896521021
 30
0.0
 10
74.96424423039089
 20
-72.0369465965741
 30
0.0
 10
74.786477303352
 20
-72.0369465965741
 30
0.0
 10
74.5646131541019
 20
-72.0369465965741
 30
0.0
 10
74.49054360116904
 20
-72.19989961302642
 30
0.0
 10
74.49054360116904
 20
-72.33322480830559
 30
0.0
  0
HATCH
  5
7A
330
68
100
AcDbEntity
  8
_U+30EC_U+30A4_U+30E4_U+30FC 1
 62
     7
420
 16777215
100
AcDbHatch
 10
0.0
 20
0.0
 30
0.0
210
0.0
220
0.0
230
1.0
  2
SOLID
 70
     1
 71
     0
 91
        3
 92
        1
 93
        1
 72
     4
 94
        3
 73
     0
 74
     1
 95
       29
 96
       25
 40
0.0
 40
0.0
 40
0.0
 40
0.0
 40
1.0
 40
1.0
 40
1.0
 40
2.0
 40
2.0
 40
2.0
 40
3.0
 40
3.0
 40
3.0
 40
4.0
 40
4.0
 40
4.0
 40
5.0
 40
5.0
 40
5.0
 40
6.0
 40
6.0
 40
6.0
 40
7.0
 40
7.0
 40
7.0
 40
8.0
 40
8.0
 40
8.0
 40
8.0
 10
75.28153752458239
 20
-72.33322480830559
 10
75.28153752458239
 20
-72.59987519886393
 10
75.14407821472093
 20
-72.85343422657832
 10
74.79509004206513
 20
-72.85343422657832
 10
74.53911944751106
 20
-72.85343422657832
 10
74.44403481211816
 20
-72.71184080213455
 10
74.38271211248072
 20
-72.60607637073737
 10
74.32345647013442
 20
-72.73078882730341
 10
74.20907930002413
 20
-72.80692543752744
 10
74.04819334086295
 20
-72.80692543752744
 10
73.77327472114001
 20
-72.80692543752744
 10
73.6378824685697
 20
-72.60814342802853
 10
73.6378824685697
 20
-72.33322480830559
 10
73.6378824685697
 20
-72.04969344986952
 10
73.78188745985314
 20
-71.85917966953521
 10
74.04819334086295
 20
-71.85917966953521
 10
74.20907930002413
 20
-71.85917966953521
 10
74.32345647013442
 20
-71.9377278465989
 10
74.38271211248072
 20
-72.06244030316495
 10
74.4333550161139
 20
-71.9735568396455
 10
74.52843965150679
 20
-71.81473793777549
 10
74.79095592748283
 20
-71.81473793777549
 10
75.16543780672947
 20
-71.81473793777549
 10
75.28153752458239
 20
-72.09413518162924
 10
75.28153752458239
 20
-72.33322480830559
 97
        0
 97
        0
 92
        1
 93
        1
 72
     4
 94
        3
 73
     0
 74
     1
 95
       17
 96
       13
 40
0.0
 40
0.0
 40
0.0
 40
0.0
 40
1.0
 40
1.0
 40
1.0
 40
2.0
 40
2.0
 40
2.0
 40
3.0
 40
3.0
 40
3.0
 40
4.0
 40
4.0
 40
4.0
 40
4.0
 10
73.83046330619517
 20
-72.33322480830559
 10
73.83046330619517
 20
-72.49824488204905
 10
73.92554794158806
 20
-72.58264972143768
 10
74.06094019415838
 20
-72.58264972143768
 10
74.18358559343328
 20
-72.58264972143768
 10
74.30209687812587
 20
-72.51099173534448
 10
74.30209687812587
 20
-72.33322480830559
 10
74.30209687812587
 20
-72.1554578812667
 10
74.18358559343328
 20
-72.08345538562497
 10
74.06094019415838
 20
-72.08345538562497
 10
73.92554794158806
 20
-72.08345538562497
 10
73.83046330619517
 20
-72.17027179185327
 10
73.83046330619517
 20
-72.33322480830559
 97
        0
 97
        0
 92
        1
 93
        1
 72
     4
 94
        3
 73
     0
 74
     1
 95
       17
 96
       13
 40
0.0
 40
0.0
 40
0.0
 40
0.0
 40
1.0
 40
1.0
 40
1.0
 40
2.0
 40
2.0
 40
2.0
 40
3.0
 40
3.0
 40
3.0
 40
4.0
 40
4.0
 40
4.0
 40
4.0
 10
74.49054360116904
 20
-72.33322480830559
 10
74.49054360116904
 20
-72.4768852900405
 10
74.57736000739733
 20
-72.62950302003708
 10
74.78027613147854
 20
-72.62950302003708
 10
74.98560382239944
 20
-72.62950302003708
 10
75.08688962966578
 20
-72.50237899663135
 10
75.08688962966578
 20
-72.33322480830559
 10
75.08688962966578
 20
-72.1471896521021
 10
74.96424423039089
 20
-72.0369465965741
 10
74.786477303352
 20
-72.0369465965741
 10
74.5646131541019
 20
-72.0369465965741
 10
74.49054360116904
 20
-72.19989961302642
 10
74.49054360116904
 20
-72.33322480830559
 97
        0
 97
        0
 75
     2
 76
     1
 98
        0
  0
ENDBLK
  5
6B
330
68
100
AcDbEntity
  8
0
100
AcDbBlockEnd
  0
BLOCK
  5
85
330
83
100
AcDbEntity
  8
0
100
AcDbBlockBegin
  2
block 3
 70
     0
 10
0.0
 20
0.0
 30
0.0
  3
block 3
  1

  0
SPLINE
  5
87
330
83
100
AcDbEntity
  8
_U+30EC_U+30A4_U+30E4_U+30FC 1
370
     0
100
AcDbSpline
210
0.0
220
0.0
230
1.0
 70
    11
 71
     3
 72
    62
 73
    58
 74
     0
 42
0.0000000001
 43
0.0000000001
 12
1.0
 22
0.0
 32
0.0
 13
1.0
 23
0.0
 33
0.0
 40
0.0
 40
0.0
 40
0.0
 40
0.0
 40
1.0
 40
1.0
 40
1.0
 40
2.0
 40
2.0
 40
2.0
 40
3.0
 40
3.0
 40
3.0
 40
4.0
 40
4.0
 40
4.0
 40
5.0
 40
5.0
 40
5.0
 40
6.0
 40
6.0
 40
6.0
 40
7.0
 40
7.0
 40
7.0
 40
8.0
 40
8.0
 40
8.0
 40
9.0
 40
9.0
 40
9.0
 40
10.0
 40
10.0
 40
10.0
 40
11.0
 40
11.0
 40
11.0
 40
12.0
 40
12.0
 40
12.0
 40
13.0
 40
13.0
 40
13.0
 40
14.0
 40
14.0
 40
14.0
 40
15.0
 40
15.0
 40
15.0
 40
16.0
 40
16.0
 40
16.0
 40
17.0
 40
17.0
 40
17.0
 40
18.0
 40
18.0
 40
18.0
 40
19.0
 40
19.0
 40
19.0
 40
19.0
 10
75.28153752458239
 20
-104.502492920923
 30
0.0
 10
75.28153752458239
 20
-104.5979220658644
 30
0.0
 10
75.26052244212238
 20
-104.8156521005322
 30
0.0
 10
75.07448728591888
 20
-104.9407090666468
 30
0.0
 10
74.96217717309973
 20
-105.0147786195796
 30
0.0
 10
74.86295842312454
 20
-105.0189127341619
 30
0.0
 10
74.7782090741874
 20
-105.0230468487442
 30
0.0
 10
74.7782090741874
 20
-105.0230468487442
 30
0.0
 10
74.7782090741874
 20
-104.8029052472368
 30
0.0
 10
74.7782090741874
 20
-104.8029052472368
 30
0.0
 10
74.85227862712027
 20
-104.8008381899456
 30
0.0
 10
75.08688962966578
 20
-104.7905029034899
 30
0.0
 10
75.08688962966578
 20
-104.5069715450538
 30
0.0
 10
75.08688962966578
 20
-104.3695122351923
 30
0.0
 10
75.01729870086373
 20
-104.2168945051958
 30
0.0
 10
74.78888887019167
 20
-104.2168945051958
 30
0.0
 10
74.67244464279023
 20
-104.2168945051958
 30
0.0
 10
74.6238687964482
 20
-104.2551350650821
 30
0.0
 10
74.5921739179839
 20
-104.2868299435464
 30
0.0
 10
74.51810436505103
 20
-104.3608994964792
 30
0.0
 10
74.5053575117556
 20
-104.4773437238807
 30
0.0
 10
74.5053575117556
 20
-104.5321207420961
 30
0.0
 10
74.5053575117556
 20
-104.5514132768135
 30
0.0
 10
74.50742456904676
 20
-104.5872422698601
 30
0.0
 10
74.51155868362906
 20
-104.6148030337421
 30
0.0
 10
74.51155868362906
 20
-104.6148030337421
 30
0.0
 10
74.31691078871245
 20
-104.6148030337421
 30
0.0
 10
74.31691078871245
 20
-104.6148030337421
 30
0.0
 10
74.32345647013442
 20
-104.5765624738559
 30
0.0
 10
74.32552352742557
 20
-104.5345323089358
 30
0.0
 10
74.32552352742557
 20
-104.5279866275138
 30
0.0
 10
74.32552352742557
 20
-104.4625298132941
 30
0.0
 10
74.30416393541702
 20
-104.2637478037952
 30
0.0
 10
74.06748587558036
 20
-104.2637478037952
 30
0.0
 10
73.88971894854146
 20
-104.2637478037952
 30
0.0
 10
73.83459742077747
 20
-104.3946614322347
 30
0.0
 10
73.83459742077747
 20
-104.5049044877627
 30
0.0
 10
73.83459742077747
 20
-104.7691433114813
 30
0.0
 10
74.06748587558036
 20
-104.7777560501945
 30
0.0
 10
74.13914386167355
 20
-104.7818901647768
 30
0.0
 10
74.13914386167355
 20
-104.7818901647768
 30
0.0
 10
74.13914386167355
 20
-104.9851507984065
 30
0.0
 10
74.13914386167355
 20
-104.9851507984065
 30
0.0
 10
74.0144314051075
 20
-104.9765380596934
 30
0.0
 10
73.6378824685697
 20
-104.9489772958114
 30
0.0
 10
73.6378824685697
 20
-104.4921576344672
 30
0.0
 10
73.6378824685697
 20
-104.2678819183775
 30
0.0
 10
73.76500649197541
 20
-104.02672523441
 30
0.0
 10
74.06094019415838
 20
-104.02672523441
 30
0.0
 10
74.24731985991039
 20
-104.02672523441
 30
0.0
 10
74.32965764200787
 20
-104.1218098698029
 30
0.0
 10
74.39098034164532
 20
-104.2213731293266
 30
0.0
 10
74.41854110552731
 20
-104.1600504296892
 30
0.0
 10
74.49881183033364
 20
-103.978149388068
 30
0.0
 10
74.77614201689624
 20
-103.978149388068
 30
0.0
 10
75.11445039354778
 20
-103.978149388068
 30
0.0
 10
75.28153752458239
 20
-104.2255072439089
 30
0.0
 10
75.28153752458239
 20
-104.502492920923
 30
0.0
  0
HATCH
  5
88
330
83
100
AcDbEntity
  8
_U+30EC_U+30A4_U+30E4_U+30FC 1
 62
     7
420
 16777215
100
AcDbHatch
 10
0.0
 20
0.0
 30
0.0
210
0.0
220
0.0
230
1.0
  2
SOLID
 70
     1
 71
     0
 91
        1
 92
        1
 93
        1
 72
     4
 94
        3
 73
     0
 74
     1
 95
       62
 96
       58
 40
0.0
 40
0.0
 40
0.0
 40
0.0
 40
1.0
 40
1.0
 40
1.0
 40
2.0
 40
2.0
 40
2.0
 40
3.0
 40
3.0
 40
3.0
 40
4.0
 40
4.0
 40
4.0
 40
5.0
 40
5.0
 40
5.0
 40
6.0
 40
6.0
 40
6.0
 40
7.0
 40
7.0
 40
7.0
 40
8.0
 40
8.0
 40
8.0
 40
9.0
 40
9.0
 40
9.0
 40
10.0
 40
10.0
 40
10.0
 40
11.0
 40
11.0
 40
11.0
 40
12.0
 40
12.0
 40
12.0
 40
13.0
 40
13.0
 40
13.0
 40
14.0
 40
14.0
 40
14.0
 40
15.0
 40
15.0
 40
15.0
 40
16.0
 40
16.0
 40
16.0
 40
17.0
 40
17.0
 40
17.0
 40
18.0
 40
18.0
 40
18.0
 40
19.0
 40
19.0
 40
19.0
 40
19.0
 10
75.28153752458239
 20
-104.502492920923
 10
75.28153752458239
 20
-104.5979220658644
 10
75.26052244212238
 20
-104.8156521005322
 10
75.07448728591888
 20
-104.9407090666468
 10
74.96217717309973
 20
-105.0147786195796
 10
74.86295842312454
 20
-105.0189127341619
 10
74.7782090741874
 20
-105.0230468487442
 10
74.7782090741874
 20
-105.0230468487442
 10
74.7782090741874
 20
-104.8029052472368
 10
74.7782090741874
 20
-104.8029052472368
 10
74.85227862712027
 20
-104.8008381899456
 10
75.08688962966578
 20
-104.7905029034899
 10
75.08688962966578
 20
-104.5069715450538
 10
75.08688962966578
 20
-104.3695122351923
 10
75.01729870086373
 20
-104.2168945051958
 10
74.78888887019167
 20
-104.2168945051958
 10
74.67244464279023
 20
-104.2168945051958
 10
74.6238687964482
 20
-104.2551350650821
 10
74.5921739179839
 20
-104.2868299435464
 10
74.51810436505103
 20
-104.3608994964792
 10
74.5053575117556
 20
-104.4773437238807
 10
74.5053575117556
 20
-104.5321207420961
 10
74.5053575117556
 20
-104.5514132768135
 10
74.50742456904676
 20
-104.5872422698601
 10
74.51155868362906
 20
-104.6148030337421
 10
74.51155868362906
 20
-104.6148030337421
 10
74.31691078871245
 20
-104.6148030337421
 10
74.31691078871245
 20
-104.6148030337421
 10
74.32345647013442
 20
-104.5765624738559
 10
74.32552352742557
 20
-104.5345323089358
 10
74.32552352742557
 20
-104.5279866275138
 10
74.32552352742557
 20
-104.4625298132941
 10
74.30416393541702
 20
-104.2637478037952
 10
74.06748587558036
 20
-104.2637478037952
 10
73.88971894854146
 20
-104.2637478037952
 10
73.83459742077747
 20
-104.3946614322347
 10
73.83459742077747
 20
-104.5049044877627
 10
73.83459742077747
 20
-104.7691433114813
 10
74.06748587558036
 20
-104.7777560501945
 10
74.13914386167355
 20
-104.7818901647768
 10
74.13914386167355
 20
-104.7818901647768
 10
74.13914386167355
 20
-104.9851507984065
 10
74.13914386167355
 20
-104.9851507984065
 10
74.0144314051075
 20
-104.9765380596934
 10
73.6378824685697
 20
-104.9489772958114
 10
73.6378824685697
 20
-104.4921576344672
 10
73.6378824685697
 20
-104.2678819183775
 10
73.76500649197541
 20
-104.02672523441
 10
74.06094019415838
 20
-104.02672523441
 10
74.24731985991039
 20
-104.02672523441
 10
74.32965764200787
 20
-104.1218098698029
 10
74.39098034164532
 20
-104.2213731293266
 10
74.41854110552731
 20
-104.1600504296892
 10
74.49881183033364
 20
-103.978149388068
 10
74.77614201689624
 20
-103.978149388068
 10
75.11445039354778
 20
-103.978149388068
 10
75.28153752458239
 20
-104.2255072439089
 10
75.28153752458239
 20
-104.502492920923
 97
        0
 97
        0
 75
     2
 76
     1
 98
        0
  0
ENDBLK
  5
86
330
83
100
AcDbEntity
  8
0
100
AcDbBlockEnd
  0
BLOCK
  5
97
330
95
100
AcDbEntity
  8
0
100
AcDbBlockBegin
  2
block 4
 70
     0
 10
0.0
 20
0.0
 30
0.0
  3
block 4
  1

  0
SPLINE
  5
99
330
95
100
AcDbEntity
  8
_U+30EC_U+30A4_U+30E4_U+30FC 1
370
     0
100
AcDbSpline
210
0.0
220
0.0
230
1.0
 70
    11
 71
     3
 72
    26
 73
    22
 74
     0
 42
0.0000000001
 43
0.0000000001
 12
1.0
 22
0.0
 32
0.0
 13
1.0
 23
0.0
 33
0.0
 40
0.0
 40
0.0
 40
0.0
 40
0.0
 40
1.0
 40
1.0
 40
1.0
 40
2.0
 40
2.0
 40
2.0
 40
3.0
 40
3.0
 40
3.0
 40
4.0
 40
4.0
 40
4.0
 40
5.0
 40
5.0
 40
5.0
 40
6.0
 40
6.0
 40
6.0
 40
7.0
 40
7.0
 40
7.0
 40
7.0
 10
53.9453721653331
 20
-108.6417751464507
 30
0.0
 10
53.9453721653331
 20
-108.6417751464507
 30
0.0
 10
53.9453721653331
 20
-107.5376220434281
 30
0.0
 10
53.9453721653331
 20
-107.5376220434281
 30
0.0
 10
53.9453721653331
 20
-107.5376220434281
 30
0.0
 10
53.61533201784617
 20
-107.5376220434281
 30
0.0
 10
53.61533201784617
 20
-107.5376220434281
 30
0.0
 10
53.61533201784617
 20
-107.5376220434281
 30
0.0
 10
53.61533201784617
 20
-107.3894829375624
 30
0.0
 10
53.61533201784617
 20
-107.3894829375624
 30
0.0
 10
53.94743922262425
 20
-107.3746690269758
 30
0.0
 10
53.99394801167513
 20
-107.2117160105235
 30
0.0
 10
54.02357583284827
 20
-107.0973388404132
 30
0.0
 10
54.02357583284827
 20
-107.0973388404132
 30
0.0
 10
54.16964788142287
 20
-107.0973388404132
 30
0.0
 10
54.16964788142287
 20
-107.0973388404132
 30
0.0
 10
54.16964788142287
 20
-107.0973388404132
 30
0.0
 10
54.16964788142287
 20
-108.6417751464507
 30
0.0
 10
54.16964788142287
 20
-108.6417751464507
 30
0.0
 10
54.16964788142287
 20
-108.6417751464507
 30
0.0
 10
53.9453721653331
 20
-108.6417751464507
 30
0.0
 10
53.9453721653331
 20
-108.6417751464507
 30
0.0
  0
HATCH
  5
9A
330
95
100
AcDbEntity
  8
_U+30EC_U+30A4_U+30E4_U+30FC 1
 62
     7
420
 16777215
100
AcDbHatch
 10
0.0
 20
0.0
 30
0.0
210
0.0
220
0.0
230
1.0
  2
SOLID
 70
     1
 71
     0
 91
        1
 92
        1
 93
        1
 72
     4
 94
        3
 73
     0
 74
     1
 95
       26
 96
       22
 40
0.0
 40
0.0
 40
0.0
 40
0.0
 40
1.0
 40
1.0
 40
1.0
 40
2.0
 40
2.0
 40
2.0
 40
3.0
 40
3.0
 40
3.0
 40
4.0
 40
4.0
 40
4.0
 40
5.0
 40
5.0
 40
5.0
 40
6.0
 40
6.0
 40
6.0
 40
7.0
 40
7.0
 40
7.0
 40
7.0
 10
53.9453721653331
 20
-108.6417751464507
 10
53.9453721653331
 20
-108.6417751464507
 10
53.9453721653331
 20
-107.5376220434281
 10
53.9453721653331
 20
-107.5376220434281
 10
53.9453721653331
 20
-107.5376220434281
 10
53.61533201784617
 20
-107.5376220434281
 10
53.61533201784617
 20
-107.5376220434281
 10
53.61533201784617
 20
-107.5376220434281
 10
53.61533201784617
 20
-107.3894829375624
 10
53.61533201784617
 20
-107.3894829375624
 10
53.94743922262425
 20
-107.3746690269758
 10
53.99394801167513
 20
-107.2117160105235
 10
54.02357583284827
 20
-107.0973388404132
 10
54.02357583284827
 20
-107.0973388404132
 10
54.16964788142287
 20
-107.0973388404132
 10
54.16964788142287
 20
-107.0973388404132
 10
54.16964788142287
 20
-107.0973388404132
 10
54.16964788142287
 20
-108.6417751464507
 10
54.16964788142287
 20
-108.6417751464507
 10
54.16964788142287
 20
-108.6417751464507
 10
53.9453721653331
 20
-108.6417751464507
 10
53.9453721653331
 20
-108.6417751464507
 97
        0
 97
        0
 75
     2
 76
     1
 98
        0
  0
SPLINE
  5
9B
330
95
100
AcDbEntity
  8
_U+30EC_U+30A4_U+30E4_U+30FC 1
370
     0
100
AcDbSpline
210
0.0
220
0.0
230
1.0
 70
    11
 71
     3
 72
    29
 73
    25
 74
     0
 42
0.0000000001
 43
0.0000000001
 12
1.0
 22
0.0
 32
0.0
 13
1.0
 23
0.0
 33
0.0
 40
0.0
 40
0.0
 40
0.0
 40
0.0
 40
1.0
 40
1.0
 40
1.0
 40
2.0
 40
2.0
 40
2.0
 40
3.0
 40
3.0
 40
3.0
 40
4.0
 40
4.0
 40
4.0
 40
5.0
 40
5.0
 40
5.0
 40
6.0
 40
6.0
 40
6.0
 40
7.0
 40
7.0
 40
7.0
 40
8.0
 40
8.0
 40
8.0
 40
8.0
 10
55.56852890320857
 20
-108.4640082194118
 30
0.0
 10
55.46069741452025
 20
-108.673470024915
 30
0.0
 10
55.28723685683791
 20
-108.6924180500838
 30
0.0
 10
55.17079262943647
 20
-108.6924180500838
 30
0.0
 10
55.01007892504957
 20
-108.6924180500838
 30
0.0
 10
54.86831324583154
 20
-108.645909261033
 30
0.0
 10
54.77305635566438
 20
-108.4640082194118
 30
0.0
 10
54.66953123633262
 20
-108.2693603244952
 30
0.0
 10
54.65041095638949
 20
-108.03233775511
 30
0.0
 10
54.65041095638949
 20
-107.8697292482062
 30
0.0
 10
54.65041095638949
 20
-107.7257242569227
 30
0.0
 10
54.66729192426721
 20
-107.473887776951
 30
0.0
 10
54.77305635566438
 20
-107.2751057674521
 30
0.0
 10
54.88106009912696
 20
-107.0721896433708
 30
0.0
 10
55.04177380351386
 20
-107.0487629940712
 30
0.0
 10
55.17079262943647
 20
-107.0487629940712
 30
0.0
 10
55.32943927653223
 20
-107.0487629940712
 30
0.0
 10
55.47327201304141
 20
-107.0932047258309
 30
0.0
 10
55.56852890320857
 20
-107.2751057674521
 30
0.0
 10
55.66791990795802
 20
-107.4676866050775
 30
0.0
 10
55.69117430248346
 20
-107.6960964357496
 30
0.0
 10
55.69117430248346
 20
-107.8697292482062
 30
0.0
 10
55.69117430248346
 20
-108.0409504938231
 30
0.0
 10
55.67015922002344
 20
-108.2714273817863
 30
0.0
 10
55.56852890320857
 20
-108.4640082194118
 30
0.0
  0
SPLINE
  5
9C
330
95
100
AcDbEntity
  8
_U+30EC_U+30A4_U+30E4_U+30FC 1
370
     0
100
AcDbSpline
210
0.0
220
0.0
230
1.0
 70
    11
 71
     3
 72
    17
 73
    13
 74
     0
 42
0.0000000001
 43
0.0000000001
 12
1.0
 22
0.0
 32
0.0
 13
1.0
 23
0.0
 33
0.0
 40
0.0
 40
0.0
 40
0.0
 40
0.0
 40
1.0
 40
1.0
 40
1.0
 40
2.0
 40
2.0
 40
2.0
 40
3.0
 40
3.0
 40
3.0
 40
4.0
 40
4.0
 40
4.0
 40
4.0
 10
55.17079262943647
 20
-107.2413438316966
 30
0.0
 10
54.92119546153012
 20
-107.2413438316966
 30
0.0
 10
54.87468667247925
 20
-107.5248751901327
 30
0.0
 10
54.87468667247925
 20
-107.8697292482062
 30
0.0
 10
54.87468667247925
 20
-108.1890895996888
 30
0.0
 10
54.91068792030011
 20
-108.4977701551672
 30
0.0
 10
55.17079262943647
 20
-108.4977701551672
 30
0.0
 10
55.41832274005167
 20
-108.4977701551672
 30
0.0
 10
55.46707084116796
 20
-108.2166503635708
 30
0.0
 10
55.46707084116796
 20
-107.8697292482062
 30
0.0
 10
55.46707084116796
 20
-107.550024387175
 30
0.0
 10
55.42883028128168
 20
-107.2413438316966
 30
0.0
 10
55.17079262943647
 20
-107.2413438316966
 30
0.0
  0
HATCH
  5
9D
330
95
100
AcDbEntity
  8
_U+30EC_U+30A4_U+30E4_U+30FC 1
 62
     7
420
 16777215
100
AcDbHatch
 10
0.0
 20
0.0
 30
0.0
210
0.0
220
0.0
230
1.0
  2
SOLID
 70
     1
 71
     0
 91
        2
 92
        1
 93
        1
 72
     4
 94
        3
 73
     0
 74
     1
 95
       29
 96
       25
 40
0.0
 40
0.0
 40
0.0
 40
0.0
 40
1.0
 40
1.0
 40
1.0
 40
2.0
 40
2.0
 40
2.0
 40
3.0
 40
3.0
 40
3.0
 40
4.0
 40
4.0
 40
4.0
 40
5.0
 40
5.0
 40
5.0
 40
6.0
 40
6.0
 40
6.0
 40
7.0
 40
7.0
 40
7.0
 40
8.0
 40
8.0
 40
8.0
 40
8.0
 10
55.56852890320857
 20
-108.4640082194118
 10
55.46069741452025
 20
-108.673470024915
 10
55.28723685683791
 20
-108.6924180500838
 10
55.17079262943647
 20
-108.6924180500838
 10
55.01007892504957
 20
-108.6924180500838
 10
54.86831324583154
 20
-108.645909261033
 10
54.77305635566438
 20
-108.4640082194118
 10
54.66953123633262
 20
-108.2693603244952
 10
54.65041095638949
 20
-108.03233775511
 10
54.65041095638949
 20
-107.8697292482062
 10
54.65041095638949
 20
-107.7257242569227
 10
54.66729192426721
 20
-107.473887776951
 10
54.77305635566438
 20
-107.2751057674521
 10
54.88106009912696
 20
-107.0721896433708
 10
55.04177380351386
 20
-107.0487629940712
 10
55.17079262943647
 20
-107.0487629940712
 10
55.32943927653223
 20
-107.0487629940712
 10
55.47327201304141
 20
-107.0932047258309
 10
55.56852890320857
 20
-107.2751057674521
 10
55.66791990795802
 20
-107.4676866050775
 10
55.69117430248346
 20
-107.6960964357496
 10
55.69117430248346
 20
-107.8697292482062
 10
55.69117430248346
 20
-108.0409504938231
 10
55.67015922002344
 20
-108.2714273817863
 10
55.56852890320857
 20
-108.4640082194118
 97
        0
 97
        0
 92
        1
 93
        1
 72
     4
 94
        3
 73
     0
 74
     1
 95
       17
 96
       13
 40
0.0
 40
0.0
 40
0.0
 40
0.0
 40
1.0
 40
1.0
 40
1.0
 40
2.0
 40
2.0
 40
2.0
 40
3.0
 40
3.0
 40
3.0
 40
4.0
 40
4.0
 40
4.0
 40
4.0
 10
55.17079262943647
 20
-107.2413438316966
 10
54.92119546153012
 20
-107.2413438316966
 10
54.87468667247925
 20
-107.5248751901327
 10
54.87468667247925
 20
-107.8697292482062
 10
54.87468667247925
 20
-108.1890895996888
 10
54.91068792030011
 20
-108.4977701551672
 10
55.17079262943647
 20
-108.4977701551672
 10
55.41832274005167
 20
-108.4977701551672
 10
55.46707084116796
 20
-108.2166503635708
 10
55.46707084116796
 20
-107.8697292482062
 10
55.46707084116796
 20
-107.550024387175
 10
55.42883028128168
 20
-107.2413438316966
 10
55.17079262943647
 20
-107.2413438316966
 97
        0
 97
        0
 75
     2
 76
     1
 98
        0
  0
ENDBLK
  5
98
330
95
100
AcDbEntity
  8
0
100
AcDbBlockEnd
  0
BLOCK
  5
AC
330
AA
100
AcDbEntity
  8
0
100
AcDbBlockBegin
  2
block 5
 70
     0
 10
0.0
 20
0.0
 30
0.0
  3
block 5
  1

  0
SPLINE
  5
AE
330
AA
100
AcDbEntity
  8
_U+30EC_U+30A4_U+30E4_U+30FC 1
370
     0
100
AcDbSpline
210
0.0
220
0.0
230
1.0
 70
    11
 71
     3
 72
    44
 73
    40
 74
     0
 42
0.0000000001
 43
0.0000000001
 12
1.0
 22
0.0
 32
0.0
 13
1.0
 23
0.0
 33
0.0
 40
0.0
 40
0.0
 40
0.0
 40
0.0
 40
1.0
 40
1.0
 40
1.0
 40
2.0
 40
2.0
 40
2.0
 40
3.0
 40
3.0
 40
3.0
 40
4.0
 40
4.0
 40
4.0
 40
5.0
 40
5.0
 40
5.0
 40
6.0
 40
6.0
 40
6.0
 40
7.0
 40
7.0
 40
7.0
 40
8.0
 40
8.0
 40
8.0
 40
9.0
 40
9.0
 40
9.0
 40
10.0
 40
10.0
 40
10.0
 40
11.0
 40
11.0
 40
11.0
 40
12.0
 40
12.0
 40
12.0
 40
13.0
 40
13.0
 40
13.0
 40
13.0
 10
60.58682724179774
 20
-70.26117212870207
 30
0.0
 10
60.36909720712995
 20
-70.41981877579782
 30
0.0
 10
60.2760796290282
 20
-70.49388832873069
 30
0.0
 10
60.22715927313766
 20
-70.63772106523987
 30
0.0
 10
60.22715927313766
 20
-70.63772106523987
 30
0.0
 10
61.00575085280412
 20
-70.63772106523987
 30
0.0
 10
61.00575085280412
 20
-70.63772106523987
 30
0.0
 10
61.00575085280412
 20
-70.63772106523987
 30
0.0
 10
61.00575085280412
 20
-70.84287650138651
 30
0.0
 10
61.00575085280412
 20
-70.84287650138651
 30
0.0
 10
61.00575085280412
 20
-70.84287650138651
 30
0.0
 10
59.97773436000557
 20
-70.84287650138651
 30
0.0
 10
59.97773436000557
 20
-70.84287650138651
 30
0.0
 10
60.00942923846987
 20
-70.48527559001758
 30
0.0
 10
60.07488605268961
 20
-70.4070719225024
 30
0.0
 10
60.46004772794055
 20
-70.10872665347976
 30
0.0
 10
60.71601832249461
 20
-69.90994464398085
 30
0.0
 10
60.78147513671436
 20
-69.8422485176957
 30
0.0
 10
60.78147513671436
 20
-69.70478920783422
 30
0.0
 10
60.78147513671436
 20
-69.58627792314162
 30
0.0
 10
60.70947264107264
 20
-69.45519203992787
 30
0.0
 10
60.51275768886487
 20
-69.45519203992787
 30
0.0
 10
60.25265297972851
 20
-69.45519203992787
 30
0.0
 10
60.24404024101538
 20
-69.68566892789109
 30
0.0
 10
60.23990612643308
 20
-69.80211315529253
 30
0.0
 10
60.23990612643308
 20
-69.80211315529253
 30
0.0
 10
60.01563041034332
 20
-69.80211315529253
 30
0.0
 10
60.01563041034332
 20
-69.80211315529253
 30
0.0
 10
60.02424314905644
 20
-69.67516138666107
 30
0.0
 10
60.03492294506071
 20
-69.56302352861618
 30
0.0
 10
60.11519366986704
 20
-69.4445122439236
 30
0.0
 10
60.22509221584651
 20
-69.28379853953669
 30
0.0
 10
60.41147188159852
 20
-69.24986434900698
 30
0.0
 10
60.52757159945144
 20
-69.24986434900698
 30
0.0
 10
60.80490178601406
 20
-69.24986434900698
 30
0.0
 10
61.0122965342261
 20
-69.43400470269358
 30
0.0
 10
61.0122965342261
 20
-69.70685626512537
 30
0.0
 10
61.0122965342261
 20
-69.93526609579743
 30
0.0
 10
60.89585230682465
 20
-70.03482935532115
 30
0.0
 10
60.58682724179774
 20
-70.26117212870207
 30
0.0
  0
HATCH
  5
AF
330
AA
100
AcDbEntity
  8
_U+30EC_U+30A4_U+30E4_U+30FC 1
 62
     7
420
 16777215
100
AcDbHatch
 10
0.0
 20
0.0
 30
0.0
210
0.0
220
0.0
230
1.0
  2
SOLID
 70
     1
 71
     0
 91
        1
 92
        1
 93
        1
 72
     4
 94
        3
 73
     0
 74
     1
 95
       44
 96
       40
 40
0.0
 40
0.0
 40
0.0
 40
0.0
 40
1.0
 40
1.0
 40
1.0
 40
2.0
 40
2.0
 40
2.0
 40
3.0
 40
3.0
 40
3.0
 40
4.0
 40
4.0
 40
4.0
 40
5.0
 40
5.0
 40
5.0
 40
6.0
 40
6.0
 40
6.0
 40
7.0
 40
7.0
 40
7.0
 40
8.0
 40
8.0
 40
8.0
 40
9.0
 40
9.0
 40
9.0
 40
10.0
 40
10.0
 40
10.0
 40
11.0
 40
11.0
 40
11.0
 40
12.0
 40
12.0
 40
12.0
 40
13.0
 40
13.0
 40
13.0
 40
13.0
 10
60.58682724179774
 20
-70.26117212870207
 10
60.36909720712995
 20
-70.41981877579782
 10
60.2760796290282
 20
-70.49388832873069
 10
60.22715927313766
 20
-70.63772106523987
 10
60.22715927313766
 20
-70.63772106523987
 10
61.00575085280412
 20
-70.63772106523987
 10
61.00575085280412
 20
-70.63772106523987
 10
61.00575085280412
 20
-70.63772106523987
 10
61.00575085280412
 20
-70.84287650138651
 10
61.00575085280412
 20
-70.84287650138651
 10
61.00575085280412
 20
-70.84287650138651
 10
59.97773436000557
 20
-70.84287650138651
 10
59.97773436000557
 20
-70.84287650138651
 10
60.00942923846987
 20
-70.48527559001758
 10
60.07488605268961
 20
-70.4070719225024
 10
60.46004772794055
 20
-70.10872665347976
 10
60.71601832249461
 20
-69.90994464398085
 10
60.78147513671436
 20
-69.8422485176957
 10
60.78147513671436
 20
-69.70478920783422
 10
60.78147513671436
 20
-69.58627792314162
 10
60.70947264107264
 20
-69.45519203992787
 10
60.51275768886487
 20
-69.45519203992787
 10
60.25265297972851
 20
-69.45519203992787
 10
60.24404024101538
 20
-69.68566892789109
 10
60.23990612643308
 20
-69.80211315529253
 10
60.23990612643308
 20
-69.80211315529253
 10
60.01563041034332
 20
-69.80211315529253
 10
60.01563041034332
 20
-69.80211315529253
 10
60.02424314905644
 20
-69.67516138666107
 10
60.03492294506071
 20
-69.56302352861618
 10
60.11519366986704
 20
-69.4445122439236
 10
60.22509221584651
 20
-69.28379853953669
 10
60.41147188159852
 20
-69.24986434900698
 10
60.52757159945144
 20
-69.24986434900698
 10
60.80490178601406
 20
-69.24986434900698
 10
61.0122965342261
 20
-69.43400470269358
 10
61.0122965342261
 20
-69.70685626512537
 10
61.0122965342261
 20
-69.93526609579743
 10
60.89585230682465
 20
-70.03482935532115
 10
60.58682724179774
 20
-70.26117212870207
 97
        0
 97
        0
 75
     2
 76
     1
 98
        0
  0
SPLINE
  5
B0
330
AA
100
AcDbEntity
  8
_U+30EC_U+30A4_U+30E4_U+30FC 1
370
     0
100
AcDbSpline
210
0.0
220
0.0
230
1.0
 70
    11
 71
     3
 72
    62
 73
    58
 74
     0
 42
0.0000000001
 43
0.0000000001
 12
1.0
 22
0.0
 32
0.0
 13
1.0
 23
0.0
 33
0.0
 40
0.0
 40
0.0
 40
0.0
 40
0.0
 40
1.0
 40
1.0
 40
1.0
 40
2.0
 40
2.0
 40
2.0
 40
3.0
 40
3.0
 40
3.0
 40
4.0
 40
4.0
 40
4.0
 40
5.0
 40
5.0
 40
5.0
 40
6.0
 40
6.0
 40
6.0
 40
7.0
 40
7.0
 40
7.0
 40
8.0
 40
8.0
 40
8.0
 40
9.0
 40
9.0
 40
9.0
 40
10.0
 40
10.0
 40
10.0
 40
11.0
 40
11.0
 40
11.0
 40
12.0
 40
12.0
 40
12.0
 40
13.0
 40
13.0
 40
13.0
 40
14.0
 40
14.0
 40
14.0
 40
15.0
 40
15.0
 40
15.0
 40
16.0
 40
16.0
 40
16.0
 40
17.0
 40
17.0
 40
17.0
 40
18.0
 40
18.0
 40
18.0
 40
19.0
 40
19.0
 40
19.0
 40
19.0
 10
61.66238605229274
 20
-70.89369165979394
 30
0.0
 10
61.56695690735132
 20
-70.89369165979394
 30
0.0
 10
61.34922687268353
 20
-70.87250432255965
 30
0.0
 10
61.22416990656896
 20
-70.6862969115819
 30
0.0
 10
61.15010035363609
 20
-70.57415905353702
 30
0.0
 10
61.14596623905379
 20
-70.47476804878757
 30
0.0
 10
61.14183212447149
 20
-70.39019095462467
 30
0.0
 10
61.14183212447149
 20
-70.39019095462467
 30
0.0
 10
61.36197372597896
 20
-70.39019095462467
 30
0.0
 10
61.36197372597896
 20
-70.39019095462467
 30
0.0
 10
61.36404078327011
 20
-70.46426050755755
 30
0.0
 10
61.37437606972586
 20
-70.69904376487733
 30
0.0
 10
61.65790742816191
 20
-70.69904376487733
 30
0.0
 10
61.79536673802338
 20
-70.69904376487733
 30
0.0
 10
61.94798446801995
 20
-70.62928058130102
 30
0.0
 10
61.94798446801995
 20
-70.40069849585468
 30
0.0
 10
61.94798446801995
 20
-70.28442652322751
 30
0.0
 10
61.90974390813368
 20
-70.23567842211122
 30
0.0
 10
61.87804902966938
 20
-70.20398354364693
 30
0.0
 10
61.80397947673651
 20
-70.12991399071406
 30
0.0
 10
61.68753524933506
 20
-70.11733939219289
 30
0.0
 10
61.63275823111959
 20
-70.11733939219289
 30
0.0
 10
61.61346569640219
 20
-70.11733939219289
 30
0.0
 10
61.57763670335559
 20
-70.11940644948405
 30
0.0
 10
61.55007593947359
 20
-70.12354056406635
 30
0.0
 10
61.55007593947359
 20
-70.12354056406635
 30
0.0
 10
61.55007593947359
 20
-69.92889266914972
 30
0.0
 10
61.55007593947359
 20
-69.92889266914972
 30
0.0
 10
61.58831649935987
 20
-69.93526609579743
 30
0.0
 10
61.63034666427992
 20
-69.93750540786284
 30
0.0
 10
61.63689234570189
 20
-69.93750540786284
 30
0.0
 10
61.70234915992164
 20
-69.93750540786284
 30
0.0
 10
61.90113116942055
 20
-69.91631807062856
 30
0.0
 10
61.90113116942055
 20
-69.67929550124337
 30
0.0
 10
61.90113116942055
 20
-69.50170082897874
 30
0.0
 10
61.77021754098106
 20
-69.44657930121475
 30
0.0
 10
61.65997448545306
 20
-69.44657930121475
 30
0.0
 10
61.3957356617344
 20
-69.44657930121475
 30
0.0
 10
61.38712292302128
 20
-69.67929550124337
 30
0.0
 10
61.38298880843898
 20
-69.7512979968851
 30
0.0
 10
61.38298880843898
 20
-69.7512979968851
 30
0.0
 10
61.17972817480923
 20
-69.7512979968851
 30
0.0
 10
61.17972817480923
 20
-69.7512979968851
 30
0.0
 10
61.18834091352236
 20
-69.62641328554479
 30
0.0
 10
61.21590167740436
 20
-69.24986434900698
 30
0.0
 10
61.67272133874849
 20
-69.24986434900698
 30
0.0
 10
61.89699705483825
 20
-69.24986434900698
 30
0.0
 10
62.13815373880574
 20
-69.37681611763844
 30
0.0
 10
62.13815373880574
 20
-69.67292207459566
 30
0.0
 10
62.13815373880574
 20
-69.85912948557342
 30
0.0
 10
62.04306910341285
 20
-69.94163952244514
 30
0.0
 10
61.94350584388913
 20
-70.0029622220826
 30
0.0
 10
62.00482854352657
 20
-70.0305229859646
 30
0.0
 10
62.18672958514777
 20
-70.11096596554518
 30
0.0
 10
62.18672958514777
 20
-70.38812389733353
 30
0.0
 10
62.18672958514777
 20
-70.72660452875932
 30
0.0
 10
61.93937172930683
 20
-70.89369165979394
 30
0.0
 10
61.66238605229274
 20
-70.89369165979394
 30
0.0
  0
HATCH
  5
B1
330
AA
100
AcDbEntity
  8
_U+30EC_U+30A4_U+30E4_U+30FC 1
 62
     7
420
 16777215
100
AcDbHatch
 10
0.0
 20
0.0
 30
0.0
210
0.0
220
0.0
230
1.0
  2
SOLID
 70
     1
 71
     0
 91
        1
 92
        1
 93
        1
 72
     4
 94
        3
 73
     0
 74
     1
 95
       62
 96
       58
 40
0.0
 40
0.0
 40
0.0
 40
0.0
 40
1.0
 40
1.0
 40
1.0
 40
2.0
 40
2.0
 40
2.0
 40
3.0
 40
3.0
 40
3.0
 40
4.0
 40
4.0
 40
4.0
 40
5.0
 40
5.0
 40
5.0
 40
6.0
 40
6.0
 40
6.0
 40
7.0
 40
7.0
 40
7.0
 40
8.0
 40
8.0
 40
8.0
 40
9.0
 40
9.0
 40
9.0
 40
10.0
 40
10.0
 40
10.0
 40
11.0
 40
11.0
 40
11.0
 40
12.0
 40
12.0
 40
12.0
 40
13.0
 40
13.0
 40
13.0
 40
14.0
 40
14.0
 40
14.0
 40
15.0
 40
15.0
 40
15.0
 40
16.0
 40
16.0
 40
16.0
 40
17.0
 40
17.0
 40
17.0
 40
18.0
 40
18.0
 40
18.0
 40
19.0
 40
19.0
 40
19.0
 40
19.0
 10
61.66238605229274
 20
-70.89369165979394
 10
61.56695690735132
 20
-70.89369165979394
 10
61.34922687268353
 20
-70.87250432255965
 10
61.22416990656896
 20
-70.6862969115819
 10
61.15010035363609
 20
-70.57415905353702
 10
61.14596623905379
 20
-70.47476804878757
 10
61.14183212447149
 20
-70.39019095462467
 10
61.14183212447149
 20
-70.39019095462467
 10
61.36197372597896
 20
-70.39019095462467
 10
61.36197372597896
 20
-70.39019095462467
 10
61.36404078327011
 20
-70.46426050755755
 10
61.37437606972586
 20
-70.69904376487733
 10
61.65790742816191
 20
-70.69904376487733
 10
61.79536673802338
 20
-70.69904376487733
 10
61.94798446801995
 20
-70.62928058130102
 10
61.94798446801995
 20
-70.40069849585468
 10
61.94798446801995
 20
-70.28442652322751
 10
61.90974390813368
 20
-70.23567842211122
 10
61.87804902966938
 20
-70.20398354364693
 10
61.80397947673651
 20
-70.12991399071406
 10
61.68753524933506
 20
-70.11733939219289
 10
61.63275823111959
 20
-70.11733939219289
 10
61.61346569640219
 20
-70.11733939219289
 10
61.57763670335559
 20
-70.11940644948405
 10
61.55007593947359
 20
-70.12354056406635
 10
61.55007593947359
 20
-70.12354056406635
 10
61.55007593947359
 20
-69.92889266914972
 10
61.55007593947359
 20
-69.92889266914972
 10
61.58831649935987
 20
-69.93526609579743
 10
61.63034666427992
 20
-69.93750540786284
 10
61.63689234570189
 20
-69.93750540786284
 10
61.70234915992164
 20
-69.93750540786284
 10
61.90113116942055
 20
-69.91631807062856
 10
61.90113116942055
 20
-69.67929550124337
 10
61.90113116942055
 20
-69.50170082897874
 10
61.77021754098106
 20
-69.44657930121475
 10
61.65997448545306
 20
-69.44657930121475
 10
61.3957356617344
 20
-69.44657930121475
 10
61.38712292302128
 20
-69.67929550124337
 10
61.38298880843898
 20
-69.7512979968851
 10
61.38298880843898
 20
-69.7512979968851
 10
61.17972817480923
 20
-69.7512979968851
 10
61.17972817480923
 20
-69.7512979968851
 10
61.18834091352236
 20
-69.62641328554479
 10
61.21590167740436
 20
-69.24986434900698
 10
61.67272133874849
 20
-69.24986434900698
 10
61.89699705483825
 20
-69.24986434900698
 10
62.13815373880574
 20
-69.37681611763844
 10
62.13815373880574
 20
-69.67292207459566
 10
62.13815373880574
 20
-69.85912948557342
 10
62.04306910341285
 20
-69.94163952244514
 10
61.94350584388913
 20
-70.0029622220826
 10
62.00482854352657
 20
-70.0305229859646
 10
62.18672958514777
 20
-70.11096596554518
 10
62.18672958514777
 20
-70.38812389733353
 10
62.18672958514777
 20
-70.72660452875932
 10
61.93937172930683
 20
-70.89369165979394
 10
61.66238605229274
 20
-70.89369165979394
 97
        0
 97
        0
 75
     2
 76
     1
 98
        0
  0
ENDBLK
  5
AD
330
AA
100
AcDbEntity
  8
0
100
AcDbBlockEnd
  0
BLOCK
  5
BC
330
BA
100
AcDbEntity
  8
0
100
AcDbBlockBegin
  2
block 6
 70
     0
 10
0.0
 20
0.0
 30
0.0
  3
block 6
  1

  0
SPLINE
  5
BE
330
BA
100
AcDbEntity
  8
_U+30EC_U+30A4_U+30E4_U+30FC 1
370
     0
100
AcDbSpline
210
0.0
220
0.0
230
1.0
 70
    11
 71
     3
 72
    44
 73
    40
 74
     0
 42
0.0000000001
 43
0.0000000001
 12
1.0
 22
0.0
 32
0.0
 13
1.0
 23
0.0
 33
0.0
 40
0.0
 40
0.0
 40
0.0
 40
0.0
 40
1.0
 40
1.0
 40
1.0
 40
2.0
 40
2.0
 40
2.0
 40
3.0
 40
3.0
 40
3.0
 40
4.0
 40
4.0
 40
4.0
 40
5.0
 40
5.0
 40
5.0
 40
6.0
 40
6.0
 40
6.0
 40
7.0
 40
7.0
 40
7.0
 40
8.0
 40
8.0
 40
8.0
 40
9.0
 40
9.0
 40
9.0
 40
10.0
 40
10.0
 40
10.0
 40
11.0
 40
11.0
 40
11.0
 40
12.0
 40
12.0
 40
12.0
 40
13.0
 40
13.0
 40
13.0
 40
13.0
 10
74.64901799349053
 20
-90.4899115442178
 30
0.0
 10
74.80783689536054
 20
-90.7076415788856
 30
0.0
 10
74.88190644829342
 20
-90.80065915698734
 30
0.0
 10
75.02556693002833
 20
-90.84957951287788
 30
0.0
 10
75.02556693002833
 20
-90.84957951287788
 30
0.0
 10
75.02556693002833
 20
-90.07098793321143
 30
0.0
 10
75.02556693002833
 20
-90.07098793321143
 30
0.0
 10
75.02556693002833
 20
-90.07098793321143
 30
0.0
 10
75.23089462094923
 20
-90.07098793321143
 30
0.0
 10
75.23089462094923
 20
-90.07098793321143
 30
0.0
 10
75.23089462094923
 20
-90.07098793321143
 30
0.0
 10
75.23089462094923
 20
-91.09900442600997
 30
0.0
 10
75.23089462094923
 20
-91.09900442600997
 30
0.0
 10
74.8732937095803
 20
-91.06730954754568
 30
0.0
 10
74.79509004206513
 20
-91.00185273332593
 30
0.0
 10
74.49674477304248
 20
-90.61669105807499
 30
0.0
 10
74.29796276354357
 20
-90.36072046352093
 30
0.0
 10
74.23009438248414
 20
-90.29526364930119
 30
0.0
 10
74.09263507262268
 20
-90.29526364930119
 30
0.0
 10
73.97412378793008
 20
-90.29526364930119
 30
0.0
 10
73.8432101594906
 20
-90.3672661449429
 30
0.0
 10
73.8432101594906
 20
-90.56398109715067
 30
0.0
 10
73.8432101594906
 20
-90.82408580628704
 30
0.0
 10
74.0736870474538
 20
-90.83269854500016
 30
0.0
 10
74.19013127485525
 20
-90.83683265958246
 30
0.0
 10
74.19013127485525
 20
-90.83683265958246
 30
0.0
 10
74.19013127485525
 20
-91.06110837567223
 30
0.0
 10
74.19013127485525
 20
-91.06110837567223
 30
0.0
 10
74.06300725144953
 20
-91.05249563695911
 30
0.0
 10
73.95104164817892
 20
-91.04181584095483
 30
0.0
 10
73.83253036348631
 20
-90.9615451161485
 30
0.0
 10
73.67164440432515
 20
-90.85164657016904
 30
0.0
 10
73.6378824685697
 20
-90.66526690441702
 30
0.0
 10
73.6378824685697
 20
-90.5491671865641
 30
0.0
 10
73.6378824685697
 20
-90.27183700000148
 30
0.0
 10
73.82185056748204
 20
-90.06444225178944
 30
0.0
 10
74.09470212991383
 20
-90.06444225178944
 30
0.0
 10
74.32345647013442
 20
-90.06444225178944
 30
0.0
 10
74.42267522010961
 20
-90.18088647919089
 30
0.0
 10
74.64901799349053
 20
-90.4899115442178
 30
0.0
  0
HATCH
  5
BF
330
BA
100
AcDbEntity
  8
_U+30EC_U+30A4_U+30E4_U+30FC 1
 62
     7
420
 16777215
100
AcDbHatch
 10
0.0
 20
0.0
 30
0.0
210
0.0
220
0.0
230
1.0
  2
SOLID
 70
     1
 71
     0
 91
        1
 92
        1
 93
        1
 72
     4
 94
        3
 73
     0
 74
     1
 95
       44
 96
       40
 40
0.0
 40
0.0
 40
0.0
 40
0.0
 40
1.0
 40
1.0
 40
1.0
 40
2.0
 40
2.0
 40
2.0
 40
3.0
 40
3.0
 40
3.0
 40
4.0
 40
4.0
 40
4.0
 40
5.0
 40
5.0
 40
5.0
 40
6.0
 40
6.0
 40
6.0
 40
7.0
 40
7.0
 40
7.0
 40
8.0
 40
8.0
 40
8.0
 40
9.0
 40
9.0
 40
9.0
 40
10.0
 40
10.0
 40
10.0
 40
11.0
 40
11.0
 40
11.0
 40
12.0
 40
12.0
 40
12.0
 40
13.0
 40
13.0
 40
13.0
 40
13.0
 10
74.64901799349053
 20
-90.4899115442178
 10
74.80783689536054
 20
-90.7076415788856
 10
74.88190644829342
 20
-90.80065915698734
 10
75.02556693002833
 20
-90.84957951287788
 10
75.02556693002833
 20
-90.84957951287788
 10
75.02556693002833
 20
-90.07098793321143
 10
75.02556693002833
 20
-90.07098793321143
 10
75.02556693002833
 20
-90.07098793321143
 10
75.23089462094923
 20
-90.07098793321143
 10
75.23089462094923
 20
-90.07098793321143
 10
75.23089462094923
 20
-90.07098793321143
 10
75.23089462094923
 20
-91.09900442600997
 10
75.23089462094923
 20
-91.09900442600997
 10
74.8732937095803
 20
-91.06730954754568
 10
74.79509004206513
 20
-91.00185273332593
 10
74.49674477304248
 20
-90.61669105807499
 10
74.29796276354357
 20
-90.36072046352093
 10
74.23009438248414
 20
-90.29526364930119
 10
74.09263507262268
 20
-90.29526364930119
 10
73.97412378793008
 20
-90.29526364930119
 10
73.8432101594906
 20
-90.3672661449429
 10
73.8432101594906
 20
-90.56398109715067
 10
73.8432101594906
 20
-90.82408580628704
 10
74.0736870474538
 20
-90.83269854500016
 10
74.19013127485525
 20
-90.83683265958246
 10
74.19013127485525
 20
-90.83683265958246
 10
74.19013127485525
 20
-91.06110837567223
 10
74.19013127485525
 20
-91.06110837567223
 10
74.06300725144953
 20
-91.05249563695911
 10
73.95104164817892
 20
-91.04181584095483
 10
73.83253036348631
 20
-90.9615451161485
 10
73.67164440432515
 20
-90.85164657016904
 10
73.6378824685697
 20
-90.66526690441702
 10
73.6378824685697
 20
-90.5491671865641
 10
73.6378824685697
 20
-90.27183700000148
 10
73.82185056748204
 20
-90.06444225178944
 10
74.09470212991383
 20
-90.06444225178944
 10
74.32345647013442
 20
-90.06444225178944
 10
74.42267522010961
 20
-90.18088647919089
 10
74.64901799349053
 20
-90.4899115442178
 97
        0
 97
        0
 75
     2
 76
     1
 98
        0
  0
SPLINE
  5
C0
330
BA
100
AcDbEntity
  8
_U+30EC_U+30A4_U+30E4_U+30FC 1
370
     0
100
AcDbSpline
210
0.0
220
0.0
230
1.0
 70
    11
 71
     3
 72
    32
 73
    28
 74
     0
 42
0.0000000001
 43
0.0000000001
 12
1.0
 22
0.0
 32
0.0
 13
1.0
 23
0.0
 33
0.0
 40
0.0
 40
0.0
 40
0.0
 40
0.0
 40
1.0
 40
1.0
 40
1.0
 40
2.0
 40
2.0
 40
2.0
 40
3.0
 40
3.0
 40
3.0
 40
4.0
 40
4.0
 40
4.0
 40
5.0
 40
5.0
 40
5.0
 40
6.0
 40
6.0
 40
6.0
 40
7.0
 40
7.0
 40
7.0
 40
8.0
 40
8.0
 40
8.0
 40
9.0
 40
9.0
 40
9.0
 40
9.0
 10
75.28153752458239
 20
-89.40195038997591
 30
0.0
 10
75.28153752458239
 20
-89.91802569366634
 30
0.0
 10
74.72756617055423
 20
-89.92663843237946
 30
0.0
 10
74.5136257409202
 20
-89.92663843237946
 30
0.0
 10
74.283148852957
 20
-89.92663843237946
 30
0.0
 10
73.63581541127854
 20
-89.90734589766205
 30
0.0
 10
73.63581541127854
 20
-89.36370983008963
 30
0.0
 10
73.63581541127854
 20
-89.19042152718157
 30
0.0
 10
73.70575084962913
 20
-88.94478621908326
 30
0.0
 10
74.03785805440721
 20
-88.9068901687455
 30
0.0
 10
74.03785805440721
 20
-88.9068901687455
 30
0.0
 10
74.03785805440721
 20
-89.12048608883099
 30
0.0
 10
74.03785805440721
 20
-89.12048608883099
 30
0.0
 10
73.98066946935205
 20
-89.13116588483527
 30
0.0
 10
73.83253036348631
 20
-89.16286076329956
 30
0.0
 10
73.83253036348631
 20
-89.36577688738078
 30
0.0
 10
73.83253036348631
 20
-89.65792098452997
 30
0.0
 10
74.1605034536821
 20
-89.69788409215887
 30
0.0
 10
74.36548663505447
 20
-89.71063094545428
 30
0.0
 10
74.2872829675393
 20
-89.61761336735255
 30
0.0
 10
74.228027325193
 20
-89.54974498629312
 30
0.0
 10
74.228027325193
 20
-89.36784394467193
 30
0.0
 10
74.228027325193
 20
-89.18800996034189
 30
0.0
 10
74.33620332342984
 20
-88.88553057673695
 30
0.0
 10
74.7423800811408
 20
-88.88553057673695
 30
0.0
 10
75.06174043262345
 20
-88.88553057673695
 30
0.0
 10
75.28153752458239
 20
-89.0846570957844
 30
0.0
 10
75.28153752458239
 20
-89.40195038997591
 30
0.0
  0
SPLINE
  5
C1
330
BA
100
AcDbEntity
  8
_U+30EC_U+30A4_U+30E4_U+30FC 1
370
     0
100
AcDbSpline
210
0.0
220
0.0
230
1.0
 70
    11
 71
     3
 72
    17
 73
    13
 74
     0
 42
0.0000000001
 43
0.0000000001
 12
1.0
 22
0.0
 32
0.0
 13
1.0
 23
0.0
 33
0.0
 40
0.0
 40
0.0
 40
0.0
 40
0.0
 40
1.0
 40
1.0
 40
1.0
 40
2.0
 40
2.0
 40
2.0
 40
3.0
 40
3.0
 40
3.0
 40
4.0
 40
4.0
 40
4.0
 40
4.0
 10
74.42267522010961
 20
-89.38506942209818
 30
0.0
 10
74.42267522010961
 20
-89.6472411885257
 30
0.0
 10
74.63420408290395
 20
-89.68513723886345
 30
0.0
 10
74.7506483103054
 20
-89.68513723886345
 30
0.0
 10
74.92634818005314
 20
-89.68513723886345
 30
0.0
 10
75.08930119650546
 20
-89.59005260347055
 30
0.0
 10
75.08930119650546
 20
-89.40608450455821
 30
0.0
 10
75.08930119650546
 20
-89.28550616257446
 30
0.0
 10
75.03004555415916
 20
-89.10980629282672
 30
0.0
 10
74.74444713843195
 20
-89.10980629282672
 30
0.0
 10
74.52017142234219
 20
-89.10980629282672
 30
0.0
 10
74.42267522010961
 20
-89.24933265997933
 30
0.0
 10
74.42267522010961
 20
-89.38506942209818
 30
0.0
  0
HATCH
  5
C2
330
BA
100
AcDbEntity
  8
_U+30EC_U+30A4_U+30E4_U+30FC 1
 62
     7
420
 16777215
100
AcDbHatch
 10
0.0
 20
0.0
 30
0.0
210
0.0
220
0.0
230
1.0
  2
SOLID
 70
     1
 71
     0
 91
        2
 92
        1
 93
        1
 72
     4
 94
        3
 73
     0
 74
     1
 95
       32
 96
       28
 40
0.0
 40
0.0
 40
0.0
 40
0.0
 40
1.0
 40
1.0
 40
1.0
 40
2.0
 40
2.0
 40
2.0
 40
3.0
 40
3.0
 40
3.0
 40
4.0
 40
4.0
 40
4.0
 40
5.0
 40
5.0
 40
5.0
 40
6.0
 40
6.0
 40
6.0
 40
7.0
 40
7.0
 40
7.0
 40
8.0
 40
8.0
 40
8.0
 40
9.0
 40
9.0
 40
9.0
 40
9.0
 10
75.28153752458239
 20
-89.40195038997591
 10
75.28153752458239
 20
-89.91802569366634
 10
74.72756617055423
 20
-89.92663843237946
 10
74.5136257409202
 20
-89.92663843237946
 10
74.283148852957
 20
-89.92663843237946
 10
73.63581541127854
 20
-89.90734589766205
 10
73.63581541127854
 20
-89.36370983008963
 10
73.63581541127854
 20
-89.19042152718157
 10
73.70575084962913
 20
-88.94478621908326
 10
74.03785805440721
 20
-88.9068901687455
 10
74.03785805440721
 20
-88.9068901687455
 10
74.03785805440721
 20
-89.12048608883099
 10
74.03785805440721
 20
-89.12048608883099
 10
73.98066946935205
 20
-89.13116588483527
 10
73.83253036348631
 20
-89.16286076329956
 10
73.83253036348631
 20
-89.36577688738078
 10
73.83253036348631
 20
-89.65792098452997
 10
74.1605034536821
 20
-89.69788409215887
 10
74.36548663505447
 20
-89.71063094545428
 10
74.2872829675393
 20
-89.61761336735255
 10
74.228027325193
 20
-89.54974498629312
 10
74.228027325193
 20
-89.36784394467193
 10
74.228027325193
 20
-89.18800996034189
 10
74.33620332342984
 20
-88.88553057673695
 10
74.7423800811408
 20
-88.88553057673695
 10
75.06174043262345
 20
-88.88553057673695
 10
75.28153752458239
 20
-89.0846570957844
 10
75.28153752458239
 20
-89.40195038997591
 97
        0
 97
        0
 92
        1
 93
        1
 72
     4
 94
        3
 73
     0
 74
     1
 95
       17
 96
       13
 40
0.0
 40
0.0
 40
0.0
 40
0.0
 40
1.0
 40
1.0
 40
1.0
 40
2.0
 40
2.0
 40
2.0
 40
3.0
 40
3.0
 40
3.0
 40
4.0
 40
4.0
 40
4.0
 40
4.0
 10
74.42267522010961
 20
-89.38506942209818
 10
74.42267522010961
 20
-89.6472411885257
 10
74.63420408290395
 20
-89.68513723886345
 10
74.7506483103054
 20
-89.68513723886345
 10
74.92634818005314
 20
-89.68513723886345
 10
75.08930119650546
 20
-89.59005260347055
 10
75.08930119650546
 20
-89.40608450455821
 10
75.08930119650546
 20
-89.28550616257446
 10
75.03004555415916
 20
-89.10980629282672
 10
74.74444713843195
 20
-89.10980629282672
 10
74.52017142234219
 20
-89.10980629282672
 10
74.42267522010961
 20
-89.24933265997933
 10
74.42267522010961
 20
-89.38506942209818
 97
        0
 97
        0
 75
     2
 76
     1
 98
        0
  0
ENDBLK
  5
BD
330
BA
100
AcDbEntity
  8
0
100
AcDbBlockEnd
  0
ENDSEC
  0
SECTION
  2
ENTITIES
  0
POLYLINE
  5
41
330
1F
100
AcDbEntity
  8
_U+30EC_U+30A4_U+30E4_U+30FC 1
 62
     7
420
 16777215
370
    25
100
AcDb2dPolyline
 66
     1
 10
0.0
 20
0.0
 30
0.0
  0
VERTEX
  5
42
330
41
100
AcDbEntity
  8
_U+30EC_U+30A4_U+30E4_U+30FC 1
 62
     7
420
 16777215
370
    25
100
AcDbVertex
100
AcDb2dVertex
 10
49.58249206837858
 20
-76.19414386984039
 30
0.0
  0
VERTEX
  5
43
330
41
100
AcDbEntity
  8
_U+30EC_U+30A4_U+30E4_U+30FC 1
 62
     7
420
 16777215
370
    25
100
AcDbVertex
100
AcDb2dVertex
 10
72.58265009270677
 20
-76.19414386984039
 30
0.0
  0
VERTEX
  5
44
330
41
100
AcDbEntity
  8
_U+30EC_U+30A4_U+30E4_U+30FC 1
 62
     7
420
 16777215
370
    25
100
AcDbVertex
100
AcDb2dVertex
 10
72.58265009270677
 20
-76.99410275852932
 30
0.0
  0
VERTEX
  5
45
330
41
100
AcDbEntity
  8
_U+30EC_U+30A4_U+30E4_U+30FC 1
 62
     7
420
 16777215
370
    25
100
AcDbVertex
100
AcDb2dVertex
 10
50.38280371462759
 20
-76.99410275852932
 30
0.0
  0
VERTEX
  5
46
330
41
100
AcDbEntity
  8
_U+30EC_U+30A4_U+30E4_U+30FC 1
 62
     7
420
 16777215
370
    25
100
AcDbVertex
100
AcDb2dVertex
 10
50.38280371462759
 20
-105.1939235848126
 30
0.0
  0
VERTEX
  5
47
330
41
100
AcDbEntity
  8
_U+30EC_U+30A4_U+30E4_U+30FC 1
 62
     7
420
 16777215
370
    25
100
AcDbVertex
100
AcDb2dVertex
 10
58.78261877810824
 20
-105.1939235848126
 30
0.0
  0
VERTEX
  5
48
330
41
100
AcDbEntity
  8
_U+30EC_U+30A4_U+30E4_U+30FC 1
 62
     7
420
 16777215
370
    25
100
AcDbVertex
100
AcDb2dVertex
 10
58.78261877810824
 20
-103.7938544184962
 30
0.0
  0
VERTEX
  5
49
330
41
100
AcDbEntity
  8
_U+30EC_U+30A4_U+30E4_U+30FC 1
 62
     7
420
 16777215
370
    25
100
AcDbVertex
100
AcDb2dVertex
 10
55.58246580419538
 20
-103.7938544184962
 30
0.0
  0
VERTEX
  5
4A
330
41
100
AcDbEntity
  8
_U+30EC_U+30A4_U+30E4_U+30FC 1
 62
     7
420
 16777215
370
    25
100
AcDbVertex
100
AcDb2dVertex
 10
55.58246580419538
 20
-102.9938955298069
 30
0.0
  0
VERTEX
  5
4B
330
41
100
AcDbEntity
  8
_U+30EC_U+30A4_U+30E4_U+30FC 1
 62
     7
420
 16777215
370
    25
100
AcDbVertex
100
AcDb2dVertex
 10
59.58257764658847
 20
-102.9938955298069
 30
0.0
  0
VERTEX
  5
4C
330
41
100
AcDbEntity
  8
_U+30EC_U+30A4_U+30E4_U+30FC 1
 62
     7
420
 16777215
370
    25
100
AcDbVertex
100
AcDb2dVertex
 10
59.58257764658847
 20
-105.9938824735013
 30
0.0
  0
VERTEX
  5
4D
330
41
100
AcDbEntity
  8
_U+30EC_U+30A4_U+30E4_U+30FC 1
 62
     7
420
 16777215
370
    25
100
AcDbVertex
100
AcDb2dVertex
 10
49.58249206837858
 20
-105.9938824735013
 30
0.0
  0
VERTEX
  5
4E
330
41
100
AcDbEntity
  8
_U+30EC_U+30A4_U+30E4_U+30FC 1
 62
     7
420
 16777215
370
    25
100
AcDbVertex
100
AcDb2dVertex
 10
49.58249206837858
 20
-76.19414386984039
 30
0.0
  0
SEQEND
  5
4F
330
41
100
AcDbEntity
  8
_U+30EC_U+30A4_U+30E4_U+30FC 1
 62
     7
420
 16777215
370
    25
  0
SPLINE
  5
50
330
1F
100
AcDbEntity
  8
_U+30EC_U+30A4_U+30E4_U+30FC 1
 62
     7
420
 16777215
370
     9
100
AcDbSpline
210
0.0
220
0.0
230
1.0
 70
    11
 71
     3
 72
    17
 73
    13
 74
     0
 42
0.0000000001
 43
0.0000000001
 12
1.0
 22
0.0
 32
0.0
 13
1.0
 23
0.0
 33
0.0
 40
0.0
 40
0.0
 40
0.0
 40
0.0
 40
1.0
 40
1.0
 40
1.0
 40
2.0
 40
2.0
 40
2.0
 40
3.0
 40
3.0
 40
3.0
 40
4.0
 40
4.0
 40
4.0
 40
4.0
 10
76.68231582144892
 20
-76.19414386984039
 30
0.0
 10
76.68231582144892
 20
-76.13900470318762
 30
0.0
 10
76.63751304481416
 20
-76.09423720319874
 30
0.0
 10
76.58241109196577
 20
-76.09423720319874
 30
0.0
 10
76.52726999207113
 20
-76.09423720319874
 30
0.0
 10
76.48250249321325
 20
-76.13900470318762
 30
0.0
 10
76.48250249321325
 20
-76.19414386984039
 30
0.0
 10
76.48250249321325
 20
-76.24995331427083
 30
0.0
 10
76.52726999207113
 20
-76.29405053648202
 30
0.0
 10
76.58241109196577
 20
-76.29405053648202
 30
0.0
 10
76.63751304481416
 20
-76.29405053648202
 30
0.0
 10
76.68231582144892
 20
-76.24995331427083
 30
0.0
 10
76.68231582144892
 20
-76.19414386984039
 30
0.0
  0
SPLINE
  5
51
330
1F
100
AcDbEntity
  8
_U+30EC_U+30A4_U+30E4_U+30FC 1
 62
     7
420
 16777215
370
     9
100
AcDbSpline
210
0.0
220
0.0
230
1.0
 70
    11
 71
     3
 72
    17
 73
    13
 74
     0
 42
0.0000000001
 43
0.0000000001
 12
1.0
 22
0.0
 32
0.0
 13
1.0
 23
0.0
 33
0.0
 40
0.0
 40
0.0
 40
0.0
 40
0.0
 40
1.0
 40
1.0
 40
1.0
 40
2.0
 40
2.0
 40
2.0
 40
3.0
 40
3.0
 40
3.0
 40
4.0
 40
4.0
 40
4.0
 40
4.0
 10
76.68231582144892
 20
-76.99410275852932
 30
0.0
 10
76.68231582144892
 20
-76.93896359187625
 30
0.0
 10
76.63751304481416
 20
-76.8941960918877
 30
0.0
 10
76.58241109196577
 20
-76.8941960918877
 30
0.0
 10
76.52726999207113
 20
-76.8941960918877
 30
0.0
 10
76.48250249321325
 20
-76.93896359187625
 30
0.0
 10
76.48250249321325
 20
-76.99410275852932
 30
0.0
 10
76.48250249321325
 20
-77.04991220295977
 30
0.0
 10
76.52726999207113
 20
-77.09467970294865
 30
0.0
 10
76.58241109196577
 20
-77.09467970294865
 30
0.0
 10
76.63751304481416
 20
-77.09467970294865
 30
0.0
 10
76.68231582144892
 20
-77.04991220295977
 30
0.0
 10
76.68231582144892
 20
-76.99410275852932
 30
0.0
  0
SPLINE
  5
52
330
1F
100
AcDbEntity
  8
_U+30EC_U+30A4_U+30E4_U+30FC 1
 62
     7
420
 16777215
370
     9
100
AcDbSpline
210
0.0
220
0.0
230
1.0
 70
    11
 71
     3
 72
    17
 73
    13
 74
     0
 42
0.0000000001
 43
0.0000000001
 12
1.0
 22
0.0
 32
0.0
 13
1.0
 23
0.0
 33
0.0
 40
0.0
 40
0.0
 40
0.0
 40
0.0
 40
1.0
 40
1.0
 40
1.0
 40
2.0
 40
2.0
 40
2.0
 40
3.0
 40
3.0
 40
3.0
 40
4.0
 40
4.0
 40
4.0
 40
4.0
 10
72.68255675682461
 20
-72.1943847041735
 30
0.0
 10
72.68255675682461
 20
-72.13928081529858
 30
0.0
 10
72.63775398018984
 20
-72.09447803753186
 30
0.0
 10
72.58265009270677
 20
-72.09447803753186
 30
0.0
 10
72.52751092744683
 20
-72.09447803753186
 30
0.0
 10
72.48274342858893
 20
-72.13928081529858
 30
0.0
 10
72.48274342858893
 20
-72.1943847041735
 30
0.0
 10
72.48274342858893
 20
-72.24952387082658
 30
0.0
 10
72.52751092744683
 20
-72.29429137081546
 30
0.0
 10
72.58265009270677
 20
-72.29429137081546
 30
0.0
 10
72.63775398018984
 20
-72.29429137081546
 30
0.0
 10
72.68255675682461
 20
-72.24952387082658
 30
0.0
 10
72.68255675682461
 20
-72.1943847041735
 30
0.0
  0
SPLINE
  5
53
330
1F
100
AcDbEntity
  8
_U+30EC_U+30A4_U+30E4_U+30FC 1
 62
     7
420
 16777215
370
     9
100
AcDbSpline
210
0.0
220
0.0
230
1.0
 70
    11
 71
     3
 72
    17
 73
    13
 74
     0
 42
0.0000000001
 43
0.0000000001
 12
1.0
 22
0.0
 32
0.0
 13
1.0
 23
0.0
 33
0.0
 40
0.0
 40
0.0
 40
0.0
 40
0.0
 40
1.0
 40
1.0
 40
1.0
 40
2.0
 40
2.0
 40
2.0
 40
3.0
 40
3.0
 40
3.0
 40
4.0
 40
4.0
 40
4.0
 40
4.0
 10
59.68283708847508
 20
-109.9936416391681
 30
0.0
 10
59.68283708847508
 20
-109.9385024725151
 30
0.0
 10
59.63803431184032
 20
-109.8937349725265
 30
0.0
 10
59.58257764658847
 20
-109.8937349725265
 30
0.0
 10
59.5274737591054
 20
-109.8937349725265
 30
0.0
 10
59.48267098247064
 20
-109.9385024725151
 30
0.0
 10
59.48267098247064
 20
-109.9936416391681
 30
0.0
 10
59.48267098247064
 20
-110.0487455280431
 30
0.0
 10
59.5274737591054
 20
-110.0935483058098
 30
0.0
 10
59.58257764658847
 20
-110.0935483058098
 30
0.0
 10
59.63803431184032
 20
-110.0935483058098
 30
0.0
 10
59.68283708847508
 20
-110.0487455280431
 30
0.0
 10
59.68283708847508
 20
-109.9936416391681
 30
0.0
  0
SPLINE
  5
54
330
1F
100
AcDbEntity
  8
_U+30EC_U+30A4_U+30E4_U+30FC 1
 62
     7
420
 16777215
370
     9
100
AcDbSpline
210
0.0
220
0.0
230
1.0
 70
    11
 71
     3
 72
    17
 73
    13
 74
     0
 42
0.0000000001
 43
0.0000000001
 12
1.0
 22
0.0
 32
0.0
 13
1.0
 23
0.0
 33
0.0
 40
0.0
 40
0.0
 40
0.0
 40
0.0
 40
1.0
 40
1.0
 40
1.0
 40
2.0
 40
2.0
 40
2.0
 40
3.0
 40
3.0
 40
3.0
 40
4.0
 40
4.0
 40
4.0
 40
4.0
 10
76.68231582144892
 20
-105.9938824735013
 30
0.0
 10
76.68231582144892
 20
-105.9387433068488
 30
0.0
 10
76.63751304481416
 20
-105.8939758068596
 30
0.0
 10
76.58241109196577
 20
-105.8939758068596
 30
0.0
 10
76.52726999207113
 20
-105.8939758068596
 30
0.0
 10
76.48250249321325
 20
-105.9387433068488
 30
0.0
 10
76.48250249321325
 20
-105.9938824735013
 30
0.0
 10
76.48250249321325
 20
-106.0489863623768
 30
0.0
 10
76.52726999207113
 20
-106.0937891401435
 30
0.0
 10
76.58241109196577
 20
-106.0937891401435
 30
0.0
 10
76.63751304481416
 20
-106.0937891401435
 30
0.0
 10
76.68231582144892
 20
-106.0489863623768
 30
0.0
 10
76.68231582144892
 20
-105.9938824735013
 30
0.0
  0
SPLINE
  5
55
330
1F
100
AcDbEntity
  8
_U+30EC_U+30A4_U+30E4_U+30FC 1
 62
     7
420
 16777215
370
     9
100
AcDbSpline
210
0.0
220
0.0
230
1.0
 70
    11
 71
     3
 72
    17
 73
    13
 74
     0
 42
0.0000000001
 43
0.0000000001
 12
1.0
 22
0.0
 32
0.0
 13
1.0
 23
0.0
 33
0.0
 40
0.0
 40
0.0
 40
0.0
 40
0.0
 40
1.0
 40
1.0
 40
1.0
 40
2.0
 40
2.0
 40
2.0
 40
3.0
 40
3.0
 40
3.0
 40
4.0
 40
4.0
 40
4.0
 40
4.0
 10
76.68231582144892
 20
-102.9938955298069
 30
0.0
 10
76.68231582144892
 20
-102.9387563631545
 30
0.0
 10
76.63751304481416
 20
-102.8939888631653
 30
0.0
 10
76.58241109196577
 20
-102.8939888631653
 30
0.0
 10
76.52726999207113
 20
-102.8939888631653
 30
0.0
 10
76.48250249321325
 20
-102.9387563631545
 30
0.0
 10
76.48250249321325
 20
-102.9938955298069
 30
0.0
 10
76.48250249321325
 20
-103.0489994186825
 30
0.0
 10
76.52726999207113
 20
-103.0938021964486
 30
0.0
 10
76.58241109196577
 20
-103.0938021964486
 30
0.0
 10
76.63751304481416
 20
-103.0938021964486
 30
0.0
 10
76.68231582144892
 20
-103.0489994186825
 30
0.0
 10
76.68231582144892
 20
-102.9938955298069
 30
0.0
  0
SPLINE
  5
56
330
1F
100
AcDbEntity
  8
_U+30EC_U+30A4_U+30E4_U+30FC 1
 62
     7
420
 16777215
370
     9
100
AcDbSpline
210
0.0
220
0.0
230
1.0
 70
    11
 71
     3
 72
    17
 73
    13
 74
     0
 42
0.0000000001
 43
0.0000000001
 12
1.0
 22
0.0
 32
0.0
 13
1.0
 23
0.0
 33
0.0
 40
0.0
 40
0.0
 40
0.0
 40
0.0
 40
1.0
 40
1.0
 40
1.0
 40
2.0
 40
2.0
 40
2.0
 40
3.0
 40
3.0
 40
3.0
 40
4.0
 40
4.0
 40
4.0
 40
4.0
 10
49.68275276535696
 20
-72.1943847041735
 30
0.0
 10
49.68275276535696
 20
-72.13928081529858
 30
0.0
 10
49.6379840114073
 20
-72.09447803753186
 30
0.0
 10
49.58249206837858
 20
-72.09447803753186
 30
0.0
 10
49.52738818089551
 20
-72.09447803753186
 30
0.0
 10
49.48258540426074
 20
-72.13928081529858
 30
0.0
 10
49.48258540426074
 20
-72.1943847041735
 30
0.0
 10
49.48258540426074
 20
-72.24952387082658
 30
0.0
 10
49.52738818089551
 20
-72.29429137081546
 30
0.0
 10
49.58249206837858
 20
-72.29429137081546
 30
0.0
 10
49.6379840114073
 20
-72.29429137081546
 30
0.0
 10
49.68275276535696
 20
-72.24952387082658
 30
0.0
 10
49.68275276535696
 20
-72.1943847041735
 30
0.0
  0
SPLINE
  5
57
330
1F
100
AcDbEntity
  8
_U+30EC_U+30A4_U+30E4_U+30FC 1
 62
     7
420
 16777215
370
     9
100
AcDbSpline
210
0.0
220
0.0
230
1.0
 70
    11
 71
     3
 72
    17
 73
    13
 74
     0
 42
0.0000000001
 43
0.0000000001
 12
1.0
 22
0.0
 32
0.0
 13
1.0
 23
0.0
 33
0.0
 40
0.0
 40
0.0
 40
0.0
 40
0.0
 40
1.0
 40
1.0
 40
1.0
 40
2.0
 40
2.0
 40
2.0
 40
3.0
 40
3.0
 40
3.0
 40
4.0
 40
4.0
 40
4.0
 40
4.0
 10
49.68275276535696
 20
-109.9936416391681
 30
0.0
 10
49.68275276535696
 20
-109.9385024725151
 30
0.0
 10
49.6379840114073
 20
-109.8937349725265
 30
0.0
 10
49.58249206837858
 20
-109.8937349725265
 30
0.0
 10
49.52738818089551
 20
-109.8937349725265
 30
0.0
 10
49.48258540426074
 20
-109.9385024725151
 30
0.0
 10
49.48258540426074
 20
-109.9936416391681
 30
0.0
 10
49.48258540426074
 20
-110.0487455280431
 30
0.0
 10
49.52738818089551
 20
-110.0935483058098
 30
0.0
 10
49.58249206837858
 20
-110.0935483058098
 30
0.0
 10
49.6379840114073
 20
-110.0935483058098
 30
0.0
 10
49.68275276535696
 20
-110.0487455280431
 30
0.0
 10
49.68275276535696
 20
-109.9936416391681
 30
0.0
  0
POLYLINE
  5
58
330
1F
100
AcDbEntity
  8
_U+30EC_U+30A4_U+30E4_U+30FC 1
 62
     7
420
 16777215
370
     9
100
AcDb2dPolyline
 66
     1
 10
0.0
 20
0.0
 30
0.0
  0
VERTEX
  5
59
330
58
100
AcDbEntity
  8
_U+30EC_U+30A4_U+30E4_U+30FC 1
 62
     7
420
 16777215
370
     9
100
AcDbVertex
100
AcDb2dVertex
 10
76.58241109196577
 20
-76.19414386984039
 30
0.0
  0
VERTEX
  5
5A
330
58
100
AcDbEntity
  8
_U+30EC_U+30A4_U+30E4_U+30FC 1
 62
     7
420
 16777215
370
     9
100
AcDbVertex
100
AcDb2dVertex
 10
76.58241109196577
 20
-70.93623803782147
 30
0.0
  0
SEQEND
  5
5B
330
58
100
AcDbEntity
  8
_U+30EC_U+30A4_U+30E4_U+30FC 1
 62
     7
420
 16777215
370
     9
  0
POLYLINE
  5
5C
330
1F
100
AcDbEntity
  8
_U+30EC_U+30A4_U+30E4_U+30FC 1
 62
     7
420
 16777215
370
     9
100
AcDb2dPolyline
 66
     1
 10
0.0
 20
0.0
 30
0.0
  0
VERTEX
  5
5D
330
5C
100
AcDbEntity
  8
_U+30EC_U+30A4_U+30E4_U+30FC 1
 62
     7
420
 16777215
370
     9
100
AcDbVertex
100
AcDb2dVertex
 10
76.58241109196577
 20
-76.19414386984039
 30
0.0
  0
VERTEX
  5
5E
330
5C
100
AcDbEntity
  8
_U+30EC_U+30A4_U+30E4_U+30FC 1
 62
     7
420
 16777215
370
     9
100
AcDbVertex
100
AcDb2dVertex
 10
76.58241109196577
 20
-76.99410275852932
 30
0.0
  0
SEQEND
  5
5F
330
5C
100
AcDbEntity
  8
_U+30EC_U+30A4_U+30E4_U+30FC 1
 62
     7
420
 16777215
370
     9
  0
POLYLINE
  5
60
330
1F
100
AcDbEntity
  8
_U+30EC_U+30A4_U+30E4_U+30FC 1
 62
     7
420
 16777215
370
     9
100
AcDb2dPolyline
 66
     1
 10
0.0
 20
0.0
 30
0.0
  0
VERTEX
  5
61
330
60
100
AcDbEntity
  8
_U+30EC_U+30A4_U+30E4_U+30FC 1
 62
     7
420
 16777215
370
     9
100
AcDbVertex
100
AcDb2dVertex
 10
75.12236780569096
 20
-76.19414386984039
 30
0.0
  0
VERTEX
  5
62
330
60
100
AcDbEntity
  8
_U+30EC_U+30A4_U+30E4_U+30FC 1
 62
     7
420
 16777215
370
     9
100
AcDbVertex
100
AcDb2dVertex
 10
77.58285163180767
 20
-76.19414386984039
 30
0.0
  0
SEQEND
  5
63
330
60
100
AcDbEntity
  8
_U+30EC_U+30A4_U+30E4_U+30FC 1
 62
     7
420
 16777215
370
     9
  0
POLYLINE
  5
64
330
1F
100
AcDbEntity
  8
_U+30EC_U+30A4_U+30E4_U+30FC 1
 62
     7
420
 16777215
370
     9
100
AcDb2dPolyline
 66
     1
 10
0.0
 20
0.0
 30
0.0
  0
VERTEX
  5
65
330
64
100
AcDbEntity
  8
_U+30EC_U+30A4_U+30E4_U+30FC 1
 62
     7
420
 16777215
370
     9
100
AcDbVertex
100
AcDb2dVertex
 10
75.12236780569096
 20
-76.99410275852932
 30
0.0
  0
VERTEX
  5
66
330
64
100
AcDbEntity
  8
_U+30EC_U+30A4_U+30E4_U+30FC 1
 62
     7
420
 16777215
370
     9
100
AcDbVertex
100
AcDb2dVertex
 10
77.58285163180767
 20
-76.99410275852932
 30
0.0
  0
SEQEND
  5
67
330
64
100
AcDbEntity
  8
_U+30EC_U+30A4_U+30E4_U+30FC 1
 62
     7
420
 16777215
370
     9
  0
INSERT
  5
69
330
1F
100
AcDbEntity
  8
_U+30EC_U+30A4_U+30E4_U+30FC 1
100
AcDbBlockReference
  2
block 2
 10
0.0
 20
0.0
 30
0.0
  0
POLYLINE
  5
7B
330
1F
100
AcDbEntity
  8
_U+30EC_U+30A4_U+30E4_U+30FC 1
 62
     7
420
 16777215
370
     9
100
AcDb2dPolyline
 66
     1
 10
0.0
 20
0.0
 30
0.0
  0
VERTEX
  5
7C
330
7B
100
AcDbEntity
  8
_U+30EC_U+30A4_U+30E4_U+30FC 1
 62
     7
420
 16777215
370
     9
100
AcDbVertex
100
AcDb2dVertex
 10
76.58241109196577
 20
-102.9938955298069
 30
0.0
  0
VERTEX
  5
7D
330
7B
100
AcDbEntity
  8
_U+30EC_U+30A4_U+30E4_U+30FC 1
 62
     7
420
 16777215
370
     9
100
AcDbVertex
100
AcDb2dVertex
 10
76.58241109196577
 20
-105.9938824735013
 30
0.0
  0
SEQEND
  5
7E
330
7B
100
AcDbEntity
  8
_U+30EC_U+30A4_U+30E4_U+30FC 1
 62
     7
420
 16777215
370
     9
  0
POLYLINE
  5
7F
330
1F
100
AcDbEntity
  8
_U+30EC_U+30A4_U+30E4_U+30FC 1
 62
     7
420
 16777215
370
     9
100
AcDb2dPolyline
 66
     1
 10
0.0
 20
0.0
 30
0.0
  0
VERTEX
  5
80
330
7F
100
AcDbEntity
  8
_U+30EC_U+30A4_U+30E4_U+30FC 1
 62
     7
420
 16777215
370
     9
100
AcDbVertex
100
AcDb2dVertex
 10
62.12264813734143
 20
-105.9938824735013
 30
0.0
  0
VERTEX
  5
81
330
7F
100
AcDbEntity
  8
_U+30EC_U+30A4_U+30E4_U+30FC 1
 62
     7
420
 16777215
370
     9
100
AcDbVertex
100
AcDb2dVertex
 10
77.58285163180767
 20
-105.9938824735013
 30
0.0
  0
SEQEND
  5
82
330
7F
100
AcDbEntity
  8
_U+30EC_U+30A4_U+30E4_U+30FC 1
 62
     7
420
 16777215
370
     9
  0
INSERT
  5
84
330
1F
100
AcDbEntity
  8
_U+30EC_U+30A4_U+30E4_U+30FC 1
100
AcDbBlockReference
  2
block 3
 10
0.0
 20
0.0
 30
0.0
  0
POLYLINE
  5
89
330
1F
100
AcDbEntity
  8
_U+30EC_U+30A4_U+30E4_U+30FC 1
 62
     7
420
 16777215
370
     9
100
AcDb2dPolyline
 66
     1
 10
0.0
 20
0.0
 30
0.0
  0
VERTEX
  5
8A
330
89
100
AcDbEntity
  8
_U+30EC_U+30A4_U+30E4_U+30FC 1
 62
     7
420
 16777215
370
     9
100
AcDbVertex
100
AcDb2dVertex
 10
49.58249206837858
 20
-109.9936416391681
 30
0.0
  0
VERTEX
  5
8B
330
89
100
AcDbEntity
  8
_U+30EC_U+30A4_U+30E4_U+30FC 1
 62
     7
420
 16777215
370
     9
100
AcDbVertex
100
AcDb2dVertex
 10
59.58257764658847
 20
-109.9936416391681
 30
0.0
  0
SEQEND
  5
8C
330
89
100
AcDbEntity
  8
_U+30EC_U+30A4_U+30E4_U+30FC 1
 62
     7
420
 16777215
370
     9
  0
POLYLINE
  5
8D
330
1F
100
AcDbEntity
  8
_U+30EC_U+30A4_U+30E4_U+30FC 1
 62
     7
420
 16777215
370
     9
100
AcDb2dPolyline
 66
     1
 10
0.0
 20
0.0
 30
0.0
  0
VERTEX
  5
8E
330
8D
100
AcDbEntity
  8
_U+30EC_U+30A4_U+30E4_U+30FC 1
 62
     7
420
 16777215
370
     9
100
AcDbVertex
100
AcDb2dVertex
 10
49.58249206837858
 20
-108.5336002506444
 30
0.0
  0
VERTEX
  5
8F
330
8D
100
AcDbEntity
  8
_U+30EC_U+30A4_U+30E4_U+30FC 1
 62
     7
420
 16777215
370
     9
100
AcDbVertex
100
AcDb2dVertex
 10
49.58249206837858
 20
-110.9934138611407
 30
0.0
  0
SEQEND
  5
90
330
8D
100
AcDbEntity
  8
_U+30EC_U+30A4_U+30E4_U+30FC 1
 62
     7
420
 16777215
370
     9
  0
POLYLINE
  5
91
330
1F
100
AcDbEntity
  8
_U+30EC_U+30A4_U+30E4_U+30FC 1
 62
     7
420
 16777215
370
     9
100
AcDb2dPolyline
 66
     1
 10
0.0
 20
0.0
 30
0.0
  0
VERTEX
  5
92
330
91
100
AcDbEntity
  8
_U+30EC_U+30A4_U+30E4_U+30FC 1
 62
     7
420
 16777215
370
     9
100
AcDbVertex
100
AcDb2dVertex
 10
59.58257764658847
 20
-108.5336002506444
 30
0.0
  0
VERTEX
  5
93
330
91
100
AcDbEntity
  8
_U+30EC_U+30A4_U+30E4_U+30FC 1
 62
     7
420
 16777215
370
     9
100
AcDbVertex
100
AcDb2dVertex
 10
59.58257764658847
 20
-110.9934138611407
 30
0.0
  0
SEQEND
  5
94
330
91
100
AcDbEntity
  8
_U+30EC_U+30A4_U+30E4_U+30FC 1
 62
     7
420
 16777215
370
     9
  0
INSERT
  5
96
330
1F
100
AcDbEntity
  8
_U+30EC_U+30A4_U+30E4_U+30FC 1
100
AcDbBlockReference
  2
block 4
 10
0.0
 20
0.0
 30
0.0
  0
POLYLINE
  5
9E
330
1F
100
AcDbEntity
  8
_U+30EC_U+30A4_U+30E4_U+30FC 1
 62
     7
420
 16777215
370
     9
100
AcDb2dPolyline
 66
     1
 10
0.0
 20
0.0
 30
0.0
  0
VERTEX
  5
9F
330
9E
100
AcDbEntity
  8
_U+30EC_U+30A4_U+30E4_U+30FC 1
 62
     7
420
 16777215
370
     9
100
AcDbVertex
100
AcDb2dVertex
 10
49.58249206837858
 20
-72.1943847041735
 30
0.0
  0
VERTEX
  5
A0
330
9E
100
AcDbEntity
  8
_U+30EC_U+30A4_U+30E4_U+30FC 1
 62
     7
420
 16777215
370
     9
100
AcDbVertex
100
AcDb2dVertex
 10
72.58265009270677
 20
-72.1943847041735
 30
0.0
  0
SEQEND
  5
A1
330
9E
100
AcDbEntity
  8
_U+30EC_U+30A4_U+30E4_U+30FC 1
 62
     7
420
 16777215
370
     9
  0
POLYLINE
  5
A2
330
1F
100
AcDbEntity
  8
_U+30EC_U+30A4_U+30E4_U+30FC 1
 62
     7
420
 16777215
370
     9
100
AcDb2dPolyline
 66
     1
 10
0.0
 20
0.0
 30
0.0
  0
VERTEX
  5
A3
330
A2
100
AcDbEntity
  8
_U+30EC_U+30A4_U+30E4_U+30FC 1
 62
     7
420
 16777215
370
     9
100
AcDbVertex
100
AcDb2dVertex
 10
49.58249206837858
 20
-73.65442609269753
 30
0.0
  0
VERTEX
  5
A4
330
A2
100
AcDbEntity
  8
_U+30EC_U+30A4_U+30E4_U+30FC 1
 62
     7
420
 16777215
370
     9
100
AcDbVertex
100
AcDb2dVertex
 10
49.58249206837858
 20
-71.19394220442359
 30
0.0
  0
SEQEND
  5
A5
330
A2
100
AcDbEntity
  8
_U+30EC_U+30A4_U+30E4_U+30FC 1
 62
     7
420
 16777215
370
     9
  0
POLYLINE
  5
A6
330
1F
100
AcDbEntity
  8
_U+30EC_U+30A4_U+30E4_U+30FC 1
 62
     7
420
 16777215
370
     9
100
AcDb2dPolyline
 66
     1
 10
0.0
 20
0.0
 30
0.0
  0
VERTEX
  5
A7
330
A6
100
AcDbEntity
  8
_U+30EC_U+30A4_U+30E4_U+30FC 1
 62
     7
420
 16777215
370
     9
100
AcDbVertex
100
AcDb2dVertex
 10
72.58265009270677
 20
-73.65442609269753
 30
0.0
  0
VERTEX
  5
A8
330
A6
100
AcDbEntity
  8
_U+30EC_U+30A4_U+30E4_U+30FC 1
 62
     7
420
 16777215
370
     9
100
AcDbVertex
100
AcDb2dVertex
 10
72.58265009270677
 20
-71.19394220442359
 30
0.0
  0
SEQEND
  5
A9
330
A6
100
AcDbEntity
  8
_U+30EC_U+30A4_U+30E4_U+30FC 1
 62
     7
420
 16777215
370
     9
  0
INSERT
  5
AB
330
1F
100
AcDbEntity
  8
_U+30EC_U+30A4_U+30E4_U+30FC 1
100
AcDbBlockReference
  2
block 5
 10
0.0
 20
0.0
 30
0.0
  0
POLYLINE
  5
B2
330
1F
100
AcDbEntity
  8
_U+30EC_U+30A4_U+30E4_U+30FC 1
 62
     7
420
 16777215
370
     9
100
AcDb2dPolyline
 66
     1
 10
0.0
 20
0.0
 30
0.0
  0
VERTEX
  5
B3
330
B2
100
AcDbEntity
  8
_U+30EC_U+30A4_U+30E4_U+30FC 1
 62
     7
420
 16777215
370
     9
100
AcDbVertex
100
AcDb2dVertex
 10
76.58241109196577
 20
-102.9938955298069
 30
0.0
  0
VERTEX
  5
B4
330
B2
100
AcDbEntity
  8
_U+30EC_U+30A4_U+30E4_U+30FC 1
 62
     7
420
 16777215
370
     9
100
AcDbVertex
100
AcDb2dVertex
 10
76.58241109196577
 20
-76.99410275852932
 30
0.0
  0
SEQEND
  5
B5
330
B2
100
AcDbEntity
  8
_U+30EC_U+30A4_U+30E4_U+30FC 1
 62
     7
420
 16777215
370
     9
  0
POLYLINE
  5
B6
330
1F
100
AcDbEntity
  8
_U+30EC_U+30A4_U+30E4_U+30FC 1
 62
     7
420
 16777215
370
     9
100
AcDb2dPolyline
 66
     1
 10
0.0
 20
0.0
 30
0.0
  0
VERTEX
  5
B7
330
B6
100
AcDbEntity
  8
_U+30EC_U+30A4_U+30E4_U+30FC 1
 62
     7
420
 16777215
370
     9
100
AcDbVertex
100
AcDb2dVertex
 10
62.12264813734143
 20
-102.9938955298069
 30
0.0
  0
VERTEX
  5
B8
330
B6
100
AcDbEntity
  8
_U+30EC_U+30A4_U+30E4_U+30FC 1
 62
     7
420
 16777215
370
     9
100
AcDbVertex
100
AcDb2dVertex
 10
77.58285163180767
 20
-102.9938955298069
 30
0.0
  0
SEQEND
  5
B9
330
B6
100
AcDbEntity
  8
_U+30EC_U+30A4_U+30E4_U+30FC 1
 62
     7
420
 16777215
370
     9
  0
INSERT
  5
BB
330
1F
100
AcDbEntity
  8
_U+30EC_U+30A4_U+30E4_U+30FC 1
100
AcDbBlockReference
  2
block 6
 10
0.0
 20
0.0
 30
0.0
  0
ENDSEC
  0
SECTION
  2
OBJECTS
  0
DICTIONARY
  5
C
330
0
100
AcDbDictionary
281
     1
  3
ACAD_GROUP
350
D
  3
ACAD_LAYOUT
350
1A
  3
ACAD_MATERIAL
350
3B
  3
ACAD_MLEADERSTYLE
350
C4
  3
ACAD_MLINESTYLE
350
17
  3
ACAD_PLOTSETTINGS
350
19
  3
ACAD_PLOTSTYLENAME
350
E
  3
ACAD_TABLESTYLE
350
C3
  3
ACAD_VISUALSTYLE
350
2A
  0
SUN
  5
3F
330
29
100
AcDbSun
 90
        1
290
     0
 63
     7
421
 16777215
 40
1.0
291
     1
 91
  2455826
 92
 54000000
292
     0
 70
     2
 71
   256
280
     1
  0
DICTIONARY
  5
D
102
{ACAD_REACTORS
330
C
102
}
330
C
100
AcDbDictionary
281
     1
  0
DICTIONARY
  5
1A
102
{ACAD_REACTORS
330
C
102
}
330
C
100
AcDbDictionary
281
     1
  3
Layout1
350
1E
  3
Layout2
350
26
  3
Model
350
22
  0
DICTIONARY
  5
3B
102
{ACAD_REACTORS
330
C
102
}
330
C
100
AcDbDictionary
281
     1
  3
ByBlock
350
3D
  3
ByLayer
350
3C
  3
Global
350
3E
  0
DICTIONARY
  5
C4
102
{ACAD_REACTORS
330
C
102
}
330
C
100
AcDbDictionary
281
     1
  0
DICTIONARY
  5
17
102
{ACAD_REACTORS
330
C
102
}
330
C
100
AcDbDictionary
281
     1
  3
Standard
350
18
  0
DICTIONARY
  5
19
102
{ACAD_REACTORS
330
C
102
}
330
C
100
AcDbDictionary
281
     1
  0
ACDBDICTIONARYWDFLT
  5
E
102
{ACAD_REACTORS
330
C
102
}
330
C
100
AcDbDictionary
281
     1
  3
Normal
350
F
100
AcDbDictionaryWithDefault
340
F
  0
DICTIONARY
  5
C3
102
{ACAD_REACTORS
330
C
102
}
330
C
100
AcDbDictionary
281
     1
  0
DICTIONARY
  5
2A
102
{ACAD_REACTORS
330
C
102
}
330
C
100
AcDbDictionary
281
     1
  3
2dWireframe
350
2F
  3
3D Hidden
350
31
  3
3dWireframe
350
30
  3
Basic
350
32
  3
Brighten
350
36
  3
ColorChange
350
3A
  3
Conceptual
350
34
  3
Dim
350
35
  3
Facepattern
350
39
  3
Flat
350
2B
  3
FlatWithEdges
350
2C
  3
Gouraud
350
2D
  3
GouraudWithEdges
350
2E
  3
Linepattern
350
38
  3
Realistic
350
33
  3
Thicken
350
37
  0
LAYOUT
  5
1E
102
{ACAD_REACTORS
330
1A
102
}
330
1A
100
AcDbPlotSettings
  1

  2
none_device
  4

  6

 40
0.0
 41
0.0
 42
0.0
 43
0.0
 44
0.0
 45
0.0
 46
0.0
 47
0.0
 48
0.0
 49
0.0
140
0.0
141
0.0
142
1.0
143
1.0
 70
   688
 72
     0
 73
     0
 74
     5
  7

 75
    16
 76
     0
 77
     2
 78
   300
147
1.0
148
0.0
149
0.0
100
AcDbLayout
  1
Layout1
 70
     1
 71
     1
 10
0.0
 20
0.0
 11
12.0
 21
9.0
 12
0.0
 22
0.0
 32
0.0
 14
1.000000000000000E+20
 24
1.000000000000000E+20
 34
1.000000000000000E+20
 15
-1.000000000000000E+20
 25
-1.000000000000000E+20
 35
-1.000000000000000E+20
146
0.0
 13
0.0
 23
0.0
 33
0.0
 16
1.0
 26
0.0
 36
0.0
 17
0.0
 27
1.0
 37
0.0
 76
     0
330
1B
  0
LAYOUT
  5
26
102
{ACAD_REACTORS
330
1A
102
}
330
1A
100
AcDbPlotSettings
  1

  2
none_device
  4

  6

 40
0.0
 41
0.0
 42
0.0
 43
0.0
 44
0.0
 45
0.0
 46
0.0
 47
0.0
 48
0.0
 49
0.0
140
0.0
141
0.0
142
1.0
143
1.0
 70
   688
 72
     0
 73
     0
 74
     5
  7

 75
    16
 76
     0
 77
     2
 78
   300
147
1.0
148
0.0
149
0.0
100
AcDbLayout
  1
Layout2
 70
     1
 71
     2
 10
0.0
 20
0.0
 11
0.0
 21
0.0
 12
0.0
 22
0.0
 32
0.0
 14
0.0
 24
0.0
 34
0.0
 15
0.0
 25
0.0
 35
0.0
146
0.0
 13
0.0
 23
0.0
 33
0.0
 16
1.0
 26
0.0
 36
0.0
 17
0.0
 27
1.0
 37
0.0
 76
     0
330
23
  0
LAYOUT
  5
22
102
{ACAD_REACTORS
330
1A
102
}
330
1A
100
AcDbPlotSettings
  1

  2
none_device
  4

  6

 40
0.0
 41
0.0
 42
0.0
 43
0.0
 44
0.0
 45
0.0
 46
0.0
 47
0.0
 48
0.0
 49
0.0
140
0.0
141
0.0
142
1.0
143
1.0
 70
  1712
 72
     0
 73
     0
 74
     0
  7

 75
     0
 76
     0
 77
     2
 78
   300
147
1.0
148
0.0
149
0.0
100
AcDbLayout
  1
Model
 70
     1
 71
     0
 10
0.0
 20
0.0
 11
12.0
 21
9.0
 12
0.0
 22
0.0
 32
0.0
 14
1.000000000000000E+20
 24
1.000000000000000E+20
 34
1.000000000000000E+20
 15
-1.000000000000000E+20
 25
-1.000000000000000E+20
 35
-1.000000000000000E+20
146
0.0
 13
0.0
 23
0.0
 33
0.0
 16
1.0
 26
0.0
 36
0.0
 17
0.0
 27
1.0
 37
0.0
 76
     0
330
1F
331
29
  0
MATERIAL
  5
3D
102
{ACAD_REACTORS
330
3B
102
}
330
3B
100
AcDbMaterial
  1
ByBlock
 72
     1
 94
      127
  0
MATERIAL
  5
3C
102
{ACAD_REACTORS
330
3B
102
}
330
3B
100
AcDbMaterial
  1
ByLayer
 72
     1
 94
      127
  0
MATERIAL
  5
3E
102
{ACAD_REACTORS
330
3B
102
}
330
3B
100
AcDbMaterial
  1
Global
 72
     1
 94
      127
  0
MLINESTYLE
  5
18
102
{ACAD_REACTORS
330
17
102
}
330
17
100
AcDbMlineStyle
  2
Standard
 70
     0
  3

 62
   256
 51
90.0
 52
90.0
 71
     2
 49
0.5
 62
   256
  6
BYLAYER
 49
-0.5
 62
   256
  6
BYLAYER
  0
ACDBPLACEHOLDER
  5
F
102
{ACAD_REACTORS
330
E
102
}
330
E
  0
VISUALSTYLE
  5
2F
102
{ACAD_REACTORS
330
2A
102
}
330
2A
100
AcDbVisualStyle
  2
2dWireframe
 70
     4
177
     2
291
     0
 71
     0
176
     1
 72
     2
176
     1
 73
     0
176
     1
 90
        0
176
     1
 40
-0.6
176
     1
 41
-30.0
176
     1
 62
     5
 63
     7
421
 16777215
176
     1
 74
     1
176
     1
 91
        4
176
     1
 64
     7
176
     1
 65
   257
176
     1
 75
     1
176
     1
175
     1
176
     1
 42
1.0
176
     1
 92
        0
176
     1
 66
   257
176
     1
 43
1.0
176
     1
 76
     1
176
     1
 77
     6
176
     1
 78
     2
176
     1
 67
     7
176
     1
 79
     5
176
     1
170
     0
176
     1
171
     0
176
     1
290
     0
176
     1
 93
        1
176
     1
 44
0.0
176
     1
173
     0
176
     1
  0
VISUALSTYLE
  5
31
102
{ACAD_REACTORS
330
2A
102
}
330
2A
100
AcDbVisualStyle
  2
3D Hidden
 70
     6
177
     2
291
     0
 71
     1
176
     1
 72
     2
176
     1
 73
     2
176
     1
 90
        0
176
     1
 40
-0.6
176
     1
 41
-30.0
176
     1
 62
     5
 63
     7
421
 16777215
176
     1
 74
     2
176
     1
 91
        2
176
     1
 64
     7
176
     1
 65
   257
176
     1
 75
     2
176
     1
175
     1
176
     1
 42
40.0
176
     1
 92
        0
176
     1
 66
   257
176
     1
 43
1.0
176
     1
 76
     1
176
     1
 77
     6
176
     1
 78
     2
176
     1
 67
     7
176
     1
 79
     3
176
     1
170
     0
176
     1
171
     0
176
     1
290
     0
176
     1
 93
        1
176
     1
 44
0.0
176
     1
173
     0
176
     1
  0
VISUALSTYLE
  5
30
102
{ACAD_REACTORS
330
2A
102
}
330
2A
100
AcDbVisualStyle
  2
3dWireframe
 70
     5
177
     2
291
     0
 71
     0
176
     1
 72
     2
176
     1
 73
     0
176
     1
 90
        0
176
     1
 40
-0.6
176
     1
 41
-30.0
176
     1
 62
     5
 63
     7
421
 16777215
176
     1
 74
     1
176
     1
 91
        4
176
     1
 64
     7
176
     1
 65
   257
176
     1
 75
     1
176
     1
175
     1
176
     1
 42
1.0
176
     1
 92
        0
176
     1
 66
   257
176
     1
 43
1.0
176
     1
 76
     1
176
     1
 77
     6
176
     1
 78
     2
176
     1
 67
     7
176
     1
 79
     5
176
     1
170
     0
176
     1
171
     0
176
     1
290
     0
176
     1
 93
        1
176
     1
 44
0.0
176
     1
173
     0
176
     1
  0
VISUALSTYLE
  5
32
102
{ACAD_REACTORS
330
2A
102
}
330
2A
100
AcDbVisualStyle
  2
Basic
 70
     7
177
     2
291
     1
 71
     1
176
     1
 72
     0
176
     1
 73
     1
176
     1
 90
        0
176
     1
 40
-0.6
176
     1
 41
-30.0
176
     1
 62
     5
 63
     7
421
 16777215
176
     1
 74
     0
176
     1
 91
        4
176
     1
 64
     7
176
     1
 65
   257
176
     1
 75
     1
176
     1
175
     1
176
     1
 42
1.0
176
     1
 92
        8
176
     1
 66
     7
176
     1
 43
1.0
176
     1
 76
     1
176
     1
 77
     6
176
     1
 78
     2
176
     1
 67
     7
176
     1
 79
     5
176
     1
170
     0
176
     1
171
     0
176
     1
290
     0
176
     1
 93
        1
176
     1
 44
0.0
176
     1
173
     0
176
     1
  0
VISUALSTYLE
  5
36
102
{ACAD_REACTORS
330
2A
102
}
330
2A
100
AcDbVisualStyle
  2
Brighten
 70
    12
177
     2
291
     1
 71
     2
176
     1
 72
     2
176
     1
 73
     0
176
     1
 90
        0
176
     1
 40
-0.6
176
     1
 41
-30.0
176
     1
 62
     5
 63
     7
421
 16777215
176
     1
 74
     1
176
     1
 91
        4
176
     1
 64
     7
176
     1
 65
   257
176
     1
 75
     1
176
     1
175
     1
176
     1
 42
1.0
176
     1
 92
        8
176
     1
 66
     7
176
     1
 43
1.0
176
     1
 76
     1
176
     1
 77
     6
176
     1
 78
     2
176
     1
 67
     7
176
     1
 79
     5
176
     1
170
     0
176
     1
171
     0
176
     1
290
     0
176
     1
 93
        1
176
     1
 44
50.0
176
     1
173
     0
176
     1
  0
VISUALSTYLE
  5
3A
102
{ACAD_REACTORS
330
2A
102
}
330
2A
100
AcDbVisualStyle
  2
ColorChange
 70
    16
177
     2
291
     1
 71
     2
176
     1
 72
     2
176
     1
 73
     3
176
     1
 90
        0
176
     1
 40
-0.6
176
     1
 41
-30.0
176
     1
 62
     5
 63
     8
421
  8421504
176
     1
 74
     1
176
     1
 91
        4
176
     1
 64
     7
176
     1
 65
   257
176
     1
 75
     1
176
     1
175
     1
176
     1
 42
1.0
176
     1
 92
        8
176
     1
 66
     8
424
  8421504
176
     1
 43
1.0
176
     1
 76
     1
176
     1
 77
     6
176
     1
 78
     2
176
     1
 67
     7
176
     1
 79
     5
176
     1
170
     0
176
     1
171
     0
176
     1
290
     0
176
     1
 93
        1
176
     1
 44
0.0
176
     1
173
     0
176
     1
  0
VISUALSTYLE
  5
34
102
{ACAD_REACTORS
330
2A
102
}
330
2A
100
AcDbVisualStyle
  2
Conceptual
 70
     9
177
     2
291
     0
 71
     3
176
     1
 72
     2
176
     1
 73
     0
176
     1
 90
        0
176
     1
 40
-0.6
176
     1
 41
-30.0
176
     1
 62
     5
 63
     7
421
 16777215
176
     1
 74
     2
176
     1
 91
        2
176
     1
 64
     7
176
     1
 65
   257
176
     1
 75
     1
176
     1
175
     1
176
     1
 42
40.0
176
     1
 92
        8
176
     1
 66
     7
176
     1
 43
1.0
176
     1
 76
     1
176
     1
 77
     6
176
     1
 78
     2
176
     1
 67
     7
176
     1
 79
     3
176
     1
170
     0
176
     1
171
     0
176
     1
290
     0
176
     1
 93
        1
176
     1
 44
0.0
176
     1
173
     0
176
     1
  0
VISUALSTYLE
  5
35
102
{ACAD_REACTORS
330
2A
102
}
330
2A
100
AcDbVisualStyle
  2
Dim
 70
    11
177
     2
291
     1
 71
     2
176
     1
 72
     2
176
     1
 73
     0
176
     1
 90
        0
176
     1
 40
-0.6
176
     1
 41
-30.0
176
     1
 62
     5
 63
     7
421
 16777215
176
     1
 74
     1
176
     1
 91
        4
176
     1
 64
     7
176
     1
 65
   257
176
     1
 75
     1
176
     1
175
     1
176
     1
 42
1.0
176
     1
 92
        8
176
     1
 66
     7
176
     1
 43
1.0
176
     1
 76
     1
176
     1
 77
     6
176
     1
 78
     2
176
     1
 67
     7
176
     1
 79
     5
176
     1
170
     0
176
     1
171
     0
176
     1
290
     0
176
     1
 93
        1
176
     1
 44
-50.0
176
     1
173
     0
176
     1
  0
VISUALSTYLE
  5
39
102
{ACAD_REACTORS
330
2A
102
}
330
2A
100
AcDbVisualStyle
  2
Facepattern
 70
    15
177
     2
291
     1
 71
     2
176
     1
 72
     2
176
     1
 73
     0
176
     1
 90
        0
176
     1
 40
-0.6
176
     1
 41
-30.0
176
     1
 62
     5
 63
     7
421
 16777215
176
     1
 74
     1
176
     1
 91
        4
176
     1
 64
     7
176
     1
 65
   257
176
     1
 75
     1
176
     1
175
     1
176
     1
 42
1.0
176
     1
 92
        8
176
     1
 66
     7
176
     1
 43
1.0
176
     1
 76
     1
176
     1
 77
     6
176
     1
 78
     2
176
     1
 67
     7
176
     1
 79
     5
176
     1
170
     0
176
     1
171
     0
176
     1
290
     0
176
     1
 93
        1
176
     1
 44
0.0
176
     1
173
     0
176
     1
  0
VISUALSTYLE
  5
2B
102
{ACAD_REACTORS
330
2A
102
}
330
2A
100
AcDbVisualStyle
  2
Flat
 70
     0
177
     2
291
     1
 71
     2
176
     1
 72
     1
176
     1
 73
     1
176
     1
 90
        2
176
     1
 40
-0.6
176
     1
 41
30.0
176
     1
 62
     5
 63
     7
421
 16777215
176
     1
 74
     0
176
     1
 91
        4
176
     1
 64
     7
176
     1
 65
   257
176
     1
 75
     1
176
     1
175
     1
176
     1
 42
1.0
176
     1
 92
        8
176
     1
 66
     7
176
     1
 43
1.0
176
     1
 76
     1
176
     1
 77
     6
176
     1
 78
     2
176
     1
 67
     7
176
     1
 79
     5
176
     1
170
     0
176
     1
171
     0
176
     1
290
     0
176
     1
 93
       13
176
     1
 44
0.0
176
     1
173
     0
176
     1
  0
VISUALSTYLE
  5
2C
102
{ACAD_REACTORS
330
2A
102
}
330
2A
100
AcDbVisualStyle
  2
FlatWithEdges
 70
     1
177
     2
291
     1
 71
     2
176
     1
 72
     1
176
     1
 73
     1
176
     1
 90
        2
176
     1
 40
-0.6
176
     1
 41
30.0
176
     1
 62
     5
 63
     7
421
 16777215
176
     1
 74
     1
176
     1
 91
        4
176
     1
 64
     7
176
     1
 65
   257
176
     1
 75
     1
176
     1
175
     1
176
     1
 42
1.0
176
     1
 92
        0
176
     1
 66
   257
176
     1
 43
1.0
176
     1
 76
     1
176
     1
 77
     6
176
     1
 78
     2
176
     1
 67
     7
176
     1
 79
     5
176
     1
170
     0
176
     1
171
     0
176
     1
290
     0
176
     1
 93
       13
176
     1
 44
0.0
176
     1
173
     0
176
     1
  0
VISUALSTYLE
  5
2D
102
{ACAD_REACTORS
330
2A
102
}
330
2A
100
AcDbVisualStyle
  2
Gouraud
 70
     2
177
     2
291
     1
 71
     2
176
     1
 72
     2
176
     1
 73
     1
176
     1
 90
        2
176
     1
 40
-0.6
176
     1
 41
30.0
176
     1
 62
     5
 63
     7
421
 16777215
176
     1
 74
     0
176
     1
 91
        4
176
     1
 64
     7
176
     1
 65
   257
176
     1
 75
     1
176
     1
175
     1
176
     1
 42
1.0
176
     1
 92
        0
176
     1
 66
     7
176
     1
 43
1.0
176
     1
 76
     1
176
     1
 77
     6
176
     1
 78
     2
176
     1
 67
     7
176
     1
 79
     5
176
     1
170
     0
176
     1
171
     0
176
     1
290
     0
176
     1
 93
       13
176
     1
 44
0.0
176
     1
173
     0
176
     1
  0
VISUALSTYLE
  5
2E
102
{ACAD_REACTORS
330
2A
102
}
330
2A
100
AcDbVisualStyle
  2
GouraudWithEdges
 70
     3
177
     2
291
     1
 71
     2
176
     1
 72
     2
176
     1
 73
     1
176
     1
 90
        2
176
     1
 40
-0.6
176
     1
 41
30.0
176
     1
 62
     5
 63
     7
421
 16777215
176
     1
 74
     1
176
     1
 91
        4
176
     1
 64
     7
176
     1
 65
   257
176
     1
 75
     1
176
     1
175
     1
176
     1
 42
1.0
176
     1
 92
        0
176
     1
 66
   257
176
     1
 43
1.0
176
     1
 76
     1
176
     1
 77
     6
176
     1
 78
     2
176
     1
 67
     7
176
     1
 79
     5
176
     1
170
     0
176
     1
171
     0
176
     1
290
     0
176
     1
 93
       13
176
     1
 44
0.0
176
     1
173
     0
176
     1
  0
VISUALSTYLE
  5
38
102
{ACAD_REACTORS
330
2A
102
}
330
2A
100
AcDbVisualStyle
  2
Linepattern
 70
    14
177
     2
291
     1
 71
     2
176
     1
 72
     2
176
     1
 73
     0
176
     1
 90
        0
176
     1
 40
-0.6
176
     1
 41
-30.0
176
     1
 62
     5
 63
     7
421
 16777215
176
     1
 74
     1
176
     1
 91
        4
176
     1
 64
     7
176
     1
 65
   257
176
     1
 75
     7
176
     1
175
     7
176
     1
 42
1.0
176
     1
 92
        8
176
     1
 66
     7
176
     1
 43
1.0
176
     1
 76
     1
176
     1
 77
     6
176
     1
 78
     2
176
     1
 67
     7
176
     1
 79
     5
176
     1
170
     0
176
     1
171
     0
176
     1
290
     0
176
     1
 93
        1
176
     1
 44
0.0
176
     1
173
     0
176
     1
  0
VISUALSTYLE
  5
33
102
{ACAD_REACTORS
330
2A
102
}
330
2A
100
AcDbVisualStyle
  2
Realistic
 70
     8
177
     2
291
     0
 71
     2
176
     1
 72
     2
176
     1
 73
     0
176
     1
 90
        0
176
     1
 40
-0.6
176
     1
 41
-30.0
176
     1
 62
     5
 63
     7
421
 16777215
176
     1
 74
     1
176
     1
 91
        0
176
     1
 64
     7
176
     1
 65
   257
176
     1
 75
     1
176
     1
175
     1
176
     1
 42
1.0
176
     1
 92
        8
176
     1
 66
     8
424
  7895160
176
     1
 43
1.0
176
     1
 76
     1
176
     1
 77
     6
176
     1
 78
     2
176
     1
 67
     7
176
     1
 79
     5
176
     1
170
     0
176
     1
171
     0
176
     1
290
     0
176
     1
 93
       13
176
     1
 44
0.0
176
     1
173
     0
176
     1
  0
VISUALSTYLE
  5
37
102
{ACAD_REACTORS
330
2A
102
}
330
2A
100
AcDbVisualStyle
  2
Thicken
 70
    13
177
     2
291
     1
 71
     2
176
     1
 72
     2
176
     1
 73
     0
176
     1
 90
        0
176
     1
 40
-0.6
176
     1
 41
-30.0
176
     1
 62
     5
 63
     7
421
 16777215
176
     1
 74
     1
176
     1
 91
        4
176
     1
 64
     7
176
     1
 65
   257
176
     1
 75
     1
176
     1
175
     1
176
     1
 42
1.0
176
     1
 92
       12
176
     1
 66
     7
176
     1
 43
1.0
176
     1
 76
     1
176
     1
 77
     6
176
     1
 78
     2
176
     1
 67
     7
176
     1
 79
     5
176
     1
170
     0
176
     1
171
     0
176
     1
290
     0
176
     1
 93
        1
176
     1
 44
0.0
176
     1
173
     0
176
     1
  0
ENDSEC
  0
EOF
