  0
SECTION
  2
HEADER
  9
$ACADVER
  1
AC1024
  9
$ACADMAINTVER
 70
     6
  9
$DWGCODEPAGE
  3
UNDEFINED
  9
$INSBASE
 10
0.0
 20
0.0
 30
0.0
  9
$EXTMIN
 10
1.000000000000000E+20
 20
1.000000000000000E+20
 30
1.000000000000000E+20
  9
$EXTMAX
 10
-1.000000000000000E+20
 20
-1.000000000000000E+20
 30
-1.000000000000000E+20
  9
$LIMMIN
 10
0.0
 20
0.0
  9
$LIMMAX
 10
12.0
 20
9.0
  9
$ORTHOMODE
 70
     0
  9
$REGENMODE
 70
     1
  9
$FILLMODE
 70
     1
  9
$QTEXTMODE
 70
     0
  9
$MIRRTEXT
 70
     1
  9
$LTSCALE
 40
1.0
  9
$ATTMODE
 70
     1
  9
$TEXTSIZE
 40
0.2
  9
$TRACEWID
 40
0.05
  9
$TEXTSTYLE
  7
Standard
  9
$CLAYER
  8
0
  9
$CELTYPE
  6
ByLayer
  9
$CECOLOR
 62
   256
  9
$CELTSCALE
 40
1.0
  9
$DISPSILH
 70
     0
  9
$DIMSCALE
 40
1.0
  9
$DIMASZ
 40
0.18
  9
$DIMEXO
 40
0.0625
  9
$DIMDLI
 40
0.38
  9
$DIMRND
 40
0.0
  9
$DIMDLE
 40
0.0
  9
$DIMEXE
 40
0.18
  9
$DIMTP
 40
0.0
  9
$DIMTM
 40
0.0
  9
$DIMTXT
 40
0.18
  9
$DIMCEN
 40
0.09
  9
$DIMTSZ
 40
0.0
  9
$DIMTOL
 70
     0
  9
$DIMLIM
 70
     0
  9
$DIMTIH
 70
     1
  9
$DIMTOH
 70
     1
  9
$DIMSE1
 70
     0
  9
$DIMSE2
 70
     0
  9
$DIMTAD
 70
     0
  9
$DIMZIN
 70
     0
  9
$DIMBLK
  1

  9
$DIMASO
 70
     1
  9
$DIMSHO
 70
     1
  9
$DIMPOST
  1

  9
$DIMAPOST
  1

  9
$DIMALT
 70
     0
  9
$DIMALTD
 70
     2
  9
$DIMALTF
 40
25.4
  9
$DIMLFAC
 40
1.0
  9
$DIMTOFL
 70
     0
  9
$DIMTVP
 40
0.0
  9
$DIMTIX
 70
     0
  9
$DIMSOXD
 70
     0
  9
$DIMSAH
 70
     0
  9
$DIMBLK1
  1

  9
$DIMBLK2
  1

  9
$DIMSTYLE
  2
Standard
  9
$DIMCLRD
 70
     0
  9
$DIMCLRE
 70
     0
  9
$DIMCLRT
 70
     0
  9
$DIMTFAC
 40
1.0
  9
$DIMGAP
 40
0.09
  9
$DIMJUST
 70
     0
  9
$DIMSD1
 70
     0
  9
$DIMSD2
 70
     0
  9
$DIMTOLJ
 70
     1
  9
$DIMTZIN
 70
     0
  9
$DIMALTZ
 70
     0
  9
$DIMALTTZ
 70
     0
  9
$DIMUPT
 70
     0
  9
$DIMDEC
 70
     4
  9
$DIMTDEC
 70
     4
  9
$DIMALTU
 70
     2
  9
$DIMALTTD
 70
     2
  9
$DIMTXSTY
  7
Standard
  9
$DIMAUNIT
 70
     0
  9
$DIMADEC
 70
     0
  9
$DIMALTRND
 40
0.0
  9
$DIMAZIN
 70
     0
  9
$DIMDSEP
 70
    46
  9
$DIMATFIT
 70
     3
  9
$DIMFRAC
 70
     0
  9
$DIMLDRBLK
  1

  9
$DIMLUNIT
 70
     2
  9
$DIMLWD
 70
    -2
  9
$DIMLWE
 70
    -2
  9
$DIMTMOVE
 70
     0
  9
$DIMFXL
 40
1.0
  9
$DIMFXLON
 70
     0
  9
$DIMJOGANG
 40
0.7853981633974483
  9
$DIMTFILL
 70
     0
  9
$DIMTFILLCLR
 70
     0
  9
$DIMARCSYM
 70
     0
  9
$DIMLTYPE
  6

  9
$DIMLTEX1
  6

  9
$DIMLTEX2
  6

  9
$DIMTXTDIRECTION
 70
     0
  9
$LUNITS
 70
     2
  9
$LUPREC
 70
     4
  9
$SKETCHINC
 40
0.1
  9
$FILLETRAD
 40
0.5
  9
$AUNITS
 70
     0
  9
$AUPREC
 70
     0
  9
$MENU
  1
.
  9
$ELEVATION
 40
0.0
  9
$PELEVATION
 40
0.0
  9
$THICKNESS
 40
0.0
  9
$LIMCHECK
 70
     0
  9
$CHAMFERA
 40
0.5
  9
$CHAMFERB
 40
0.5
  9
$CHAMFERC
 40
1.0
  9
$CHAMFERD
 40
0.0
  9
$SKPOLY
 70
     0
  9
$TDCREATE
 40
2457917.588900463
  9
$TDUCREATE
 40
2457917.213900463
  9
$TDUPDATE
 40
2457917.588900463
  9
$TDUUPDATE
 40
2457917.213900463
  9
$TDINDWG
 40
0.0000000116
  9
$TDUSRTIMER
 40
0.0000000116
  9
$USRTIMER
 70
     1
  9
$ANGBASE
 50
0.0
  9
$ANGDIR
 70
     0
  9
$PDMODE
 70
     0
  9
$PDSIZE
 40
0.0
  9
$PLINEWID
 40
0.0
  9
$SPLFRAME
 70
     0
  9
$SPLINETYPE
 70
     6
  9
$SPLINESEGS
 70
     8
  9
$HANDSEED
  5
D2
  9
$SURFTAB1
 70
     6
  9
$SURFTAB2
 70
     6
  9
$SURFTYPE
 70
     6
  9
$SURFU
 70
     6
  9
$SURFV
 70
     6
  9
$UCSBASE
  2

  9
$UCSNAME
  2

  9
$UCSORG
 10
0.0
 20
0.0
 30
0.0
  9
$UCSXDIR
 10
1.0
 20
0.0
 30
0.0
  9
$UCSYDIR
 10
0.0
 20
1.0
 30
0.0
  9
$UCSORTHOREF
  2

  9
$UCSORTHOVIEW
 70
     0
  9
$UCSORGTOP
 10
0.0
 20
0.0
 30
0.0
  9
$UCSORGBOTTOM
 10
0.0
 20
0.0
 30
0.0
  9
$UCSORGLEFT
 10
0.0
 20
0.0
 30
0.0
  9
$UCSORGRIGHT
 10
0.0
 20
0.0
 30
0.0
  9
$UCSORGFRONT
 10
0.0
 20
0.0
 30
0.0
  9
$UCSORGBACK
 10
0.0
 20
0.0
 30
0.0
  9
$PUCSBASE
  2

  9
$PUCSNAME
  2

  9
$PUCSORG
 10
0.0
 20
0.0
 30
0.0
  9
$PUCSXDIR
 10
1.0
 20
0.0
 30
0.0
  9
$PUCSYDIR
 10
0.0
 20
1.0
 30
0.0
  9
$PUCSORTHOREF
  2

  9
$PUCSORTHOVIEW
 70
     0
  9
$PUCSORGTOP
 10
0.0
 20
0.0
 30
0.0
  9
$PUCSORGBOTTOM
 10
0.0
 20
0.0
 30
0.0
  9
$PUCSORGLEFT
 10
0.0
 20
0.0
 30
0.0
  9
$PUCSORGRIGHT
 10
0.0
 20
0.0
 30
0.0
  9
$PUCSORGFRONT
 10
0.0
 20
0.0
 30
0.0
  9
$PUCSORGBACK
 10
0.0
 20
0.0
 30
0.0
  9
$USERI1
 70
     0
  9
$USERI2
 70
     0
  9
$USERI3
 70
     0
  9
$USERI4
 70
     0
  9
$USERI5
 70
     0
  9
$USERR1
 40
0.0
  9
$USERR2
 40
0.0
  9
$USERR3
 40
0.0
  9
$USERR4
 40
0.0
  9
$USERR5
 40
0.0
  9
$WORLDVIEW
 70
     1
  9
$SHADEDGE
 70
     3
  9
$SHADEDIF
 70
    70
  9
$TILEMODE
 70
     1
  9
$MAXACTVP
 70
    64
  9
$PINSBASE
 10
0.0
 20
0.0
 30
0.0
  9
$PLIMCHECK
 70
     0
  9
$PEXTMIN
 10
1.000000000000000E+20
 20
1.000000000000000E+20
 30
1.000000000000000E+20
  9
$PEXTMAX
 10
-1.000000000000000E+20
 20
-1.000000000000000E+20
 30
-1.000000000000000E+20
  9
$PLIMMIN
 10
0.0
 20
0.0
  9
$PLIMMAX
 10
12.0
 20
9.0
  9
$UNITMODE
 70
     0
  9
$VISRETAIN
 70
     1
  9
$PLINEGEN
 70
     0
  9
$PSLTSCALE
 70
     1
  9
$TREEDEPTH
 70
  3020
  9
$CMLSTYLE
  2
Standard
  9
$CMLJUST
 70
     0
  9
$CMLSCALE
 40
1.0
  9
$PROXYGRAPHICS
 70
     1
  9
$MEASUREMENT
 70
     0
  9
$CELWEIGHT
370
    -1
  9
$ENDCAPS
280
     0
  9
$JOINSTYLE
280
     0
  9
$LWDISPLAY
290
     1
  9
$INSUNITS
 70
     1
  9
$HYPERLINKBASE
  1

  9
$STYLESHEET
  1

  9
$XEDIT
290
     1
  9
$CEPSNTYPE
380
     0
  9
$PSTYLEMODE
290
     1
  9
$FINGERPRINTGUID
  2
{4696263C-1591-5C55-2CAA-0314BA21D678}
  9
$VERSIONGUID
  2
{FAEB1C32-E019-11D5-929B-00C0DF256EC4}
  9
$EXTNAMES
290
     1
  9
$PSVPSCALE
 40
0.0
  9
$OLESTARTUP
290
     0
  9
$SORTENTS
280
   127
  9
$INDEXCTL
280
     0
  9
$HIDETEXT
280
     1
  9
$XCLIPFRAME
280
     2
  9
$HALOGAP
280
     0
  9
$OBSCOLOR
 70
   257
  9
$OBSLTYPE
280
     0
  9
$INTERSECTIONDISPLAY
280
     0
  9
$INTERSECTIONCOLOR
 70
   257
  9
$DIMASSOC
280
     2
  9
$PROJECTNAME
  1

  9
$CAMERADISPLAY
290
     0
  9
$LENSLENGTH
 40
50.0
  9
$CAMERAHEIGHT
 40
0.0
  9
$STEPSPERSEC
 40
2.0
  9
$STEPSIZE
 40
6.0
  9
$3DDWFPREC
 40
2.0
  9
$PSOLWIDTH
 40
0.25
  9
$PSOLHEIGHT
 40
4.0
  9
$LOFTANG1
 40
1.570796326794897
  9
$LOFTANG2
 40
1.570796326794897
  9
$LOFTMAG1
 40
0.0
  9
$LOFTMAG2
 40
0.0
  9
$LOFTPARAM
 70
     7
  9
$LOFTNORMALS
280
     1
  9
$LATITUDE
 40
37.795
  9
$LONGITUDE
 40
-122.394
  9
$NORTHDIRECTION
 40
0.0
  9
$TIMEZONE
 70
 -8000
  9
$LIGHTGLYPHDISPLAY
280
     1
  9
$TILEMODELIGHTSYNCH
280
     1
  9
$CMATERIAL
347
3C
  9
$SOLIDHIST
280
     1
  9
$SHOWHIST
280
     1
  9
$DWFFRAME
280
     2
  9
$DGNFRAME
280
     2
  9
$REALWORLDSCALE
290
     1
  9
$INTERFERECOLOR
 62
   256
  9
$CSHADOW
280
     0
  9
$SHADOWPLANELOCATION
 40
0.0
  0
ENDSEC
  0
SECTION
  2
CLASSES
  0
CLASS
  1
ACDBDICTIONARYWDFLT
  2
AcDbDictionaryWithDefault
  3
ObjectDBX Classes
 90
        0
 91
        4
280
     0
281
     0
  0
CLASS
  1
VISUALSTYLE
  2
AcDbVisualStyle
  3
ObjectDBX Classes
 90
     4095
 91
        4
280
     0
281
     0
  0
CLASS
  1
MATERIAL
  2
AcDbMaterial
  3
ObjectDBX Classes
 90
     1153
 91
        4
280
     0
281
     0
  0
CLASS
  1
SUN
  2
AcDbSun
  3
SCENEOE
 90
     1024
 91
        4
280
     0
281
     0
  0
ENDSEC
  0
SECTION
  2
TABLES
  0
TABLE
  2
VPORT
  5
8
330
0
100
AcDbSymbolTable
 70
     1
  0
VPORT
  5
29
330
8
100
AcDbSymbolTableRecord
100
AcDbViewportTableRecord
  2
*Active
 70
     0
 10
0.0
 20
0.0
 11
1.0
 21
1.0
 12
0.0
 22
0.0
 13
0.0
 23
0.0
 14
0.5
 24
0.5
 15
0.5
 25
0.5
 16
0.0
 26
0.0
 36
1.0
 17
63.499999984125
 27
-89.00059456108309
 37
0.0
 40
178.0011891221662
 41
0.7134783795241226
 42
50.0
 43
0.0
 44
0.0
 50
0.0
 51
0.0
 71
     0
 72
   100
 73
     1
 74
     3
 75
     0
 76
     0
 77
     0
 78
     0
281
     0
 65
     1
110
0.0
120
0.0
130
0.0
111
1.0
121
0.0
131
0.0
112
0.0
122
1.0
132
0.0
 79
     0
146
0.0
 60
     3
 61
     5
292
     1
282
     1
141
0.0
142
0.0
 63
   250
361
3F
  0
ENDTAB
  0
TABLE
  2
LTYPE
  5
5
330
0
100
AcDbSymbolTable
 70
     1
  0
LTYPE
  5
14
330
5
100
AcDbSymbolTableRecord
100
AcDbLinetypeTableRecord
  2
ByBlock
 70
     0
  3

 72
    65
 73
     0
 40
0.0
  0
LTYPE
  5
15
330
5
100
AcDbSymbolTableRecord
100
AcDbLinetypeTableRecord
  2
ByLayer
 70
     0
  3

 72
    65
 73
     0
 40
0.0
  0
LTYPE
  5
16
330
5
100
AcDbSymbolTableRecord
100
AcDbLinetypeTableRecord
  2
Continuous
 70
     0
  3
Solid line
 72
    65
 73
     0
 40
0.0
  0
ENDTAB
  0
TABLE
  2
LAYER
  5
2
330
0
100
AcDbSymbolTable
 70
     2
  0
LAYER
  5
10
330
2
100
AcDbSymbolTableRecord
100
AcDbLayerTableRecord
  2
0
 70
     0
 62
     7
  6
Continuous
370
    -3
390
F
347
3E
  0
LAYER
  5
40
330
2
100
AcDbSymbolTableRecord
100
AcDbLayerTableRecord
  2
_U+30EC_U+30A4_U+30E4_U+30FC 1
 70
     0
 62
     7
  6
Continuous
370
    -3
390
F
347
3E
  0
ENDTAB
  0
TABLE
  2
STYLE
  5
3
330
0
100
AcDbSymbolTable
 70
     1
  0
STYLE
  5
11
330
3
100
AcDbSymbolTableRecord
100
AcDbTextStyleTableRecord
  2
Standard
 70
     0
 40
0.0
 41
1.0
 50
0.0
 71
     0
 42
0.2
  3
txt
  4

  0
ENDTAB
  0
TABLE
  2
VIEW
  5
6
330
0
100
AcDbSymbolTable
 70
     0
  0
ENDTAB
  0
TABLE
  2
UCS
  5
7
330
0
100
AcDbSymbolTable
 70
     0
  0
ENDTAB
  0
TABLE
  2
APPID
  5
9
330
0
100
AcDbSymbolTable
 70
     1
  0
APPID
  5
12
330
9
100
AcDbSymbolTableRecord
100
AcDbRegAppTableRecord
  2
ACAD
 70
     0
  0
ENDTAB
  0
TABLE
  2
DIMSTYLE
  5
A
330
0
100
AcDbSymbolTable
 70
     1
100
AcDbDimStyleTable
  0
DIMSTYLE
105
27
330
A
100
AcDbSymbolTableRecord
100
AcDbDimStyleTableRecord
  2
Standard
 70
     0
178
     0
340
11
  0
ENDTAB
  0
TABLE
  2
BLOCK_RECORD
  5
1
330
0
100
AcDbSymbolTable
 70
     6
  0
BLOCK_RECORD
  5
1F
330
1
100
AcDbSymbolTableRecord
100
AcDbBlockTableRecord
  2
*Model_Space
340
22
 70
     0
280
     1
281
     0
  0
BLOCK_RECORD
  5
1B
330
1
100
AcDbSymbolTableRecord
100
AcDbBlockTableRecord
  2
*Paper_Space
340
1E
 70
     0
280
     1
281
     0
  0
BLOCK_RECORD
  5
23
330
1
100
AcDbSymbolTableRecord
100
AcDbBlockTableRecord
  2
*Paper_Space0
340
26
 70
     0
280
     1
281
     0
  0
BLOCK_RECORD
  5
8E
330
1
100
AcDbSymbolTableRecord
100
AcDbBlockTableRecord
  2
block 2
340
0
102
{BLKREFS
331
8F
102
}
 70
     0
280
     1
281
     0
  0
BLOCK_RECORD
  5
A1
330
1
100
AcDbSymbolTableRecord
100
AcDbBlockTableRecord
  2
block 3
340
0
102
{BLKREFS
331
A2
102
}
 70
     0
280
     1
281
     0
  0
BLOCK_RECORD
  5
A7
330
1
100
AcDbSymbolTableRecord
100
AcDbBlockTableRecord
  2
block 4
340
0
102
{BLKREFS
331
A8
102
}
 70
     0
280
     1
281
     0
  0
BLOCK_RECORD
  5
C0
330
1
100
AcDbSymbolTableRecord
100
AcDbBlockTableRecord
  2
block 5
340
0
102
{BLKREFS
331
C1
102
}
 70
     0
280
     1
281
     0
  0
BLOCK_RECORD
  5
C8
330
1
100
AcDbSymbolTableRecord
100
AcDbBlockTableRecord
  2
block 6
340
0
102
{BLKREFS
331
C9
102
}
 70
     0
280
     1
281
     0
  0
ENDTAB
  0
ENDSEC
  0
SECTION
  2
BLOCKS
  0
BLOCK
  5
20
330
1F
100
AcDbEntity
  8
0
100
AcDbBlockBegin
  2
*Model_Space
 70
     0
 10
0.0
 20
0.0
 30
0.0
  3
*Model_Space
  1

  0
ENDBLK
  5
21
330
1F
100
AcDbEntity
  8
0
100
AcDbBlockEnd
  0
BLOCK
  5
1C
330
1B
100
AcDbEntity
 67
     1
  8
0
100
AcDbBlockBegin
  2
*Paper_Space
 70
     0
 10
0.0
 20
0.0
 30
0.0
  3
*Paper_Space
  1

  0
ENDBLK
  5
1D
330
1B
100
AcDbEntity
 67
     1
  8
0
100
AcDbBlockEnd
  0
BLOCK
  5
24
330
23
100
AcDbEntity
  8
0
100
AcDbBlockBegin
  2
*Paper_Space0
 70
     0
 10
0.0
 20
0.0
 30
0.0
  3
*Paper_Space0
  1

  0
ENDBLK
  5
25
330
23
100
AcDbEntity
  8
0
100
AcDbBlockEnd
  0
BLOCK
  5
90
330
8E
100
AcDbEntity
  8
0
100
AcDbBlockBegin
  2
block 2
 70
     0
 10
0.0
 20
0.0
 30
0.0
  3
block 2
  1

  0
SPLINE
  5
92
330
8E
100
AcDbEntity
  8
_U+30EC_U+30A4_U+30E4_U+30FC 1
370
     0
100
AcDbSpline
210
0.0
220
0.0
230
1.0
 70
    11
 71
     3
 72
    29
 73
    25
 74
     0
 42
0.0000000001
 43
0.0000000001
 12
1.0
 22
0.0
 32
0.0
 13
1.0
 23
0.0
 33
0.0
 40
0.0
 40
0.0
 40
0.0
 40
0.0
 40
1.0
 40
1.0
 40
1.0
 40
2.0
 40
2.0
 40
2.0
 40
3.0
 40
3.0
 40
3.0
 40
4.0
 40
4.0
 40
4.0
 40
5.0
 40
5.0
 40
5.0
 40
6.0
 40
6.0
 40
6.0
 40
7.0
 40
7.0
 40
7.0
 40
8.0
 40
8.0
 40
8.0
 40
8.0
 10
71.84987791172503
 20
-80.43505586096762
 30
0.0
 10
72.05933971722823
 20
-80.54323185920447
 30
0.0
 10
72.0782877423971
 20
-80.71652016211254
 30
0.0
 10
72.0782877423971
 20
-80.83296438951399
 30
0.0
 10
72.0782877423971
 20
-80.99385034867515
 30
0.0
 10
72.03212346289475
 20
-81.13544377311892
 30
0.0
 10
71.84987791172503
 20
-81.23052840851182
 30
0.0
 10
71.65523001680842
 20
-81.33422578261784
 30
0.0
 10
71.41820744742323
 20
-81.3531738077867
 30
0.0
 10
71.25559894051943
 20
-81.3531738077867
 30
0.0
 10
71.111593949236
 20
-81.3531738077867
 30
0.0
 10
70.86010197881275
 20
-81.33629283990899
 30
0.0
 10
70.66097545976531
 20
-81.23052840851182
 30
0.0
 10
70.45771482613557
 20
-81.1226969198235
 30
0.0
 10
70.4346326863844
 20
-80.96181096066233
 30
0.0
 10
70.4346326863844
 20
-80.83296438951399
 30
0.0
 10
70.4346326863844
 20
-80.67414548764397
 30
0.0
 10
70.47907441814412
 20
-80.53048500590904
 30
0.0
 10
70.66097545976531
 20
-80.43505586096762
 30
0.0
 10
70.85355629739078
 20
-80.33583711099243
 30
0.0
 10
71.08196612806285
 20
-80.31241046169274
 30
0.0
 10
71.25559894051943
 20
-80.31241046169274
 30
0.0
 10
71.42682018613635
 20
-80.31241046169274
 30
0.0
 10
71.65729707409957
 20
-80.33377005370129
 30
0.0
 10
71.84987791172503
 20
-80.43505586096762
 30
0.0
  0
SPLINE
  5
93
330
8E
100
AcDbEntity
  8
_U+30EC_U+30A4_U+30E4_U+30FC 1
370
     0
100
AcDbSpline
210
0.0
220
0.0
230
1.0
 70
    11
 71
     3
 72
    17
 73
    13
 74
     0
 42
0.0000000001
 43
0.0000000001
 12
1.0
 22
0.0
 32
0.0
 13
1.0
 23
0.0
 33
0.0
 40
0.0
 40
0.0
 40
0.0
 40
0.0
 40
1.0
 40
1.0
 40
1.0
 40
2.0
 40
2.0
 40
2.0
 40
3.0
 40
3.0
 40
3.0
 40
4.0
 40
4.0
 40
4.0
 40
4.0
 10
70.62721352400986
 20
-80.83296438951399
 30
0.0
 10
70.62721352400986
 20
-81.08238930264608
 30
0.0
 10
70.91074488244593
 20
-81.12924260124547
 30
0.0
 10
71.25559894051943
 20
-81.12924260124547
 30
0.0
 10
71.57495929200209
 20
-81.12924260124547
 30
0.0
 10
71.88398435702901
 20
-81.09306909865035
 30
0.0
 10
71.88398435702901
 20
-80.83296438951399
 30
0.0
 10
71.88398435702901
 20
-80.58526202412452
 30
0.0
 10
71.60217554633557
 20
-80.5366861777825
 30
0.0
 10
71.25559894051943
 20
-80.5366861777825
 30
0.0
 10
70.93589407948825
 20
-80.5366861777825
 30
0.0
 10
70.62721352400986
 20
-80.57492673766878
 30
0.0
 10
70.62721352400986
 20
-80.83296438951399
 30
0.0
  0
HATCH
  5
94
330
8E
100
AcDbEntity
  8
_U+30EC_U+30A4_U+30E4_U+30FC 1
 62
     7
420
 16777215
100
AcDbHatch
 10
0.0
 20
0.0
 30
0.0
210
0.0
220
0.0
230
1.0
  2
SOLID
 70
     1
 71
     0
 91
        2
 92
        1
 93
        1
 72
     4
 94
        3
 73
     0
 74
     1
 95
       29
 96
       25
 40
0.0
 40
0.0
 40
0.0
 40
0.0
 40
1.0
 40
1.0
 40
1.0
 40
2.0
 40
2.0
 40
2.0
 40
3.0
 40
3.0
 40
3.0
 40
4.0
 40
4.0
 40
4.0
 40
5.0
 40
5.0
 40
5.0
 40
6.0
 40
6.0
 40
6.0
 40
7.0
 40
7.0
 40
7.0
 40
8.0
 40
8.0
 40
8.0
 40
8.0
 10
71.84987791172503
 20
-80.43505586096762
 10
72.05933971722823
 20
-80.54323185920447
 10
72.0782877423971
 20
-80.71652016211254
 10
72.0782877423971
 20
-80.83296438951399
 10
72.0782877423971
 20
-80.99385034867515
 10
72.03212346289475
 20
-81.13544377311892
 10
71.84987791172503
 20
-81.23052840851182
 10
71.65523001680842
 20
-81.33422578261784
 10
71.41820744742323
 20
-81.3531738077867
 10
71.25559894051943
 20
-81.3531738077867
 10
71.111593949236
 20
-81.3531738077867
 10
70.86010197881275
 20
-81.33629283990899
 10
70.66097545976531
 20
-81.23052840851182
 10
70.45771482613557
 20
-81.1226969198235
 10
70.4346326863844
 20
-80.96181096066233
 10
70.4346326863844
 20
-80.83296438951399
 10
70.4346326863844
 20
-80.67414548764397
 10
70.47907441814412
 20
-80.53048500590904
 10
70.66097545976531
 20
-80.43505586096762
 10
70.85355629739078
 20
-80.33583711099243
 10
71.08196612806285
 20
-80.31241046169274
 10
71.25559894051943
 20
-80.31241046169274
 10
71.42682018613635
 20
-80.31241046169274
 10
71.65729707409957
 20
-80.33377005370129
 10
71.84987791172503
 20
-80.43505586096762
 97
        0
 97
        0
 92
        1
 93
        1
 72
     4
 94
        3
 73
     0
 74
     1
 95
       17
 96
       13
 40
0.0
 40
0.0
 40
0.0
 40
0.0
 40
1.0
 40
1.0
 40
1.0
 40
2.0
 40
2.0
 40
2.0
 40
3.0
 40
3.0
 40
3.0
 40
4.0
 40
4.0
 40
4.0
 40
4.0
 10
70.62721352400986
 20
-80.83296438951399
 10
70.62721352400986
 20
-81.08238930264608
 10
70.91074488244593
 20
-81.12924260124547
 10
71.25559894051943
 20
-81.12924260124547
 10
71.57495929200209
 20
-81.12924260124547
 10
71.88398435702901
 20
-81.09306909865035
 10
71.88398435702901
 20
-80.83296438951399
 10
71.88398435702901
 20
-80.58526202412452
 10
71.60217554633557
 20
-80.5366861777825
 10
71.25559894051943
 20
-80.5366861777825
 10
70.93589407948825
 20
-80.5366861777825
 10
70.62721352400986
 20
-80.57492673766878
 10
70.62721352400986
 20
-80.83296438951399
 97
        0
 97
        0
 75
     2
 76
     1
 98
        0
  0
POLYLINE
  5
95
330
8E
100
AcDbEntity
  8
_U+30EC_U+30A4_U+30E4_U+30FC 1
370
     0
100
AcDb2dPolyline
 66
     1
 10
0.0
 20
0.0
 30
0.0
  0
VERTEX
  5
96
330
95
100
AcDbEntity
  8
_U+30EC_U+30A4_U+30E4_U+30FC 1
370
     0
100
AcDbVertex
100
AcDb2dVertex
 10
72.02764483876392
 20
-80.09605846521904
 30
0.0
  0
VERTEX
  5
97
330
95
100
AcDbEntity
  8
_U+30EC_U+30A4_U+30E4_U+30FC 1
370
     0
100
AcDbVertex
100
AcDb2dVertex
 10
71.77580835879216
 20
-80.09605846521904
 30
0.0
  0
VERTEX
  5
98
330
95
100
AcDbEntity
  8
_U+30EC_U+30A4_U+30E4_U+30FC 1
370
     0
100
AcDbVertex
100
AcDb2dVertex
 10
71.77580835879216
 20
-79.84422198524729
 30
0.0
  0
VERTEX
  5
99
330
95
100
AcDbEntity
  8
_U+30EC_U+30A4_U+30E4_U+30FC 1
370
     0
100
AcDbVertex
100
AcDb2dVertex
 10
72.02764483876392
 20
-79.84422198524729
 30
0.0
  0
VERTEX
  5
9A
330
95
100
AcDbEntity
  8
_U+30EC_U+30A4_U+30E4_U+30FC 1
370
     0
100
AcDbVertex
100
AcDb2dVertex
 10
72.02764483876392
 20
-80.09605846521904
 30
0.0
  0
SEQEND
  5
9B
330
95
100
AcDbEntity
  8
_U+30EC_U+30A4_U+30E4_U+30FC 1
370
     0
  0
HATCH
  5
9C
330
8E
100
AcDbEntity
  8
_U+30EC_U+30A4_U+30E4_U+30FC 1
 62
     7
420
 16777215
100
AcDbHatch
 10
0.0
 20
0.0
 30
0.0
210
0.0
220
0.0
230
1.0
  2
SOLID
 70
     1
 71
     0
 91
        1
 92
        1
 93
        4
 72
     1
 10
72.02764483876392
 20
-80.09605846521904
 11
71.77580835879216
 21
-80.09605846521904
 72
     1
 10
71.77580835879216
 20
-80.09605846521904
 11
71.77580835879216
 21
-79.84422198524729
 72
     1
 10
71.77580835879216
 20
-79.84422198524729
 11
72.02764483876392
 21
-79.84422198524729
 72
     1
 10
72.02764483876392
 20
-79.84422198524729
 11
72.02764483876392
 21
-80.09605846521904
 97
        0
 75
     2
 76
     1
 98
        0
  0
SPLINE
  5
9D
330
8E
100
AcDbEntity
  8
_U+30EC_U+30A4_U+30E4_U+30FC 1
370
     0
100
AcDbSpline
210
0.0
220
0.0
230
1.0
 70
    11
 71
     3
 72
    29
 73
    25
 74
     0
 42
0.0000000001
 43
0.0000000001
 12
1.0
 22
0.0
 32
0.0
 13
1.0
 23
0.0
 33
0.0
 40
0.0
 40
0.0
 40
0.0
 40
0.0
 40
1.0
 40
1.0
 40
1.0
 40
2.0
 40
2.0
 40
2.0
 40
3.0
 40
3.0
 40
3.0
 40
4.0
 40
4.0
 40
4.0
 40
5.0
 40
5.0
 40
5.0
 40
6.0
 40
6.0
 40
6.0
 40
7.0
 40
7.0
 40
7.0
 40
8.0
 40
8.0
 40
8.0
 40
8.0
 10
72.0782877423971
 20
-79.1080050800494
 30
0.0
 10
72.0782877423971
 20
-79.37465547060773
 30
0.0
 10
71.94082843253562
 20
-79.62855900787063
 30
0.0
 10
71.59184025987982
 20
-79.62855900787063
 30
0.0
 10
71.33586966532576
 20
-79.62855900787063
 30
0.0
 10
71.24044052038434
 20
-79.48662107387835
 30
0.0
 10
71.1791178207469
 20
-79.38085664248118
 30
0.0
 10
71.1198621784006
 20
-79.50556909904722
 30
0.0
 10
71.00582951783882
 20
-79.58170570927125
 30
0.0
 10
70.84494355867766
 20
-79.58170570927125
 30
0.0
 10
70.57002493895472
 20
-79.58170570927125
 30
0.0
 10
70.4346326863844
 20
-79.38292369977233
 30
0.0
 10
70.4346326863844
 20
-79.1080050800494
 30
0.0
 10
70.4346326863844
 20
-78.82447372161333
 30
0.0
 10
70.57829316811932
 20
-78.63395994127902
 30
0.0
 10
70.84494355867766
 20
-78.63395994127902
 30
0.0
 10
71.00582951783882
 20
-78.63395994127902
 30
0.0
 10
71.1198621784006
 20
-78.71250811834271
 30
0.0
 10
71.1791178207469
 20
-78.83722057490876
 30
0.0
 10
71.23010523392858
 20
-78.7483371113893
 30
0.0
 10
71.32518986932148
 20
-78.58951820951928
 30
0.0
 10
71.58770614529752
 20
-78.58951820951928
 30
0.0
 10
71.96184351499565
 20
-78.58951820951928
 30
0.0
 10
72.0782877423971
 20
-78.86891545337305
 30
0.0
 10
72.0782877423971
 20
-79.1080050800494
 30
0.0
  0
SPLINE
  5
9E
330
8E
100
AcDbEntity
  8
_U+30EC_U+30A4_U+30E4_U+30FC 1
370
     0
100
AcDbSpline
210
0.0
220
0.0
230
1.0
 70
    11
 71
     3
 72
    17
 73
    13
 74
     0
 42
0.0000000001
 43
0.0000000001
 12
1.0
 22
0.0
 32
0.0
 13
1.0
 23
0.0
 33
0.0
 40
0.0
 40
0.0
 40
0.0
 40
0.0
 40
1.0
 40
1.0
 40
1.0
 40
2.0
 40
2.0
 40
2.0
 40
3.0
 40
3.0
 40
3.0
 40
4.0
 40
4.0
 40
4.0
 40
4.0
 10
70.62721352400986
 20
-79.1080050800494
 30
0.0
 10
70.62721352400986
 20
-79.27302515379286
 30
0.0
 10
70.72229815940277
 20
-79.35777450273001
 30
0.0
 10
70.85769041197308
 20
-79.35777450273001
 30
0.0
 10
70.9806803207965
 20
-79.35777450273001
 30
0.0
 10
71.0991916054891
 20
-79.28577200708828
 30
0.0
 10
71.0991916054891
 20
-79.1080050800494
 30
0.0
 10
71.0991916054891
 20
-78.9302381530105
 30
0.0
 10
70.9806803207965
 20
-78.85823565736878
 30
0.0
 10
70.85769041197308
 20
-78.85823565736878
 30
0.0
 10
70.72229815940277
 20
-78.85823565736878
 30
0.0
 10
70.62721352400986
 20
-78.94505206359707
 30
0.0
 10
70.62721352400986
 20
-79.1080050800494
 30
0.0
  0
SPLINE
  5
9F
330
8E
100
AcDbEntity
  8
_U+30EC_U+30A4_U+30E4_U+30FC 1
370
     0
100
AcDbSpline
210
0.0
220
0.0
230
1.0
 70
    11
 71
     3
 72
    17
 73
    13
 74
     0
 42
0.0000000001
 43
0.0000000001
 12
1.0
 22
0.0
 32
0.0
 13
1.0
 23
0.0
 33
0.0
 40
0.0
 40
0.0
 40
0.0
 40
0.0
 40
1.0
 40
1.0
 40
1.0
 40
2.0
 40
2.0
 40
2.0
 40
3.0
 40
3.0
 40
3.0
 40
4.0
 40
4.0
 40
4.0
 40
4.0
 10
71.28729381898374
 20
-79.1080050800494
 30
0.0
 10
71.28729381898374
 20
-79.2516655617843
 30
0.0
 10
71.37411022521204
 20
-79.40428329178087
 30
0.0
 10
71.57702634929325
 20
-79.40428329178087
 30
0.0
 10
71.78200953066562
 20
-79.40428329178087
 30
0.0
 10
71.88398435702901
 20
-79.27715926837516
 30
0.0
 10
71.88398435702901
 20
-79.1080050800494
 30
0.0
 10
71.88398435702901
 20
-78.9219699238459
 30
0.0
 10
71.76133895775412
 20
-78.8117268683179
 30
0.0
 10
71.58357203071522
 20
-78.8117268683179
 30
0.0
 10
71.36101886236808
 20
-78.8117268683179
 30
0.0
 10
71.28729381898374
 20
-78.97467988477023
 30
0.0
 10
71.28729381898374
 20
-79.1080050800494
 30
0.0
  0
HATCH
  5
A0
330
8E
100
AcDbEntity
  8
_U+30EC_U+30A4_U+30E4_U+30FC 1
 62
     7
420
 16777215
100
AcDbHatch
 10
0.0
 20
0.0
 30
0.0
210
0.0
220
0.0
230
1.0
  2
SOLID
 70
     1
 71
     0
 91
        3
 92
        1
 93
        1
 72
     4
 94
        3
 73
     0
 74
     1
 95
       29
 96
       25
 40
0.0
 40
0.0
 40
0.0
 40
0.0
 40
1.0
 40
1.0
 40
1.0
 40
2.0
 40
2.0
 40
2.0
 40
3.0
 40
3.0
 40
3.0
 40
4.0
 40
4.0
 40
4.0
 40
5.0
 40
5.0
 40
5.0
 40
6.0
 40
6.0
 40
6.0
 40
7.0
 40
7.0
 40
7.0
 40
8.0
 40
8.0
 40
8.0
 40
8.0
 10
72.0782877423971
 20
-79.1080050800494
 10
72.0782877423971
 20
-79.37465547060773
 10
71.94082843253562
 20
-79.62855900787063
 10
71.59184025987982
 20
-79.62855900787063
 10
71.33586966532576
 20
-79.62855900787063
 10
71.24044052038434
 20
-79.48662107387835
 10
71.1791178207469
 20
-79.38085664248118
 10
71.1198621784006
 20
-79.50556909904722
 10
71.00582951783882
 20
-79.58170570927125
 10
70.84494355867766
 20
-79.58170570927125
 10
70.57002493895472
 20
-79.58170570927125
 10
70.4346326863844
 20
-79.38292369977233
 10
70.4346326863844
 20
-79.1080050800494
 10
70.4346326863844
 20
-78.82447372161333
 10
70.57829316811932
 20
-78.63395994127902
 10
70.84494355867766
 20
-78.63395994127902
 10
71.00582951783882
 20
-78.63395994127902
 10
71.1198621784006
 20
-78.71250811834271
 10
71.1791178207469
 20
-78.83722057490876
 10
71.23010523392858
 20
-78.7483371113893
 10
71.32518986932148
 20
-78.58951820951928
 10
71.58770614529752
 20
-78.58951820951928
 10
71.96184351499565
 20
-78.58951820951928
 10
72.0782877423971
 20
-78.86891545337305
 10
72.0782877423971
 20
-79.1080050800494
 97
        0
 97
        0
 92
        1
 93
        1
 72
     4
 94
        3
 73
     0
 74
     1
 95
       17
 96
       13
 40
0.0
 40
0.0
 40
0.0
 40
0.0
 40
1.0
 40
1.0
 40
1.0
 40
2.0
 40
2.0
 40
2.0
 40
3.0
 40
3.0
 40
3.0
 40
4.0
 40
4.0
 40
4.0
 40
4.0
 10
70.62721352400986
 20
-79.1080050800494
 10
70.62721352400986
 20
-79.27302515379286
 10
70.72229815940277
 20
-79.35777450273001
 10
70.85769041197308
 20
-79.35777450273001
 10
70.9806803207965
 20
-79.35777450273001
 10
71.0991916054891
 20
-79.28577200708828
 10
71.0991916054891
 20
-79.1080050800494
 10
71.0991916054891
 20
-78.9302381530105
 10
70.9806803207965
 20
-78.85823565736878
 10
70.85769041197308
 20
-78.85823565736878
 10
70.72229815940277
 20
-78.85823565736878
 10
70.62721352400986
 20
-78.94505206359707
 10
70.62721352400986
 20
-79.1080050800494
 97
        0
 97
        0
 92
        1
 93
        1
 72
     4
 94
        3
 73
     0
 74
     1
 95
       17
 96
       13
 40
0.0
 40
0.0
 40
0.0
 40
0.0
 40
1.0
 40
1.0
 40
1.0
 40
2.0
 40
2.0
 40
2.0
 40
3.0
 40
3.0
 40
3.0
 40
4.0
 40
4.0
 40
4.0
 40
4.0
 10
71.28729381898374
 20
-79.1080050800494
 10
71.28729381898374
 20
-79.2516655617843
 10
71.37411022521204
 20
-79.40428329178087
 10
71.57702634929325
 20
-79.40428329178087
 10
71.78200953066562
 20
-79.40428329178087
 10
71.88398435702901
 20
-79.27715926837516
 10
71.88398435702901
 20
-79.1080050800494
 10
71.88398435702901
 20
-78.9219699238459
 10
71.76133895775412
 20
-78.8117268683179
 10
71.58357203071522
 20
-78.8117268683179
 10
71.36101886236808
 20
-78.8117268683179
 10
71.28729381898374
 20
-78.97467988477023
 10
71.28729381898374
 20
-79.1080050800494
 97
        0
 97
        0
 75
     2
 76
     1
 98
        0
  0
ENDBLK
  5
91
330
8E
100
AcDbEntity
  8
0
100
AcDbBlockEnd
  0
BLOCK
  5
A3
330
A1
100
AcDbEntity
  8
0
100
AcDbBlockBegin
  2
block 3
 70
     0
 10
0.0
 20
0.0
 30
0.0
  3
block 3
  1

  0
SPLINE
  5
A5
330
A1
100
AcDbEntity
  8
_U+30EC_U+30A4_U+30E4_U+30FC 1
370
     0
100
AcDbSpline
210
0.0
220
0.0
230
1.0
 70
    11
 71
     3
 72
    44
 73
    40
 74
     0
 42
0.0000000001
 43
0.0000000001
 12
1.0
 22
0.0
 32
0.0
 13
1.0
 23
0.0
 33
0.0
 40
0.0
 40
0.0
 40
0.0
 40
0.0
 40
1.0
 40
1.0
 40
1.0
 40
2.0
 40
2.0
 40
2.0
 40
3.0
 40
3.0
 40
3.0
 40
4.0
 40
4.0
 40
4.0
 40
5.0
 40
5.0
 40
5.0
 40
6.0
 40
6.0
 40
6.0
 40
7.0
 40
7.0
 40
7.0
 40
8.0
 40
8.0
 40
8.0
 40
9.0
 40
9.0
 40
9.0
 40
10.0
 40
10.0
 40
10.0
 40
11.0
 40
11.0
 40
11.0
 40
12.0
 40
12.0
 40
12.0
 40
13.0
 40
13.0
 40
13.0
 40
13.0
 10
71.44576821130522
 20
-97.67741425509453
 30
0.0
 10
71.60458711317524
 20
-97.89514428976233
 30
0.0
 10
71.67865666610811
 20
-97.98816186786408
 30
0.0
 10
71.82231714784304
 20
-98.03708222375462
 30
0.0
 10
71.82231714784304
 20
-98.03708222375462
 30
0.0
 10
71.82231714784304
 20
-97.25849064408816
 30
0.0
 10
71.82231714784304
 20
-97.25849064408816
 30
0.0
 10
71.82231714784304
 20
-97.25849064408816
 30
0.0
 10
72.02764483876392
 20
-97.25849064408816
 30
0.0
 10
72.02764483876392
 20
-97.25849064408816
 30
0.0
 10
72.02764483876392
 20
-97.25849064408816
 30
0.0
 10
72.02764483876392
 20
-98.28650713688671
 30
0.0
 10
72.02764483876392
 20
-98.28650713688671
 30
0.0
 10
71.67004392739499
 20
-98.25481225842242
 30
0.0
 10
71.59184025987982
 20
-98.18935544420266
 30
0.0
 10
71.29349499085718
 20
-97.80419376895173
 30
0.0
 10
71.09471298135827
 20
-97.54822317439768
 30
0.0
 10
71.02684460029884
 20
-97.48276636017792
 30
0.0
 10
70.88938529043737
 20
-97.48276636017792
 30
0.0
 10
70.77087400574479
 20
-97.48276636017792
 30
0.0
 10
70.63996037730529
 20
-97.55476885581965
 30
0.0
 10
70.63996037730529
 20
-97.75148380802742
 30
0.0
 10
70.63996037730529
 20
-98.01158851716377
 30
0.0
 10
70.8704372652685
 20
-98.01985674632837
 30
0.0
 10
70.98688149266995
 20
-98.0243353704592
 30
0.0
 10
70.98688149266995
 20
-98.0243353704592
 30
0.0
 10
70.98688149266995
 20
-98.24861108654896
 30
0.0
 10
70.98688149266995
 20
-98.24861108654896
 30
0.0
 10
70.85975746926422
 20
-98.23999834783584
 30
0.0
 10
70.7477918659936
 20
-98.22931855183157
 30
0.0
 10
70.62928058130102
 20
-98.14904782702524
 30
0.0
 10
70.46839462213985
 20
-98.03914928104577
 30
0.0
 10
70.4346326863844
 20
-97.85276961529375
 30
0.0
 10
70.4346326863844
 20
-97.73666989744083
 30
0.0
 10
70.4346326863844
 20
-97.45933971087823
 30
0.0
 10
70.61860078529674
 20
-97.25194496266619
 30
0.0
 10
70.89145234772853
 20
-97.25194496266619
 30
0.0
 10
71.12020668794912
 20
-97.25194496266619
 30
0.0
 10
71.21942543792431
 20
-97.36838919006763
 30
0.0
 10
71.44576821130522
 20
-97.67741425509453
 30
0.0
  0
HATCH
  5
A6
330
A1
100
AcDbEntity
  8
_U+30EC_U+30A4_U+30E4_U+30FC 1
 62
     7
420
 16777215
100
AcDbHatch
 10
0.0
 20
0.0
 30
0.0
210
0.0
220
0.0
230
1.0
  2
SOLID
 70
     1
 71
     0
 91
        1
 92
        1
 93
        1
 72
     4
 94
        3
 73
     0
 74
     1
 95
       44
 96
       40
 40
0.0
 40
0.0
 40
0.0
 40
0.0
 40
1.0
 40
1.0
 40
1.0
 40
2.0
 40
2.0
 40
2.0
 40
3.0
 40
3.0
 40
3.0
 40
4.0
 40
4.0
 40
4.0
 40
5.0
 40
5.0
 40
5.0
 40
6.0
 40
6.0
 40
6.0
 40
7.0
 40
7.0
 40
7.0
 40
8.0
 40
8.0
 40
8.0
 40
9.0
 40
9.0
 40
9.0
 40
10.0
 40
10.0
 40
10.0
 40
11.0
 40
11.0
 40
11.0
 40
12.0
 40
12.0
 40
12.0
 40
13.0
 40
13.0
 40
13.0
 40
13.0
 10
71.44576821130522
 20
-97.67741425509453
 10
71.60458711317524
 20
-97.89514428976233
 10
71.67865666610811
 20
-97.98816186786408
 10
71.82231714784304
 20
-98.03708222375462
 10
71.82231714784304
 20
-98.03708222375462
 10
71.82231714784304
 20
-97.25849064408816
 10
71.82231714784304
 20
-97.25849064408816
 10
71.82231714784304
 20
-97.25849064408816
 10
72.02764483876392
 20
-97.25849064408816
 10
72.02764483876392
 20
-97.25849064408816
 10
72.02764483876392
 20
-97.25849064408816
 10
72.02764483876392
 20
-98.28650713688671
 10
72.02764483876392
 20
-98.28650713688671
 10
71.67004392739499
 20
-98.25481225842242
 10
71.59184025987982
 20
-98.18935544420266
 10
71.29349499085718
 20
-97.80419376895173
 10
71.09471298135827
 20
-97.54822317439768
 10
71.02684460029884
 20
-97.48276636017792
 10
70.88938529043737
 20
-97.48276636017792
 10
70.77087400574479
 20
-97.48276636017792
 10
70.63996037730529
 20
-97.55476885581965
 10
70.63996037730529
 20
-97.75148380802742
 10
70.63996037730529
 20
-98.01158851716377
 10
70.8704372652685
 20
-98.01985674632837
 10
70.98688149266995
 20
-98.0243353704592
 10
70.98688149266995
 20
-98.0243353704592
 10
70.98688149266995
 20
-98.24861108654896
 10
70.98688149266995
 20
-98.24861108654896
 10
70.85975746926422
 20
-98.23999834783584
 10
70.7477918659936
 20
-98.22931855183157
 10
70.62928058130102
 20
-98.14904782702524
 10
70.46839462213985
 20
-98.03914928104577
 10
70.4346326863844
 20
-97.85276961529375
 10
70.4346326863844
 20
-97.73666989744083
 10
70.4346326863844
 20
-97.45933971087823
 10
70.61860078529674
 20
-97.25194496266619
 10
70.89145234772853
 20
-97.25194496266619
 10
71.12020668794912
 20
-97.25194496266619
 10
71.21942543792431
 20
-97.36838919006763
 10
71.44576821130522
 20
-97.67741425509453
 97
        0
 97
        0
 75
     2
 76
     1
 98
        0
  0
ENDBLK
  5
A4
330
A1
100
AcDbEntity
  8
0
100
AcDbBlockEnd
  0
BLOCK
  5
A9
330
A7
100
AcDbEntity
  8
0
100
AcDbBlockBegin
  2
block 4
 70
     0
 10
0.0
 20
0.0
 30
0.0
  3
block 4
  1

  0
POLYLINE
  5
AB
330
A7
100
AcDbEntity
  8
_U+30EC_U+30A4_U+30E4_U+30FC 1
370
     0
100
AcDb2dPolyline
 66
     1
 10
0.0
 20
0.0
 30
0.0
  0
VERTEX
  5
AC
330
AB
100
AcDbEntity
  8
_U+30EC_U+30A4_U+30E4_U+30FC 1
370
     0
100
AcDbVertex
100
AcDb2dVertex
 10
56.7114393304402
 20
-101.0725558558083
 30
0.0
  0
VERTEX
  5
AD
330
AB
100
AcDbEntity
  8
_U+30EC_U+30A4_U+30E4_U+30FC 1
370
     0
100
AcDbVertex
100
AcDb2dVertex
 10
56.7114393304402
 20
-101.4194769711729
 30
0.0
  0
VERTEX
  5
AE
330
AB
100
AcDbEntity
  8
_U+30EC_U+30A4_U+30E4_U+30FC 1
370
     0
100
AcDbVertex
100
AcDb2dVertex
 10
56.49353704099815
 20
-101.4194769711729
 30
0.0
  0
VERTEX
  5
AF
330
AB
100
AcDbEntity
  8
_U+30EC_U+30A4_U+30E4_U+30FC 1
370
     0
100
AcDbVertex
100
AcDb2dVertex
 10
56.49353704099815
 20
-101.0725558558083
 30
0.0
  0
VERTEX
  5
B0
330
AB
100
AcDbEntity
  8
_U+30EC_U+30A4_U+30E4_U+30FC 1
370
     0
100
AcDbVertex
100
AcDb2dVertex
 10
55.83776311538084
 20
-101.0725558558083
 30
0.0
  0
VERTEX
  5
B1
330
AB
100
AcDbEntity
  8
_U+30EC_U+30A4_U+30E4_U+30FC 1
370
     0
100
AcDbVertex
100
AcDb2dVertex
 10
55.83776311538084
 20
-100.8482801397185
 30
0.0
  0
VERTEX
  5
B2
330
AB
100
AcDbEntity
  8
_U+30EC_U+30A4_U+30E4_U+30FC 1
370
     0
100
AcDbVertex
100
AcDb2dVertex
 10
56.51679143552358
 20
-99.87504066513542
 30
0.0
  0
VERTEX
  5
B3
330
AB
100
AcDbEntity
  8
_U+30EC_U+30A4_U+30E4_U+30FC 1
370
     0
100
AcDbVertex
100
AcDb2dVertex
 10
56.7114393304402
 20
-99.87504066513542
 30
0.0
  0
VERTEX
  5
B4
330
AB
100
AcDbEntity
  8
_U+30EC_U+30A4_U+30E4_U+30FC 1
370
     0
100
AcDbVertex
100
AcDb2dVertex
 10
56.7114393304402
 20
-100.8737738463093
 30
0.0
  0
VERTEX
  5
B5
330
AB
100
AcDbEntity
  8
_U+30EC_U+30A4_U+30E4_U+30FC 1
370
     0
100
AcDbVertex
100
AcDb2dVertex
 10
56.91883407865224
 20
-100.8737738463093
 30
0.0
  0
VERTEX
  5
B6
330
AB
100
AcDbEntity
  8
_U+30EC_U+30A4_U+30E4_U+30FC 1
370
     0
100
AcDbVertex
100
AcDb2dVertex
 10
56.91883407865224
 20
-101.0725558558083
 30
0.0
  0
VERTEX
  5
B7
330
AB
100
AcDbEntity
  8
_U+30EC_U+30A4_U+30E4_U+30FC 1
370
     0
100
AcDbVertex
100
AcDb2dVertex
 10
56.7114393304402
 20
-101.0725558558083
 30
0.0
  0
SEQEND
  5
B8
330
AB
100
AcDbEntity
  8
_U+30EC_U+30A4_U+30E4_U+30FC 1
370
     0
  0
POLYLINE
  5
B9
330
A7
100
AcDbEntity
  8
_U+30EC_U+30A4_U+30E4_U+30FC 1
370
     0
100
AcDb2dPolyline
 66
     1
 10
0.0
 20
0.0
 30
0.0
  0
VERTEX
  5
BA
330
B9
100
AcDbEntity
  8
_U+30EC_U+30A4_U+30E4_U+30FC 1
370
     0
100
AcDbVertex
100
AcDb2dVertex
 10
56.49353704099815
 20
-100.2178276659178
 30
0.0
  0
VERTEX
  5
BB
330
B9
100
AcDbEntity
  8
_U+30EC_U+30A4_U+30E4_U+30FC 1
370
     0
100
AcDbVertex
100
AcDb2dVertex
 10
56.03671737965401
 20
-100.8737738463093
 30
0.0
  0
VERTEX
  5
BC
330
B9
100
AcDbEntity
  8
_U+30EC_U+30A4_U+30E4_U+30FC 1
370
     0
100
AcDbVertex
100
AcDb2dVertex
 10
56.49353704099815
 20
-100.8737738463093
 30
0.0
  0
VERTEX
  5
BD
330
B9
100
AcDbEntity
  8
_U+30EC_U+30A4_U+30E4_U+30FC 1
370
     0
100
AcDbVertex
100
AcDb2dVertex
 10
56.49353704099815
 20
-100.2178276659178
 30
0.0
  0
SEQEND
  5
BE
330
B9
100
AcDbEntity
  8
_U+30EC_U+30A4_U+30E4_U+30FC 1
370
     0
  0
HATCH
  5
BF
330
A7
100
AcDbEntity
  8
_U+30EC_U+30A4_U+30E4_U+30FC 1
 62
     7
420
 16777215
100
AcDbHatch
 10
0.0
 20
0.0
 30
0.0
210
0.0
220
0.0
230
1.0
  2
SOLID
 70
     1
 71
     0
 91
        2
 92
        1
 93
       11
 72
     1
 10
56.7114393304402
 20
-101.0725558558083
 11
56.7114393304402
 21
-101.4194769711729
 72
     1
 10
56.7114393304402
 20
-101.4194769711729
 11
56.49353704099815
 21
-101.4194769711729
 72
     1
 10
56.49353704099815
 20
-101.4194769711729
 11
56.49353704099815
 21
-101.0725558558083
 72
     1
 10
56.49353704099815
 20
-101.0725558558083
 11
55.83776311538084
 21
-101.0725558558083
 72
     1
 10
55.83776311538084
 20
-101.0725558558083
 11
55.83776311538084
 21
-100.8482801397185
 72
     1
 10
55.83776311538084
 20
-100.8482801397185
 11
56.51679143552358
 21
-99.87504066513542
 72
     1
 10
56.51679143552358
 20
-99.87504066513542
 11
56.7114393304402
 21
-99.87504066513542
 72
     1
 10
56.7114393304402
 20
-99.87504066513542
 11
56.7114393304402
 21
-100.8737738463093
 72
     1
 10
56.7114393304402
 20
-100.8737738463093
 11
56.91883407865224
 21
-100.8737738463093
 72
     1
 10
56.91883407865224
 20
-100.8737738463093
 11
56.91883407865224
 21
-101.0725558558083
 72
     1
 10
56.91883407865224
 20
-101.0725558558083
 11
56.7114393304402
 21
-101.0725558558083
 97
        0
 92
        1
 93
        3
 72
     1
 10
56.49353704099815
 20
-100.2178276659178
 11
56.03671737965401
 21
-100.8737738463093
 72
     1
 10
56.03671737965401
 20
-100.8737738463093
 11
56.49353704099815
 21
-100.8737738463093
 72
     1
 10
56.49353704099815
 20
-100.8737738463093
 11
56.49353704099815
 21
-100.2178276659178
 97
        0
 75
     2
 76
     1
 98
        0
  0
ENDBLK
  5
AA
330
A7
100
AcDbEntity
  8
0
100
AcDbBlockEnd
  0
BLOCK
  5
C2
330
C0
100
AcDbEntity
  8
0
100
AcDbBlockBegin
  2
block 5
 70
     0
 10
0.0
 20
0.0
 30
0.0
  3
block 5
  1

  0
SPLINE
  5
C4
330
C0
100
AcDbEntity
  8
_U+30EC_U+30A4_U+30E4_U+30FC 1
370
     0
100
AcDbSpline
210
0.0
220
0.0
230
1.0
 70
    11
 71
     3
 72
    26
 73
    22
 74
     0
 42
0.0000000001
 43
0.0000000001
 12
1.0
 22
0.0
 32
0.0
 13
1.0
 23
0.0
 33
0.0
 40
0.0
 40
0.0
 40
0.0
 40
0.0
 40
1.0
 40
1.0
 40
1.0
 40
2.0
 40
2.0
 40
2.0
 40
3.0
 40
3.0
 40
3.0
 40
4.0
 40
4.0
 40
4.0
 40
5.0
 40
5.0
 40
5.0
 40
6.0
 40
6.0
 40
6.0
 40
7.0
 40
7.0
 40
7.0
 40
7.0
 10
61.24260116741505
 20
-77.61869030177589
 30
0.0
 10
61.24260116741505
 20
-77.61869030177589
 30
0.0
 10
61.24260116741505
 20
-76.51436494397905
 30
0.0
 10
61.24260116741505
 20
-76.51436494397905
 30
0.0
 10
61.24260116741505
 20
-76.51436494397905
 30
0.0
 10
60.91256101992811
 20
-76.51436494397905
 30
0.0
 10
60.91256101992811
 20
-76.51436494397905
 30
0.0
 10
60.91256101992811
 20
-76.51436494397905
 30
0.0
 10
60.91256101992811
 20
-76.36639809288756
 30
0.0
 10
60.91256101992811
 20
-76.36639809288756
 30
0.0
 10
61.2446682247062
 20
-76.351584182301
 30
0.0
 10
61.29117701375707
 20
-76.18863116584868
 30
0.0
 10
61.32080483493022
 20
-76.07442625051264
 30
0.0
 10
61.32080483493022
 20
-76.07442625051264
 30
0.0
 10
61.46687688350481
 20
-76.07442625051264
 30
0.0
 10
61.46687688350481
 20
-76.07442625051264
 30
0.0
 10
61.46687688350481
 20
-76.07442625051264
 30
0.0
 10
61.46687688350481
 20
-77.61869030177589
 30
0.0
 10
61.46687688350481
 20
-77.61869030177589
 30
0.0
 10
61.46687688350481
 20
-77.61869030177589
 30
0.0
 10
61.24260116741505
 20
-77.61869030177589
 30
0.0
 10
61.24260116741505
 20
-77.61869030177589
 30
0.0
  0
HATCH
  5
C5
330
C0
100
AcDbEntity
  8
_U+30EC_U+30A4_U+30E4_U+30FC 1
 62
     7
420
 16777215
100
AcDbHatch
 10
0.0
 20
0.0
 30
0.0
210
0.0
220
0.0
230
1.0
  2
SOLID
 70
     1
 71
     0
 91
        1
 92
        1
 93
        1
 72
     4
 94
        3
 73
     0
 74
     1
 95
       26
 96
       22
 40
0.0
 40
0.0
 40
0.0
 40
0.0
 40
1.0
 40
1.0
 40
1.0
 40
2.0
 40
2.0
 40
2.0
 40
3.0
 40
3.0
 40
3.0
 40
4.0
 40
4.0
 40
4.0
 40
5.0
 40
5.0
 40
5.0
 40
6.0
 40
6.0
 40
6.0
 40
7.0
 40
7.0
 40
7.0
 40
7.0
 10
61.24260116741505
 20
-77.61869030177589
 10
61.24260116741505
 20
-77.61869030177589
 10
61.24260116741505
 20
-76.51436494397905
 10
61.24260116741505
 20
-76.51436494397905
 10
61.24260116741505
 20
-76.51436494397905
 10
60.91256101992811
 20
-76.51436494397905
 10
60.91256101992811
 20
-76.51436494397905
 10
60.91256101992811
 20
-76.51436494397905
 10
60.91256101992811
 20
-76.36639809288756
 10
60.91256101992811
 20
-76.36639809288756
 10
61.2446682247062
 20
-76.351584182301
 10
61.29117701375707
 20
-76.18863116584868
 10
61.32080483493022
 20
-76.07442625051264
 10
61.32080483493022
 20
-76.07442625051264
 10
61.46687688350481
 20
-76.07442625051264
 10
61.46687688350481
 20
-76.07442625051264
 10
61.46687688350481
 20
-76.07442625051264
 10
61.46687688350481
 20
-77.61869030177589
 10
61.46687688350481
 20
-77.61869030177589
 10
61.46687688350481
 20
-77.61869030177589
 10
61.24260116741505
 20
-77.61869030177589
 10
61.24260116741505
 20
-77.61869030177589
 97
        0
 97
        0
 75
     2
 76
     1
 98
        0
  0
SPLINE
  5
C6
330
C0
100
AcDbEntity
  8
_U+30EC_U+30A4_U+30E4_U+30FC 1
370
     0
100
AcDbSpline
210
0.0
220
0.0
230
1.0
 70
    11
 71
     3
 72
    53
 73
    49
 74
     0
 42
0.0000000001
 43
0.0000000001
 12
1.0
 22
0.0
 32
0.0
 13
1.0
 23
0.0
 33
0.0
 40
0.0
 40
0.0
 40
0.0
 40
0.0
 40
1.0
 40
1.0
 40
1.0
 40
2.0
 40
2.0
 40
2.0
 40
3.0
 40
3.0
 40
3.0
 40
4.0
 40
4.0
 40
4.0
 40
5.0
 40
5.0
 40
5.0
 40
6.0
 40
6.0
 40
6.0
 40
7.0
 40
7.0
 40
7.0
 40
8.0
 40
8.0
 40
8.0
 40
9.0
 40
9.0
 40
9.0
 40
10.0
 40
10.0
 40
10.0
 40
11.0
 40
11.0
 40
11.0
 40
12.0
 40
12.0
 40
12.0
 40
13.0
 40
13.0
 40
13.0
 40
14.0
 40
14.0
 40
14.0
 40
15.0
 40
15.0
 40
15.0
 40
16.0
 40
16.0
 40
16.0
 40
16.0
 10
62.44907360634954
 20
-77.66950546018332
 30
0.0
 10
62.37086993883437
 20
-77.66950546018332
 30
0.0
 10
62.2692396220195
 20
-77.65245223753134
 30
0.0
 10
62.16760930520463
 20
-77.58906248060273
 30
0.0
 10
61.99432100229656
 20
-77.478991679849
 30
0.0
 10
61.97296141028801
 20
-77.34790579663525
 30
0.0
 10
61.95401338511914
 20
-77.24007430794693
 30
0.0
 10
61.95401338511914
 20
-77.24007430794693
 30
0.0
 10
62.17622204391775
 20
-77.24007430794693
 30
0.0
 10
62.17622204391775
 20
-77.24007430794693
 30
0.0
 10
62.23099906213322
 20
-77.43885631744584
 30
0.0
 10
62.35812308553894
 20
-77.46848413861899
 30
0.0
 10
62.45114066364069
 20
-77.46848413861899
 30
0.0
 10
62.59066703079331
 20
-77.46848413861899
 30
0.0
 10
62.74294025124135
 20
-77.36909313386954
 30
0.0
 10
62.74294025124135
 20
-77.1363769338409
 30
0.0
 10
62.74294025124135
 20
-76.88040633928685
 30
0.0
 10
62.56310626691131
 20
-76.81064315571054
 30
0.0
 10
62.44252792492757
 20
-76.81064315571054
 30
0.0
 10
62.41083304646327
 20
-76.81064315571054
 30
0.0
 10
62.2692396220195
 20
-76.81064315571054
 30
0.0
 10
62.18035615850005
 20
-76.93966198163314
 30
0.0
 10
62.18035615850005
 20
-76.93966198163314
 30
0.0
 10
62.00465628875231
 20
-76.92054170169001
 30
0.0
 10
62.00465628875231
 20
-76.92054170169001
 30
0.0
 10
62.00465628875231
 20
-76.92054170169001
 30
0.0
 10
62.12523463073605
 20
-76.07442625051264
 30
0.0
 10
62.12523463073605
 20
-76.07442625051264
 30
0.0
 10
62.12523463073605
 20
-76.07442625051264
 30
0.0
 10
62.90382621040252
 20
-76.07442625051264
 30
0.0
 10
62.90382621040252
 20
-76.07442625051264
 30
0.0
 10
62.90382621040252
 20
-76.07442625051264
 30
0.0
 10
62.90382621040252
 20
-76.26907414542926
 30
0.0
 10
62.90382621040252
 20
-76.26907414542926
 30
0.0
 10
62.90382621040252
 20
-76.26907414542926
 30
0.0
 10
62.28818764718837
 20
-76.26907414542926
 30
0.0
 10
62.28818764718837
 20
-76.26907414542926
 30
0.0
 10
62.28818764718837
 20
-76.26907414542926
 30
0.0
 10
62.22273083296862
 20
-76.69213187101795
 30
0.0
 10
62.22273083296862
 20
-76.69213187101795
 30
0.0
 10
62.28405353260607
 20
-76.65819768048823
 30
0.0
 10
62.36639131470354
 20
-76.61806231808507
 30
0.0
 10
62.48490259939614
 20
-76.61806231808507
 30
0.0
 10
62.73880613665905
 20
-76.61806231808507
 30
0.0
 10
62.97582870604424
 20
-76.80426972906282
 30
0.0
 10
62.97582870604424
 20
-77.11725665389777
 30
0.0
 10
62.97582870604424
 20
-77.43472220286354
 30
0.0
 10
62.75155298995448
 20
-77.66950546018332
 30
0.0
 10
62.44907360634954
 20
-77.66950546018332
 30
0.0
  0
HATCH
  5
C7
330
C0
100
AcDbEntity
  8
_U+30EC_U+30A4_U+30E4_U+30FC 1
 62
     7
420
 16777215
100
AcDbHatch
 10
0.0
 20
0.0
 30
0.0
210
0.0
220
0.0
230
1.0
  2
SOLID
 70
     1
 71
     0
 91
        1
 92
        1
 93
        1
 72
     4
 94
        3
 73
     0
 74
     1
 95
       53
 96
       49
 40
0.0
 40
0.0
 40
0.0
 40
0.0
 40
1.0
 40
1.0
 40
1.0
 40
2.0
 40
2.0
 40
2.0
 40
3.0
 40
3.0
 40
3.0
 40
4.0
 40
4.0
 40
4.0
 40
5.0
 40
5.0
 40
5.0
 40
6.0
 40
6.0
 40
6.0
 40
7.0
 40
7.0
 40
7.0
 40
8.0
 40
8.0
 40
8.0
 40
9.0
 40
9.0
 40
9.0
 40
10.0
 40
10.0
 40
10.0
 40
11.0
 40
11.0
 40
11.0
 40
12.0
 40
12.0
 40
12.0
 40
13.0
 40
13.0
 40
13.0
 40
14.0
 40
14.0
 40
14.0
 40
15.0
 40
15.0
 40
15.0
 40
16.0
 40
16.0
 40
16.0
 40
16.0
 10
62.44907360634954
 20
-77.66950546018332
 10
62.37086993883437
 20
-77.66950546018332
 10
62.2692396220195
 20
-77.65245223753134
 10
62.16760930520463
 20
-77.58906248060273
 10
61.99432100229656
 20
-77.478991679849
 10
61.97296141028801
 20
-77.34790579663525
 10
61.95401338511914
 20
-77.24007430794693
 10
61.95401338511914
 20
-77.24007430794693
 10
62.17622204391775
 20
-77.24007430794693
 10
62.17622204391775
 20
-77.24007430794693
 10
62.23099906213322
 20
-77.43885631744584
 10
62.35812308553894
 20
-77.46848413861899
 10
62.45114066364069
 20
-77.46848413861899
 10
62.59066703079331
 20
-77.46848413861899
 10
62.74294025124135
 20
-77.36909313386954
 10
62.74294025124135
 20
-77.1363769338409
 10
62.74294025124135
 20
-76.88040633928685
 10
62.56310626691131
 20
-76.81064315571054
 10
62.44252792492757
 20
-76.81064315571054
 10
62.41083304646327
 20
-76.81064315571054
 10
62.2692396220195
 20
-76.81064315571054
 10
62.18035615850005
 20
-76.93966198163314
 10
62.18035615850005
 20
-76.93966198163314
 10
62.00465628875231
 20
-76.92054170169001
 10
62.00465628875231
 20
-76.92054170169001
 10
62.00465628875231
 20
-76.92054170169001
 10
62.12523463073605
 20
-76.07442625051264
 10
62.12523463073605
 20
-76.07442625051264
 10
62.12523463073605
 20
-76.07442625051264
 10
62.90382621040252
 20
-76.07442625051264
 10
62.90382621040252
 20
-76.07442625051264
 10
62.90382621040252
 20
-76.07442625051264
 10
62.90382621040252
 20
-76.26907414542926
 10
62.90382621040252
 20
-76.26907414542926
 10
62.90382621040252
 20
-76.26907414542926
 10
62.28818764718837
 20
-76.26907414542926
 10
62.28818764718837
 20
-76.26907414542926
 10
62.28818764718837
 20
-76.26907414542926
 10
62.22273083296862
 20
-76.69213187101795
 10
62.22273083296862
 20
-76.69213187101795
 10
62.28405353260607
 20
-76.65819768048823
 10
62.36639131470354
 20
-76.61806231808507
 10
62.48490259939614
 20
-76.61806231808507
 10
62.73880613665905
 20
-76.61806231808507
 10
62.97582870604424
 20
-76.80426972906282
 10
62.97582870604424
 20
-77.11725665389777
 10
62.97582870604424
 20
-77.43472220286354
 10
62.75155298995448
 20
-77.66950546018332
 10
62.44907360634954
 20
-77.66950546018332
 97
        0
 97
        0
 75
     2
 76
     1
 98
        0
  0
ENDBLK
  5
C3
330
C0
100
AcDbEntity
  8
0
100
AcDbBlockEnd
  0
BLOCK
  5
CA
330
C8
100
AcDbEntity
  8
0
100
AcDbBlockBegin
  2
block 6
 70
     0
 10
0.0
 20
0.0
 30
0.0
  3
block 6
  1

  0
SPLINE
  5
CC
330
C8
100
AcDbEntity
  8
_U+30EC_U+30A4_U+30E4_U+30FC 1
370
     0
100
AcDbSpline
210
0.0
220
0.0
230
1.0
 70
    11
 71
     3
 72
    26
 73
    22
 74
     0
 42
0.0000000001
 43
0.0000000001
 12
1.0
 22
0.0
 32
0.0
 13
1.0
 23
0.0
 33
0.0
 40
0.0
 40
0.0
 40
0.0
 40
0.0
 40
1.0
 40
1.0
 40
1.0
 40
2.0
 40
2.0
 40
2.0
 40
3.0
 40
3.0
 40
3.0
 40
4.0
 40
4.0
 40
4.0
 40
5.0
 40
5.0
 40
5.0
 40
6.0
 40
6.0
 40
6.0
 40
7.0
 40
7.0
 40
7.0
 40
7.0
 10
72.02764483876392
 20
-90.9078016265786
 30
0.0
 10
72.02764483876392
 20
-90.9078016265786
 30
0.0
 10
70.92349173574135
 20
-90.9078016265786
 30
0.0
 10
70.92349173574135
 20
-90.9078016265786
 30
0.0
 10
70.92349173574135
 20
-90.9078016265786
 30
0.0
 10
70.92349173574135
 20
-91.23784177406554
 30
0.0
 10
70.92349173574135
 20
-91.23784177406554
 30
0.0
 10
70.92349173574135
 20
-91.23784177406554
 30
0.0
 10
70.77535262987561
 20
-91.23784177406554
 30
0.0
 10
70.77535262987561
 20
-91.23784177406554
 30
0.0
 10
70.76053871928903
 20
-90.90573456928746
 30
0.0
 10
70.59758570283672
 20
-90.85922578023659
 30
0.0
 10
70.48320853272642
 20
-90.82959795906343
 30
0.0
 10
70.48320853272642
 20
-90.82959795906343
 30
0.0
 10
70.48320853272642
 20
-90.68352591048884
 30
0.0
 10
70.48320853272642
 20
-90.68352591048884
 30
0.0
 10
70.48320853272642
 20
-90.68352591048884
 30
0.0
 10
72.02764483876392
 20
-90.68352591048884
 30
0.0
 10
72.02764483876392
 20
-90.68352591048884
 30
0.0
 10
72.02764483876392
 20
-90.68352591048884
 30
0.0
 10
72.02764483876392
 20
-90.9078016265786
 30
0.0
 10
72.02764483876392
 20
-90.9078016265786
 30
0.0
  0
HATCH
  5
CD
330
C8
100
AcDbEntity
  8
_U+30EC_U+30A4_U+30E4_U+30FC 1
 62
     7
420
 16777215
100
AcDbHatch
 10
0.0
 20
0.0
 30
0.0
210
0.0
220
0.0
230
1.0
  2
SOLID
 70
     1
 71
     0
 91
        1
 92
        1
 93
        1
 72
     4
 94
        3
 73
     0
 74
     1
 95
       26
 96
       22
 40
0.0
 40
0.0
 40
0.0
 40
0.0
 40
1.0
 40
1.0
 40
1.0
 40
2.0
 40
2.0
 40
2.0
 40
3.0
 40
3.0
 40
3.0
 40
4.0
 40
4.0
 40
4.0
 40
5.0
 40
5.0
 40
5.0
 40
6.0
 40
6.0
 40
6.0
 40
7.0
 40
7.0
 40
7.0
 40
7.0
 10
72.02764483876392
 20
-90.9078016265786
 10
72.02764483876392
 20
-90.9078016265786
 10
70.92349173574135
 20
-90.9078016265786
 10
70.92349173574135
 20
-90.9078016265786
 10
70.92349173574135
 20
-90.9078016265786
 10
70.92349173574135
 20
-91.23784177406554
 10
70.92349173574135
 20
-91.23784177406554
 10
70.92349173574135
 20
-91.23784177406554
 10
70.77535262987561
 20
-91.23784177406554
 10
70.77535262987561
 20
-91.23784177406554
 10
70.76053871928903
 20
-90.90573456928746
 10
70.59758570283672
 20
-90.85922578023659
 10
70.48320853272642
 20
-90.82959795906343
 10
70.48320853272642
 20
-90.82959795906343
 10
70.48320853272642
 20
-90.68352591048884
 10
70.48320853272642
 20
-90.68352591048884
 10
70.48320853272642
 20
-90.68352591048884
 10
72.02764483876392
 20
-90.68352591048884
 10
72.02764483876392
 20
-90.68352591048884
 10
72.02764483876392
 20
-90.68352591048884
 10
72.02764483876392
 20
-90.9078016265786
 10
72.02764483876392
 20
-90.9078016265786
 97
        0
 97
        0
 75
     2
 76
     1
 98
        0
  0
SPLINE
  5
CE
330
C8
100
AcDbEntity
  8
_U+30EC_U+30A4_U+30E4_U+30FC 1
370
     0
100
AcDbSpline
210
0.0
220
0.0
230
1.0
 70
    11
 71
     3
 72
    62
 73
    58
 74
     0
 42
0.0000000001
 43
0.0000000001
 12
1.0
 22
0.0
 32
0.0
 13
1.0
 23
0.0
 33
0.0
 40
0.0
 40
0.0
 40
0.0
 40
0.0
 40
1.0
 40
1.0
 40
1.0
 40
2.0
 40
2.0
 40
2.0
 40
3.0
 40
3.0
 40
3.0
 40
4.0
 40
4.0
 40
4.0
 40
5.0
 40
5.0
 40
5.0
 40
6.0
 40
6.0
 40
6.0
 40
7.0
 40
7.0
 40
7.0
 40
8.0
 40
8.0
 40
8.0
 40
9.0
 40
9.0
 40
9.0
 40
10.0
 40
10.0
 40
10.0
 40
11.0
 40
11.0
 40
11.0
 40
12.0
 40
12.0
 40
12.0
 40
13.0
 40
13.0
 40
13.0
 40
14.0
 40
14.0
 40
14.0
 40
15.0
 40
15.0
 40
15.0
 40
16.0
 40
16.0
 40
16.0
 40
17.0
 40
17.0
 40
17.0
 40
18.0
 40
18.0
 40
18.0
 40
19.0
 40
19.0
 40
19.0
 40
19.0
 10
72.0782877423971
 20
-89.69064939163984
 30
0.0
 10
72.0782877423971
 20
-89.78607853658126
 30
0.0
 10
72.05727265993707
 20
-90.00380857124905
 30
0.0
 10
71.87123750373358
 20
-90.12886553736362
 30
0.0
 10
71.75892739091444
 20
-90.20293509029649
 30
0.0
 10
71.65970864093924
 20
-90.20706920487879
 30
0.0
 10
71.57495929200209
 20
-90.21120331946109
 30
0.0
 10
71.57495929200209
 20
-90.21120331946109
 30
0.0
 10
71.57495929200209
 20
-89.99106171795363
 30
0.0
 10
71.57495929200209
 20
-89.99106171795363
 30
0.0
 10
71.64902884493497
 20
-89.98899466066248
 30
0.0
 10
71.88363984748048
 20
-89.97865937420673
 30
0.0
 10
71.88363984748048
 20
-89.69512801577066
 30
0.0
 10
71.88363984748048
 20
-89.5576687059092
 30
0.0
 10
71.81404891867844
 20
-89.40505097591263
 30
0.0
 10
71.58563908800637
 20
-89.40505097591263
 30
0.0
 10
71.46919486060493
 20
-89.40505097591263
 30
0.0
 10
71.42061901426291
 20
-89.4432915357989
 30
0.0
 10
71.3889241357986
 20
-89.4749864142632
 30
0.0
 10
71.31485458286573
 20
-89.54905596719607
 30
0.0
 10
71.30210772957031
 20
-89.66550019459751
 30
0.0
 10
71.30210772957031
 20
-89.72027721281299
 30
0.0
 10
71.30210772957031
 20
-89.7395697475304
 30
0.0
 10
71.30417478686147
 20
-89.77539874057699
 30
0.0
 10
71.30830890144377
 20
-89.80295950445898
 30
0.0
 10
71.30830890144377
 20
-89.80295950445898
 30
0.0
 10
71.11366100652714
 20
-89.80295950445898
 30
0.0
 10
71.11366100652714
 20
-89.80295950445898
 30
0.0
 10
71.12020668794912
 20
-89.7647189445727
 30
0.0
 10
71.12227374524026
 20
-89.72268877965267
 30
0.0
 10
71.12227374524026
 20
-89.71614309823069
 30
0.0
 10
71.12227374524026
 20
-89.65068628401094
 30
0.0
 10
71.10091415323171
 20
-89.45190427451203
 30
0.0
 10
70.86423609339505
 20
-89.45190427451203
 30
0.0
 10
70.68646916635616
 20
-89.45190427451203
 30
0.0
 10
70.63134763859216
 20
-89.58281790295152
 30
0.0
 10
70.63134763859216
 20
-89.69306095847952
 30
0.0
 10
70.63134763859216
 20
-89.95729978219818
 30
0.0
 10
70.86423609339505
 20
-89.9659125209113
 30
0.0
 10
70.93589407948825
 20
-89.9700466354936
 30
0.0
 10
70.93589407948825
 20
-89.9700466354936
 30
0.0
 10
70.93589407948825
 20
-90.17330726912334
 30
0.0
 10
70.93589407948825
 20
-90.17330726912334
 30
0.0
 10
70.8111816229222
 20
-90.16469453041022
 30
0.0
 10
70.4346326863844
 20
-90.13713376652822
 30
0.0
 10
70.4346326863844
 20
-89.6803141051841
 30
0.0
 10
70.4346326863844
 20
-89.45603838909433
 30
0.0
 10
70.56175670979012
 20
-89.21488170512684
 30
0.0
 10
70.85769041197308
 20
-89.21488170512684
 30
0.0
 10
71.0440700777251
 20
-89.21488170512684
 30
0.0
 10
71.12640785982256
 20
-89.30996634051974
 30
0.0
 10
71.18773055946002
 20
-89.40952960004346
 30
0.0
 10
71.21529132334202
 20
-89.34820690040601
 30
0.0
 10
71.29556204814834
 20
-89.16630585878481
 30
0.0
 10
71.57289223471095
 20
-89.16630585878481
 30
0.0
 10
71.91120061136247
 20
-89.16630585878481
 30
0.0
 10
72.0782877423971
 20
-89.41366371462576
 30
0.0
 10
72.0782877423971
 20
-89.69064939163984
 30
0.0
  0
HATCH
  5
CF
330
C8
100
AcDbEntity
  8
_U+30EC_U+30A4_U+30E4_U+30FC 1
 62
     7
420
 16777215
100
AcDbHatch
 10
0.0
 20
0.0
 30
0.0
210
0.0
220
0.0
230
1.0
  2
SOLID
 70
     1
 71
     0
 91
        1
 92
        1
 93
        1
 72
     4
 94
        3
 73
     0
 74
     1
 95
       62
 96
       58
 40
0.0
 40
0.0
 40
0.0
 40
0.0
 40
1.0
 40
1.0
 40
1.0
 40
2.0
 40
2.0
 40
2.0
 40
3.0
 40
3.0
 40
3.0
 40
4.0
 40
4.0
 40
4.0
 40
5.0
 40
5.0
 40
5.0
 40
6.0
 40
6.0
 40
6.0
 40
7.0
 40
7.0
 40
7.0
 40
8.0
 40
8.0
 40
8.0
 40
9.0
 40
9.0
 40
9.0
 40
10.0
 40
10.0
 40
10.0
 40
11.0
 40
11.0
 40
11.0
 40
12.0
 40
12.0
 40
12.0
 40
13.0
 40
13.0
 40
13.0
 40
14.0
 40
14.0
 40
14.0
 40
15.0
 40
15.0
 40
15.0
 40
16.0
 40
16.0
 40
16.0
 40
17.0
 40
17.0
 40
17.0
 40
18.0
 40
18.0
 40
18.0
 40
19.0
 40
19.0
 40
19.0
 40
19.0
 10
72.0782877423971
 20
-89.69064939163984
 10
72.0782877423971
 20
-89.78607853658126
 10
72.05727265993707
 20
-90.00380857124905
 10
71.87123750373358
 20
-90.12886553736362
 10
71.75892739091444
 20
-90.20293509029649
 10
71.65970864093924
 20
-90.20706920487879
 10
71.57495929200209
 20
-90.21120331946109
 10
71.57495929200209
 20
-90.21120331946109
 10
71.57495929200209
 20
-89.99106171795363
 10
71.57495929200209
 20
-89.99106171795363
 10
71.64902884493497
 20
-89.98899466066248
 10
71.88363984748048
 20
-89.97865937420673
 10
71.88363984748048
 20
-89.69512801577066
 10
71.88363984748048
 20
-89.5576687059092
 10
71.81404891867844
 20
-89.40505097591263
 10
71.58563908800637
 20
-89.40505097591263
 10
71.46919486060493
 20
-89.40505097591263
 10
71.42061901426291
 20
-89.4432915357989
 10
71.3889241357986
 20
-89.4749864142632
 10
71.31485458286573
 20
-89.54905596719607
 10
71.30210772957031
 20
-89.66550019459751
 10
71.30210772957031
 20
-89.72027721281299
 10
71.30210772957031
 20
-89.7395697475304
 10
71.30417478686147
 20
-89.77539874057699
 10
71.30830890144377
 20
-89.80295950445898
 10
71.30830890144377
 20
-89.80295950445898
 10
71.11366100652714
 20
-89.80295950445898
 10
71.11366100652714
 20
-89.80295950445898
 10
71.12020668794912
 20
-89.7647189445727
 10
71.12227374524026
 20
-89.72268877965267
 10
71.12227374524026
 20
-89.71614309823069
 10
71.12227374524026
 20
-89.65068628401094
 10
71.10091415323171
 20
-89.45190427451203
 10
70.86423609339505
 20
-89.45190427451203
 10
70.68646916635616
 20
-89.45190427451203
 10
70.63134763859216
 20
-89.58281790295152
 10
70.63134763859216
 20
-89.69306095847952
 10
70.63134763859216
 20
-89.95729978219818
 10
70.86423609339505
 20
-89.9659125209113
 10
70.93589407948825
 20
-89.9700466354936
 10
70.93589407948825
 20
-89.9700466354936
 10
70.93589407948825
 20
-90.17330726912334
 10
70.93589407948825
 20
-90.17330726912334
 10
70.8111816229222
 20
-90.16469453041022
 10
70.4346326863844
 20
-90.13713376652822
 10
70.4346326863844
 20
-89.6803141051841
 10
70.4346326863844
 20
-89.45603838909433
 10
70.56175670979012
 20
-89.21488170512684
 10
70.85769041197308
 20
-89.21488170512684
 10
71.0440700777251
 20
-89.21488170512684
 10
71.12640785982256
 20
-89.30996634051974
 10
71.18773055946002
 20
-89.40952960004346
 10
71.21529132334202
 20
-89.34820690040601
 10
71.29556204814834
 20
-89.16630585878481
 10
71.57289223471095
 20
-89.16630585878481
 10
71.91120061136247
 20
-89.16630585878481
 10
72.0782877423971
 20
-89.41366371462576
 10
72.0782877423971
 20
-89.69064939163984
 97
        0
 97
        0
 75
     2
 76
     1
 98
        0
  0
ENDBLK
  5
CB
330
C8
100
AcDbEntity
  8
0
100
AcDbBlockEnd
  0
ENDSEC
  0
SECTION
  2
ENTITIES
  0
POLYLINE
  5
41
330
1F
100
AcDbEntity
  8
_U+30EC_U+30A4_U+30E4_U+30FC 1
 62
     7
420
 16777215
370
    25
100
AcDb2dPolyline
 66
     1
 10
0.0
 20
0.0
 30
0.0
  0
VERTEX
  5
42
330
41
100
AcDbEntity
  8
_U+30EC_U+30A4_U+30E4_U+30FC 1
 62
     7
420
 16777215
370
    25
100
AcDbVertex
100
AcDb2dVertex
 10
58.37957017727975
 20
-98.77121608641852
 30
0.0
  0
VERTEX
  5
43
330
41
100
AcDbEntity
  8
_U+30EC_U+30A4_U+30E4_U+30FC 1
 62
     7
420
 16777215
370
    25
100
AcDbVertex
100
AcDb2dVertex
 10
58.37957017727975
 20
-96.77135414247384
 30
0.0
  0
VERTEX
  5
44
330
41
100
AcDbEntity
  8
_U+30EC_U+30A4_U+30E4_U+30FC 1
 62
     7
420
 16777215
370
    25
100
AcDbVertex
100
AcDb2dVertex
 10
57.57961130879951
 20
-96.77135414247384
 30
0.0
  0
VERTEX
  5
45
330
41
100
AcDbEntity
  8
_U+30EC_U+30A4_U+30E4_U+30FC 1
 62
     7
420
 16777215
370
    25
100
AcDbVertex
100
AcDb2dVertex
 10
57.57961130879951
 20
-97.97129247550741
 30
0.0
  0
VERTEX
  5
46
330
41
100
AcDbEntity
  8
_U+30EC_U+30A4_U+30E4_U+30FC 1
 62
     7
420
 16777215
370
    25
100
AcDbVertex
100
AcDb2dVertex
 10
55.17973609731617
 20
-97.97129247550741
 30
0.0
  0
VERTEX
  5
47
330
41
100
AcDbEntity
  8
_U+30EC_U+30A4_U+30E4_U+30FC 1
 62
     7
420
 16777215
370
    25
100
AcDbVertex
100
AcDb2dVertex
 10
55.17973609731617
 20
-83.77008192350183
 30
0.0
  0
VERTEX
  5
48
330
41
100
AcDbEntity
  8
_U+30EC_U+30A4_U+30E4_U+30FC 1
 62
     7
420
 16777215
370
    25
100
AcDbVertex
100
AcDb2dVertex
 10
69.37939442709934
 20
-83.77008192350183
 30
0.0
  0
VERTEX
  5
49
330
41
100
AcDbEntity
  8
_U+30EC_U+30A4_U+30E4_U+30FC 1
 62
     7
420
 16777215
370
    25
100
AcDbVertex
100
AcDb2dVertex
 10
69.37939442709934
 20
-82.97012303481289
 30
0.0
  0
VERTEX
  5
4A
330
41
100
AcDbEntity
  8
_U+30EC_U+30A4_U+30E4_U+30FC 1
 62
     7
420
 16777215
370
    25
100
AcDbVertex
100
AcDb2dVertex
 10
54.37945833488666
 20
-82.97012303481289
 30
0.0
  0
VERTEX
  5
4B
330
41
100
AcDbEntity
  8
_U+30EC_U+30A4_U+30E4_U+30FC 1
 62
     7
420
 16777215
370
    25
100
AcDbVertex
100
AcDb2dVertex
 10
54.37945833488666
 20
-98.77121608641852
 30
0.0
  0
VERTEX
  5
4C
330
41
100
AcDbEntity
  8
_U+30EC_U+30A4_U+30E4_U+30FC 1
 62
     7
420
 16777215
370
    25
100
AcDbVertex
100
AcDb2dVertex
 10
58.37957017727975
 20
-98.77121608641852
 30
0.0
  0
SEQEND
  5
4D
330
41
100
AcDbEntity
  8
_U+30EC_U+30A4_U+30E4_U+30FC 1
 62
     7
420
 16777215
370
    25
  0
SPLINE
  5
4E
330
1F
100
AcDbEntity
  8
_U+30EC_U+30A4_U+30E4_U+30FC 1
 62
     7
420
 16777215
370
     9
100
AcDbSpline
210
0.0
220
0.0
230
1.0
 70
    11
 71
     3
 72
    17
 73
    13
 74
     0
 42
0.0000000001
 43
0.0000000001
 12
1.0
 22
0.0
 32
0.0
 13
1.0
 23
0.0
 33
0.0
 40
0.0
 40
0.0
 40
0.0
 40
0.0
 40
1.0
 40
1.0
 40
1.0
 40
2.0
 40
2.0
 40
2.0
 40
3.0
 40
3.0
 40
3.0
 40
4.0
 40
4.0
 40
4.0
 40
4.0
 10
73.47941118093961
 20
-82.97012303481289
 30
0.0
 10
73.47941118093961
 20
-82.91501914593798
 30
0.0
 10
73.43460840430484
 20
-82.87021636817126
 30
0.0
 10
73.37950451682177
 20
-82.87021636817126
 30
0.0
 10
73.32436535156181
 20
-82.87021636817126
 30
0.0
 10
73.27959785270393
 20
-82.91501914593798
 30
0.0
 10
73.27959785270393
 20
-82.97012303481289
 30
0.0
 10
73.27959785270393
 20
-83.02593247924365
 30
0.0
 10
73.32436535156181
 20
-83.07002970145484
 30
0.0
 10
73.37950451682177
 20
-83.07002970145484
 30
0.0
 10
73.43460840430484
 20
-83.07002970145484
 30
0.0
 10
73.47941118093961
 20
-83.02593247924365
 30
0.0
 10
73.47941118093961
 20
-82.97012303481289
 30
0.0
  0
SPLINE
  5
4F
330
1F
100
AcDbEntity
  8
_U+30EC_U+30A4_U+30E4_U+30FC 1
 62
     7
420
 16777215
370
     9
100
AcDbSpline
210
0.0
220
0.0
230
1.0
 70
    11
 71
     3
 72
    17
 73
    13
 74
     0
 42
0.0000000001
 43
0.0000000001
 12
1.0
 22
0.0
 32
0.0
 13
1.0
 23
0.0
 33
0.0
 40
0.0
 40
0.0
 40
0.0
 40
0.0
 40
1.0
 40
1.0
 40
1.0
 40
2.0
 40
2.0
 40
2.0
 40
3.0
 40
3.0
 40
3.0
 40
4.0
 40
4.0
 40
4.0
 40
4.0
 10
73.47941118093961
 20
-83.77008192350183
 30
0.0
 10
73.47941118093961
 20
-83.71494275684907
 30
0.0
 10
73.43460840430484
 20
-83.67017525686019
 30
0.0
 10
73.37950451682177
 20
-83.67017525686019
 30
0.0
 10
73.32436535156181
 20
-83.67017525686019
 30
0.0
 10
73.27959785270393
 20
-83.71494275684907
 30
0.0
 10
73.27959785270393
 20
-83.77008192350183
 30
0.0
 10
73.27959785270393
 20
-83.82589136793227
 30
0.0
 10
73.32436535156181
 20
-83.87069414569899
 30
0.0
 10
73.37950451682177
 20
-83.87069414569899
 30
0.0
 10
73.43460840430484
 20
-83.87069414569899
 30
0.0
 10
73.47941118093961
 20
-83.82589136793227
 30
0.0
 10
73.47941118093961
 20
-83.77008192350183
 30
0.0
  0
SPLINE
  5
50
330
1F
100
AcDbEntity
  8
_U+30EC_U+30A4_U+30E4_U+30FC 1
 62
     7
420
 16777215
370
     9
100
AcDbSpline
210
0.0
220
0.0
230
1.0
 70
    11
 71
     3
 72
    17
 73
    13
 74
     0
 42
0.0000000001
 43
0.0000000001
 12
1.0
 22
0.0
 32
0.0
 13
1.0
 23
0.0
 33
0.0
 40
0.0
 40
0.0
 40
0.0
 40
0.0
 40
1.0
 40
1.0
 40
1.0
 40
2.0
 40
2.0
 40
2.0
 40
3.0
 40
3.0
 40
3.0
 40
4.0
 40
4.0
 40
4.0
 40
4.0
 10
69.4796521163153
 20
-78.97036386914633
 30
0.0
 10
69.4796521163153
 20
-78.91525998027109
 30
0.0
 10
69.43484933968053
 20
-78.87045720250468
 30
0.0
 10
69.37939442709934
 20
-78.87045720250468
 30
0.0
 10
69.3242887869456
 20
-78.87045720250468
 30
0.0
 10
69.27948601031085
 20
-78.91525998027109
 30
0.0
 10
69.27948601031085
 20
-78.97036386914633
 30
0.0
 10
69.27948601031085
 20
-79.02550303579908
 30
0.0
 10
69.3242887869456
 20
-79.07027053578796
 30
0.0
 10
69.37939442709934
 20
-79.07027053578796
 30
0.0
 10
69.43484933968053
 20
-79.07027053578796
 30
0.0
 10
69.4796521163153
 20
-79.02550303579908
 30
0.0
 10
69.4796521163153
 20
-78.97036386914633
 30
0.0
  0
SPLINE
  5
51
330
1F
100
AcDbEntity
  8
_U+30EC_U+30A4_U+30E4_U+30FC 1
 62
     7
420
 16777215
370
     9
100
AcDbSpline
210
0.0
220
0.0
230
1.0
 70
    11
 71
     3
 72
    17
 73
    13
 74
     0
 42
0.0000000001
 43
0.0000000001
 12
1.0
 22
0.0
 32
0.0
 13
1.0
 23
0.0
 33
0.0
 40
0.0
 40
0.0
 40
0.0
 40
0.0
 40
1.0
 40
1.0
 40
1.0
 40
2.0
 40
2.0
 40
2.0
 40
3.0
 40
3.0
 40
3.0
 40
4.0
 40
4.0
 40
4.0
 40
4.0
 10
58.47979434138949
 20
-102.7709752520848
 30
0.0
 10
58.47979434138949
 20
-102.7158713632098
 30
0.0
 10
58.4350268425316
 20
-102.6710685854431
 30
0.0
 10
58.37957017727975
 20
-102.6710685854431
 30
0.0
 10
58.3244310120198
 20
-102.6710685854431
 30
0.0
 10
58.27962823538503
 20
-102.7158713632098
 30
0.0
 10
58.27962823538503
 20
-102.7709752520848
 30
0.0
 10
58.27962823538503
 20
-102.8261144187378
 30
0.0
 10
58.3244310120198
 20
-102.870881918727
 30
0.0
 10
58.37957017727975
 20
-102.870881918727
 30
0.0
 10
58.4350268425316
 20
-102.870881918727
 30
0.0
 10
58.47979434138949
 20
-102.8261144187378
 30
0.0
 10
58.47979434138949
 20
-102.7709752520848
 30
0.0
  0
SPLINE
  5
52
330
1F
100
AcDbEntity
  8
_U+30EC_U+30A4_U+30E4_U+30FC 1
 62
     7
420
 16777215
370
     9
100
AcDbSpline
210
0.0
220
0.0
230
1.0
 70
    11
 71
     3
 72
    17
 73
    13
 74
     0
 42
0.0000000001
 43
0.0000000001
 12
1.0
 22
0.0
 32
0.0
 13
1.0
 23
0.0
 33
0.0
 40
0.0
 40
0.0
 40
0.0
 40
0.0
 40
1.0
 40
1.0
 40
1.0
 40
2.0
 40
2.0
 40
2.0
 40
3.0
 40
3.0
 40
3.0
 40
4.0
 40
4.0
 40
4.0
 40
4.0
 10
73.47941118093961
 20
-98.77121608641852
 30
0.0
 10
73.47941118093961
 20
-98.71611219754296
 30
0.0
 10
73.43460840430484
 20
-98.67130941977688
 30
0.0
 10
73.37950451682177
 20
-98.67130941977688
 30
0.0
 10
73.32436535156181
 20
-98.67130941977688
 30
0.0
 10
73.27959785270393
 20
-98.71611219754296
 30
0.0
 10
73.27959785270393
 20
-98.77121608641852
 30
0.0
 10
73.27959785270393
 20
-98.82635525307096
 30
0.0
 10
73.32436535156181
 20
-98.87112275306015
 30
0.0
 10
73.37950451682177
 20
-98.87112275306015
 30
0.0
 10
73.43460840430484
 20
-98.87112275306015
 30
0.0
 10
73.47941118093961
 20
-98.82635525307096
 30
0.0
 10
73.47941118093961
 20
-98.77121608641852
 30
0.0
  0
SPLINE
  5
53
330
1F
100
AcDbEntity
  8
_U+30EC_U+30A4_U+30E4_U+30FC 1
 62
     7
420
 16777215
370
     9
100
AcDbSpline
210
0.0
220
0.0
230
1.0
 70
    11
 71
     3
 72
    17
 73
    13
 74
     0
 42
0.0000000001
 43
0.0000000001
 12
1.0
 22
0.0
 32
0.0
 13
1.0
 23
0.0
 33
0.0
 40
0.0
 40
0.0
 40
0.0
 40
0.0
 40
1.0
 40
1.0
 40
1.0
 40
2.0
 40
2.0
 40
2.0
 40
3.0
 40
3.0
 40
3.0
 40
4.0
 40
4.0
 40
4.0
 40
4.0
 10
73.47941118093961
 20
-96.77135414247384
 30
0.0
 10
73.47941118093961
 20
-96.71625025359891
 30
0.0
 10
73.43460840430484
 20
-96.6714474758322
 30
0.0
 10
73.37950451682177
 20
-96.6714474758322
 30
0.0
 10
73.32436535156181
 20
-96.6714474758322
 30
0.0
 10
73.27959785270393
 20
-96.71625025359891
 30
0.0
 10
73.27959785270393
 20
-96.77135414247384
 30
0.0
 10
73.27959785270393
 20
-96.82649330912692
 30
0.0
 10
73.32436535156181
 20
-96.87126080911547
 30
0.0
 10
73.37950451682177
 20
-96.87126080911547
 30
0.0
 10
73.43460840430484
 20
-96.87126080911547
 30
0.0
 10
73.47941118093961
 20
-96.82649330912692
 30
0.0
 10
73.47941118093961
 20
-96.77135414247384
 30
0.0
  0
SPLINE
  5
54
330
1F
100
AcDbEntity
  8
_U+30EC_U+30A4_U+30E4_U+30FC 1
 62
     7
420
 16777215
370
     9
100
AcDbSpline
210
0.0
220
0.0
230
1.0
 70
    11
 71
     3
 72
    17
 73
    13
 74
     0
 42
0.0000000001
 43
0.0000000001
 12
1.0
 22
0.0
 32
0.0
 13
1.0
 23
0.0
 33
0.0
 40
0.0
 40
0.0
 40
0.0
 40
0.0
 40
1.0
 40
1.0
 40
1.0
 40
2.0
 40
2.0
 40
2.0
 40
3.0
 40
3.0
 40
3.0
 40
4.0
 40
4.0
 40
4.0
 40
4.0
 10
54.47971777677327
 20
-78.97036386914633
 30
0.0
 10
54.47971777677327
 20
-78.91525998027109
 30
0.0
 10
54.43491500013851
 20
-78.87045720250468
 30
0.0
 10
54.37945833488666
 20
-78.87045720250468
 30
0.0
 10
54.32431916962671
 20
-78.87045720250468
 30
0.0
 10
54.27955167076883
 20
-78.91525998027109
 30
0.0
 10
54.27955167076883
 20
-78.97036386914633
 30
0.0
 10
54.27955167076883
 20
-79.02550303579908
 30
0.0
 10
54.32431916962671
 20
-79.07027053578796
 30
0.0
 10
54.37945833488666
 20
-79.07027053578796
 30
0.0
 10
54.43491500013851
 20
-79.07027053578796
 30
0.0
 10
54.47971777677327
 20
-79.02550303579908
 30
0.0
 10
54.47971777677327
 20
-78.97036386914633
 30
0.0
  0
SPLINE
  5
55
330
1F
100
AcDbEntity
  8
_U+30EC_U+30A4_U+30E4_U+30FC 1
 62
     7
420
 16777215
370
     9
100
AcDbSpline
210
0.0
220
0.0
230
1.0
 70
    11
 71
     3
 72
    17
 73
    13
 74
     0
 42
0.0000000001
 43
0.0000000001
 12
1.0
 22
0.0
 32
0.0
 13
1.0
 23
0.0
 33
0.0
 40
0.0
 40
0.0
 40
0.0
 40
0.0
 40
1.0
 40
1.0
 40
1.0
 40
2.0
 40
2.0
 40
2.0
 40
3.0
 40
3.0
 40
3.0
 40
4.0
 40
4.0
 40
4.0
 40
4.0
 10
54.47971777677327
 20
-102.7709752520848
 30
0.0
 10
54.47971777677327
 20
-102.7158713632098
 30
0.0
 10
54.43491500013851
 20
-102.6710685854431
 30
0.0
 10
54.37945833488666
 20
-102.6710685854431
 30
0.0
 10
54.32431916962671
 20
-102.6710685854431
 30
0.0
 10
54.27955167076883
 20
-102.7158713632098
 30
0.0
 10
54.27955167076883
 20
-102.7709752520848
 30
0.0
 10
54.27955167076883
 20
-102.8261144187378
 30
0.0
 10
54.32431916962671
 20
-102.870881918727
 30
0.0
 10
54.37945833488666
 20
-102.870881918727
 30
0.0
 10
54.43491500013851
 20
-102.870881918727
 30
0.0
 10
54.47971777677327
 20
-102.8261144187378
 30
0.0
 10
54.47971777677327
 20
-102.7709752520848
 30
0.0
  0
POLYLINE
  5
56
330
1F
100
AcDbEntity
  8
_U+30EC_U+30A4_U+30E4_U+30FC 1
 62
     7
420
 16777215
370
     9
100
AcDb2dPolyline
 66
     1
 10
0.0
 20
0.0
 30
0.0
  0
VERTEX
  5
57
330
56
100
AcDbEntity
  8
_U+30EC_U+30A4_U+30E4_U+30FC 1
 62
     7
420
 16777215
370
     9
100
AcDbVertex
100
AcDb2dVertex
 10
73.37950451682177
 20
-82.97012303481289
 30
0.0
  0
VERTEX
  5
58
330
56
100
AcDbEntity
  8
_U+30EC_U+30A4_U+30E4_U+30FC 1
 62
     7
420
 16777215
370
     9
100
AcDbVertex
100
AcDb2dVertex
 10
73.37950451682177
 20
-77.71221720279429
 30
0.0
  0
SEQEND
  5
59
330
56
100
AcDbEntity
  8
_U+30EC_U+30A4_U+30E4_U+30FC 1
 62
     7
420
 16777215
370
     9
  0
POLYLINE
  5
5A
330
1F
100
AcDbEntity
  8
_U+30EC_U+30A4_U+30E4_U+30FC 1
 62
     7
420
 16777215
370
     9
100
AcDb2dPolyline
 66
     1
 10
0.0
 20
0.0
 30
0.0
  0
VERTEX
  5
5B
330
5A
100
AcDbEntity
  8
_U+30EC_U+30A4_U+30E4_U+30FC 1
 62
     7
420
 16777215
370
     9
100
AcDbVertex
100
AcDb2dVertex
 10
73.37950451682177
 20
-82.97012303481289
 30
0.0
  0
VERTEX
  5
5C
330
5A
100
AcDbEntity
  8
_U+30EC_U+30A4_U+30E4_U+30FC 1
 62
     7
420
 16777215
370
     9
100
AcDbVertex
100
AcDb2dVertex
 10
73.37950451682177
 20
-83.77008192350183
 30
0.0
  0
SEQEND
  5
5D
330
5A
100
AcDbEntity
  8
_U+30EC_U+30A4_U+30E4_U+30FC 1
 62
     7
420
 16777215
370
     9
  0
POLYLINE
  5
5E
330
1F
100
AcDbEntity
  8
_U+30EC_U+30A4_U+30E4_U+30FC 1
 62
     7
420
 16777215
370
     9
100
AcDb2dPolyline
 66
     1
 10
0.0
 20
0.0
 30
0.0
  0
VERTEX
  5
5F
330
5E
100
AcDbEntity
  8
_U+30EC_U+30A4_U+30E4_U+30FC 1
 62
     7
420
 16777215
370
     9
100
AcDbVertex
100
AcDb2dVertex
 10
71.91946316518164
 20
-82.97012303481289
 30
0.0
  0
VERTEX
  5
60
330
5E
100
AcDbEntity
  8
_U+30EC_U+30A4_U+30E4_U+30FC 1
 62
     7
420
 16777215
370
     9
100
AcDbVertex
100
AcDb2dVertex
 10
74.37994699129835
 20
-82.97012303481289
 30
0.0
  0
SEQEND
  5
61
330
5E
100
AcDbEntity
  8
_U+30EC_U+30A4_U+30E4_U+30FC 1
 62
     7
420
 16777215
370
     9
  0
POLYLINE
  5
62
330
1F
100
AcDbEntity
  8
_U+30EC_U+30A4_U+30E4_U+30FC 1
 62
     7
420
 16777215
370
     9
100
AcDb2dPolyline
 66
     1
 10
0.0
 20
0.0
 30
0.0
  0
VERTEX
  5
63
330
62
100
AcDbEntity
  8
_U+30EC_U+30A4_U+30E4_U+30FC 1
 62
     7
420
 16777215
370
     9
100
AcDbVertex
100
AcDb2dVertex
 10
71.91946316518164
 20
-83.77008192350183
 30
0.0
  0
VERTEX
  5
64
330
62
100
AcDbEntity
  8
_U+30EC_U+30A4_U+30E4_U+30FC 1
 62
     7
420
 16777215
370
     9
100
AcDbVertex
100
AcDb2dVertex
 10
74.37994699129835
 20
-83.77008192350183
 30
0.0
  0
SEQEND
  5
65
330
62
100
AcDbEntity
  8
_U+30EC_U+30A4_U+30E4_U+30FC 1
 62
     7
420
 16777215
370
     9
  0
POLYLINE
  5
66
330
1F
100
AcDbEntity
  8
_U+30EC_U+30A4_U+30E4_U+30FC 1
 62
     7
420
 16777215
370
     9
100
AcDb2dPolyline
 66
     1
 10
0.0
 20
0.0
 30
0.0
  0
VERTEX
  5
67
330
66
100
AcDbEntity
  8
_U+30EC_U+30A4_U+30E4_U+30FC 1
 62
     7
420
 16777215
370
     9
100
AcDbVertex
100
AcDb2dVertex
 10
73.37950451682177
 20
-95.77122914272417
 30
0.0
  0
VERTEX
  5
68
330
66
100
AcDbEntity
  8
_U+30EC_U+30A4_U+30E4_U+30FC 1
 62
     7
420
 16777215
370
     9
100
AcDbVertex
100
AcDb2dVertex
 10
73.37950451682177
 20
-98.77121608641852
 30
0.0
  0
SEQEND
  5
69
330
66
100
AcDbEntity
  8
_U+30EC_U+30A4_U+30E4_U+30FC 1
 62
     7
420
 16777215
370
     9
  0
POLYLINE
  5
6A
330
1F
100
AcDbEntity
  8
_U+30EC_U+30A4_U+30E4_U+30FC 1
 62
     7
420
 16777215
370
     9
100
AcDb2dPolyline
 66
     1
 10
0.0
 20
0.0
 30
0.0
  0
VERTEX
  5
6B
330
6A
100
AcDbEntity
  8
_U+30EC_U+30A4_U+30E4_U+30FC 1
 62
     7
420
 16777215
370
     9
100
AcDbVertex
100
AcDb2dVertex
 10
60.91960539025583
 20
-98.77121608641852
 30
0.0
  0
VERTEX
  5
6C
330
6A
100
AcDbEntity
  8
_U+30EC_U+30A4_U+30E4_U+30FC 1
 62
     7
420
 16777215
370
     9
100
AcDbVertex
100
AcDb2dVertex
 10
74.37994699129835
 20
-98.77121608641852
 30
0.0
  0
SEQEND
  5
6D
330
6A
100
AcDbEntity
  8
_U+30EC_U+30A4_U+30E4_U+30FC 1
 62
     7
420
 16777215
370
     9
  0
POLYLINE
  5
6E
330
1F
100
AcDbEntity
  8
_U+30EC_U+30A4_U+30E4_U+30FC 1
 62
     7
420
 16777215
370
     9
100
AcDb2dPolyline
 66
     1
 10
0.0
 20
0.0
 30
0.0
  0
VERTEX
  5
6F
330
6E
100
AcDbEntity
  8
_U+30EC_U+30A4_U+30E4_U+30FC 1
 62
     7
420
 16777215
370
     9
100
AcDbVertex
100
AcDb2dVertex
 10
54.37945833488666
 20
-102.7709752520848
 30
0.0
  0
VERTEX
  5
70
330
6E
100
AcDbEntity
  8
_U+30EC_U+30A4_U+30E4_U+30FC 1
 62
     7
420
 16777215
370
     9
100
AcDbVertex
100
AcDb2dVertex
 10
58.37957017727975
 20
-102.7709752520848
 30
0.0
  0
SEQEND
  5
71
330
6E
100
AcDbEntity
  8
_U+30EC_U+30A4_U+30E4_U+30FC 1
 62
     7
420
 16777215
370
     9
  0
POLYLINE
  5
72
330
1F
100
AcDbEntity
  8
_U+30EC_U+30A4_U+30E4_U+30FC 1
 62
     7
420
 16777215
370
     9
100
AcDb2dPolyline
 66
     1
 10
0.0
 20
0.0
 30
0.0
  0
VERTEX
  5
73
330
72
100
AcDbEntity
  8
_U+30EC_U+30A4_U+30E4_U+30FC 1
 62
     7
420
 16777215
370
     9
100
AcDbVertex
100
AcDb2dVertex
 10
54.37945833488666
 20
-101.3109691413392
 30
0.0
  0
VERTEX
  5
74
330
72
100
AcDbEntity
  8
_U+30EC_U+30A4_U+30E4_U+30FC 1
 62
     7
420
 16777215
370
     9
100
AcDbVertex
100
AcDb2dVertex
 10
54.37945833488666
 20
-103.7707474740573
 30
0.0
  0
SEQEND
  5
75
330
72
100
AcDbEntity
  8
_U+30EC_U+30A4_U+30E4_U+30FC 1
 62
     7
420
 16777215
370
     9
  0
POLYLINE
  5
76
330
1F
100
AcDbEntity
  8
_U+30EC_U+30A4_U+30E4_U+30FC 1
 62
     7
420
 16777215
370
     9
100
AcDb2dPolyline
 66
     1
 10
0.0
 20
0.0
 30
0.0
  0
VERTEX
  5
77
330
76
100
AcDbEntity
  8
_U+30EC_U+30A4_U+30E4_U+30FC 1
 62
     7
420
 16777215
370
     9
100
AcDbVertex
100
AcDb2dVertex
 10
58.37957017727975
 20
-101.3109691413392
 30
0.0
  0
VERTEX
  5
78
330
76
100
AcDbEntity
  8
_U+30EC_U+30A4_U+30E4_U+30FC 1
 62
     7
420
 16777215
370
     9
100
AcDbVertex
100
AcDb2dVertex
 10
58.37957017727975
 20
-103.7707474740573
 30
0.0
  0
SEQEND
  5
79
330
76
100
AcDbEntity
  8
_U+30EC_U+30A4_U+30E4_U+30FC 1
 62
     7
420
 16777215
370
     9
  0
POLYLINE
  5
7A
330
1F
100
AcDbEntity
  8
_U+30EC_U+30A4_U+30E4_U+30FC 1
 62
     7
420
 16777215
370
     9
100
AcDb2dPolyline
 66
     1
 10
0.0
 20
0.0
 30
0.0
  0
VERTEX
  5
7B
330
7A
100
AcDbEntity
  8
_U+30EC_U+30A4_U+30E4_U+30FC 1
 62
     7
420
 16777215
370
     9
100
AcDbVertex
100
AcDb2dVertex
 10
54.37945833488666
 20
-78.97036386914633
 30
0.0
  0
VERTEX
  5
7C
330
7A
100
AcDbEntity
  8
_U+30EC_U+30A4_U+30E4_U+30FC 1
 62
     7
420
 16777215
370
     9
100
AcDbVertex
100
AcDb2dVertex
 10
69.37939442709934
 20
-78.97036386914633
 30
0.0
  0
SEQEND
  5
7D
330
7A
100
AcDbEntity
  8
_U+30EC_U+30A4_U+30E4_U+30FC 1
 62
     7
420
 16777215
370
     9
  0
POLYLINE
  5
7E
330
1F
100
AcDbEntity
  8
_U+30EC_U+30A4_U+30E4_U+30FC 1
 62
     7
420
 16777215
370
     9
100
AcDb2dPolyline
 66
     1
 10
0.0
 20
0.0
 30
0.0
  0
VERTEX
  5
7F
330
7E
100
AcDbEntity
  8
_U+30EC_U+30A4_U+30E4_U+30FC 1
 62
     7
420
 16777215
370
     9
100
AcDbVertex
100
AcDb2dVertex
 10
54.37945833488666
 20
-80.43040525767003
 30
0.0
  0
VERTEX
  5
80
330
7E
100
AcDbEntity
  8
_U+30EC_U+30A4_U+30E4_U+30FC 1
 62
     7
420
 16777215
370
     9
100
AcDbVertex
100
AcDb2dVertex
 10
54.37945833488666
 20
-77.96992136939642
 30
0.0
  0
SEQEND
  5
81
330
7E
100
AcDbEntity
  8
_U+30EC_U+30A4_U+30E4_U+30FC 1
 62
     7
420
 16777215
370
     9
  0
POLYLINE
  5
82
330
1F
100
AcDbEntity
  8
_U+30EC_U+30A4_U+30E4_U+30FC 1
 62
     7
420
 16777215
370
     9
100
AcDb2dPolyline
 66
     1
 10
0.0
 20
0.0
 30
0.0
  0
VERTEX
  5
83
330
82
100
AcDbEntity
  8
_U+30EC_U+30A4_U+30E4_U+30FC 1
 62
     7
420
 16777215
370
     9
100
AcDbVertex
100
AcDb2dVertex
 10
69.37939442709934
 20
-80.43040525767003
 30
0.0
  0
VERTEX
  5
84
330
82
100
AcDbEntity
  8
_U+30EC_U+30A4_U+30E4_U+30FC 1
 62
     7
420
 16777215
370
     9
100
AcDbVertex
100
AcDb2dVertex
 10
69.37939442709934
 20
-77.96992136939642
 30
0.0
  0
SEQEND
  5
85
330
82
100
AcDbEntity
  8
_U+30EC_U+30A4_U+30E4_U+30FC 1
 62
     7
420
 16777215
370
     9
  0
POLYLINE
  5
86
330
1F
100
AcDbEntity
  8
_U+30EC_U+30A4_U+30E4_U+30FC 1
 62
     7
420
 16777215
370
     9
100
AcDb2dPolyline
 66
     1
 10
0.0
 20
0.0
 30
0.0
  0
VERTEX
  5
87
330
86
100
AcDbEntity
  8
_U+30EC_U+30A4_U+30E4_U+30FC 1
 62
     7
420
 16777215
370
     9
100
AcDbVertex
100
AcDb2dVertex
 10
73.37950451682177
 20
-95.77122914272417
 30
0.0
  0
VERTEX
  5
88
330
86
100
AcDbEntity
  8
_U+30EC_U+30A4_U+30E4_U+30FC 1
 62
     7
420
 16777215
370
     9
100
AcDbVertex
100
AcDb2dVertex
 10
73.37950451682177
 20
-83.77008192350183
 30
0.0
  0
SEQEND
  5
89
330
86
100
AcDbEntity
  8
_U+30EC_U+30A4_U+30E4_U+30FC 1
 62
     7
420
 16777215
370
     9
  0
POLYLINE
  5
8A
330
1F
100
AcDbEntity
  8
_U+30EC_U+30A4_U+30E4_U+30FC 1
 62
     7
420
 16777215
370
     9
100
AcDb2dPolyline
 66
     1
 10
0.0
 20
0.0
 30
0.0
  0
VERTEX
  5
8B
330
8A
100
AcDbEntity
  8
_U+30EC_U+30A4_U+30E4_U+30FC 1
 62
     7
420
 16777215
370
     9
100
AcDbVertex
100
AcDb2dVertex
 10
60.91960539025583
 20
-96.77135414247384
 30
0.0
  0
VERTEX
  5
8C
330
8A
100
AcDbEntity
  8
_U+30EC_U+30A4_U+30E4_U+30FC 1
 62
     7
420
 16777215
370
     9
100
AcDbVertex
100
AcDb2dVertex
 10
74.37994699129835
 20
-96.77135414247384
 30
0.0
  0
SEQEND
  5
8D
330
8A
100
AcDbEntity
  8
_U+30EC_U+30A4_U+30E4_U+30FC 1
 62
     7
420
 16777215
370
     9
  0
INSERT
  5
8F
330
1F
100
AcDbEntity
  8
_U+30EC_U+30A4_U+30E4_U+30FC 1
100
AcDbBlockReference
  2
block 2
 10
0.0
 20
0.0
 30
0.0
  0
INSERT
  5
A2
330
1F
100
AcDbEntity
  8
_U+30EC_U+30A4_U+30E4_U+30FC 1
100
AcDbBlockReference
  2
block 3
 10
0.0
 20
0.0
 30
0.0
  0
INSERT
  5
A8
330
1F
100
AcDbEntity
  8
_U+30EC_U+30A4_U+30E4_U+30FC 1
100
AcDbBlockReference
  2
block 4
 10
0.0
 20
0.0
 30
0.0
  0
INSERT
  5
C1
330
1F
100
AcDbEntity
  8
_U+30EC_U+30A4_U+30E4_U+30FC 1
100
AcDbBlockReference
  2
block 5
 10
0.0
 20
0.0
 30
0.0
  0
INSERT
  5
C9
330
1F
100
AcDbEntity
  8
_U+30EC_U+30A4_U+30E4_U+30FC 1
100
AcDbBlockReference
  2
block 6
 10
0.0
 20
0.0
 30
0.0
  0
ENDSEC
  0
SECTION
  2
OBJECTS
  0
DICTIONARY
  5
C
330
0
100
AcDbDictionary
281
     1
  3
ACAD_GROUP
350
D
  3
ACAD_LAYOUT
350
1A
  3
ACAD_MATERIAL
350
3B
  3
ACAD_MLEADERSTYLE
350
D1
  3
ACAD_MLINESTYLE
350
17
  3
ACAD_PLOTSETTINGS
350
19
  3
ACAD_PLOTSTYLENAME
350
E
  3
ACAD_TABLESTYLE
350
D0
  3
ACAD_VISUALSTYLE
350
2A
  0
SUN
  5
3F
330
29
100
AcDbSun
 90
        1
290
     0
 63
     7
421
 16777215
 40
1.0
291
     1
 91
  2455826
 92
 54000000
292
     0
 70
     2
 71
   256
280
     1
  0
DICTIONARY
  5
D
102
{ACAD_REACTORS
330
C
102
}
330
C
100
AcDbDictionary
281
     1
  0
DICTIONARY
  5
1A
102
{ACAD_REACTORS
330
C
102
}
330
C
100
AcDbDictionary
281
     1
  3
Layout1
350
1E
  3
Layout2
350
26
  3
Model
350
22
  0
DICTIONARY
  5
3B
102
{ACAD_REACTORS
330
C
102
}
330
C
100
AcDbDictionary
281
     1
  3
ByBlock
350
3D
  3
ByLayer
350
3C
  3
Global
350
3E
  0
DICTIONARY
  5
D1
102
{ACAD_REACTORS
330
C
102
}
330
C
100
AcDbDictionary
281
     1
  0
DICTIONARY
  5
17
102
{ACAD_REACTORS
330
C
102
}
330
C
100
AcDbDictionary
281
     1
  3
Standard
350
18
  0
DICTIONARY
  5
19
102
{ACAD_REACTORS
330
C
102
}
330
C
100
AcDbDictionary
281
     1
  0
ACDBDICTIONARYWDFLT
  5
E
102
{ACAD_REACTORS
330
C
102
}
330
C
100
AcDbDictionary
281
     1
  3
Normal
350
F
100
AcDbDictionaryWithDefault
340
F
  0
DICTIONARY
  5
D0
102
{ACAD_REACTORS
330
C
102
}
330
C
100
AcDbDictionary
281
     1
  0
DICTIONARY
  5
2A
102
{ACAD_REACTORS
330
C
102
}
330
C
100
AcDbDictionary
281
     1
  3
2dWireframe
350
2F
  3
3D Hidden
350
31
  3
3dWireframe
350
30
  3
Basic
350
32
  3
Brighten
350
36
  3
ColorChange
350
3A
  3
Conceptual
350
34
  3
Dim
350
35
  3
Facepattern
350
39
  3
Flat
350
2B
  3
FlatWithEdges
350
2C
  3
Gouraud
350
2D
  3
GouraudWithEdges
350
2E
  3
Linepattern
350
38
  3
Realistic
350
33
  3
Thicken
350
37
  0
LAYOUT
  5
1E
102
{ACAD_REACTORS
330
1A
102
}
330
1A
100
AcDbPlotSettings
  1

  2
none_device
  4

  6

 40
0.0
 41
0.0
 42
0.0
 43
0.0
 44
0.0
 45
0.0
 46
0.0
 47
0.0
 48
0.0
 49
0.0
140
0.0
141
0.0
142
1.0
143
1.0
 70
   688
 72
     0
 73
     0
 74
     5
  7

 75
    16
 76
     0
 77
     2
 78
   300
147
1.0
148
0.0
149
0.0
100
AcDbLayout
  1
Layout1
 70
     1
 71
     1
 10
0.0
 20
0.0
 11
12.0
 21
9.0
 12
0.0
 22
0.0
 32
0.0
 14
1.000000000000000E+20
 24
1.000000000000000E+20
 34
1.000000000000000E+20
 15
-1.000000000000000E+20
 25
-1.000000000000000E+20
 35
-1.000000000000000E+20
146
0.0
 13
0.0
 23
0.0
 33
0.0
 16
1.0
 26
0.0
 36
0.0
 17
0.0
 27
1.0
 37
0.0
 76
     0
330
1B
  0
LAYOUT
  5
26
102
{ACAD_REACTORS
330
1A
102
}
330
1A
100
AcDbPlotSettings
  1

  2
none_device
  4

  6

 40
0.0
 41
0.0
 42
0.0
 43
0.0
 44
0.0
 45
0.0
 46
0.0
 47
0.0
 48
0.0
 49
0.0
140
0.0
141
0.0
142
1.0
143
1.0
 70
   688
 72
     0
 73
     0
 74
     5
  7

 75
    16
 76
     0
 77
     2
 78
   300
147
1.0
148
0.0
149
0.0
100
AcDbLayout
  1
Layout2
 70
     1
 71
     2
 10
0.0
 20
0.0
 11
0.0
 21
0.0
 12
0.0
 22
0.0
 32
0.0
 14
0.0
 24
0.0
 34
0.0
 15
0.0
 25
0.0
 35
0.0
146
0.0
 13
0.0
 23
0.0
 33
0.0
 16
1.0
 26
0.0
 36
0.0
 17
0.0
 27
1.0
 37
0.0
 76
     0
330
23
  0
LAYOUT
  5
22
102
{ACAD_REACTORS
330
1A
102
}
330
1A
100
AcDbPlotSettings
  1

  2
none_device
  4

  6

 40
0.0
 41
0.0
 42
0.0
 43
0.0
 44
0.0
 45
0.0
 46
0.0
 47
0.0
 48
0.0
 49
0.0
140
0.0
141
0.0
142
1.0
143
1.0
 70
  1712
 72
     0
 73
     0
 74
     0
  7

 75
     0
 76
     0
 77
     2
 78
   300
147
1.0
148
0.0
149
0.0
100
AcDbLayout
  1
Model
 70
     1
 71
     0
 10
0.0
 20
0.0
 11
12.0
 21
9.0
 12
0.0
 22
0.0
 32
0.0
 14
1.000000000000000E+20
 24
1.000000000000000E+20
 34
1.000000000000000E+20
 15
-1.000000000000000E+20
 25
-1.000000000000000E+20
 35
-1.000000000000000E+20
146
0.0
 13
0.0
 23
0.0
 33
0.0
 16
1.0
 26
0.0
 36
0.0
 17
0.0
 27
1.0
 37
0.0
 76
     0
330
1F
331
29
  0
MATERIAL
  5
3D
102
{ACAD_REACTORS
330
3B
102
}
330
3B
100
AcDbMaterial
  1
ByBlock
 72
     1
 94
      127
  0
MATERIAL
  5
3C
102
{ACAD_REACTORS
330
3B
102
}
330
3B
100
AcDbMaterial
  1
ByLayer
 72
     1
 94
      127
  0
MATERIAL
  5
3E
102
{ACAD_REACTORS
330
3B
102
}
330
3B
100
AcDbMaterial
  1
Global
 72
     1
 94
      127
  0
MLINESTYLE
  5
18
102
{ACAD_REACTORS
330
17
102
}
330
17
100
AcDbMlineStyle
  2
Standard
 70
     0
  3

 62
   256
 51
90.0
 52
90.0
 71
     2
 49
0.5
 62
   256
  6
BYLAYER
 49
-0.5
 62
   256
  6
BYLAYER
  0
ACDBPLACEHOLDER
  5
F
102
{ACAD_REACTORS
330
E
102
}
330
E
  0
VISUALSTYLE
  5
2F
102
{ACAD_REACTORS
330
2A
102
}
330
2A
100
AcDbVisualStyle
  2
2dWireframe
 70
     4
177
     2
291
     0
 71
     0
176
     1
 72
     2
176
     1
 73
     0
176
     1
 90
        0
176
     1
 40
-0.6
176
     1
 41
-30.0
176
     1
 62
     5
 63
     7
421
 16777215
176
     1
 74
     1
176
     1
 91
        4
176
     1
 64
     7
176
     1
 65
   257
176
     1
 75
     1
176
     1
175
     1
176
     1
 42
1.0
176
     1
 92
        0
176
     1
 66
   257
176
     1
 43
1.0
176
     1
 76
     1
176
     1
 77
     6
176
     1
 78
     2
176
     1
 67
     7
176
     1
 79
     5
176
     1
170
     0
176
     1
171
     0
176
     1
290
     0
176
     1
 93
        1
176
     1
 44
0.0
176
     1
173
     0
176
     1
  0
VISUALSTYLE
  5
31
102
{ACAD_REACTORS
330
2A
102
}
330
2A
100
AcDbVisualStyle
  2
3D Hidden
 70
     6
177
     2
291
     0
 71
     1
176
     1
 72
     2
176
     1
 73
     2
176
     1
 90
        0
176
     1
 40
-0.6
176
     1
 41
-30.0
176
     1
 62
     5
 63
     7
421
 16777215
176
     1
 74
     2
176
     1
 91
        2
176
     1
 64
     7
176
     1
 65
   257
176
     1
 75
     2
176
     1
175
     1
176
     1
 42
40.0
176
     1
 92
        0
176
     1
 66
   257
176
     1
 43
1.0
176
     1
 76
     1
176
     1
 77
     6
176
     1
 78
     2
176
     1
 67
     7
176
     1
 79
     3
176
     1
170
     0
176
     1
171
     0
176
     1
290
     0
176
     1
 93
        1
176
     1
 44
0.0
176
     1
173
     0
176
     1
  0
VISUALSTYLE
  5
30
102
{ACAD_REACTORS
330
2A
102
}
330
2A
100
AcDbVisualStyle
  2
3dWireframe
 70
     5
177
     2
291
     0
 71
     0
176
     1
 72
     2
176
     1
 73
     0
176
     1
 90
        0
176
     1
 40
-0.6
176
     1
 41
-30.0
176
     1
 62
     5
 63
     7
421
 16777215
176
     1
 74
     1
176
     1
 91
        4
176
     1
 64
     7
176
     1
 65
   257
176
     1
 75
     1
176
     1
175
     1
176
     1
 42
1.0
176
     1
 92
        0
176
     1
 66
   257
176
     1
 43
1.0
176
     1
 76
     1
176
     1
 77
     6
176
     1
 78
     2
176
     1
 67
     7
176
     1
 79
     5
176
     1
170
     0
176
     1
171
     0
176
     1
290
     0
176
     1
 93
        1
176
     1
 44
0.0
176
     1
173
     0
176
     1
  0
VISUALSTYLE
  5
32
102
{ACAD_REACTORS
330
2A
102
}
330
2A
100
AcDbVisualStyle
  2
Basic
 70
     7
177
     2
291
     1
 71
     1
176
     1
 72
     0
176
     1
 73
     1
176
     1
 90
        0
176
     1
 40
-0.6
176
     1
 41
-30.0
176
     1
 62
     5
 63
     7
421
 16777215
176
     1
 74
     0
176
     1
 91
        4
176
     1
 64
     7
176
     1
 65
   257
176
     1
 75
     1
176
     1
175
     1
176
     1
 42
1.0
176
     1
 92
        8
176
     1
 66
     7
176
     1
 43
1.0
176
     1
 76
     1
176
     1
 77
     6
176
     1
 78
     2
176
     1
 67
     7
176
     1
 79
     5
176
     1
170
     0
176
     1
171
     0
176
     1
290
     0
176
     1
 93
        1
176
     1
 44
0.0
176
     1
173
     0
176
     1
  0
VISUALSTYLE
  5
36
102
{ACAD_REACTORS
330
2A
102
}
330
2A
100
AcDbVisualStyle
  2
Brighten
 70
    12
177
     2
291
     1
 71
     2
176
     1
 72
     2
176
     1
 73
     0
176
     1
 90
        0
176
     1
 40
-0.6
176
     1
 41
-30.0
176
     1
 62
     5
 63
     7
421
 16777215
176
     1
 74
     1
176
     1
 91
        4
176
     1
 64
     7
176
     1
 65
   257
176
     1
 75
     1
176
     1
175
     1
176
     1
 42
1.0
176
     1
 92
        8
176
     1
 66
     7
176
     1
 43
1.0
176
     1
 76
     1
176
     1
 77
     6
176
     1
 78
     2
176
     1
 67
     7
176
     1
 79
     5
176
     1
170
     0
176
     1
171
     0
176
     1
290
     0
176
     1
 93
        1
176
     1
 44
50.0
176
     1
173
     0
176
     1
  0
VISUALSTYLE
  5
3A
102
{ACAD_REACTORS
330
2A
102
}
330
2A
100
AcDbVisualStyle
  2
ColorChange
 70
    16
177
     2
291
     1
 71
     2
176
     1
 72
     2
176
     1
 73
     3
176
     1
 90
        0
176
     1
 40
-0.6
176
     1
 41
-30.0
176
     1
 62
     5
 63
     8
421
  8421504
176
     1
 74
     1
176
     1
 91
        4
176
     1
 64
     7
176
     1
 65
   257
176
     1
 75
     1
176
     1
175
     1
176
     1
 42
1.0
176
     1
 92
        8
176
     1
 66
     8
424
  8421504
176
     1
 43
1.0
176
     1
 76
     1
176
     1
 77
     6
176
     1
 78
     2
176
     1
 67
     7
176
     1
 79
     5
176
     1
170
     0
176
     1
171
     0
176
     1
290
     0
176
     1
 93
        1
176
     1
 44
0.0
176
     1
173
     0
176
     1
  0
VISUALSTYLE
  5
34
102
{ACAD_REACTORS
330
2A
102
}
330
2A
100
AcDbVisualStyle
  2
Conceptual
 70
     9
177
     2
291
     0
 71
     3
176
     1
 72
     2
176
     1
 73
     0
176
     1
 90
        0
176
     1
 40
-0.6
176
     1
 41
-30.0
176
     1
 62
     5
 63
     7
421
 16777215
176
     1
 74
     2
176
     1
 91
        2
176
     1
 64
     7
176
     1
 65
   257
176
     1
 75
     1
176
     1
175
     1
176
     1
 42
40.0
176
     1
 92
        8
176
     1
 66
     7
176
     1
 43
1.0
176
     1
 76
     1
176
     1
 77
     6
176
     1
 78
     2
176
     1
 67
     7
176
     1
 79
     3
176
     1
170
     0
176
     1
171
     0
176
     1
290
     0
176
     1
 93
        1
176
     1
 44
0.0
176
     1
173
     0
176
     1
  0
VISUALSTYLE
  5
35
102
{ACAD_REACTORS
330
2A
102
}
330
2A
100
AcDbVisualStyle
  2
Dim
 70
    11
177
     2
291
     1
 71
     2
176
     1
 72
     2
176
     1
 73
     0
176
     1
 90
        0
176
     1
 40
-0.6
176
     1
 41
-30.0
176
     1
 62
     5
 63
     7
421
 16777215
176
     1
 74
     1
176
     1
 91
        4
176
     1
 64
     7
176
     1
 65
   257
176
     1
 75
     1
176
     1
175
     1
176
     1
 42
1.0
176
     1
 92
        8
176
     1
 66
     7
176
     1
 43
1.0
176
     1
 76
     1
176
     1
 77
     6
176
     1
 78
     2
176
     1
 67
     7
176
     1
 79
     5
176
     1
170
     0
176
     1
171
     0
176
     1
290
     0
176
     1
 93
        1
176
     1
 44
-50.0
176
     1
173
     0
176
     1
  0
VISUALSTYLE
  5
39
102
{ACAD_REACTORS
330
2A
102
}
330
2A
100
AcDbVisualStyle
  2
Facepattern
 70
    15
177
     2
291
     1
 71
     2
176
     1
 72
     2
176
     1
 73
     0
176
     1
 90
        0
176
     1
 40
-0.6
176
     1
 41
-30.0
176
     1
 62
     5
 63
     7
421
 16777215
176
     1
 74
     1
176
     1
 91
        4
176
     1
 64
     7
176
     1
 65
   257
176
     1
 75
     1
176
     1
175
     1
176
     1
 42
1.0
176
     1
 92
        8
176
     1
 66
     7
176
     1
 43
1.0
176
     1
 76
     1
176
     1
 77
     6
176
     1
 78
     2
176
     1
 67
     7
176
     1
 79
     5
176
     1
170
     0
176
     1
171
     0
176
     1
290
     0
176
     1
 93
        1
176
     1
 44
0.0
176
     1
173
     0
176
     1
  0
VISUALSTYLE
  5
2B
102
{ACAD_REACTORS
330
2A
102
}
330
2A
100
AcDbVisualStyle
  2
Flat
 70
     0
177
     2
291
     1
 71
     2
176
     1
 72
     1
176
     1
 73
     1
176
     1
 90
        2
176
     1
 40
-0.6
176
     1
 41
30.0
176
     1
 62
     5
 63
     7
421
 16777215
176
     1
 74
     0
176
     1
 91
        4
176
     1
 64
     7
176
     1
 65
   257
176
     1
 75
     1
176
     1
175
     1
176
     1
 42
1.0
176
     1
 92
        8
176
     1
 66
     7
176
     1
 43
1.0
176
     1
 76
     1
176
     1
 77
     6
176
     1
 78
     2
176
     1
 67
     7
176
     1
 79
     5
176
     1
170
     0
176
     1
171
     0
176
     1
290
     0
176
     1
 93
       13
176
     1
 44
0.0
176
     1
173
     0
176
     1
  0
VISUALSTYLE
  5
2C
102
{ACAD_REACTORS
330
2A
102
}
330
2A
100
AcDbVisualStyle
  2
FlatWithEdges
 70
     1
177
     2
291
     1
 71
     2
176
     1
 72
     1
176
     1
 73
     1
176
     1
 90
        2
176
     1
 40
-0.6
176
     1
 41
30.0
176
     1
 62
     5
 63
     7
421
 16777215
176
     1
 74
     1
176
     1
 91
        4
176
     1
 64
     7
176
     1
 65
   257
176
     1
 75
     1
176
     1
175
     1
176
     1
 42
1.0
176
     1
 92
        0
176
     1
 66
   257
176
     1
 43
1.0
176
     1
 76
     1
176
     1
 77
     6
176
     1
 78
     2
176
     1
 67
     7
176
     1
 79
     5
176
     1
170
     0
176
     1
171
     0
176
     1
290
     0
176
     1
 93
       13
176
     1
 44
0.0
176
     1
173
     0
176
     1
  0
VISUALSTYLE
  5
2D
102
{ACAD_REACTORS
330
2A
102
}
330
2A
100
AcDbVisualStyle
  2
Gouraud
 70
     2
177
     2
291
     1
 71
     2
176
     1
 72
     2
176
     1
 73
     1
176
     1
 90
        2
176
     1
 40
-0.6
176
     1
 41
30.0
176
     1
 62
     5
 63
     7
421
 16777215
176
     1
 74
     0
176
     1
 91
        4
176
     1
 64
     7
176
     1
 65
   257
176
     1
 75
     1
176
     1
175
     1
176
     1
 42
1.0
176
     1
 92
        0
176
     1
 66
     7
176
     1
 43
1.0
176
     1
 76
     1
176
     1
 77
     6
176
     1
 78
     2
176
     1
 67
     7
176
     1
 79
     5
176
     1
170
     0
176
     1
171
     0
176
     1
290
     0
176
     1
 93
       13
176
     1
 44
0.0
176
     1
173
     0
176
     1
  0
VISUALSTYLE
  5
2E
102
{ACAD_REACTORS
330
2A
102
}
330
2A
100
AcDbVisualStyle
  2
GouraudWithEdges
 70
     3
177
     2
291
     1
 71
     2
176
     1
 72
     2
176
     1
 73
     1
176
     1
 90
        2
176
     1
 40
-0.6
176
     1
 41
30.0
176
     1
 62
     5
 63
     7
421
 16777215
176
     1
 74
     1
176
     1
 91
        4
176
     1
 64
     7
176
     1
 65
   257
176
     1
 75
     1
176
     1
175
     1
176
     1
 42
1.0
176
     1
 92
        0
176
     1
 66
   257
176
     1
 43
1.0
176
     1
 76
     1
176
     1
 77
     6
176
     1
 78
     2
176
     1
 67
     7
176
     1
 79
     5
176
     1
170
     0
176
     1
171
     0
176
     1
290
     0
176
     1
 93
       13
176
     1
 44
0.0
176
     1
173
     0
176
     1
  0
VISUALSTYLE
  5
38
102
{ACAD_REACTORS
330
2A
102
}
330
2A
100
AcDbVisualStyle
  2
Linepattern
 70
    14
177
     2
291
     1
 71
     2
176
     1
 72
     2
176
     1
 73
     0
176
     1
 90
        0
176
     1
 40
-0.6
176
     1
 41
-30.0
176
     1
 62
     5
 63
     7
421
 16777215
176
     1
 74
     1
176
     1
 91
        4
176
     1
 64
     7
176
     1
 65
   257
176
     1
 75
     7
176
     1
175
     7
176
     1
 42
1.0
176
     1
 92
        8
176
     1
 66
     7
176
     1
 43
1.0
176
     1
 76
     1
176
     1
 77
     6
176
     1
 78
     2
176
     1
 67
     7
176
     1
 79
     5
176
     1
170
     0
176
     1
171
     0
176
     1
290
     0
176
     1
 93
        1
176
     1
 44
0.0
176
     1
173
     0
176
     1
  0
VISUALSTYLE
  5
33
102
{ACAD_REACTORS
330
2A
102
}
330
2A
100
AcDbVisualStyle
  2
Realistic
 70
     8
177
     2
291
     0
 71
     2
176
     1
 72
     2
176
     1
 73
     0
176
     1
 90
        0
176
     1
 40
-0.6
176
     1
 41
-30.0
176
     1
 62
     5
 63
     7
421
 16777215
176
     1
 74
     1
176
     1
 91
        0
176
     1
 64
     7
176
     1
 65
   257
176
     1
 75
     1
176
     1
175
     1
176
     1
 42
1.0
176
     1
 92
        8
176
     1
 66
     8
424
  7895160
176
     1
 43
1.0
176
     1
 76
     1
176
     1
 77
     6
176
     1
 78
     2
176
     1
 67
     7
176
     1
 79
     5
176
     1
170
     0
176
     1
171
     0
176
     1
290
     0
176
     1
 93
       13
176
     1
 44
0.0
176
     1
173
     0
176
     1
  0
VISUALSTYLE
  5
37
102
{ACAD_REACTORS
330
2A
102
}
330
2A
100
AcDbVisualStyle
  2
Thicken
 70
    13
177
     2
291
     1
 71
     2
176
     1
 72
     2
176
     1
 73
     0
176
     1
 90
        0
176
     1
 40
-0.6
176
     1
 41
-30.0
176
     1
 62
     5
 63
     7
421
 16777215
176
     1
 74
     1
176
     1
 91
        4
176
     1
 64
     7
176
     1
 65
   257
176
     1
 75
     1
176
     1
175
     1
176
     1
 42
1.0
176
     1
 92
       12
176
     1
 66
     7
176
     1
 43
1.0
176
     1
 76
     1
176
     1
 77
     6
176
     1
 78
     2
176
     1
 67
     7
176
     1
 79
     5
176
     1
170
     0
176
     1
171
     0
176
     1
290
     0
176
     1
 93
        1
176
     1
 44
0.0
176
     1
173
     0
176
     1
  0
ENDSEC
  0
EOF
