  0
SECTION
  2
HEADER
  9
$ACADVER
  1
AC1024
  9
$ACADMAINTVER
 70
     6
  9
$DWGCODEPAGE
  3
UNDEFINED
  9
$INSBASE
 10
0.0
 20
0.0
 30
0.0
  9
$EXTMIN
 10
1.000000000000000E+20
 20
1.000000000000000E+20
 30
1.000000000000000E+20
  9
$EXTMAX
 10
-1.000000000000000E+20
 20
-1.000000000000000E+20
 30
-1.000000000000000E+20
  9
$LIMMIN
 10
0.0
 20
0.0
  9
$LIMMAX
 10
12.0
 20
9.0
  9
$ORTHOMODE
 70
     0
  9
$REGENMODE
 70
     1
  9
$FILLMODE
 70
     1
  9
$QTEXTMODE
 70
     0
  9
$MIRRTEXT
 70
     1
  9
$LTSCALE
 40
1.0
  9
$ATTMODE
 70
     1
  9
$TEXTSIZE
 40
0.2
  9
$TRACEWID
 40
0.05
  9
$TEXTSTYLE
  7
Standard
  9
$CLAYER
  8
0
  9
$CELTYPE
  6
ByLayer
  9
$CECOLOR
 62
   256
  9
$CELTSCALE
 40
1.0
  9
$DISPSILH
 70
     0
  9
$DIMSCALE
 40
1.0
  9
$DIMASZ
 40
0.18
  9
$DIMEXO
 40
0.0625
  9
$DIMDLI
 40
0.38
  9
$DIMRND
 40
0.0
  9
$DIMDLE
 40
0.0
  9
$DIMEXE
 40
0.18
  9
$DIMTP
 40
0.0
  9
$DIMTM
 40
0.0
  9
$DIMTXT
 40
0.18
  9
$DIMCEN
 40
0.09
  9
$DIMTSZ
 40
0.0
  9
$DIMTOL
 70
     0
  9
$DIMLIM
 70
     0
  9
$DIMTIH
 70
     1
  9
$DIMTOH
 70
     1
  9
$DIMSE1
 70
     0
  9
$DIMSE2
 70
     0
  9
$DIMTAD
 70
     0
  9
$DIMZIN
 70
     0
  9
$DIMBLK
  1

  9
$DIMASO
 70
     1
  9
$DIMSHO
 70
     1
  9
$DIMPOST
  1

  9
$DIMAPOST
  1

  9
$DIMALT
 70
     0
  9
$DIMALTD
 70
     2
  9
$DIMALTF
 40
25.4
  9
$DIMLFAC
 40
1.0
  9
$DIMTOFL
 70
     0
  9
$DIMTVP
 40
0.0
  9
$DIMTIX
 70
     0
  9
$DIMSOXD
 70
     0
  9
$DIMSAH
 70
     0
  9
$DIMBLK1
  1

  9
$DIMBLK2
  1

  9
$DIMSTYLE
  2
Standard
  9
$DIMCLRD
 70
     0
  9
$DIMCLRE
 70
     0
  9
$DIMCLRT
 70
     0
  9
$DIMTFAC
 40
1.0
  9
$DIMGAP
 40
0.09
  9
$DIMJUST
 70
     0
  9
$DIMSD1
 70
     0
  9
$DIMSD2
 70
     0
  9
$DIMTOLJ
 70
     1
  9
$DIMTZIN
 70
     0
  9
$DIMALTZ
 70
     0
  9
$DIMALTTZ
 70
     0
  9
$DIMUPT
 70
     0
  9
$DIMDEC
 70
     4
  9
$DIMTDEC
 70
     4
  9
$DIMALTU
 70
     2
  9
$DIMALTTD
 70
     2
  9
$DIMTXSTY
  7
Standard
  9
$DIMAUNIT
 70
     0
  9
$DIMADEC
 70
     0
  9
$DIMALTRND
 40
0.0
  9
$DIMAZIN
 70
     0
  9
$DIMDSEP
 70
    46
  9
$DIMATFIT
 70
     3
  9
$DIMFRAC
 70
     0
  9
$DIMLDRBLK
  1

  9
$DIMLUNIT
 70
     2
  9
$DIMLWD
 70
    -2
  9
$DIMLWE
 70
    -2
  9
$DIMTMOVE
 70
     0
  9
$DIMFXL
 40
1.0
  9
$DIMFXLON
 70
     0
  9
$DIMJOGANG
 40
0.7853981633974483
  9
$DIMTFILL
 70
     0
  9
$DIMTFILLCLR
 70
     0
  9
$DIMARCSYM
 70
     0
  9
$DIMLTYPE
  6

  9
$DIMLTEX1
  6

  9
$DIMLTEX2
  6

  9
$DIMTXTDIRECTION
 70
     0
  9
$LUNITS
 70
     2
  9
$LUPREC
 70
     4
  9
$SKETCHINC
 40
0.1
  9
$FILLETRAD
 40
0.5
  9
$AUNITS
 70
     0
  9
$AUPREC
 70
     0
  9
$MENU
  1
.
  9
$ELEVATION
 40
0.0
  9
$PELEVATION
 40
0.0
  9
$THICKNESS
 40
0.0
  9
$LIMCHECK
 70
     0
  9
$CHAMFERA
 40
0.5
  9
$CHAMFERB
 40
0.5
  9
$CHAMFERC
 40
1.0
  9
$CHAMFERD
 40
0.0
  9
$SKPOLY
 70
     0
  9
$TDCREATE
 40
2457917.589548599
  9
$TDUCREATE
 40
2457917.214548611
  9
$TDUPDATE
 40
2457917.589548599
  9
$TDUUPDATE
 40
2457917.214548611
  9
$TDINDWG
 40
0.0000000116
  9
$TDUSRTIMER
 40
0.0000000116
  9
$USRTIMER
 70
     1
  9
$ANGBASE
 50
0.0
  9
$ANGDIR
 70
     0
  9
$PDMODE
 70
     0
  9
$PDSIZE
 40
0.0
  9
$PLINEWID
 40
0.0
  9
$SPLFRAME
 70
     0
  9
$SPLINETYPE
 70
     6
  9
$SPLINESEGS
 70
     8
  9
$HANDSEED
  5
110
  9
$SURFTAB1
 70
     6
  9
$SURFTAB2
 70
     6
  9
$SURFTYPE
 70
     6
  9
$SURFU
 70
     6
  9
$SURFV
 70
     6
  9
$UCSBASE
  2

  9
$UCSNAME
  2

  9
$UCSORG
 10
0.0
 20
0.0
 30
0.0
  9
$UCSXDIR
 10
1.0
 20
0.0
 30
0.0
  9
$UCSYDIR
 10
0.0
 20
1.0
 30
0.0
  9
$UCSORTHOREF
  2

  9
$UCSORTHOVIEW
 70
     0
  9
$UCSORGTOP
 10
0.0
 20
0.0
 30
0.0
  9
$UCSORGBOTTOM
 10
0.0
 20
0.0
 30
0.0
  9
$UCSORGLEFT
 10
0.0
 20
0.0
 30
0.0
  9
$UCSORGRIGHT
 10
0.0
 20
0.0
 30
0.0
  9
$UCSORGFRONT
 10
0.0
 20
0.0
 30
0.0
  9
$UCSORGBACK
 10
0.0
 20
0.0
 30
0.0
  9
$PUCSBASE
  2

  9
$PUCSNAME
  2

  9
$PUCSORG
 10
0.0
 20
0.0
 30
0.0
  9
$PUCSXDIR
 10
1.0
 20
0.0
 30
0.0
  9
$PUCSYDIR
 10
0.0
 20
1.0
 30
0.0
  9
$PUCSORTHOREF
  2

  9
$PUCSORTHOVIEW
 70
     0
  9
$PUCSORGTOP
 10
0.0
 20
0.0
 30
0.0
  9
$PUCSORGBOTTOM
 10
0.0
 20
0.0
 30
0.0
  9
$PUCSORGLEFT
 10
0.0
 20
0.0
 30
0.0
  9
$PUCSORGRIGHT
 10
0.0
 20
0.0
 30
0.0
  9
$PUCSORGFRONT
 10
0.0
 20
0.0
 30
0.0
  9
$PUCSORGBACK
 10
0.0
 20
0.0
 30
0.0
  9
$USERI1
 70
     0
  9
$USERI2
 70
     0
  9
$USERI3
 70
     0
  9
$USERI4
 70
     0
  9
$USERI5
 70
     0
  9
$USERR1
 40
0.0
  9
$USERR2
 40
0.0
  9
$USERR3
 40
0.0
  9
$USERR4
 40
0.0
  9
$USERR5
 40
0.0
  9
$WORLDVIEW
 70
     1
  9
$SHADEDGE
 70
     3
  9
$SHADEDIF
 70
    70
  9
$TILEMODE
 70
     1
  9
$MAXACTVP
 70
    64
  9
$PINSBASE
 10
0.0
 20
0.0
 30
0.0
  9
$PLIMCHECK
 70
     0
  9
$PEXTMIN
 10
1.000000000000000E+20
 20
1.000000000000000E+20
 30
1.000000000000000E+20
  9
$PEXTMAX
 10
-1.000000000000000E+20
 20
-1.000000000000000E+20
 30
-1.000000000000000E+20
  9
$PLIMMIN
 10
0.0
 20
0.0
  9
$PLIMMAX
 10
12.0
 20
9.0
  9
$UNITMODE
 70
     0
  9
$VISRETAIN
 70
     1
  9
$PLINEGEN
 70
     0
  9
$PSLTSCALE
 70
     1
  9
$TREEDEPTH
 70
  3020
  9
$CMLSTYLE
  2
Standard
  9
$CMLJUST
 70
     0
  9
$CMLSCALE
 40
1.0
  9
$PROXYGRAPHICS
 70
     1
  9
$MEASUREMENT
 70
     0
  9
$CELWEIGHT
370
    -1
  9
$ENDCAPS
280
     0
  9
$JOINSTYLE
280
     0
  9
$LWDISPLAY
290
     1
  9
$INSUNITS
 70
     1
  9
$HYPERLINKBASE
  1

  9
$STYLESHEET
  1

  9
$XEDIT
290
     1
  9
$CEPSNTYPE
380
     0
  9
$PSTYLEMODE
290
     1
  9
$FINGERPRINTGUID
  2
{0942D656-AAB6-AD92-71E9-7C6A626E22D3}
  9
$VERSIONGUID
  2
{FAEB1C32-E019-11D5-929B-00C0DF256EC4}
  9
$EXTNAMES
290
     1
  9
$PSVPSCALE
 40
0.0
  9
$OLESTARTUP
290
     0
  9
$SORTENTS
280
   127
  9
$INDEXCTL
280
     0
  9
$HIDETEXT
280
     1
  9
$XCLIPFRAME
280
     2
  9
$HALOGAP
280
     0
  9
$OBSCOLOR
 70
   257
  9
$OBSLTYPE
280
     0
  9
$INTERSECTIONDISPLAY
280
     0
  9
$INTERSECTIONCOLOR
 70
   257
  9
$DIMASSOC
280
     2
  9
$PROJECTNAME
  1

  9
$CAMERADISPLAY
290
     0
  9
$LENSLENGTH
 40
50.0
  9
$CAMERAHEIGHT
 40
0.0
  9
$STEPSPERSEC
 40
2.0
  9
$STEPSIZE
 40
6.0
  9
$3DDWFPREC
 40
2.0
  9
$PSOLWIDTH
 40
0.25
  9
$PSOLHEIGHT
 40
4.0
  9
$LOFTANG1
 40
1.570796326794897
  9
$LOFTANG2
 40
1.570796326794897
  9
$LOFTMAG1
 40
0.0
  9
$LOFTMAG2
 40
0.0
  9
$LOFTPARAM
 70
     7
  9
$LOFTNORMALS
280
     1
  9
$LATITUDE
 40
37.795
  9
$LONGITUDE
 40
-122.394
  9
$NORTHDIRECTION
 40
0.0
  9
$TIMEZONE
 70
 -8000
  9
$LIGHTGLYPHDISPLAY
280
     1
  9
$TILEMODELIGHTSYNCH
280
     1
  9
$CMATERIAL
347
3C
  9
$SOLIDHIST
280
     1
  9
$SHOWHIST
280
     1
  9
$DWFFRAME
280
     2
  9
$DGNFRAME
280
     2
  9
$REALWORLDSCALE
290
     1
  9
$INTERFERECOLOR
 62
   256
  9
$CSHADOW
280
     0
  9
$SHADOWPLANELOCATION
 40
0.0
  0
ENDSEC
  0
SECTION
  2
CLASSES
  0
CLASS
  1
ACDBDICTIONARYWDFLT
  2
AcDbDictionaryWithDefault
  3
ObjectDBX Classes
 90
        0
 91
        4
280
     0
281
     0
  0
CLASS
  1
VISUALSTYLE
  2
AcDbVisualStyle
  3
ObjectDBX Classes
 90
     4095
 91
        4
280
     0
281
     0
  0
CLASS
  1
MATERIAL
  2
AcDbMaterial
  3
ObjectDBX Classes
 90
     1153
 91
        4
280
     0
281
     0
  0
CLASS
  1
SUN
  2
AcDbSun
  3
SCENEOE
 90
     1024
 91
        4
280
     0
281
     0
  0
ENDSEC
  0
SECTION
  2
TABLES
  0
TABLE
  2
VPORT
  5
8
330
0
100
AcDbSymbolTable
 70
     1
  0
VPORT
  5
29
330
8
100
AcDbSymbolTableRecord
100
AcDbViewportTableRecord
  2
*Active
 70
     0
 10
0.0
 20
0.0
 11
1.0
 21
1.0
 12
0.0
 22
0.0
 13
0.0
 23
0.0
 14
0.5
 24
0.5
 15
0.5
 25
0.5
 16
0.0
 26
0.0
 36
1.0
 17
91.00082462281999
 27
-128.4993055234307
 37
0.0
 40
256.9986110468615
 41
0.7081814508812795
 42
50.0
 43
0.0
 44
0.0
 50
0.0
 51
0.0
 71
     0
 72
   100
 73
     1
 74
     3
 75
     0
 76
     0
 77
     0
 78
     0
281
     0
 65
     1
110
0.0
120
0.0
130
0.0
111
1.0
121
0.0
131
0.0
112
0.0
122
1.0
132
0.0
 79
     0
146
0.0
 60
     3
 61
     5
292
     1
282
     1
141
0.0
142
0.0
 63
   250
361
3F
  0
ENDTAB
  0
TABLE
  2
LTYPE
  5
5
330
0
100
AcDbSymbolTable
 70
     2
  0
LTYPE
  5
14
330
5
100
AcDbSymbolTableRecord
100
AcDbLinetypeTableRecord
  2
ByBlock
 70
     0
  3

 72
    65
 73
     0
 40
0.0
  0
LTYPE
  5
15
330
5
100
AcDbSymbolTableRecord
100
AcDbLinetypeTableRecord
  2
ByLayer
 70
     0
  3

 72
    65
 73
     0
 40
0.0
  0
LTYPE
  5
16
330
5
100
AcDbSymbolTableRecord
100
AcDbLinetypeTableRecord
  2
Continuous
 70
     0
  3
Solid line
 72
    65
 73
     0
 40
0.0
  0
LTYPE
  5
10C
330
5
100
AcDbSymbolTableRecord
100
AcDbLinetypeTableRecord
  2
AI-Linetype-1
 70
     0
  3
Adobe Illustrator Linetype No. 1
 72
    65
 73
     2
 40
1.411111110758333
 49
0.7055555553791667
 74
     0
 49
-0.7055555553791667
 74
     0
  0
ENDTAB
  0
TABLE
  2
LAYER
  5
2
330
0
100
AcDbSymbolTable
 70
     2
  0
LAYER
  5
10
330
2
100
AcDbSymbolTableRecord
100
AcDbLayerTableRecord
  2
0
 70
     0
 62
     7
  6
Continuous
370
    -3
390
F
347
3E
  0
LAYER
  5
40
330
2
100
AcDbSymbolTableRecord
100
AcDbLayerTableRecord
  2
_U+30EC_U+30A4_U+30E4_U+30FC 1
 70
     0
 62
     7
  6
Continuous
370
    -3
390
F
347
3E
  0
ENDTAB
  0
TABLE
  2
STYLE
  5
3
330
0
100
AcDbSymbolTable
 70
     1
  0
STYLE
  5
11
330
3
100
AcDbSymbolTableRecord
100
AcDbTextStyleTableRecord
  2
Standard
 70
     0
 40
0.0
 41
1.0
 50
0.0
 71
     0
 42
0.2
  3
txt
  4

  0
ENDTAB
  0
TABLE
  2
VIEW
  5
6
330
0
100
AcDbSymbolTable
 70
     0
  0
ENDTAB
  0
TABLE
  2
UCS
  5
7
330
0
100
AcDbSymbolTable
 70
     0
  0
ENDTAB
  0
TABLE
  2
APPID
  5
9
330
0
100
AcDbSymbolTable
 70
     1
  0
APPID
  5
12
330
9
100
AcDbSymbolTableRecord
100
AcDbRegAppTableRecord
  2
ACAD
 70
     0
  0
ENDTAB
  0
TABLE
  2
DIMSTYLE
  5
A
330
0
100
AcDbSymbolTable
 70
     1
100
AcDbDimStyleTable
  0
DIMSTYLE
105
27
330
A
100
AcDbSymbolTableRecord
100
AcDbDimStyleTableRecord
  2
Standard
 70
     0
178
     0
340
11
  0
ENDTAB
  0
TABLE
  2
BLOCK_RECORD
  5
1
330
0
100
AcDbSymbolTable
 70
     7
  0
BLOCK_RECORD
  5
1F
330
1
100
AcDbSymbolTableRecord
100
AcDbBlockTableRecord
  2
*Model_Space
340
22
 70
     0
280
     1
281
     0
  0
BLOCK_RECORD
  5
1B
330
1
100
AcDbSymbolTableRecord
100
AcDbBlockTableRecord
  2
*Paper_Space
340
1E
 70
     0
280
     1
281
     0
  0
BLOCK_RECORD
  5
23
330
1
100
AcDbSymbolTableRecord
100
AcDbBlockTableRecord
  2
*Paper_Space0
340
26
 70
     0
280
     1
281
     0
  0
BLOCK_RECORD
  5
4D
330
1
100
AcDbSymbolTableRecord
100
AcDbBlockTableRecord
  2
block 2
340
0
102
{BLKREFS
331
4E
102
}
 70
     0
280
     1
281
     0
  0
BLOCK_RECORD
  5
75
330
1
100
AcDbSymbolTableRecord
100
AcDbBlockTableRecord
  2
block 3
340
0
102
{BLKREFS
331
76
102
}
 70
     0
280
     1
281
     0
  0
BLOCK_RECORD
  5
9B
330
1
100
AcDbSymbolTableRecord
100
AcDbBlockTableRecord
  2
block 4
340
0
102
{BLKREFS
331
9C
102
}
 70
     0
280
     1
281
     0
  0
BLOCK_RECORD
  5
AD
330
1
100
AcDbSymbolTableRecord
100
AcDbBlockTableRecord
  2
block 5
340
0
102
{BLKREFS
331
AE
102
}
 70
     0
280
     1
281
     0
  0
BLOCK_RECORD
  5
C1
330
1
100
AcDbSymbolTableRecord
100
AcDbBlockTableRecord
  2
block 6
340
0
102
{BLKREFS
331
C2
102
}
 70
     0
280
     1
281
     0
  0
BLOCK_RECORD
  5
EA
330
1
100
AcDbSymbolTableRecord
100
AcDbBlockTableRecord
  2
block 7
340
0
102
{BLKREFS
331
EB
102
}
 70
     0
280
     1
281
     0
  0
ENDTAB
  0
ENDSEC
  0
SECTION
  2
BLOCKS
  0
BLOCK
  5
20
330
1F
100
AcDbEntity
  8
0
100
AcDbBlockBegin
  2
*Model_Space
 70
     0
 10
0.0
 20
0.0
 30
0.0
  3
*Model_Space
  1

  0
ENDBLK
  5
21
330
1F
100
AcDbEntity
  8
0
100
AcDbBlockEnd
  0
BLOCK
  5
1C
330
1B
100
AcDbEntity
 67
     1
  8
0
100
AcDbBlockBegin
  2
*Paper_Space
 70
     0
 10
0.0
 20
0.0
 30
0.0
  3
*Paper_Space
  1

  0
ENDBLK
  5
1D
330
1B
100
AcDbEntity
 67
     1
  8
0
100
AcDbBlockEnd
  0
BLOCK
  5
24
330
23
100
AcDbEntity
  8
0
100
AcDbBlockBegin
  2
*Paper_Space0
 70
     0
 10
0.0
 20
0.0
 30
0.0
  3
*Paper_Space0
  1

  0
ENDBLK
  5
25
330
23
100
AcDbEntity
  8
0
100
AcDbBlockEnd
  0
BLOCK
  5
4F
330
4D
100
AcDbEntity
  8
0
100
AcDbBlockBegin
  2
block 2
 70
     0
 10
0.0
 20
0.0
 30
0.0
  3
block 2
  1

  0
SPLINE
  5
51
330
4D
100
AcDbEntity
  8
_U+30EC_U+30A4_U+30E4_U+30FC 1
370
     0
100
AcDbSpline
210
0.0
220
0.0
230
1.0
 70
    11
 71
     3
 72
   242
 73
   238
 74
     0
 42
0.0000000001
 43
0.0000000001
 12
1.0
 22
0.0
 32
0.0
 13
1.0
 23
0.0
 33
0.0
 40
0.0
 40
0.0
 40
0.0
 40
0.0
 40
1.0
 40
1.0
 40
1.0
 40
2.0
 40
2.0
 40
2.0
 40
3.0
 40
3.0
 40
3.0
 40
4.0
 40
4.0
 40
4.0
 40
5.0
 40
5.0
 40
5.0
 40
6.0
 40
6.0
 40
6.0
 40
7.0
 40
7.0
 40
7.0
 40
8.0
 40
8.0
 40
8.0
 40
9.0
 40
9.0
 40
9.0
 40
10.0
 40
10.0
 40
10.0
 40
11.0
 40
11.0
 40
11.0
 40
12.0
 40
12.0
 40
12.0
 40
13.0
 40
13.0
 40
13.0
 40
14.0
 40
14.0
 40
14.0
 40
15.0
 40
15.0
 40
15.0
 40
16.0
 40
16.0
 40
16.0
 40
17.0
 40
17.0
 40
17.0
 40
18.0
 40
18.0
 40
18.0
 40
19.0
 40
19.0
 40
19.0
 40
20.0
 40
20.0
 40
20.0
 40
21.0
 40
21.0
 40
21.0
 40
22.0
 40
22.0
 40
22.0
 40
23.0
 40
23.0
 40
23.0
 40
24.0
 40
24.0
 40
24.0
 40
25.0
 40
25.0
 40
25.0
 40
26.0
 40
26.0
 40
26.0
 40
27.0
 40
27.0
 40
27.0
 40
28.0
 40
28.0
 40
28.0
 40
29.0
 40
29.0
 40
29.0
 40
30.0
 40
30.0
 40
30.0
 40
31.0
 40
31.0
 40
31.0
 40
32.0
 40
32.0
 40
32.0
 40
33.0
 40
33.0
 40
33.0
 40
34.0
 40
34.0
 40
34.0
 40
35.0
 40
35.0
 40
35.0
 40
36.0
 40
36.0
 40
36.0
 40
37.0
 40
37.0
 40
37.0
 40
38.0
 40
38.0
 40
38.0
 40
39.0
 40
39.0
 40
39.0
 40
40.0
 40
40.0
 40
40.0
 40
41.0
 40
41.0
 40
41.0
 40
42.0
 40
42.0
 40
42.0
 40
43.0
 40
43.0
 40
43.0
 40
44.0
 40
44.0
 40
44.0
 40
45.0
 40
45.0
 40
45.0
 40
46.0
 40
46.0
 40
46.0
 40
47.0
 40
47.0
 40
47.0
 40
48.0
 40
48.0
 40
48.0
 40
49.0
 40
49.0
 40
49.0
 40
50.0
 40
50.0
 40
50.0
 40
51.0
 40
51.0
 40
51.0
 40
52.0
 40
52.0
 40
52.0
 40
53.0
 40
53.0
 40
53.0
 40
54.0
 40
54.0
 40
54.0
 40
55.0
 40
55.0
 40
55.0
 40
56.0
 40
56.0
 40
56.0
 40
57.0
 40
57.0
 40
57.0
 40
58.0
 40
58.0
 40
58.0
 40
59.0
 40
59.0
 40
59.0
 40
60.0
 40
60.0
 40
60.0
 40
61.0
 40
61.0
 40
61.0
 40
62.0
 40
62.0
 40
62.0
 40
63.0
 40
63.0
 40
63.0
 40
64.0
 40
64.0
 40
64.0
 40
65.0
 40
65.0
 40
65.0
 40
66.0
 40
66.0
 40
66.0
 40
67.0
 40
67.0
 40
67.0
 40
68.0
 40
68.0
 40
68.0
 40
69.0
 40
69.0
 40
69.0
 40
70.0
 40
70.0
 40
70.0
 40
71.0
 40
71.0
 40
71.0
 40
72.0
 40
72.0
 40
72.0
 40
73.0
 40
73.0
 40
73.0
 40
74.0
 40
74.0
 40
74.0
 40
75.0
 40
75.0
 40
75.0
 40
76.0
 40
76.0
 40
76.0
 40
77.0
 40
77.0
 40
77.0
 40
78.0
 40
78.0
 40
78.0
 40
79.0
 40
79.0
 40
79.0
 40
79.0
 10
77.07729354626888
 20
-137.5164984465237
 30
0.0
 10
77.07729354626888
 20
-137.5164984465237
 30
0.0
 10
76.82339000900596
 20
-137.5164984465237
 30
0.0
 10
76.82339000900596
 20
-137.5164984465237
 30
0.0
 10
76.82339000900596
 20
-137.5164984465237
 30
0.0
 10
76.54640433199188
 20
-137.5164984465237
 30
0.0
 10
76.54640433199188
 20
-137.5164984465237
 30
0.0
 10
76.54640433199188
 20
-137.5164984465237
 30
0.0
 10
76.67318384584907
 20
-137.5592176305408
 30
0.0
 10
76.67318384584907
 20
-137.5592176305408
 30
0.0
 10
76.68386364185335
 20
-137.563351745123
 30
0.0
 10
76.69661049514876
 20
-137.5695529169965
 30
0.0
 10
76.69661049514876
 20
-137.5822997702919
 30
0.0
 10
76.69661049514876
 20
-137.603314852752
 30
0.0
 10
76.66457110713594
 20
-137.6098605341739
 30
0.0
 10
76.64355602467592
 20
-137.6139946487562
 30
0.0
 10
76.63287622867165
 20
-137.6370767885074
 30
0.0
 10
76.6032484074985
 20
-137.7028781122757
 30
0.0
 10
76.58430038232962
 20
-137.7473198440354
 30
0.0
 10
76.58430038232962
 20
-137.7473198440354
 30
0.0
 10
76.85508488747026
 20
-137.7473198440354
 30
0.0
 10
76.85508488747026
 20
-137.7473198440354
 30
0.0
 10
76.94603540828085
 20
-137.7473198440354
 30
0.0
 10
77.14275036048862
 20
-137.7431857294531
 30
0.0
 10
77.28468829448092
 20
-137.73457299074
 30
0.0
 10
77.28468829448092
 20
-137.73457299074
 30
0.0
 10
77.28468829448092
 20
-137.9123399177789
 30
0.0
 10
77.28468829448092
 20
-137.9123399177789
 30
0.0
 10
77.20200600283492
 20
-137.907861293648
 30
0.0
 10
77.1809909203749
 20
-137.907861293648
 30
0.0
 10
77.00115693604485
 20
-137.9037271790658
 30
0.0
 10
76.96946205758056
 20
-138.0580674568049
 30
0.0
 10
76.92502032582084
 20
-138.1386826911598
 30
0.0
 10
76.8805785940611
 20
-138.2082736199618
 30
0.0
 10
77.00115693604485
 20
-138.2675292623081
 30
0.0
 10
77.10692136744203
 20
-138.3353976433675
 30
0.0
 10
77.21061874154805
 20
-138.417735425465
 30
0.0
 10
77.21061874154805
 20
-138.417735425465
 30
0.0
 10
77.09210745685544
 20
-138.5851670660482
 30
0.0
 10
77.09210745685544
 20
-138.5851670660482
 30
0.0
 10
77.06868080755575
 20
-138.5658745313308
 30
0.0
 10
77.05593395426033
 20
-138.5576063021662
 30
0.0
 10
76.9439683509897
 20
-138.472856953229
 30
0.0
 10
76.89539250464769
 20
-138.4349609028913
 30
0.0
 10
76.83613686230139
 20
-138.3991319098447
 30
0.0
 10
76.75552162794654
 20
-138.3543456685364
 30
0.0
 10
76.5439927651522
 20
-138.5407253342884
 30
0.0
 10
76.33900958377984
 20
-138.5638074740396
 30
0.0
 10
76.0489325439218
 20
-138.5934352952128
 30
0.0
 10
76.0489325439218
 20
-138.5934352952128
 30
0.0
 10
75.9455796793643
 20
-138.4136013108827
 30
0.0
 10
75.9455796793643
 20
-138.4136013108827
 30
0.0
 10
76.26287297355582
 20
-138.4094671963004
 30
0.0
 10
76.43822833375503
 20
-138.3839734897096
 30
0.0
 10
76.59050155420307
 20
-138.2740749437301
 30
0.0
 10
76.472334779059
 20
-138.2234320400969
 30
0.0
 10
76.38345131553956
 20
-138.1958712762149
 30
0.0
 10
76.34727781294444
 20
-138.1831244229195
 30
0.0
 10
76.32832978777556
 20
-138.2106851868015
 30
0.0
 10
76.31351587718899
 20
-138.2296332119704
 30
0.0
 10
76.28595511330698
 20
-138.2633951477258
 30
0.0
 10
76.28595511330698
 20
-138.2633951477258
 30
0.0
 10
76.08924016109923
 20
-138.1810573656284
 30
0.0
 10
76.08924016109923
 20
-138.1810573656284
 30
0.0
 10
76.17192245274522
 20
-138.100786640822
 30
0.0
 10
76.23324515238266
 20
-138.0053574958806
 30
0.0
 10
76.29008922788928
 20
-137.9037271790658
 30
0.0
 10
76.0999199571035
 20
-137.907861293648
 30
0.0
 10
76.07856036509494
 20
-137.907861293648
 30
0.0
 10
75.99622258299748
 20
-137.9123399177789
 30
0.0
 10
75.99622258299748
 20
-137.9123399177789
 30
0.0
 10
75.99622258299748
 20
-137.73457299074
 30
0.0
 10
75.99622258299748
 20
-137.73457299074
 30
0.0
 10
76.13574895015009
 20
-137.7411186721619
 30
0.0
 10
76.34521075565328
 20
-137.7452527867443
 30
0.0
 10
76.37070446224413
 20
-137.7452527867443
 30
0.0
 10
76.38758543012186
 20
-137.7114908509888
 30
0.0
 10
76.44270695788586
 20
-137.5909125090051
 30
0.0
 10
76.46165498305473
 20
-137.5164984465237
 30
0.0
 10
76.44270695788586
 20
-137.5164984465237
 30
0.0
 10
76.26494003084696
 20
-137.5230441279456
 30
0.0
 10
76.07029213593034
 20
-137.5357909812411
 30
0.0
 10
76.07029213593034
 20
-137.5357909812411
 30
0.0
 10
76.07029213593034
 20
-137.6691161765202
 30
0.0
 10
76.07029213593034
 20
-137.6691161765202
 30
0.0
 10
76.02171628958833
 20
-137.6942653735626
 30
0.0
 10
75.96246064724203
 20
-137.7259602520269
 30
0.0
 10
75.82913545196286
 20
-137.7917615757951
 30
0.0
 10
75.82913545196286
 20
-137.7917615757951
 30
0.0
 10
75.82913545196286
 20
-137.9374891148212
 30
0.0
 10
75.82913545196286
 20
-137.9374891148212
 30
0.0
 10
75.82913545196286
 20
-137.9374891148212
 30
0.0
 10
75.82913545196286
 20
-138.4053330817181
 30
0.0
 10
75.82913545196286
 20
-138.4053330817181
 30
0.0
 10
75.82913545196286
 20
-138.5321125955753
 30
0.0
 10
75.79296194936774
 20
-138.5913682379216
 30
0.0
 10
75.5097751004802
 20
-138.583100008757
 30
0.0
 10
75.5097751004802
 20
-138.583100008757
 30
0.0
 10
75.40607772637418
 20
-138.375705260545
 30
0.0
 10
75.40607772637418
 20
-138.375705260545
 30
0.0
 10
75.46946748330278
 20
-138.3881076042919
 30
0.0
 10
75.5180433296448
 20
-138.3925862284227
 30
0.0
 10
75.55835094682222
 20
-138.3925862284227
 30
0.0
 10
75.63448755704624
 20
-138.3925862284227
 30
0.0
 10
75.64516735305051
 20
-138.3695040886715
 30
0.0
 10
75.64516735305051
 20
-138.3037027649032
 30
0.0
 10
75.64516735305051
 20
-138.3037027649032
 30
0.0
 10
75.64516735305051
 20
-137.8740993578926
 30
0.0
 10
75.64516735305051
 20
-137.8740993578926
 30
0.0
 10
75.54767115081795
 20
-137.91440697507
 30
0.0
 10
75.53079018294022
 20
-137.920952656492
 30
0.0
 10
75.48428139388935
 20
-137.9399006816609
 30
0.0
 10
75.48014727930705
 20
-137.9609157641209
 30
0.0
 10
75.47566865517622
 20
-137.990543585294
 30
0.0
 10
75.45672063000735
 20
-137.990543585294
 30
0.0
 10
75.44845240084275
 20
-137.990543585294
 30
0.0
 10
75.43777260483847
 20
-137.9864094707117
 30
0.0
 10
75.4312269234165
 20
-137.962982821412
 30
0.0
 10
75.4312269234165
 20
-137.962982821412
 30
0.0
 10
75.37851696249218
 20
-137.7707464933351
 30
0.0
 10
75.37851696249218
 20
-137.7707464933351
 30
0.0
 10
75.52458901106677
 20
-137.7238931947357
 30
0.0
 10
75.59004582528652
 20
-137.7008110549845
 30
0.0
 10
75.64516735305051
 20
-137.6797959725245
 30
0.0
 10
75.64516735305051
 20
-137.6797959725245
 30
0.0
 10
75.64516735305051
 20
-137.2670735333916
 30
0.0
 10
75.64516735305051
 20
-137.2670735333916
 30
0.0
 10
75.64516735305051
 20
-137.2670735333916
 30
0.0
 10
75.59211288257767
 20
-137.2670735333916
 30
0.0
 10
75.59211288257767
 20
-137.2670735333916
 30
0.0
 10
75.59211288257767
 20
-137.2670735333916
 30
0.0
 10
75.5139092150625
 20
-137.2670735333916
 30
0.0
 10
75.5139092150625
 20
-137.2670735333916
 30
0.0
 10
75.44604083400307
 20
-137.2670735333916
 30
0.0
 10
75.43777260483847
 20
-137.2670735333916
 30
0.0
 10
75.40159910224335
 20
-137.273274705265
 30
0.0
 10
75.40159910224335
 20
-137.273274705265
 30
0.0
 10
75.40159910224335
 20
-137.0789713198969
 30
0.0
 10
75.40159910224335
 20
-137.0789713198969
 30
0.0
 10
75.42915986612535
 20
-137.0851724917704
 30
0.0
 10
75.43777260483847
 20
-137.0851724917704
 30
0.0
 10
75.50736353364053
 20
-137.0851724917704
 30
0.0
 10
75.50736353364053
 20
-137.0851724917704
 30
0.0
 10
75.6406887289197
 20
-137.0851724917704
 30
0.0
 10
75.6406887289197
 20
-137.0851724917704
 30
0.0
 10
75.6406887289197
 20
-137.0155815629683
 30
0.0
 10
75.6406887289197
 20
-136.9328992713223
 30
0.0
 10
75.63862167162854
 20
-136.92876515674
 30
0.0
 10
75.63035344246394
 20
-136.74893117241
 30
0.0
 10
75.63035344246394
 20
-136.7296386376926
 30
0.0
 10
75.62794187562427
 20
-136.6834743581902
 30
0.0
 10
75.62794187562427
 20
-136.6834743581902
 30
0.0
 10
75.84394936254944
 20
-136.6917425873548
 30
0.0
 10
75.84394936254944
 20
-136.6917425873548
 30
0.0
 10
75.8546291585537
 20
-136.6917425873548
 30
0.0
 10
75.87564424101373
 20
-136.693809644646
 30
0.0
 10
75.87564424101373
 20
-136.7106906125237
 30
0.0
 10
75.87564424101373
 20
-136.7296386376926
 30
0.0
 10
75.86083033042716
 20
-136.7403184336969
 30
0.0
 10
75.83533662383631
 20
-136.7592664588657
 30
0.0
 10
75.83533662383631
 20
-136.8102538720474
 30
0.0
 10
75.82913545196286
 20
-137.0386637027195
 30
0.0
 10
75.83120250925401
 20
-137.0851724917704
 30
0.0
 10
75.96039358995088
 20
-137.0851724917704
 30
0.0
 10
75.97279593369778
 20
-137.0851724917704
 30
0.0
 10
76.07029213593034
 20
-137.0769042626058
 30
0.0
 10
76.07029213593034
 20
-137.0769042626058
 30
0.0
 10
76.07029213593034
 20
-137.2712076479739
 30
0.0
 10
76.07029213593034
 20
-137.2712076479739
 30
0.0
 10
76.03205157604407
 20
-137.2691405906827
 30
0.0
 10
75.96452770453318
 20
-137.2650064761004
 30
0.0
 10
75.82913545196286
 20
-137.2670735333916
 30
0.0
 10
75.82913545196286
 20
-137.2670735333916
 30
0.0
 10
75.82913545196286
 20
-137.6053819100431
 30
0.0
 10
75.82913545196286
 20
-137.6053819100431
 30
0.0
 10
75.88425697972686
 20
-137.5822997702919
 30
0.0
 10
75.9497137939466
 20
-137.5547390064099
 30
0.0
 10
75.99828964028863
 20
-137.5316568666588
 30
0.0
 10
75.99828964028863
 20
-137.5316568666588
 30
0.0
 10
75.99828964028863
 20
-137.3538899396199
 30
0.0
 10
75.99828964028863
 20
-137.3538899396199
 30
0.0
 10
76.11266681039892
 20
-137.3662922833668
 30
0.0
 10
76.23117809509151
 20
-137.3662922833668
 30
0.0
 10
76.34727781294444
 20
-137.3662922833668
 30
0.0
 10
76.32419567319326
 20
-137.2712076479739
 30
0.0
 10
76.29663490931127
 20
-137.1888698658764
 30
0.0
 10
76.23324515238266
 20
-137.0555446705972
 30
0.0
 10
76.18880342062295
 20
-137.0576117278884
 30
0.0
 10
76.10612112897695
 20
-137.0617458424707
 30
0.0
 10
76.0682250786392
 20
-137.0638128997618
 30
0.0
 10
76.0682250786392
 20
-137.0638128997618
 30
0.0
 10
76.0682250786392
 20
-136.8839789154318
 30
0.0
 10
76.0682250786392
 20
-136.8839789154318
 30
0.0
 10
76.19293753520525
 20
-136.8925916541449
 30
0.0
 10
76.36657034766183
 20
-136.8970702782757
 30
0.0
 10
76.4489081297593
 20
-136.8970702782757
 30
0.0
 10
76.4489081297593
 20
-136.8970702782757
 30
0.0
 10
76.5315904214053
 20
-136.8970702782757
 30
0.0
 10
76.5315904214053
 20
-136.8970702782757
 30
0.0
 10
76.5315904214053
 20
-136.7337727522749
 30
0.0
 10
76.5315904214053
 20
-136.7234374658192
 30
0.0
 10
76.52917885456563
 20
-136.6683159380551
 30
0.0
 10
76.52917885456563
 20
-136.6683159380551
 30
0.0
 10
76.75345457065539
 20
-136.693809644646
 30
0.0
 10
76.75345457065539
 20
-136.693809644646
 30
0.0
 10
76.75793319478622
 20
-136.693809644646
 30
0.0
 10
76.77894827724624
 20
-136.6958767019372
 30
0.0
 10
76.77894827724624
 20
-136.7127576698149
 30
0.0
 10
76.77894827724624
 20
-136.7275715804014
 30
0.0
 10
76.76826848124196
 20
-136.7361843191146
 30
0.0
 10
76.74070771735997
 20
-136.7509982297011
 30
0.0
 10
76.73450654548651
 20
-136.8164550439209
 30
0.0
 10
76.73243948819537
 20
-136.8378146359294
 30
0.0
 10
76.73243948819537
 20
-136.8970702782757
 30
0.0
 10
76.73243948819537
 20
-136.8970702782757
 30
0.0
 10
76.82752412358826
 20
-136.8970702782757
 30
0.0
 10
76.82752412358826
 20
-136.8970702782757
 30
0.0
 10
76.91020641523426
 20
-136.8970702782757
 30
0.0
 10
77.08349471814232
 20
-136.8925916541449
 30
0.0
 10
77.20855168425689
 20
-136.8839789154318
 30
0.0
 10
77.20855168425689
 20
-136.8839789154318
 30
0.0
 10
77.20855168425689
 20
-137.0638128997618
 30
0.0
 10
77.20855168425689
 20
-137.0638128997618
 30
0.0
 10
77.17892386308374
 20
-137.0617458424707
 30
0.0
 10
77.06041257839115
 20
-137.0576117278884
 30
0.0
 10
77.02010496121373
 20
-137.0555446705972
 30
0.0
 10
77.00529105062715
 20
-137.1065320837789
 30
0.0
 10
76.9715291148717
 20
-137.2184976870495
 30
0.0
 10
76.90572779110343
 20
-137.3580240542022
 30
0.0
 10
76.948102465572
 20
-137.3580240542022
 30
0.0
 10
77.22543265213461
 20
-137.3390760290333
 30
0.0
 10
77.28675535177206
 20
-137.3366644621936
 30
0.0
 10
77.28675535177206
 20
-137.3366644621936
 30
0.0
 10
77.28675535177206
 20
-137.5209770706545
 30
0.0
 10
77.28675535177206
 20
-137.5209770706545
 30
0.0
 10
77.25712753059892
 20
-137.5209770706545
 30
0.0
 10
77.2402465627212
 20
-137.5164984465237
 30
0.0
 10
77.07729354626888
 20
-137.5164984465237
 30
0.0
  0
SPLINE
  5
52
330
4D
100
AcDbEntity
  8
_U+30EC_U+30A4_U+30E4_U+30FC 1
370
     0
100
AcDbSpline
210
0.0
220
0.0
230
1.0
 70
    11
 71
     3
 72
    20
 73
    16
 74
     0
 42
0.0000000001
 43
0.0000000001
 12
1.0
 22
0.0
 32
0.0
 13
1.0
 23
0.0
 33
0.0
 40
0.0
 40
0.0
 40
0.0
 40
0.0
 40
1.0
 40
1.0
 40
1.0
 40
2.0
 40
2.0
 40
2.0
 40
3.0
 40
3.0
 40
3.0
 40
4.0
 40
4.0
 40
4.0
 40
5.0
 40
5.0
 40
5.0
 40
5.0
 10
76.4489081297593
 20
-137.0514105560149
 30
0.0
 10
76.4489081297593
 20
-137.0514105560149
 30
0.0
 10
76.41721325129501
 20
-137.0514105560149
 30
0.0
 10
76.41721325129501
 20
-137.0514105560149
 30
0.0
 10
76.46372204034589
 20
-137.1506293059901
 30
0.0
 10
76.49541691881018
 20
-137.231244540345
 30
0.0
 10
76.52917885456563
 20
-137.3580240542022
 30
0.0
 10
76.52917885456563
 20
-137.3580240542022
 30
0.0
 10
76.73657360277767
 20
-137.3580240542022
 30
0.0
 10
76.73657360277767
 20
-137.3580240542022
 30
0.0
 10
76.76826848124196
 20
-137.2650064761004
 30
0.0
 10
76.79169513054167
 20
-137.1802571271633
 30
0.0
 10
76.81477727029284
 20
-137.0514105560149
 30
0.0
 10
76.81477727029284
 20
-137.0514105560149
 30
0.0
 10
76.4489081297593
 20
-137.0514105560149
 30
0.0
 10
76.4489081297593
 20
-137.0514105560149
 30
0.0
  0
SPLINE
  5
53
330
4D
100
AcDbEntity
  8
_U+30EC_U+30A4_U+30E4_U+30FC 1
370
     0
100
AcDbSpline
210
0.0
220
0.0
230
1.0
 70
    11
 71
     3
 72
    17
 73
    13
 74
     0
 42
0.0000000001
 43
0.0000000001
 12
1.0
 22
0.0
 32
0.0
 13
1.0
 23
0.0
 33
0.0
 40
0.0
 40
0.0
 40
0.0
 40
0.0
 40
1.0
 40
1.0
 40
1.0
 40
2.0
 40
2.0
 40
2.0
 40
3.0
 40
3.0
 40
3.0
 40
4.0
 40
4.0
 40
4.0
 40
4.0
 10
76.5122978866879
 20
-137.9016601217746
 30
0.0
 10
76.49541691881018
 20
-137.9312879429477
 30
0.0
 10
76.444774015177
 20
-138.0243055210495
 30
0.0
 10
76.43409421917274
 20
-138.0435980557669
 30
0.0
 10
76.62460799950705
 20
-138.1028536981132
 30
0.0
 10
76.64562308196707
 20
-138.1090548699866
 30
0.0
 10
76.71762557760879
 20
-138.1366156338686
 30
0.0
 10
76.77274710537279
 20
-138.0497992276403
 30
0.0
 10
76.79582924512397
 20
-137.9757296747075
 30
0.0
 10
76.81064315571054
 20
-137.9016601217746
 30
0.0
 10
76.81064315571054
 20
-137.9016601217746
 30
0.0
 10
76.5122978866879
 20
-137.9016601217746
 30
0.0
 10
76.5122978866879
 20
-137.9016601217746
 30
0.0
  0
HATCH
  5
54
330
4D
100
AcDbEntity
  8
_U+30EC_U+30A4_U+30E4_U+30FC 1
 62
     7
420
 16777215
100
AcDbHatch
 10
0.0
 20
0.0
 30
0.0
210
0.0
220
0.0
230
1.0
  2
SOLID
 70
     1
 71
     0
 91
        3
 92
        1
 93
        1
 72
     4
 94
        3
 73
     0
 74
     1
 95
      242
 96
      238
 40
0.0
 40
0.0
 40
0.0
 40
0.0
 40
1.0
 40
1.0
 40
1.0
 40
2.0
 40
2.0
 40
2.0
 40
3.0
 40
3.0
 40
3.0
 40
4.0
 40
4.0
 40
4.0
 40
5.0
 40
5.0
 40
5.0
 40
6.0
 40
6.0
 40
6.0
 40
7.0
 40
7.0
 40
7.0
 40
8.0
 40
8.0
 40
8.0
 40
9.0
 40
9.0
 40
9.0
 40
10.0
 40
10.0
 40
10.0
 40
11.0
 40
11.0
 40
11.0
 40
12.0
 40
12.0
 40
12.0
 40
13.0
 40
13.0
 40
13.0
 40
14.0
 40
14.0
 40
14.0
 40
15.0
 40
15.0
 40
15.0
 40
16.0
 40
16.0
 40
16.0
 40
17.0
 40
17.0
 40
17.0
 40
18.0
 40
18.0
 40
18.0
 40
19.0
 40
19.0
 40
19.0
 40
20.0
 40
20.0
 40
20.0
 40
21.0
 40
21.0
 40
21.0
 40
22.0
 40
22.0
 40
22.0
 40
23.0
 40
23.0
 40
23.0
 40
24.0
 40
24.0
 40
24.0
 40
25.0
 40
25.0
 40
25.0
 40
26.0
 40
26.0
 40
26.0
 40
27.0
 40
27.0
 40
27.0
 40
28.0
 40
28.0
 40
28.0
 40
29.0
 40
29.0
 40
29.0
 40
30.0
 40
30.0
 40
30.0
 40
31.0
 40
31.0
 40
31.0
 40
32.0
 40
32.0
 40
32.0
 40
33.0
 40
33.0
 40
33.0
 40
34.0
 40
34.0
 40
34.0
 40
35.0
 40
35.0
 40
35.0
 40
36.0
 40
36.0
 40
36.0
 40
37.0
 40
37.0
 40
37.0
 40
38.0
 40
38.0
 40
38.0
 40
39.0
 40
39.0
 40
39.0
 40
40.0
 40
40.0
 40
40.0
 40
41.0
 40
41.0
 40
41.0
 40
42.0
 40
42.0
 40
42.0
 40
43.0
 40
43.0
 40
43.0
 40
44.0
 40
44.0
 40
44.0
 40
45.0
 40
45.0
 40
45.0
 40
46.0
 40
46.0
 40
46.0
 40
47.0
 40
47.0
 40
47.0
 40
48.0
 40
48.0
 40
48.0
 40
49.0
 40
49.0
 40
49.0
 40
50.0
 40
50.0
 40
50.0
 40
51.0
 40
51.0
 40
51.0
 40
52.0
 40
52.0
 40
52.0
 40
53.0
 40
53.0
 40
53.0
 40
54.0
 40
54.0
 40
54.0
 40
55.0
 40
55.0
 40
55.0
 40
56.0
 40
56.0
 40
56.0
 40
57.0
 40
57.0
 40
57.0
 40
58.0
 40
58.0
 40
58.0
 40
59.0
 40
59.0
 40
59.0
 40
60.0
 40
60.0
 40
60.0
 40
61.0
 40
61.0
 40
61.0
 40
62.0
 40
62.0
 40
62.0
 40
63.0
 40
63.0
 40
63.0
 40
64.0
 40
64.0
 40
64.0
 40
65.0
 40
65.0
 40
65.0
 40
66.0
 40
66.0
 40
66.0
 40
67.0
 40
67.0
 40
67.0
 40
68.0
 40
68.0
 40
68.0
 40
69.0
 40
69.0
 40
69.0
 40
70.0
 40
70.0
 40
70.0
 40
71.0
 40
71.0
 40
71.0
 40
72.0
 40
72.0
 40
72.0
 40
73.0
 40
73.0
 40
73.0
 40
74.0
 40
74.0
 40
74.0
 40
75.0
 40
75.0
 40
75.0
 40
76.0
 40
76.0
 40
76.0
 40
77.0
 40
77.0
 40
77.0
 40
78.0
 40
78.0
 40
78.0
 40
79.0
 40
79.0
 40
79.0
 40
79.0
 10
77.07729354626888
 20
-137.5164984465237
 10
77.07729354626888
 20
-137.5164984465237
 10
76.82339000900596
 20
-137.5164984465237
 10
76.82339000900596
 20
-137.5164984465237
 10
76.82339000900596
 20
-137.5164984465237
 10
76.54640433199188
 20
-137.5164984465237
 10
76.54640433199188
 20
-137.5164984465237
 10
76.54640433199188
 20
-137.5164984465237
 10
76.67318384584907
 20
-137.5592176305408
 10
76.67318384584907
 20
-137.5592176305408
 10
76.68386364185335
 20
-137.563351745123
 10
76.69661049514876
 20
-137.5695529169965
 10
76.69661049514876
 20
-137.5822997702919
 10
76.69661049514876
 20
-137.603314852752
 10
76.66457110713594
 20
-137.6098605341739
 10
76.64355602467592
 20
-137.6139946487562
 10
76.63287622867165
 20
-137.6370767885074
 10
76.6032484074985
 20
-137.7028781122757
 10
76.58430038232962
 20
-137.7473198440354
 10
76.58430038232962
 20
-137.7473198440354
 10
76.85508488747026
 20
-137.7473198440354
 10
76.85508488747026
 20
-137.7473198440354
 10
76.94603540828085
 20
-137.7473198440354
 10
77.14275036048862
 20
-137.7431857294531
 10
77.28468829448092
 20
-137.73457299074
 10
77.28468829448092
 20
-137.73457299074
 10
77.28468829448092
 20
-137.9123399177789
 10
77.28468829448092
 20
-137.9123399177789
 10
77.20200600283492
 20
-137.907861293648
 10
77.1809909203749
 20
-137.907861293648
 10
77.00115693604485
 20
-137.9037271790658
 10
76.96946205758056
 20
-138.0580674568049
 10
76.92502032582084
 20
-138.1386826911598
 10
76.8805785940611
 20
-138.2082736199618
 10
77.00115693604485
 20
-138.2675292623081
 10
77.10692136744203
 20
-138.3353976433675
 10
77.21061874154805
 20
-138.417735425465
 10
77.21061874154805
 20
-138.417735425465
 10
77.09210745685544
 20
-138.5851670660482
 10
77.09210745685544
 20
-138.5851670660482
 10
77.06868080755575
 20
-138.5658745313308
 10
77.05593395426033
 20
-138.5576063021662
 10
76.9439683509897
 20
-138.472856953229
 10
76.89539250464769
 20
-138.4349609028913
 10
76.83613686230139
 20
-138.3991319098447
 10
76.75552162794654
 20
-138.3543456685364
 10
76.5439927651522
 20
-138.5407253342884
 10
76.33900958377984
 20
-138.5638074740396
 10
76.0489325439218
 20
-138.5934352952128
 10
76.0489325439218
 20
-138.5934352952128
 10
75.9455796793643
 20
-138.4136013108827
 10
75.9455796793643
 20
-138.4136013108827
 10
76.26287297355582
 20
-138.4094671963004
 10
76.43822833375503
 20
-138.3839734897096
 10
76.59050155420307
 20
-138.2740749437301
 10
76.472334779059
 20
-138.2234320400969
 10
76.38345131553956
 20
-138.1958712762149
 10
76.34727781294444
 20
-138.1831244229195
 10
76.32832978777556
 20
-138.2106851868015
 10
76.31351587718899
 20
-138.2296332119704
 10
76.28595511330698
 20
-138.2633951477258
 10
76.28595511330698
 20
-138.2633951477258
 10
76.08924016109923
 20
-138.1810573656284
 10
76.08924016109923
 20
-138.1810573656284
 10
76.17192245274522
 20
-138.100786640822
 10
76.23324515238266
 20
-138.0053574958806
 10
76.29008922788928
 20
-137.9037271790658
 10
76.0999199571035
 20
-137.907861293648
 10
76.07856036509494
 20
-137.907861293648
 10
75.99622258299748
 20
-137.9123399177789
 10
75.99622258299748
 20
-137.9123399177789
 10
75.99622258299748
 20
-137.73457299074
 10
75.99622258299748
 20
-137.73457299074
 10
76.13574895015009
 20
-137.7411186721619
 10
76.34521075565328
 20
-137.7452527867443
 10
76.37070446224413
 20
-137.7452527867443
 10
76.38758543012186
 20
-137.7114908509888
 10
76.44270695788586
 20
-137.5909125090051
 10
76.46165498305473
 20
-137.5164984465237
 10
76.44270695788586
 20
-137.5164984465237
 10
76.26494003084696
 20
-137.5230441279456
 10
76.07029213593034
 20
-137.5357909812411
 10
76.07029213593034
 20
-137.5357909812411
 10
76.07029213593034
 20
-137.6691161765202
 10
76.07029213593034
 20
-137.6691161765202
 10
76.02171628958833
 20
-137.6942653735626
 10
75.96246064724203
 20
-137.7259602520269
 10
75.82913545196286
 20
-137.7917615757951
 10
75.82913545196286
 20
-137.7917615757951
 10
75.82913545196286
 20
-137.9374891148212
 10
75.82913545196286
 20
-137.9374891148212
 10
75.82913545196286
 20
-137.9374891148212
 10
75.82913545196286
 20
-138.4053330817181
 10
75.82913545196286
 20
-138.4053330817181
 10
75.82913545196286
 20
-138.5321125955753
 10
75.79296194936774
 20
-138.5913682379216
 10
75.5097751004802
 20
-138.583100008757
 10
75.5097751004802
 20
-138.583100008757
 10
75.40607772637418
 20
-138.375705260545
 10
75.40607772637418
 20
-138.375705260545
 10
75.46946748330278
 20
-138.3881076042919
 10
75.5180433296448
 20
-138.3925862284227
 10
75.55835094682222
 20
-138.3925862284227
 10
75.63448755704624
 20
-138.3925862284227
 10
75.64516735305051
 20
-138.3695040886715
 10
75.64516735305051
 20
-138.3037027649032
 10
75.64516735305051
 20
-138.3037027649032
 10
75.64516735305051
 20
-137.8740993578926
 10
75.64516735305051
 20
-137.8740993578926
 10
75.54767115081795
 20
-137.91440697507
 10
75.53079018294022
 20
-137.920952656492
 10
75.48428139388935
 20
-137.9399006816609
 10
75.48014727930705
 20
-137.9609157641209
 10
75.47566865517622
 20
-137.990543585294
 10
75.45672063000735
 20
-137.990543585294
 10
75.44845240084275
 20
-137.990543585294
 10
75.43777260483847
 20
-137.9864094707117
 10
75.4312269234165
 20
-137.962982821412
 10
75.4312269234165
 20
-137.962982821412
 10
75.37851696249218
 20
-137.7707464933351
 10
75.37851696249218
 20
-137.7707464933351
 10
75.52458901106677
 20
-137.7238931947357
 10
75.59004582528652
 20
-137.7008110549845
 10
75.64516735305051
 20
-137.6797959725245
 10
75.64516735305051
 20
-137.6797959725245
 10
75.64516735305051
 20
-137.2670735333916
 10
75.64516735305051
 20
-137.2670735333916
 10
75.64516735305051
 20
-137.2670735333916
 10
75.59211288257767
 20
-137.2670735333916
 10
75.59211288257767
 20
-137.2670735333916
 10
75.59211288257767
 20
-137.2670735333916
 10
75.5139092150625
 20
-137.2670735333916
 10
75.5139092150625
 20
-137.2670735333916
 10
75.44604083400307
 20
-137.2670735333916
 10
75.43777260483847
 20
-137.2670735333916
 10
75.40159910224335
 20
-137.273274705265
 10
75.40159910224335
 20
-137.273274705265
 10
75.40159910224335
 20
-137.0789713198969
 10
75.40159910224335
 20
-137.0789713198969
 10
75.42915986612535
 20
-137.0851724917704
 10
75.43777260483847
 20
-137.0851724917704
 10
75.50736353364053
 20
-137.0851724917704
 10
75.50736353364053
 20
-137.0851724917704
 10
75.6406887289197
 20
-137.0851724917704
 10
75.6406887289197
 20
-137.0851724917704
 10
75.6406887289197
 20
-137.0155815629683
 10
75.6406887289197
 20
-136.9328992713223
 10
75.63862167162854
 20
-136.92876515674
 10
75.63035344246394
 20
-136.74893117241
 10
75.63035344246394
 20
-136.7296386376926
 10
75.62794187562427
 20
-136.6834743581902
 10
75.62794187562427
 20
-136.6834743581902
 10
75.84394936254944
 20
-136.6917425873548
 10
75.84394936254944
 20
-136.6917425873548
 10
75.8546291585537
 20
-136.6917425873548
 10
75.87564424101373
 20
-136.693809644646
 10
75.87564424101373
 20
-136.7106906125237
 10
75.87564424101373
 20
-136.7296386376926
 10
75.86083033042716
 20
-136.7403184336969
 10
75.83533662383631
 20
-136.7592664588657
 10
75.83533662383631
 20
-136.8102538720474
 10
75.82913545196286
 20
-137.0386637027195
 10
75.83120250925401
 20
-137.0851724917704
 10
75.96039358995088
 20
-137.0851724917704
 10
75.97279593369778
 20
-137.0851724917704
 10
76.07029213593034
 20
-137.0769042626058
 10
76.07029213593034
 20
-137.0769042626058
 10
76.07029213593034
 20
-137.2712076479739
 10
76.07029213593034
 20
-137.2712076479739
 10
76.03205157604407
 20
-137.2691405906827
 10
75.96452770453318
 20
-137.2650064761004
 10
75.82913545196286
 20
-137.2670735333916
 10
75.82913545196286
 20
-137.2670735333916
 10
75.82913545196286
 20
-137.6053819100431
 10
75.82913545196286
 20
-137.6053819100431
 10
75.88425697972686
 20
-137.5822997702919
 10
75.9497137939466
 20
-137.5547390064099
 10
75.99828964028863
 20
-137.5316568666588
 10
75.99828964028863
 20
-137.5316568666588
 10
75.99828964028863
 20
-137.3538899396199
 10
75.99828964028863
 20
-137.3538899396199
 10
76.11266681039892
 20
-137.3662922833668
 10
76.23117809509151
 20
-137.3662922833668
 10
76.34727781294444
 20
-137.3662922833668
 10
76.32419567319326
 20
-137.2712076479739
 10
76.29663490931127
 20
-137.1888698658764
 10
76.23324515238266
 20
-137.0555446705972
 10
76.18880342062295
 20
-137.0576117278884
 10
76.10612112897695
 20
-137.0617458424707
 10
76.0682250786392
 20
-137.0638128997618
 10
76.0682250786392
 20
-137.0638128997618
 10
76.0682250786392
 20
-136.8839789154318
 10
76.0682250786392
 20
-136.8839789154318
 10
76.19293753520525
 20
-136.8925916541449
 10
76.36657034766183
 20
-136.8970702782757
 10
76.4489081297593
 20
-136.8970702782757
 10
76.4489081297593
 20
-136.8970702782757
 10
76.5315904214053
 20
-136.8970702782757
 10
76.5315904214053
 20
-136.8970702782757
 10
76.5315904214053
 20
-136.7337727522749
 10
76.5315904214053
 20
-136.7234374658192
 10
76.52917885456563
 20
-136.6683159380551
 10
76.52917885456563
 20
-136.6683159380551
 10
76.75345457065539
 20
-136.693809644646
 10
76.75345457065539
 20
-136.693809644646
 10
76.75793319478622
 20
-136.693809644646
 10
76.77894827724624
 20
-136.6958767019372
 10
76.77894827724624
 20
-136.7127576698149
 10
76.77894827724624
 20
-136.7275715804014
 10
76.76826848124196
 20
-136.7361843191146
 10
76.74070771735997
 20
-136.7509982297011
 10
76.73450654548651
 20
-136.8164550439209
 10
76.73243948819537
 20
-136.8378146359294
 10
76.73243948819537
 20
-136.8970702782757
 10
76.73243948819537
 20
-136.8970702782757
 10
76.82752412358826
 20
-136.8970702782757
 10
76.82752412358826
 20
-136.8970702782757
 10
76.91020641523426
 20
-136.8970702782757
 10
77.08349471814232
 20
-136.8925916541449
 10
77.20855168425689
 20
-136.8839789154318
 10
77.20855168425689
 20
-136.8839789154318
 10
77.20855168425689
 20
-137.0638128997618
 10
77.20855168425689
 20
-137.0638128997618
 10
77.17892386308374
 20
-137.0617458424707
 10
77.06041257839115
 20
-137.0576117278884
 10
77.02010496121373
 20
-137.0555446705972
 10
77.00529105062715
 20
-137.1065320837789
 10
76.9715291148717
 20
-137.2184976870495
 10
76.90572779110343
 20
-137.3580240542022
 10
76.948102465572
 20
-137.3580240542022
 10
77.22543265213461
 20
-137.3390760290333
 10
77.28675535177206
 20
-137.3366644621936
 10
77.28675535177206
 20
-137.3366644621936
 10
77.28675535177206
 20
-137.5209770706545
 10
77.28675535177206
 20
-137.5209770706545
 10
77.25712753059892
 20
-137.5209770706545
 10
77.2402465627212
 20
-137.5164984465237
 10
77.07729354626888
 20
-137.5164984465237
 97
        0
 97
        0
 92
        1
 93
        1
 72
     4
 94
        3
 73
     0
 74
     1
 95
       20
 96
       16
 40
0.0
 40
0.0
 40
0.0
 40
0.0
 40
1.0
 40
1.0
 40
1.0
 40
2.0
 40
2.0
 40
2.0
 40
3.0
 40
3.0
 40
3.0
 40
4.0
 40
4.0
 40
4.0
 40
5.0
 40
5.0
 40
5.0
 40
5.0
 10
76.4489081297593
 20
-137.0514105560149
 10
76.4489081297593
 20
-137.0514105560149
 10
76.41721325129501
 20
-137.0514105560149
 10
76.41721325129501
 20
-137.0514105560149
 10
76.46372204034589
 20
-137.1506293059901
 10
76.49541691881018
 20
-137.231244540345
 10
76.52917885456563
 20
-137.3580240542022
 10
76.52917885456563
 20
-137.3580240542022
 10
76.73657360277767
 20
-137.3580240542022
 10
76.73657360277767
 20
-137.3580240542022
 10
76.76826848124196
 20
-137.2650064761004
 10
76.79169513054167
 20
-137.1802571271633
 10
76.81477727029284
 20
-137.0514105560149
 10
76.81477727029284
 20
-137.0514105560149
 10
76.4489081297593
 20
-137.0514105560149
 10
76.4489081297593
 20
-137.0514105560149
 97
        0
 97
        0
 92
        1
 93
        1
 72
     4
 94
        3
 73
     0
 74
     1
 95
       17
 96
       13
 40
0.0
 40
0.0
 40
0.0
 40
0.0
 40
1.0
 40
1.0
 40
1.0
 40
2.0
 40
2.0
 40
2.0
 40
3.0
 40
3.0
 40
3.0
 40
4.0
 40
4.0
 40
4.0
 40
4.0
 10
76.5122978866879
 20
-137.9016601217746
 10
76.49541691881018
 20
-137.9312879429477
 10
76.444774015177
 20
-138.0243055210495
 10
76.43409421917274
 20
-138.0435980557669
 10
76.62460799950705
 20
-138.1028536981132
 10
76.64562308196707
 20
-138.1090548699866
 10
76.71762557760879
 20
-138.1366156338686
 10
76.77274710537279
 20
-138.0497992276403
 10
76.79582924512397
 20
-137.9757296747075
 10
76.81064315571054
 20
-137.9016601217746
 10
76.81064315571054
 20
-137.9016601217746
 10
76.5122978866879
 20
-137.9016601217746
 10
76.5122978866879
 20
-137.9016601217746
 97
        0
 97
        0
 75
     2
 76
     1
 98
        0
  0
SPLINE
  5
55
330
4D
100
AcDbEntity
  8
_U+30EC_U+30A4_U+30E4_U+30FC 1
370
     0
100
AcDbSpline
210
0.0
220
0.0
230
1.0
 70
    11
 71
     3
 72
   203
 73
   199
 74
     0
 42
0.0000000001
 43
0.0000000001
 12
1.0
 22
0.0
 32
0.0
 13
1.0
 23
0.0
 33
0.0
 40
0.0
 40
0.0
 40
0.0
 40
0.0
 40
1.0
 40
1.0
 40
1.0
 40
2.0
 40
2.0
 40
2.0
 40
3.0
 40
3.0
 40
3.0
 40
4.0
 40
4.0
 40
4.0
 40
5.0
 40
5.0
 40
5.0
 40
6.0
 40
6.0
 40
6.0
 40
7.0
 40
7.0
 40
7.0
 40
8.0
 40
8.0
 40
8.0
 40
9.0
 40
9.0
 40
9.0
 40
10.0
 40
10.0
 40
10.0
 40
11.0
 40
11.0
 40
11.0
 40
12.0
 40
12.0
 40
12.0
 40
13.0
 40
13.0
 40
13.0
 40
14.0
 40
14.0
 40
14.0
 40
15.0
 40
15.0
 40
15.0
 40
16.0
 40
16.0
 40
16.0
 40
17.0
 40
17.0
 40
17.0
 40
18.0
 40
18.0
 40
18.0
 40
19.0
 40
19.0
 40
19.0
 40
20.0
 40
20.0
 40
20.0
 40
21.0
 40
21.0
 40
21.0
 40
22.0
 40
22.0
 40
22.0
 40
23.0
 40
23.0
 40
23.0
 40
24.0
 40
24.0
 40
24.0
 40
25.0
 40
25.0
 40
25.0
 40
26.0
 40
26.0
 40
26.0
 40
27.0
 40
27.0
 40
27.0
 40
28.0
 40
28.0
 40
28.0
 40
29.0
 40
29.0
 40
29.0
 40
30.0
 40
30.0
 40
30.0
 40
31.0
 40
31.0
 40
31.0
 40
32.0
 40
32.0
 40
32.0
 40
33.0
 40
33.0
 40
33.0
 40
34.0
 40
34.0
 40
34.0
 40
35.0
 40
35.0
 40
35.0
 40
36.0
 40
36.0
 40
36.0
 40
37.0
 40
37.0
 40
37.0
 40
38.0
 40
38.0
 40
38.0
 40
39.0
 40
39.0
 40
39.0
 40
40.0
 40
40.0
 40
40.0
 40
41.0
 40
41.0
 40
41.0
 40
42.0
 40
42.0
 40
42.0
 40
43.0
 40
43.0
 40
43.0
 40
44.0
 40
44.0
 40
44.0
 40
45.0
 40
45.0
 40
45.0
 40
46.0
 40
46.0
 40
46.0
 40
47.0
 40
47.0
 40
47.0
 40
48.0
 40
48.0
 40
48.0
 40
49.0
 40
49.0
 40
49.0
 40
50.0
 40
50.0
 40
50.0
 40
51.0
 40
51.0
 40
51.0
 40
52.0
 40
52.0
 40
52.0
 40
53.0
 40
53.0
 40
53.0
 40
54.0
 40
54.0
 40
54.0
 40
55.0
 40
55.0
 40
55.0
 40
56.0
 40
56.0
 40
56.0
 40
57.0
 40
57.0
 40
57.0
 40
58.0
 40
58.0
 40
58.0
 40
59.0
 40
59.0
 40
59.0
 40
60.0
 40
60.0
 40
60.0
 40
61.0
 40
61.0
 40
61.0
 40
62.0
 40
62.0
 40
62.0
 40
63.0
 40
63.0
 40
63.0
 40
64.0
 40
64.0
 40
64.0
 40
65.0
 40
65.0
 40
65.0
 40
66.0
 40
66.0
 40
66.0
 40
66.0
 10
78.76883542952655
 20
-137.5843668275831
 30
0.0
 10
78.76883542952655
 20
-137.5843668275831
 30
0.0
 10
78.21004094181902
 20
-137.5843668275831
 30
0.0
 10
78.21004094181902
 20
-137.5843668275831
 30
0.0
 10
78.19970565536327
 20
-137.6288085593428
 30
0.0
 10
78.19109291665015
 20
-137.6605034378071
 30
0.0
 10
78.17834606335472
 20
-137.6987439976934
 30
0.0
 10
78.20383976994557
 20
-137.6987439976934
 30
0.0
 10
78.21865368053214
 20
-137.7008110549845
 30
0.0
 10
78.2248548524056
 20
-137.7008110549845
 30
0.0
 10
78.2248548524056
 20
-137.7008110549845
 30
0.0
 10
78.41330157544876
 20
-137.7008110549845
 30
0.0
 10
78.41330157544876
 20
-137.7008110549845
 30
0.0
 10
78.41330157544876
 20
-137.7008110549845
 30
0.0
 10
78.78778345469541
 20
-137.7008110549845
 30
0.0
 10
78.78778345469541
 20
-137.7008110549845
 30
0.0
 10
78.83842635832859
 20
-137.7008110549845
 30
0.0
 10
79.12195771676465
 20
-137.6880642016891
 30
0.0
 10
79.15365259522895
 20
-137.6880642016891
 30
0.0
 10
79.1515855379378
 20
-137.7156249655711
 30
0.0
 10
79.14951848064665
 20
-137.73457299074
 30
0.0
 10
79.14951848064665
 20
-137.7642008119131
 30
0.0
 10
79.1474514233555
 20
-137.7958956903774
 30
0.0
 10
79.1474514233555
 20
-137.9312879429477
 30
0.0
 10
79.1474514233555
 20
-137.9588487068297
 30
0.0
 10
79.1474514233555
 20
-137.9588487068297
 30
0.0
 10
79.1474514233555
 20
-138.2041395053795
 30
0.0
 10
79.1474514233555
 20
-138.2041395053795
 30
0.0
 10
79.1474514233555
 20
-138.2489257466878
 30
0.0
 10
79.1515855379378
 20
-138.445296189347
 30
0.0
 10
79.1557196525201
 20
-138.5975694097951
 30
0.0
 10
79.1557196525201
 20
-138.5975694097951
 30
0.0
 10
78.92937687913918
 20
-138.5975694097951
 30
0.0
 10
78.92937687913918
 20
-138.5975694097951
 30
0.0
 10
78.92937687913918
 20
-138.5975694097951
 30
0.0
 10
78.93144393643034
 20
-138.5638074740396
 30
0.0
 10
78.93144393643034
 20
-138.5638074740396
 30
0.0
 10
78.93144393643034
 20
-138.5638074740396
 30
0.0
 10
78.22933347653642
 20
-138.5638074740396
 30
0.0
 10
78.22933347653642
 20
-138.5638074740396
 30
0.0
 10
78.22933347653642
 20
-138.5638074740396
 30
0.0
 10
78.23140053382757
 20
-138.5975694097951
 30
0.0
 10
78.23140053382757
 20
-138.5975694097951
 30
0.0
 10
78.23140053382757
 20
-138.5975694097951
 30
0.0
 10
78.01332598961126
 20
-138.5975694097951
 30
0.0
 10
78.01332598961126
 20
-138.5975694097951
 30
0.0
 10
78.01780461374209
 20
-138.5427923915796
 30
0.0
 10
78.01780461374209
 20
-138.5300455382842
 30
0.0
 10
78.02400578561553
 20
-138.4156683681739
 30
0.0
 10
78.02607284290669
 20
-138.3881076042919
 30
0.0
 10
78.02813990019783
 20
-138.2551269185612
 30
0.0
 10
78.02813990019783
 20
-138.2358343838438
 30
0.0
 10
78.02813990019783
 20
-138.2358343838438
 30
0.0
 10
78.02813990019783
 20
-138.0329182597626
 30
0.0
 10
78.02813990019783
 20
-138.0329182597626
 30
0.0
 10
77.88861353304522
 20
-138.2826876824432
 30
0.0
 10
77.71945934471944
 20
-138.4136013108827
 30
0.0
 10
77.61369491332228
 20
-138.4790581251025
 30
0.0
 10
77.61369491332228
 20
-138.4790581251025
 30
0.0
 10
77.44006210086569
 20
-138.3398762674984
 30
0.0
 10
77.44006210086569
 20
-138.3398762674984
 30
0.0
 10
77.52894556438513
 20
-138.2888888543167
 30
0.0
 10
77.67295055566858
 20
-138.2020724480884
 30
0.0
 10
77.81040986553003
 20
-138.0077690627203
 30
0.0
 10
77.90136038634064
 20
-137.8806450393146
 30
0.0
 10
77.96681720056039
 20
-137.7369845575797
 30
0.0
 10
78.00092364586436
 20
-137.5843668275831
 30
0.0
 10
77.77216930564377
 20
-137.5867783944228
 30
0.0
 10
77.59233532131373
 20
-137.5929795662962
 30
0.0
 10
77.49725068592083
 20
-137.5950466235874
 30
0.0
 10
77.49725068592083
 20
-137.5950466235874
 30
0.0
 10
77.49725068592083
 20
-137.4172796965485
 30
0.0
 10
77.49725068592083
 20
-137.4172796965485
 30
0.0
 10
77.69396563812859
 20
-137.4234808684219
 30
0.0
 10
77.97749699656465
 20
-137.4279594925527
 30
0.0
 10
78.12770315972155
 20
-137.4279594925527
 30
0.0
 10
78.12770315972155
 20
-137.4279594925527
 30
0.0
 10
78.34129907980704
 20
-137.4279594925527
 30
0.0
 10
78.34129907980704
 20
-137.4279594925527
 30
0.0
 10
78.34129907980704
 20
-137.4279594925527
 30
0.0
 10
78.34129907980704
 20
-137.3201280038644
 30
0.0
 10
78.34129907980704
 20
-137.3201280038644
 30
0.0
 10
78.34129907980704
 20
-137.3201280038644
 30
0.0
 10
78.19522703123245
 20
-137.3201280038644
 30
0.0
 10
78.19522703123245
 20
-137.3201280038644
 30
0.0
 10
78.02607284290669
 20
-137.3201280038644
 30
0.0
 10
77.85691865458091
 20
-137.3242621184467
 30
0.0
 10
77.68983152354629
 20
-137.3304632903202
 30
0.0
 10
77.68983152354629
 20
-137.3304632903202
 30
0.0
 10
77.68983152354629
 20
-137.1592420447033
 30
0.0
 10
77.68983152354629
 20
-137.1592420447033
 30
0.0
 10
77.84417180128548
 20
-137.1699218407075
 30
0.0
 10
78.03020695748899
 20
-137.1699218407075
 30
0.0
 10
78.19522703123245
 20
-137.1699218407075
 30
0.0
 10
78.19522703123245
 20
-137.1699218407075
 30
0.0
 10
78.34129907980704
 20
-137.1699218407075
 30
0.0
 10
78.34129907980704
 20
-137.1699218407075
 30
0.0
 10
78.34129907980704
 20
-137.1699218407075
 30
0.0
 10
78.34129907980704
 20
-137.0514105560149
 30
0.0
 10
78.34129907980704
 20
-137.0514105560149
 30
0.0
 10
78.34129907980704
 20
-137.0514105560149
 30
0.0
 10
78.21004094181902
 20
-137.0514105560149
 30
0.0
 10
78.21004094181902
 20
-137.0514105560149
 30
0.0
 10
78.16353215276814
 20
-137.0514105560149
 30
0.0
 10
77.96061602868693
 20
-137.0596787851795
 30
0.0
 10
77.91824135421837
 20
-137.0596787851795
 30
0.0
 10
77.71532523013714
 20
-137.0638128997618
 30
0.0
 10
77.6388441103646
 20
-137.065879957053
 30
0.0
 10
77.56064044284943
 20
-137.0682915238927
 30
0.0
 10
77.56064044284943
 20
-137.0682915238927
 30
0.0
 10
77.56064044284943
 20
-136.8839789154318
 30
0.0
 10
77.56064044284943
 20
-136.8839789154318
 30
0.0
 10
77.67501761295972
 20
-136.8925916541449
 30
0.0
 10
77.71945934471944
 20
-136.8925916541449
 30
0.0
 10
78.1022094531307
 20
-136.901204392858
 30
0.0
 10
78.03881969620211
 20
-136.8061197574652
 30
0.0
 10
78.0112589323201
 20
-136.7785589935831
 30
0.0
 10
77.97542993927351
 20
-136.742385490988
 30
0.0
 10
77.97542993927351
 20
-136.742385490988
 30
0.0
 10
78.15078529947273
 20
-136.6600477088905
 30
0.0
 10
78.15078529947273
 20
-136.6600477088905
 30
0.0
 10
78.19109291665015
 20
-136.6958767019372
 30
0.0
 10
78.23553464840987
 20
-136.7382513764057
 30
0.0
 10
78.30960420134274
 20
-136.8481499223852
 30
0.0
 10
78.30960420134274
 20
-136.8481499223852
 30
0.0
 10
78.19522703123245
 20
-136.9032714501492
 30
0.0
 10
78.19522703123245
 20
-136.9032714501492
 30
0.0
 10
78.19522703123245
 20
-136.9032714501492
 30
0.0
 10
78.20590682723672
 20
-136.9032714501492
 30
0.0
 10
78.20590682723672
 20
-136.9032714501492
 30
0.0
 10
78.20590682723672
 20
-136.9032714501492
 30
0.0
 10
78.72852781234913
 20
-136.9032714501492
 30
0.0
 10
78.72852781234913
 20
-136.9032714501492
 30
0.0
 10
78.72852781234913
 20
-136.9032714501492
 30
0.0
 10
78.63344317695622
 20
-136.8588297183895
 30
0.0
 10
78.63344317695622
 20
-136.8588297183895
 30
0.0
 10
78.6606594312897
 20
-136.8205891585032
 30
0.0
 10
78.71784801634485
 20
-136.7403184336969
 30
0.0
 10
78.73266192693143
 20
-136.666248880764
 30
0.0
 10
78.73266192693143
 20
-136.666248880764
 30
0.0
 10
78.94625784701691
 20
-136.7296386376926
 30
0.0
 10
78.94625784701691
 20
-136.7296386376926
 30
0.0
 10
78.95487058573003
 20
-136.7317056949838
 30
0.0
 10
78.97588566819006
 20
-136.742385490988
 30
0.0
 10
78.97588566819006
 20
-136.7634005734481
 30
0.0
 10
78.97588566819006
 20
-136.8016411333343
 30
0.0
 10
78.91042885397032
 20
-136.8016411333343
 30
0.0
 10
78.89148082880143
 20
-136.8016411333343
 30
0.0
 10
78.88080103279717
 20
-136.8205891585032
 30
0.0
 10
78.85737438349747
 20
-136.8608967756806
 30
0.0
 10
78.82774656232432
 20
-136.901204392858
 30
0.0
 10
79.22772214816182
 20
-136.8950032209846
 30
0.0
 10
79.25734996933497
 20
-136.8925916541449
 30
0.0
 10
79.333486579559
 20
-136.8863904822715
 30
0.0
 10
79.333486579559
 20
-136.8863904822715
 30
0.0
 10
79.333486579559
 20
-137.0682915238927
 30
0.0
 10
79.333486579559
 20
-137.0682915238927
 30
0.0
 10
79.31453855439013
 20
-137.0682915238927
 30
0.0
 10
79.28904484779927
 20
-137.065879957053
 30
0.0
 10
79.06924775584034
 20
-137.0576117278884
 30
0.0
 10
79.01826034265864
 20
-137.0555446705972
 30
0.0
 10
78.7984632506997
 20
-137.0514105560149
 30
0.0
 10
78.75402151893996
 20
-137.0514105560149
 30
0.0
 10
78.75402151893996
 20
-137.0514105560149
 30
0.0
 10
78.5380140320148
 20
-137.0514105560149
 30
0.0
 10
78.5380140320148
 20
-137.0514105560149
 30
0.0
 10
78.5380140320148
 20
-137.0514105560149
 30
0.0
 10
78.5380140320148
 20
-137.1699218407075
 30
0.0
 10
78.5380140320148
 20
-137.1699218407075
 30
0.0
 10
78.5380140320148
 20
-137.1699218407075
 30
0.0
 10
78.7116468444714
 20
-137.1699218407075
 30
0.0
 10
78.7116468444714
 20
-137.1699218407075
 30
0.0
 10
78.87459986092371
 20
-137.1699218407075
 30
0.0
 10
79.06476913170951
 20
-137.1699218407075
 30
0.0
 10
79.22152097628837
 20
-137.1592420447033
 30
0.0
 10
79.22152097628837
 20
-137.1592420447033
 30
0.0
 10
79.22152097628837
 20
-137.3304632903202
 30
0.0
 10
79.22152097628837
 20
-137.3304632903202
 30
0.0
 10
79.01205917078518
 20
-137.3221950611556
 30
0.0
 10
78.81534421857742
 20
-137.3201280038644
 30
0.0
 10
78.7116468444714
 20
-137.3201280038644
 30
0.0
 10
78.7116468444714
 20
-137.3201280038644
 30
0.0
 10
78.5380140320148
 20
-137.3201280038644
 30
0.0
 10
78.5380140320148
 20
-137.3201280038644
 30
0.0
 10
78.5380140320148
 20
-137.3201280038644
 30
0.0
 10
78.5380140320148
 20
-137.4279594925527
 30
0.0
 10
78.5380140320148
 20
-137.4279594925527
 30
0.0
 10
78.5380140320148
 20
-137.4279594925527
 30
0.0
 10
78.76883542952655
 20
-137.4279594925527
 30
0.0
 10
78.76883542952655
 20
-137.4279594925527
 30
0.0
 10
78.90181611525719
 20
-137.4279594925527
 30
0.0
 10
79.18982609782408
 20
-137.4234808684219
 30
0.0
 10
79.39894339377874
 20
-137.4172796965485
 30
0.0
 10
79.39894339377874
 20
-137.4172796965485
 30
0.0
 10
79.39894339377874
 20
-137.5950466235874
 30
0.0
 10
79.39894339377874
 20
-137.5950466235874
 30
0.0
 10
79.20670706570179
 20
-137.5888454517139
 30
0.0
 10
78.89354788609259
 20
-137.5843668275831
 30
0.0
 10
78.76883542952655
 20
-137.5843668275831
 30
0.0
  0
POLYLINE
  5
56
330
4D
100
AcDbEntity
  8
_U+30EC_U+30A4_U+30E4_U+30FC 1
370
     0
100
AcDb2dPolyline
 66
     1
 10
0.0
 20
0.0
 30
0.0
  0
VERTEX
  5
57
330
56
100
AcDbEntity
  8
_U+30EC_U+30A4_U+30E4_U+30FC 1
370
     0
100
AcDbVertex
100
AcDb2dVertex
 10
78.93385550327001
 20
-137.8403374221371
 30
0.0
  0
VERTEX
  5
58
330
56
100
AcDbEntity
  8
_U+30EC_U+30A4_U+30E4_U+30FC 1
370
     0
100
AcDbVertex
100
AcDb2dVertex
 10
78.22726641924527
 20
-137.8403374221371
 30
0.0
  0
VERTEX
  5
59
330
56
100
AcDbEntity
  8
_U+30EC_U+30A4_U+30E4_U+30FC 1
370
     0
100
AcDbVertex
100
AcDb2dVertex
 10
78.22726641924527
 20
-137.948513420374
 30
0.0
  0
VERTEX
  5
5A
330
56
100
AcDbEntity
  8
_U+30EC_U+30A4_U+30E4_U+30FC 1
370
     0
100
AcDbVertex
100
AcDb2dVertex
 10
78.93385550327001
 20
-137.948513420374
 30
0.0
  0
VERTEX
  5
5B
330
56
100
AcDbEntity
  8
_U+30EC_U+30A4_U+30E4_U+30FC 1
370
     0
100
AcDbVertex
100
AcDb2dVertex
 10
78.93385550327001
 20
-137.8403374221371
 30
0.0
  0
SEQEND
  5
5C
330
56
100
AcDbEntity
  8
_U+30EC_U+30A4_U+30E4_U+30FC 1
370
     0
  0
POLYLINE
  5
5D
330
4D
100
AcDbEntity
  8
_U+30EC_U+30A4_U+30E4_U+30FC 1
370
     0
100
AcDb2dPolyline
 66
     1
 10
0.0
 20
0.0
 30
0.0
  0
VERTEX
  5
5E
330
5D
100
AcDbEntity
  8
_U+30EC_U+30A4_U+30E4_U+30FC 1
370
     0
100
AcDbVertex
100
AcDb2dVertex
 10
78.93385550327001
 20
-138.07322587694
 30
0.0
  0
VERTEX
  5
5F
330
5D
100
AcDbEntity
  8
_U+30EC_U+30A4_U+30E4_U+30FC 1
370
     0
100
AcDbVertex
100
AcDb2dVertex
 10
78.22726641924527
 20
-138.07322587694
 30
0.0
  0
VERTEX
  5
60
330
5D
100
AcDbEntity
  8
_U+30EC_U+30A4_U+30E4_U+30FC 1
370
     0
100
AcDbVertex
100
AcDb2dVertex
 10
78.22726641924527
 20
-138.1876030470503
 30
0.0
  0
VERTEX
  5
61
330
5D
100
AcDbEntity
  8
_U+30EC_U+30A4_U+30E4_U+30FC 1
370
     0
100
AcDbVertex
100
AcDb2dVertex
 10
78.93385550327001
 20
-138.1876030470503
 30
0.0
  0
VERTEX
  5
62
330
5D
100
AcDbEntity
  8
_U+30EC_U+30A4_U+30E4_U+30FC 1
370
     0
100
AcDbVertex
100
AcDb2dVertex
 10
78.93385550327001
 20
-138.07322587694
 30
0.0
  0
SEQEND
  5
63
330
5D
100
AcDbEntity
  8
_U+30EC_U+30A4_U+30E4_U+30FC 1
370
     0
  0
POLYLINE
  5
64
330
4D
100
AcDbEntity
  8
_U+30EC_U+30A4_U+30E4_U+30FC 1
370
     0
100
AcDb2dPolyline
 66
     1
 10
0.0
 20
0.0
 30
0.0
  0
VERTEX
  5
65
330
64
100
AcDbEntity
  8
_U+30EC_U+30A4_U+30E4_U+30FC 1
370
     0
100
AcDbVertex
100
AcDb2dVertex
 10
78.93385550327001
 20
-138.3164496181987
 30
0.0
  0
VERTEX
  5
66
330
64
100
AcDbEntity
  8
_U+30EC_U+30A4_U+30E4_U+30FC 1
370
     0
100
AcDbVertex
100
AcDb2dVertex
 10
78.22726641924527
 20
-138.3164496181987
 30
0.0
  0
VERTEX
  5
67
330
64
100
AcDbEntity
  8
_U+30EC_U+30A4_U+30E4_U+30FC 1
370
     0
100
AcDbVertex
100
AcDb2dVertex
 10
78.22726641924527
 20
-138.430826788309
 30
0.0
  0
VERTEX
  5
68
330
64
100
AcDbEntity
  8
_U+30EC_U+30A4_U+30E4_U+30FC 1
370
     0
100
AcDbVertex
100
AcDb2dVertex
 10
78.93385550327001
 20
-138.430826788309
 30
0.0
  0
VERTEX
  5
69
330
64
100
AcDbEntity
  8
_U+30EC_U+30A4_U+30E4_U+30FC 1
370
     0
100
AcDbVertex
100
AcDb2dVertex
 10
78.93385550327001
 20
-138.3164496181987
 30
0.0
  0
SEQEND
  5
6A
330
64
100
AcDbEntity
  8
_U+30EC_U+30A4_U+30E4_U+30FC 1
370
     0
  0
HATCH
  5
6B
330
4D
100
AcDbEntity
  8
_U+30EC_U+30A4_U+30E4_U+30FC 1
 62
     7
420
 16777215
100
AcDbHatch
 10
0.0
 20
0.0
 30
0.0
210
0.0
220
0.0
230
1.0
  2
SOLID
 70
     1
 71
     0
 91
        4
 92
        1
 93
        1
 72
     4
 94
        3
 73
     0
 74
     1
 95
      203
 96
      199
 40
0.0
 40
0.0
 40
0.0
 40
0.0
 40
1.0
 40
1.0
 40
1.0
 40
2.0
 40
2.0
 40
2.0
 40
3.0
 40
3.0
 40
3.0
 40
4.0
 40
4.0
 40
4.0
 40
5.0
 40
5.0
 40
5.0
 40
6.0
 40
6.0
 40
6.0
 40
7.0
 40
7.0
 40
7.0
 40
8.0
 40
8.0
 40
8.0
 40
9.0
 40
9.0
 40
9.0
 40
10.0
 40
10.0
 40
10.0
 40
11.0
 40
11.0
 40
11.0
 40
12.0
 40
12.0
 40
12.0
 40
13.0
 40
13.0
 40
13.0
 40
14.0
 40
14.0
 40
14.0
 40
15.0
 40
15.0
 40
15.0
 40
16.0
 40
16.0
 40
16.0
 40
17.0
 40
17.0
 40
17.0
 40
18.0
 40
18.0
 40
18.0
 40
19.0
 40
19.0
 40
19.0
 40
20.0
 40
20.0
 40
20.0
 40
21.0
 40
21.0
 40
21.0
 40
22.0
 40
22.0
 40
22.0
 40
23.0
 40
23.0
 40
23.0
 40
24.0
 40
24.0
 40
24.0
 40
25.0
 40
25.0
 40
25.0
 40
26.0
 40
26.0
 40
26.0
 40
27.0
 40
27.0
 40
27.0
 40
28.0
 40
28.0
 40
28.0
 40
29.0
 40
29.0
 40
29.0
 40
30.0
 40
30.0
 40
30.0
 40
31.0
 40
31.0
 40
31.0
 40
32.0
 40
32.0
 40
32.0
 40
33.0
 40
33.0
 40
33.0
 40
34.0
 40
34.0
 40
34.0
 40
35.0
 40
35.0
 40
35.0
 40
36.0
 40
36.0
 40
36.0
 40
37.0
 40
37.0
 40
37.0
 40
38.0
 40
38.0
 40
38.0
 40
39.0
 40
39.0
 40
39.0
 40
40.0
 40
40.0
 40
40.0
 40
41.0
 40
41.0
 40
41.0
 40
42.0
 40
42.0
 40
42.0
 40
43.0
 40
43.0
 40
43.0
 40
44.0
 40
44.0
 40
44.0
 40
45.0
 40
45.0
 40
45.0
 40
46.0
 40
46.0
 40
46.0
 40
47.0
 40
47.0
 40
47.0
 40
48.0
 40
48.0
 40
48.0
 40
49.0
 40
49.0
 40
49.0
 40
50.0
 40
50.0
 40
50.0
 40
51.0
 40
51.0
 40
51.0
 40
52.0
 40
52.0
 40
52.0
 40
53.0
 40
53.0
 40
53.0
 40
54.0
 40
54.0
 40
54.0
 40
55.0
 40
55.0
 40
55.0
 40
56.0
 40
56.0
 40
56.0
 40
57.0
 40
57.0
 40
57.0
 40
58.0
 40
58.0
 40
58.0
 40
59.0
 40
59.0
 40
59.0
 40
60.0
 40
60.0
 40
60.0
 40
61.0
 40
61.0
 40
61.0
 40
62.0
 40
62.0
 40
62.0
 40
63.0
 40
63.0
 40
63.0
 40
64.0
 40
64.0
 40
64.0
 40
65.0
 40
65.0
 40
65.0
 40
66.0
 40
66.0
 40
66.0
 40
66.0
 10
78.76883542952655
 20
-137.5843668275831
 10
78.76883542952655
 20
-137.5843668275831
 10
78.21004094181902
 20
-137.5843668275831
 10
78.21004094181902
 20
-137.5843668275831
 10
78.19970565536327
 20
-137.6288085593428
 10
78.19109291665015
 20
-137.6605034378071
 10
78.17834606335472
 20
-137.6987439976934
 10
78.20383976994557
 20
-137.6987439976934
 10
78.21865368053214
 20
-137.7008110549845
 10
78.2248548524056
 20
-137.7008110549845
 10
78.2248548524056
 20
-137.7008110549845
 10
78.41330157544876
 20
-137.7008110549845
 10
78.41330157544876
 20
-137.7008110549845
 10
78.41330157544876
 20
-137.7008110549845
 10
78.78778345469541
 20
-137.7008110549845
 10
78.78778345469541
 20
-137.7008110549845
 10
78.83842635832859
 20
-137.7008110549845
 10
79.12195771676465
 20
-137.6880642016891
 10
79.15365259522895
 20
-137.6880642016891
 10
79.1515855379378
 20
-137.7156249655711
 10
79.14951848064665
 20
-137.73457299074
 10
79.14951848064665
 20
-137.7642008119131
 10
79.1474514233555
 20
-137.7958956903774
 10
79.1474514233555
 20
-137.9312879429477
 10
79.1474514233555
 20
-137.9588487068297
 10
79.1474514233555
 20
-137.9588487068297
 10
79.1474514233555
 20
-138.2041395053795
 10
79.1474514233555
 20
-138.2041395053795
 10
79.1474514233555
 20
-138.2489257466878
 10
79.1515855379378
 20
-138.445296189347
 10
79.1557196525201
 20
-138.5975694097951
 10
79.1557196525201
 20
-138.5975694097951
 10
78.92937687913918
 20
-138.5975694097951
 10
78.92937687913918
 20
-138.5975694097951
 10
78.92937687913918
 20
-138.5975694097951
 10
78.93144393643034
 20
-138.5638074740396
 10
78.93144393643034
 20
-138.5638074740396
 10
78.93144393643034
 20
-138.5638074740396
 10
78.22933347653642
 20
-138.5638074740396
 10
78.22933347653642
 20
-138.5638074740396
 10
78.22933347653642
 20
-138.5638074740396
 10
78.23140053382757
 20
-138.5975694097951
 10
78.23140053382757
 20
-138.5975694097951
 10
78.23140053382757
 20
-138.5975694097951
 10
78.01332598961126
 20
-138.5975694097951
 10
78.01332598961126
 20
-138.5975694097951
 10
78.01780461374209
 20
-138.5427923915796
 10
78.01780461374209
 20
-138.5300455382842
 10
78.02400578561553
 20
-138.4156683681739
 10
78.02607284290669
 20
-138.3881076042919
 10
78.02813990019783
 20
-138.2551269185612
 10
78.02813990019783
 20
-138.2358343838438
 10
78.02813990019783
 20
-138.2358343838438
 10
78.02813990019783
 20
-138.0329182597626
 10
78.02813990019783
 20
-138.0329182597626
 10
77.88861353304522
 20
-138.2826876824432
 10
77.71945934471944
 20
-138.4136013108827
 10
77.61369491332228
 20
-138.4790581251025
 10
77.61369491332228
 20
-138.4790581251025
 10
77.44006210086569
 20
-138.3398762674984
 10
77.44006210086569
 20
-138.3398762674984
 10
77.52894556438513
 20
-138.2888888543167
 10
77.67295055566858
 20
-138.2020724480884
 10
77.81040986553003
 20
-138.0077690627203
 10
77.90136038634064
 20
-137.8806450393146
 10
77.96681720056039
 20
-137.7369845575797
 10
78.00092364586436
 20
-137.5843668275831
 10
77.77216930564377
 20
-137.5867783944228
 10
77.59233532131373
 20
-137.5929795662962
 10
77.49725068592083
 20
-137.5950466235874
 10
77.49725068592083
 20
-137.5950466235874
 10
77.49725068592083
 20
-137.4172796965485
 10
77.49725068592083
 20
-137.4172796965485
 10
77.69396563812859
 20
-137.4234808684219
 10
77.97749699656465
 20
-137.4279594925527
 10
78.12770315972155
 20
-137.4279594925527
 10
78.12770315972155
 20
-137.4279594925527
 10
78.34129907980704
 20
-137.4279594925527
 10
78.34129907980704
 20
-137.4279594925527
 10
78.34129907980704
 20
-137.4279594925527
 10
78.34129907980704
 20
-137.3201280038644
 10
78.34129907980704
 20
-137.3201280038644
 10
78.34129907980704
 20
-137.3201280038644
 10
78.19522703123245
 20
-137.3201280038644
 10
78.19522703123245
 20
-137.3201280038644
 10
78.02607284290669
 20
-137.3201280038644
 10
77.85691865458091
 20
-137.3242621184467
 10
77.68983152354629
 20
-137.3304632903202
 10
77.68983152354629
 20
-137.3304632903202
 10
77.68983152354629
 20
-137.1592420447033
 10
77.68983152354629
 20
-137.1592420447033
 10
77.84417180128548
 20
-137.1699218407075
 10
78.03020695748899
 20
-137.1699218407075
 10
78.19522703123245
 20
-137.1699218407075
 10
78.19522703123245
 20
-137.1699218407075
 10
78.34129907980704
 20
-137.1699218407075
 10
78.34129907980704
 20
-137.1699218407075
 10
78.34129907980704
 20
-137.1699218407075
 10
78.34129907980704
 20
-137.0514105560149
 10
78.34129907980704
 20
-137.0514105560149
 10
78.34129907980704
 20
-137.0514105560149
 10
78.21004094181902
 20
-137.0514105560149
 10
78.21004094181902
 20
-137.0514105560149
 10
78.16353215276814
 20
-137.0514105560149
 10
77.96061602868693
 20
-137.0596787851795
 10
77.91824135421837
 20
-137.0596787851795
 10
77.71532523013714
 20
-137.0638128997618
 10
77.6388441103646
 20
-137.065879957053
 10
77.56064044284943
 20
-137.0682915238927
 10
77.56064044284943
 20
-137.0682915238927
 10
77.56064044284943
 20
-136.8839789154318
 10
77.56064044284943
 20
-136.8839789154318
 10
77.67501761295972
 20
-136.8925916541449
 10
77.71945934471944
 20
-136.8925916541449
 10
78.1022094531307
 20
-136.901204392858
 10
78.03881969620211
 20
-136.8061197574652
 10
78.0112589323201
 20
-136.7785589935831
 10
77.97542993927351
 20
-136.742385490988
 10
77.97542993927351
 20
-136.742385490988
 10
78.15078529947273
 20
-136.6600477088905
 10
78.15078529947273
 20
-136.6600477088905
 10
78.19109291665015
 20
-136.6958767019372
 10
78.23553464840987
 20
-136.7382513764057
 10
78.30960420134274
 20
-136.8481499223852
 10
78.30960420134274
 20
-136.8481499223852
 10
78.19522703123245
 20
-136.9032714501492
 10
78.19522703123245
 20
-136.9032714501492
 10
78.19522703123245
 20
-136.9032714501492
 10
78.20590682723672
 20
-136.9032714501492
 10
78.20590682723672
 20
-136.9032714501492
 10
78.20590682723672
 20
-136.9032714501492
 10
78.72852781234913
 20
-136.9032714501492
 10
78.72852781234913
 20
-136.9032714501492
 10
78.72852781234913
 20
-136.9032714501492
 10
78.63344317695622
 20
-136.8588297183895
 10
78.63344317695622
 20
-136.8588297183895
 10
78.6606594312897
 20
-136.8205891585032
 10
78.71784801634485
 20
-136.7403184336969
 10
78.73266192693143
 20
-136.666248880764
 10
78.73266192693143
 20
-136.666248880764
 10
78.94625784701691
 20
-136.7296386376926
 10
78.94625784701691
 20
-136.7296386376926
 10
78.95487058573003
 20
-136.7317056949838
 10
78.97588566819006
 20
-136.742385490988
 10
78.97588566819006
 20
-136.7634005734481
 10
78.97588566819006
 20
-136.8016411333343
 10
78.91042885397032
 20
-136.8016411333343
 10
78.89148082880143
 20
-136.8016411333343
 10
78.88080103279717
 20
-136.8205891585032
 10
78.85737438349747
 20
-136.8608967756806
 10
78.82774656232432
 20
-136.901204392858
 10
79.22772214816182
 20
-136.8950032209846
 10
79.25734996933497
 20
-136.8925916541449
 10
79.333486579559
 20
-136.8863904822715
 10
79.333486579559
 20
-136.8863904822715
 10
79.333486579559
 20
-137.0682915238927
 10
79.333486579559
 20
-137.0682915238927
 10
79.31453855439013
 20
-137.0682915238927
 10
79.28904484779927
 20
-137.065879957053
 10
79.06924775584034
 20
-137.0576117278884
 10
79.01826034265864
 20
-137.0555446705972
 10
78.7984632506997
 20
-137.0514105560149
 10
78.75402151893996
 20
-137.0514105560149
 10
78.75402151893996
 20
-137.0514105560149
 10
78.5380140320148
 20
-137.0514105560149
 10
78.5380140320148
 20
-137.0514105560149
 10
78.5380140320148
 20
-137.0514105560149
 10
78.5380140320148
 20
-137.1699218407075
 10
78.5380140320148
 20
-137.1699218407075
 10
78.5380140320148
 20
-137.1699218407075
 10
78.7116468444714
 20
-137.1699218407075
 10
78.7116468444714
 20
-137.1699218407075
 10
78.87459986092371
 20
-137.1699218407075
 10
79.06476913170951
 20
-137.1699218407075
 10
79.22152097628837
 20
-137.1592420447033
 10
79.22152097628837
 20
-137.1592420447033
 10
79.22152097628837
 20
-137.3304632903202
 10
79.22152097628837
 20
-137.3304632903202
 10
79.01205917078518
 20
-137.3221950611556
 10
78.81534421857742
 20
-137.3201280038644
 10
78.7116468444714
 20
-137.3201280038644
 10
78.7116468444714
 20
-137.3201280038644
 10
78.5380140320148
 20
-137.3201280038644
 10
78.5380140320148
 20
-137.3201280038644
 10
78.5380140320148
 20
-137.3201280038644
 10
78.5380140320148
 20
-137.4279594925527
 10
78.5380140320148
 20
-137.4279594925527
 10
78.5380140320148
 20
-137.4279594925527
 10
78.76883542952655
 20
-137.4279594925527
 10
78.76883542952655
 20
-137.4279594925527
 10
78.90181611525719
 20
-137.4279594925527
 10
79.18982609782408
 20
-137.4234808684219
 10
79.39894339377874
 20
-137.4172796965485
 10
79.39894339377874
 20
-137.4172796965485
 10
79.39894339377874
 20
-137.5950466235874
 10
79.39894339377874
 20
-137.5950466235874
 10
79.20670706570179
 20
-137.5888454517139
 10
78.89354788609259
 20
-137.5843668275831
 10
78.76883542952655
 20
-137.5843668275831
 97
        0
 97
        0
 92
        1
 93
        4
 72
     1
 10
78.93385550327001
 20
-137.8403374221371
 11
78.22726641924527
 21
-137.8403374221371
 72
     1
 10
78.22726641924527
 20
-137.8403374221371
 11
78.22726641924527
 21
-137.948513420374
 72
     1
 10
78.22726641924527
 20
-137.948513420374
 11
78.93385550327001
 21
-137.948513420374
 72
     1
 10
78.93385550327001
 20
-137.948513420374
 11
78.93385550327001
 21
-137.8403374221371
 97
        0
 92
        1
 93
        4
 72
     1
 10
78.93385550327001
 20
-138.07322587694
 11
78.22726641924527
 21
-138.07322587694
 72
     1
 10
78.22726641924527
 20
-138.07322587694
 11
78.22726641924527
 21
-138.1876030470503
 72
     1
 10
78.22726641924527
 20
-138.1876030470503
 11
78.93385550327001
 21
-138.1876030470503
 72
     1
 10
78.93385550327001
 20
-138.1876030470503
 11
78.93385550327001
 21
-138.07322587694
 97
        0
 92
        1
 93
        4
 72
     1
 10
78.93385550327001
 20
-138.3164496181987
 11
78.22726641924527
 21
-138.3164496181987
 72
     1
 10
78.22726641924527
 20
-138.3164496181987
 11
78.22726641924527
 21
-138.430826788309
 72
     1
 10
78.22726641924527
 20
-138.430826788309
 11
78.93385550327001
 21
-138.430826788309
 72
     1
 10
78.93385550327001
 20
-138.430826788309
 11
78.93385550327001
 21
-138.3164496181987
 97
        0
 75
     2
 76
     1
 98
        0
  0
SPLINE
  5
6C
330
4D
100
AcDbEntity
  8
_U+30EC_U+30A4_U+30E4_U+30FC 1
370
     0
100
AcDbSpline
210
0.0
220
0.0
230
1.0
 70
    11
 71
     3
 72
    47
 73
    43
 74
     0
 42
0.0000000001
 43
0.0000000001
 12
1.0
 22
0.0
 32
0.0
 13
1.0
 23
0.0
 33
0.0
 40
0.0
 40
0.0
 40
0.0
 40
0.0
 40
1.0
 40
1.0
 40
1.0
 40
2.0
 40
2.0
 40
2.0
 40
3.0
 40
3.0
 40
3.0
 40
4.0
 40
4.0
 40
4.0
 40
5.0
 40
5.0
 40
5.0
 40
6.0
 40
6.0
 40
6.0
 40
7.0
 40
7.0
 40
7.0
 40
8.0
 40
8.0
 40
8.0
 40
9.0
 40
9.0
 40
9.0
 40
10.0
 40
10.0
 40
10.0
 40
11.0
 40
11.0
 40
11.0
 40
12.0
 40
12.0
 40
12.0
 40
13.0
 40
13.0
 40
13.0
 40
14.0
 40
14.0
 40
14.0
 40
14.0
 10
80.7456312189629
 20
-137.5612846878319
 30
0.0
 10
80.7456312189629
 20
-137.5612846878319
 30
0.0
 10
80.64400090214804
 20
-137.5612846878319
 30
0.0
 10
80.64400090214804
 20
-137.5612846878319
 30
0.0
 10
80.64400090214804
 20
-137.6481010940602
 30
0.0
 10
80.62298581968801
 20
-138.0373968838934
 30
0.0
 10
80.42627086748024
 20
-138.2571939758524
 30
0.0
 10
80.27365313748368
 20
-138.4263481641781
 30
0.0
 10
80.06660289882016
 20
-138.4962836025287
 30
0.0
 10
79.98185354988301
 20
-138.5238443664107
 30
0.0
 10
79.98185354988301
 20
-138.5238443664107
 30
0.0
 10
79.7872056549664
 20
-138.3564127258276
 30
0.0
 10
79.7872056549664
 20
-138.3564127258276
 30
0.0
 10
79.88470185719896
 20
-138.3440103820807
 30
0.0
 10
80.06005721739818
 20
-138.320583732781
 30
0.0
 10
80.24850394044135
 20
-138.1324815192863
 30
0.0
 10
80.32257349337422
 20
-138.0604790236446
 30
0.0
 10
80.42627086748024
 20
-137.920952656492
 30
0.0
 10
80.42627086748024
 20
-137.5612846878319
 30
0.0
 10
80.42627086748024
 20
-137.5612846878319
 30
0.0
 10
80.19544946996851
 20
-137.5612846878319
 30
0.0
 10
80.19544946996851
 20
-137.5612846878319
 30
0.0
 10
80.009414313765
 20
-137.5612846878319
 30
0.0
 10
79.82303464801299
 20
-137.5654188024142
 30
0.0
 10
79.6369994918095
 20
-137.5802327130008
 30
0.0
 10
79.6369994918095
 20
-137.5802327130008
 30
0.0
 10
79.6369994918095
 20
-137.3600911114933
 30
0.0
 10
79.6369994918095
 20
-137.3600911114933
 30
0.0
 10
79.82544621485268
 20
-137.3752495316284
 30
0.0
 10
80.11104463057988
 20
-137.3793836462107
 30
0.0
 10
80.19544946996851
 20
-137.3793836462107
 30
0.0
 10
80.19544946996851
 20
-137.3793836462107
 30
0.0
 10
80.7456312189629
 20
-137.3793836462107
 30
0.0
 10
80.7456312189629
 20
-137.3793836462107
 30
0.0
 10
80.76457924413178
 20
-137.3793836462107
 30
0.0
 10
81.08187253832328
 20
-137.3793836462107
 30
0.0
 10
81.31028236899535
 20
-137.3600911114933
 30
0.0
 10
81.31028236899535
 20
-137.3600911114933
 30
0.0
 10
81.31028236899535
 20
-137.5802327130008
 30
0.0
 10
81.31028236899535
 20
-137.5802327130008
 30
0.0
 10
81.12218015550071
 20
-137.5654188024142
 30
0.0
 10
80.93373343245754
 20
-137.5612846878319
 30
0.0
 10
80.7456312189629
 20
-137.5612846878319
 30
0.0
  0
SPLINE
  5
6D
330
4D
100
AcDbEntity
  8
_U+30EC_U+30A4_U+30E4_U+30FC 1
370
     0
100
AcDbSpline
210
0.0
220
0.0
230
1.0
 70
    11
 71
     3
 72
    29
 73
    25
 74
     0
 42
0.0000000001
 43
0.0000000001
 12
1.0
 22
0.0
 32
0.0
 13
1.0
 23
0.0
 33
0.0
 40
0.0
 40
0.0
 40
0.0
 40
0.0
 40
1.0
 40
1.0
 40
1.0
 40
2.0
 40
2.0
 40
2.0
 40
3.0
 40
3.0
 40
3.0
 40
4.0
 40
4.0
 40
4.0
 40
5.0
 40
5.0
 40
5.0
 40
6.0
 40
6.0
 40
6.0
 40
7.0
 40
7.0
 40
7.0
 40
8.0
 40
8.0
 40
8.0
 40
8.0
 10
80.64400090214804
 20
-137.0321180212975
 30
0.0
 10
80.64400090214804
 20
-137.0321180212975
 30
0.0
 10
80.2905341053614
 20
-137.0321180212975
 30
0.0
 10
80.2905341053614
 20
-137.0321180212975
 30
0.0
 10
80.17856850209078
 20
-137.0321180212975
 30
0.0
 10
80.03904213493816
 20
-137.0386637027195
 30
0.0
 10
79.93121064624984
 20
-137.0514105560149
 30
0.0
 10
79.93121064624984
 20
-137.0514105560149
 30
0.0
 10
79.93121064624984
 20
-136.8164550439209
 30
0.0
 10
79.93121064624984
 20
-136.8164550439209
 30
0.0
 10
80.04937742139391
 20
-136.8312689545075
 30
0.0
 10
80.23369002985477
 20
-136.8357475786383
 30
0.0
 10
80.2905341053614
 20
-136.8357475786383
 30
0.0
 10
80.2905341053614
 20
-136.8357475786383
 30
0.0
 10
80.64400090214804
 20
-136.8357475786383
 30
0.0
 10
80.64400090214804
 20
-136.8357475786383
 30
0.0
 10
80.6629489273169
 20
-136.8357475786383
 30
0.0
 10
80.86620956094664
 20
-136.8357475786383
 30
0.0
 10
81.00780298539041
 20
-136.8164550439209
 30
0.0
 10
81.00780298539041
 20
-136.8164550439209
 30
0.0
 10
81.00780298539041
 20
-137.0514105560149
 30
0.0
 10
81.00780298539041
 20
-137.0514105560149
 30
0.0
 10
80.85139565036008
 20
-137.0321180212975
 30
0.0
 10
80.66088187002576
 20
-137.0321180212975
 30
0.0
 10
80.64400090214804
 20
-137.0321180212975
 30
0.0
  0
HATCH
  5
6E
330
4D
100
AcDbEntity
  8
_U+30EC_U+30A4_U+30E4_U+30FC 1
 62
     7
420
 16777215
100
AcDbHatch
 10
0.0
 20
0.0
 30
0.0
210
0.0
220
0.0
230
1.0
  2
SOLID
 70
     1
 71
     0
 91
        2
 92
        1
 93
        1
 72
     4
 94
        3
 73
     0
 74
     1
 95
       47
 96
       43
 40
0.0
 40
0.0
 40
0.0
 40
0.0
 40
1.0
 40
1.0
 40
1.0
 40
2.0
 40
2.0
 40
2.0
 40
3.0
 40
3.0
 40
3.0
 40
4.0
 40
4.0
 40
4.0
 40
5.0
 40
5.0
 40
5.0
 40
6.0
 40
6.0
 40
6.0
 40
7.0
 40
7.0
 40
7.0
 40
8.0
 40
8.0
 40
8.0
 40
9.0
 40
9.0
 40
9.0
 40
10.0
 40
10.0
 40
10.0
 40
11.0
 40
11.0
 40
11.0
 40
12.0
 40
12.0
 40
12.0
 40
13.0
 40
13.0
 40
13.0
 40
14.0
 40
14.0
 40
14.0
 40
14.0
 10
80.7456312189629
 20
-137.5612846878319
 10
80.7456312189629
 20
-137.5612846878319
 10
80.64400090214804
 20
-137.5612846878319
 10
80.64400090214804
 20
-137.5612846878319
 10
80.64400090214804
 20
-137.6481010940602
 10
80.62298581968801
 20
-138.0373968838934
 10
80.42627086748024
 20
-138.2571939758524
 10
80.27365313748368
 20
-138.4263481641781
 10
80.06660289882016
 20
-138.4962836025287
 10
79.98185354988301
 20
-138.5238443664107
 10
79.98185354988301
 20
-138.5238443664107
 10
79.7872056549664
 20
-138.3564127258276
 10
79.7872056549664
 20
-138.3564127258276
 10
79.88470185719896
 20
-138.3440103820807
 10
80.06005721739818
 20
-138.320583732781
 10
80.24850394044135
 20
-138.1324815192863
 10
80.32257349337422
 20
-138.0604790236446
 10
80.42627086748024
 20
-137.920952656492
 10
80.42627086748024
 20
-137.5612846878319
 10
80.42627086748024
 20
-137.5612846878319
 10
80.19544946996851
 20
-137.5612846878319
 10
80.19544946996851
 20
-137.5612846878319
 10
80.009414313765
 20
-137.5612846878319
 10
79.82303464801299
 20
-137.5654188024142
 10
79.6369994918095
 20
-137.5802327130008
 10
79.6369994918095
 20
-137.5802327130008
 10
79.6369994918095
 20
-137.3600911114933
 10
79.6369994918095
 20
-137.3600911114933
 10
79.82544621485268
 20
-137.3752495316284
 10
80.11104463057988
 20
-137.3793836462107
 10
80.19544946996851
 20
-137.3793836462107
 10
80.19544946996851
 20
-137.3793836462107
 10
80.7456312189629
 20
-137.3793836462107
 10
80.7456312189629
 20
-137.3793836462107
 10
80.76457924413178
 20
-137.3793836462107
 10
81.08187253832328
 20
-137.3793836462107
 10
81.31028236899535
 20
-137.3600911114933
 10
81.31028236899535
 20
-137.3600911114933
 10
81.31028236899535
 20
-137.5802327130008
 10
81.31028236899535
 20
-137.5802327130008
 10
81.12218015550071
 20
-137.5654188024142
 10
80.93373343245754
 20
-137.5612846878319
 10
80.7456312189629
 20
-137.5612846878319
 97
        0
 97
        0
 92
        1
 93
        1
 72
     4
 94
        3
 73
     0
 74
     1
 95
       29
 96
       25
 40
0.0
 40
0.0
 40
0.0
 40
0.0
 40
1.0
 40
1.0
 40
1.0
 40
2.0
 40
2.0
 40
2.0
 40
3.0
 40
3.0
 40
3.0
 40
4.0
 40
4.0
 40
4.0
 40
5.0
 40
5.0
 40
5.0
 40
6.0
 40
6.0
 40
6.0
 40
7.0
 40
7.0
 40
7.0
 40
8.0
 40
8.0
 40
8.0
 40
8.0
 10
80.64400090214804
 20
-137.0321180212975
 10
80.64400090214804
 20
-137.0321180212975
 10
80.2905341053614
 20
-137.0321180212975
 10
80.2905341053614
 20
-137.0321180212975
 10
80.17856850209078
 20
-137.0321180212975
 10
80.03904213493816
 20
-137.0386637027195
 10
79.93121064624984
 20
-137.0514105560149
 10
79.93121064624984
 20
-137.0514105560149
 10
79.93121064624984
 20
-136.8164550439209
 10
79.93121064624984
 20
-136.8164550439209
 10
80.04937742139391
 20
-136.8312689545075
 10
80.23369002985477
 20
-136.8357475786383
 10
80.2905341053614
 20
-136.8357475786383
 10
80.2905341053614
 20
-136.8357475786383
 10
80.64400090214804
 20
-136.8357475786383
 10
80.64400090214804
 20
-136.8357475786383
 10
80.6629489273169
 20
-136.8357475786383
 10
80.86620956094664
 20
-136.8357475786383
 10
81.00780298539041
 20
-136.8164550439209
 10
81.00780298539041
 20
-136.8164550439209
 10
81.00780298539041
 20
-137.0514105560149
 10
81.00780298539041
 20
-137.0514105560149
 10
80.85139565036008
 20
-137.0321180212975
 10
80.66088187002576
 20
-137.0321180212975
 10
80.64400090214804
 20
-137.0321180212975
 97
        0
 97
        0
 75
     2
 76
     1
 98
        0
  0
SPLINE
  5
6F
330
4D
100
AcDbEntity
  8
_U+30EC_U+30A4_U+30E4_U+30FC 1
370
     0
100
AcDbSpline
210
0.0
220
0.0
230
1.0
 70
    11
 71
     3
 72
    29
 73
    25
 74
     0
 42
0.0000000001
 43
0.0000000001
 12
1.0
 22
0.0
 32
0.0
 13
1.0
 23
0.0
 33
0.0
 40
0.0
 40
0.0
 40
0.0
 40
0.0
 40
1.0
 40
1.0
 40
1.0
 40
2.0
 40
2.0
 40
2.0
 40
3.0
 40
3.0
 40
3.0
 40
4.0
 40
4.0
 40
4.0
 40
5.0
 40
5.0
 40
5.0
 40
6.0
 40
6.0
 40
6.0
 40
7.0
 40
7.0
 40
7.0
 40
8.0
 40
8.0
 40
8.0
 40
8.0
 10
82.59151337995976
 20
-137.7238931947357
 30
0.0
 10
82.59151337995976
 20
-137.7238931947357
 30
0.0
 10
82.10713295473364
 20
-137.7238931947357
 30
0.0
 10
82.10713295473364
 20
-137.7238931947357
 30
0.0
 10
82.07957219085164
 20
-137.7238931947357
 30
0.0
 10
81.76227889666013
 20
-137.7238931947357
 30
0.0
 10
81.55075003386578
 20
-137.7493869013265
 30
0.0
 10
81.55075003386578
 20
-137.7493869013265
 30
0.0
 10
81.55075003386578
 20
-137.5189100133633
 30
0.0
 10
81.55075003386578
 20
-137.5189100133633
 30
0.0
 10
81.70922442618728
 20
-137.5419921531145
 30
0.0
 10
81.89973820652159
 20
-137.5440592104057
 30
0.0
 10
82.10713295473364
 20
-137.5440592104057
 30
0.0
 10
82.10713295473364
 20
-137.5440592104057
 30
0.0
 10
82.59151337995976
 20
-137.5440592104057
 30
0.0
 10
82.59151337995976
 20
-137.5440592104057
 30
0.0
 10
82.77754853616325
 20
-137.5440592104057
 30
0.0
 10
82.96392820191527
 20
-137.5419921531145
 30
0.0
 10
83.14789630082761
 20
-137.5189100133633
 30
0.0
 10
83.14789630082761
 20
-137.5189100133633
 30
0.0
 10
83.14789630082761
 20
-137.7493869013265
 30
0.0
 10
83.14789630082761
 20
-137.7493869013265
 30
0.0
 10
82.96392820191527
 20
-137.7259602520269
 30
0.0
 10
82.71622583652581
 20
-137.7238931947357
 30
0.0
 10
82.59151337995976
 20
-137.7238931947357
 30
0.0
  0
HATCH
  5
70
330
4D
100
AcDbEntity
  8
_U+30EC_U+30A4_U+30E4_U+30FC 1
 62
     7
420
 16777215
100
AcDbHatch
 10
0.0
 20
0.0
 30
0.0
210
0.0
220
0.0
230
1.0
  2
SOLID
 70
     1
 71
     0
 91
        1
 92
        1
 93
        1
 72
     4
 94
        3
 73
     0
 74
     1
 95
       29
 96
       25
 40
0.0
 40
0.0
 40
0.0
 40
0.0
 40
1.0
 40
1.0
 40
1.0
 40
2.0
 40
2.0
 40
2.0
 40
3.0
 40
3.0
 40
3.0
 40
4.0
 40
4.0
 40
4.0
 40
5.0
 40
5.0
 40
5.0
 40
6.0
 40
6.0
 40
6.0
 40
7.0
 40
7.0
 40
7.0
 40
8.0
 40
8.0
 40
8.0
 40
8.0
 10
82.59151337995976
 20
-137.7238931947357
 10
82.59151337995976
 20
-137.7238931947357
 10
82.10713295473364
 20
-137.7238931947357
 10
82.10713295473364
 20
-137.7238931947357
 10
82.07957219085164
 20
-137.7238931947357
 10
81.76227889666013
 20
-137.7238931947357
 10
81.55075003386578
 20
-137.7493869013265
 10
81.55075003386578
 20
-137.7493869013265
 10
81.55075003386578
 20
-137.5189100133633
 10
81.55075003386578
 20
-137.5189100133633
 10
81.70922442618728
 20
-137.5419921531145
 10
81.89973820652159
 20
-137.5440592104057
 10
82.10713295473364
 20
-137.5440592104057
 10
82.10713295473364
 20
-137.5440592104057
 10
82.59151337995976
 20
-137.5440592104057
 10
82.59151337995976
 20
-137.5440592104057
 10
82.77754853616325
 20
-137.5440592104057
 10
82.96392820191527
 20
-137.5419921531145
 10
83.14789630082761
 20
-137.5189100133633
 10
83.14789630082761
 20
-137.5189100133633
 10
83.14789630082761
 20
-137.7493869013265
 10
83.14789630082761
 20
-137.7493869013265
 10
82.96392820191527
 20
-137.7259602520269
 10
82.71622583652581
 20
-137.7238931947357
 10
82.59151337995976
 20
-137.7238931947357
 97
        0
 97
        0
 75
     2
 76
     1
 98
        0
  0
SPLINE
  5
71
330
4D
100
AcDbEntity
  8
_U+30EC_U+30A4_U+30E4_U+30FC 1
370
     0
100
AcDbSpline
210
0.0
220
0.0
230
1.0
 70
    11
 71
     3
 72
    44
 73
    40
 74
     0
 42
0.0000000001
 43
0.0000000001
 12
1.0
 22
0.0
 32
0.0
 13
1.0
 23
0.0
 33
0.0
 40
0.0
 40
0.0
 40
0.0
 40
0.0
 40
1.0
 40
1.0
 40
1.0
 40
2.0
 40
2.0
 40
2.0
 40
3.0
 40
3.0
 40
3.0
 40
4.0
 40
4.0
 40
4.0
 40
5.0
 40
5.0
 40
5.0
 40
6.0
 40
6.0
 40
6.0
 40
7.0
 40
7.0
 40
7.0
 40
8.0
 40
8.0
 40
8.0
 40
9.0
 40
9.0
 40
9.0
 40
10.0
 40
10.0
 40
10.0
 40
11.0
 40
11.0
 40
11.0
 40
12.0
 40
12.0
 40
12.0
 40
13.0
 40
13.0
 40
13.0
 40
13.0
 10
84.80292017194164
 20
-137.286366068109
 30
0.0
 10
84.69095456867102
 20
-137.6543022659337
 30
0.0
 10
84.64031166503784
 20
-137.8127766582551
 30
0.0
 10
84.44359671283007
 20
-138.0625460809358
 30
0.0
 10
84.25928410436921
 20
-138.293022968899
 30
0.0
 10
84.02260604453255
 20
-138.4790581251025
 30
0.0
 10
83.74320880067879
 20
-138.5724202127527
 30
0.0
 10
83.74320880067879
 20
-138.5724202127527
 30
0.0
 10
83.55062796305332
 20
-138.3925862284227
 30
0.0
 10
83.55062796305332
 20
-138.3925862284227
 30
0.0
 10
84.19176023285831
 20
-138.2403130079747
 30
0.0
 10
84.52180038034525
 20
-137.6839300871068
 30
0.0
 10
84.58519013727384
 20
-137.2436468840919
 30
0.0
 10
84.58519013727384
 20
-137.2436468840919
 30
0.0
 10
83.81934541090281
 20
-137.2436468840919
 30
0.0
 10
83.81934541090281
 20
-137.2436468840919
 30
0.0
 10
83.72632783280106
 20
-137.2436468840919
 30
0.0
 10
83.54235973388872
 20
-137.2481255082227
 30
0.0
 10
83.38560788930985
 20
-137.2670735333916
 30
0.0
 10
83.38560788930985
 20
-137.2670735333916
 30
0.0
 10
83.38560788930985
 20
-137.0472764414326
 30
0.0
 10
83.38560788930985
 20
-137.0472764414326
 30
0.0
 10
83.47242429553815
 20
-137.0682915238927
 30
0.0
 10
83.7242607755099
 20
-137.0682915238927
 30
0.0
 10
83.82347952548511
 20
-137.0682915238927
 30
0.0
 10
83.82347952548511
 20
-137.0682915238927
 30
0.0
 10
84.25514998978691
 20
-137.0682915238927
 30
0.0
 10
84.25514998978691
 20
-137.0682915238927
 30
0.0
 10
84.29752466425549
 20
-137.0682915238927
 30
0.0
 10
84.532135666801
 20
-137.065879957053
 30
0.0
 10
84.57037622668727
 20
-137.0596787851795
 30
0.0
 10
84.61275090115585
 20
-137.0534776133061
 30
0.0
 10
84.61481795844699
 20
-137.0514105560149
 30
0.0
 10
84.67614065808444
 20
-137.0111029388375
 30
0.0
 10
84.67614065808444
 20
-137.0111029388375
 30
0.0
 10
84.86424287157908
 20
-137.1657877261252
 30
0.0
 10
84.86424287157908
 20
-137.1657877261252
 30
0.0
 10
84.83495955995446
 20
-137.1954155472984
 30
0.0
 10
84.82014564936789
 20
-137.2271104257627
 30
0.0
 10
84.80292017194164
 20
-137.286366068109
 30
0.0
  0
SPLINE
  5
72
330
4D
100
AcDbEntity
  8
_U+30EC_U+30A4_U+30E4_U+30FC 1
370
     0
100
AcDbSpline
210
0.0
220
0.0
230
1.0
 70
    11
 71
     3
 72
    17
 73
    13
 74
     0
 42
0.0000000001
 43
0.0000000001
 12
1.0
 22
0.0
 32
0.0
 13
1.0
 23
0.0
 33
0.0
 40
0.0
 40
0.0
 40
0.0
 40
0.0
 40
1.0
 40
1.0
 40
1.0
 40
2.0
 40
2.0
 40
2.0
 40
3.0
 40
3.0
 40
3.0
 40
4.0
 40
4.0
 40
4.0
 40
4.0
 10
85.01238197744483
 20
-137.0872395490615
 30
0.0
 10
84.88560246358763
 20
-137.0872395490615
 30
0.0
 10
84.78397214677275
 20
-136.9859537417952
 30
0.0
 10
84.78397214677275
 20
-136.8588297183895
 30
0.0
 10
84.78397214677275
 20
-136.7317056949838
 30
0.0
 10
84.88560246358763
 20
-136.6283528304263
 30
0.0
 10
85.01238197744483
 20
-136.6283528304263
 30
0.0
 10
85.13950600085055
 20
-136.6283528304263
 30
0.0
 10
85.24320337495656
 20
-136.7317056949838
 30
0.0
 10
85.24320337495656
 20
-136.8588297183895
 30
0.0
 10
85.24320337495656
 20
-136.9859537417952
 30
0.0
 10
85.13950600085055
 20
-137.0872395490615
 30
0.0
 10
85.01238197744483
 20
-137.0872395490615
 30
0.0
  0
SPLINE
  5
73
330
4D
100
AcDbEntity
  8
_U+30EC_U+30A4_U+30E4_U+30FC 1
370
     0
100
AcDbSpline
210
0.0
220
0.0
230
1.0
 70
    11
 71
     3
 72
    17
 73
    13
 74
     0
 42
0.0000000001
 43
0.0000000001
 12
1.0
 22
0.0
 32
0.0
 13
1.0
 23
0.0
 33
0.0
 40
0.0
 40
0.0
 40
0.0
 40
0.0
 40
1.0
 40
1.0
 40
1.0
 40
2.0
 40
2.0
 40
2.0
 40
3.0
 40
3.0
 40
3.0
 40
4.0
 40
4.0
 40
4.0
 40
4.0
 10
85.01031492015368
 20
-136.7571994015746
 30
0.0
 10
84.9555379019382
 20
-136.7571994015746
 30
0.0
 10
84.91109617017848
 20
-136.8016411333343
 30
0.0
 10
84.91109617017848
 20
-136.8567626610983
 30
0.0
 10
84.91109617017848
 20
-136.9136067366049
 30
0.0
 10
84.9555379019382
 20
-136.9625270924955
 30
0.0
 10
85.01444903473597
 20
-136.9625270924955
 30
0.0
 10
85.07370467708228
 20
-136.9625270924955
 30
0.0
 10
85.1140122942597
 20
-136.9115396793138
 30
0.0
 10
85.1140122942597
 20
-136.8588297183895
 30
0.0
 10
85.1140122942597
 20
-136.8016411333343
 30
0.0
 10
85.06750350520882
 20
-136.7571994015746
 30
0.0
 10
85.01031492015368
 20
-136.7571994015746
 30
0.0
  0
HATCH
  5
74
330
4D
100
AcDbEntity
  8
_U+30EC_U+30A4_U+30E4_U+30FC 1
 62
     7
420
 16777215
100
AcDbHatch
 10
0.0
 20
0.0
 30
0.0
210
0.0
220
0.0
230
1.0
  2
SOLID
 70
     1
 71
     0
 91
        3
 92
        1
 93
        1
 72
     4
 94
        3
 73
     0
 74
     1
 95
       44
 96
       40
 40
0.0
 40
0.0
 40
0.0
 40
0.0
 40
1.0
 40
1.0
 40
1.0
 40
2.0
 40
2.0
 40
2.0
 40
3.0
 40
3.0
 40
3.0
 40
4.0
 40
4.0
 40
4.0
 40
5.0
 40
5.0
 40
5.0
 40
6.0
 40
6.0
 40
6.0
 40
7.0
 40
7.0
 40
7.0
 40
8.0
 40
8.0
 40
8.0
 40
9.0
 40
9.0
 40
9.0
 40
10.0
 40
10.0
 40
10.0
 40
11.0
 40
11.0
 40
11.0
 40
12.0
 40
12.0
 40
12.0
 40
13.0
 40
13.0
 40
13.0
 40
13.0
 10
84.80292017194164
 20
-137.286366068109
 10
84.69095456867102
 20
-137.6543022659337
 10
84.64031166503784
 20
-137.8127766582551
 10
84.44359671283007
 20
-138.0625460809358
 10
84.25928410436921
 20
-138.293022968899
 10
84.02260604453255
 20
-138.4790581251025
 10
83.74320880067879
 20
-138.5724202127527
 10
83.74320880067879
 20
-138.5724202127527
 10
83.55062796305332
 20
-138.3925862284227
 10
83.55062796305332
 20
-138.3925862284227
 10
84.19176023285831
 20
-138.2403130079747
 10
84.52180038034525
 20
-137.6839300871068
 10
84.58519013727384
 20
-137.2436468840919
 10
84.58519013727384
 20
-137.2436468840919
 10
83.81934541090281
 20
-137.2436468840919
 10
83.81934541090281
 20
-137.2436468840919
 10
83.72632783280106
 20
-137.2436468840919
 10
83.54235973388872
 20
-137.2481255082227
 10
83.38560788930985
 20
-137.2670735333916
 10
83.38560788930985
 20
-137.2670735333916
 10
83.38560788930985
 20
-137.0472764414326
 10
83.38560788930985
 20
-137.0472764414326
 10
83.47242429553815
 20
-137.0682915238927
 10
83.7242607755099
 20
-137.0682915238927
 10
83.82347952548511
 20
-137.0682915238927
 10
83.82347952548511
 20
-137.0682915238927
 10
84.25514998978691
 20
-137.0682915238927
 10
84.25514998978691
 20
-137.0682915238927
 10
84.29752466425549
 20
-137.0682915238927
 10
84.532135666801
 20
-137.065879957053
 10
84.57037622668727
 20
-137.0596787851795
 10
84.61275090115585
 20
-137.0534776133061
 10
84.61481795844699
 20
-137.0514105560149
 10
84.67614065808444
 20
-137.0111029388375
 10
84.67614065808444
 20
-137.0111029388375
 10
84.86424287157908
 20
-137.1657877261252
 10
84.86424287157908
 20
-137.1657877261252
 10
84.83495955995446
 20
-137.1954155472984
 10
84.82014564936789
 20
-137.2271104257627
 10
84.80292017194164
 20
-137.286366068109
 97
        0
 97
        0
 92
        1
 93
        1
 72
     4
 94
        3
 73
     0
 74
     1
 95
       17
 96
       13
 40
0.0
 40
0.0
 40
0.0
 40
0.0
 40
1.0
 40
1.0
 40
1.0
 40
2.0
 40
2.0
 40
2.0
 40
3.0
 40
3.0
 40
3.0
 40
4.0
 40
4.0
 40
4.0
 40
4.0
 10
85.01238197744483
 20
-137.0872395490615
 10
84.88560246358763
 20
-137.0872395490615
 10
84.78397214677275
 20
-136.9859537417952
 10
84.78397214677275
 20
-136.8588297183895
 10
84.78397214677275
 20
-136.7317056949838
 10
84.88560246358763
 20
-136.6283528304263
 10
85.01238197744483
 20
-136.6283528304263
 10
85.13950600085055
 20
-136.6283528304263
 10
85.24320337495656
 20
-136.7317056949838
 10
85.24320337495656
 20
-136.8588297183895
 10
85.24320337495656
 20
-136.9859537417952
 10
85.13950600085055
 20
-137.0872395490615
 10
85.01238197744483
 20
-137.0872395490615
 97
        0
 97
        0
 92
        1
 93
        1
 72
     4
 94
        3
 73
     0
 74
     1
 95
       17
 96
       13
 40
0.0
 40
0.0
 40
0.0
 40
0.0
 40
1.0
 40
1.0
 40
1.0
 40
2.0
 40
2.0
 40
2.0
 40
3.0
 40
3.0
 40
3.0
 40
4.0
 40
4.0
 40
4.0
 40
4.0
 10
85.01031492015368
 20
-136.7571994015746
 10
84.9555379019382
 20
-136.7571994015746
 10
84.91109617017848
 20
-136.8016411333343
 10
84.91109617017848
 20
-136.8567626610983
 10
84.91109617017848
 20
-136.9136067366049
 10
84.9555379019382
 20
-136.9625270924955
 10
85.01444903473597
 20
-136.9625270924955
 10
85.07370467708228
 20
-136.9625270924955
 10
85.1140122942597
 20
-136.9115396793138
 10
85.1140122942597
 20
-136.8588297183895
 10
85.1140122942597
 20
-136.8016411333343
 10
85.06750350520882
 20
-136.7571994015746
 10
85.01031492015368
 20
-136.7571994015746
 97
        0
 97
        0
 75
     2
 76
     1
 98
        0
  0
ENDBLK
  5
50
330
4D
100
AcDbEntity
  8
0
100
AcDbBlockEnd
  0
BLOCK
  5
77
330
75
100
AcDbEntity
  8
0
100
AcDbBlockBegin
  2
block 3
 70
     0
 10
0.0
 20
0.0
 30
0.0
  3
block 3
  1

  0
SPLINE
  5
79
330
75
100
AcDbEntity
  8
_U+30EC_U+30A4_U+30E4_U+30FC 1
370
     0
100
AcDbSpline
210
0.0
220
0.0
230
1.0
 70
    11
 71
     3
 72
    26
 73
    22
 74
     0
 42
0.0000000001
 43
0.0000000001
 12
1.0
 22
0.0
 32
0.0
 13
1.0
 23
0.0
 33
0.0
 40
0.0
 40
0.0
 40
0.0
 40
0.0
 40
1.0
 40
1.0
 40
1.0
 40
2.0
 40
2.0
 40
2.0
 40
3.0
 40
3.0
 40
3.0
 40
4.0
 40
4.0
 40
4.0
 40
5.0
 40
5.0
 40
5.0
 40
6.0
 40
6.0
 40
6.0
 40
7.0
 40
7.0
 40
7.0
 40
7.0
 10
104.412575928758
 20
-130.5463812607662
 30
0.0
 10
104.412575928758
 20
-130.5463812607662
 30
0.0
 10
103.3084228257354
 20
-130.5463812607662
 30
0.0
 10
103.3084228257354
 20
-130.5463812607662
 30
0.0
 10
103.3084228257354
 20
-130.5463812607662
 30
0.0
 10
103.3084228257354
 20
-130.8764214082531
 30
0.0
 10
103.3084228257354
 20
-130.8764214082531
 30
0.0
 10
103.3084228257354
 20
-130.8764214082531
 30
0.0
 10
103.1602837198697
 20
-130.8764214082531
 30
0.0
 10
103.1602837198697
 20
-130.8764214082531
 30
0.0
 10
103.1454698092831
 20
-130.544314203475
 30
0.0
 10
102.9825167928308
 20
-130.4978054144242
 30
0.0
 10
102.8681396227205
 20
-130.468177593251
 30
0.0
 10
102.8681396227205
 20
-130.468177593251
 30
0.0
 10
102.8681396227205
 20
-130.3221055446764
 30
0.0
 10
102.8681396227205
 20
-130.3221055446764
 30
0.0
 10
102.8681396227205
 20
-130.3221055446764
 30
0.0
 10
104.412575928758
 20
-130.3221055446764
 30
0.0
 10
104.412575928758
 20
-130.3221055446764
 30
0.0
 10
104.412575928758
 20
-130.3221055446764
 30
0.0
 10
104.412575928758
 20
-130.5463812607662
 30
0.0
 10
104.412575928758
 20
-130.5463812607662
 30
0.0
  0
HATCH
  5
7A
330
75
100
AcDbEntity
  8
_U+30EC_U+30A4_U+30E4_U+30FC 1
 62
     7
420
 16777215
100
AcDbHatch
 10
0.0
 20
0.0
 30
0.0
210
0.0
220
0.0
230
1.0
  2
SOLID
 70
     1
 71
     0
 91
        1
 92
        1
 93
        1
 72
     4
 94
        3
 73
     0
 74
     1
 95
       26
 96
       22
 40
0.0
 40
0.0
 40
0.0
 40
0.0
 40
1.0
 40
1.0
 40
1.0
 40
2.0
 40
2.0
 40
2.0
 40
3.0
 40
3.0
 40
3.0
 40
4.0
 40
4.0
 40
4.0
 40
5.0
 40
5.0
 40
5.0
 40
6.0
 40
6.0
 40
6.0
 40
7.0
 40
7.0
 40
7.0
 40
7.0
 10
104.412575928758
 20
-130.5463812607662
 10
104.412575928758
 20
-130.5463812607662
 10
103.3084228257354
 20
-130.5463812607662
 10
103.3084228257354
 20
-130.5463812607662
 10
103.3084228257354
 20
-130.5463812607662
 10
103.3084228257354
 20
-130.8764214082531
 10
103.3084228257354
 20
-130.8764214082531
 10
103.3084228257354
 20
-130.8764214082531
 10
103.1602837198697
 20
-130.8764214082531
 10
103.1602837198697
 20
-130.8764214082531
 10
103.1454698092831
 20
-130.544314203475
 10
102.9825167928308
 20
-130.4978054144242
 10
102.8681396227205
 20
-130.468177593251
 10
102.8681396227205
 20
-130.468177593251
 10
102.8681396227205
 20
-130.3221055446764
 10
102.8681396227205
 20
-130.3221055446764
 10
102.8681396227205
 20
-130.3221055446764
 10
104.412575928758
 20
-130.3221055446764
 10
104.412575928758
 20
-130.3221055446764
 10
104.412575928758
 20
-130.3221055446764
 10
104.412575928758
 20
-130.5463812607662
 10
104.412575928758
 20
-130.5463812607662
 97
        0
 97
        0
 75
     2
 76
     1
 98
        0
  0
SPLINE
  5
7B
330
75
100
AcDbEntity
  8
_U+30EC_U+30A4_U+30E4_U+30FC 1
370
     0
100
AcDbSpline
210
0.0
220
0.0
230
1.0
 70
    11
 71
     3
 72
    29
 73
    25
 74
     0
 42
0.0000000001
 43
0.0000000001
 12
1.0
 22
0.0
 32
0.0
 13
1.0
 23
0.0
 33
0.0
 40
0.0
 40
0.0
 40
0.0
 40
0.0
 40
1.0
 40
1.0
 40
1.0
 40
2.0
 40
2.0
 40
2.0
 40
3.0
 40
3.0
 40
3.0
 40
4.0
 40
4.0
 40
4.0
 40
5.0
 40
5.0
 40
5.0
 40
6.0
 40
6.0
 40
6.0
 40
7.0
 40
7.0
 40
7.0
 40
8.0
 40
8.0
 40
8.0
 40
8.0
 10
104.2348090017191
 20
-128.9230522681165
 30
0.0
 10
104.4442708072223
 20
-129.0312282663533
 30
0.0
 10
104.4632188323911
 20
-129.2045165692614
 30
0.0
 10
104.4632188323911
 20
-129.3209607966628
 30
0.0
 10
104.4632188323911
 20
-129.481846755824
 30
0.0
 10
104.4167100433403
 20
-129.6234401802677
 30
0.0
 10
104.2348090017191
 20
-129.7185248156607
 30
0.0
 10
104.0401611068025
 20
-129.8222221897667
 30
0.0
 10
103.8031385374173
 20
-129.8415147244841
 30
0.0
 10
103.6405300305135
 20
-129.8415147244841
 30
0.0
 10
103.49652503923
 20
-129.8415147244841
 30
0.0
 10
103.2446885592583
 20
-129.8242892470578
 30
0.0
 10
103.0459065497594
 20
-129.7185248156607
 30
0.0
 10
102.8429904256782
 20
-129.6106933269723
 30
0.0
 10
102.8195637763784
 20
-129.4498073678112
 30
0.0
 10
102.8195637763784
 20
-129.3209607966628
 30
0.0
 10
102.8195637763784
 20
-129.1621418947928
 30
0.0
 10
102.8640055081382
 20
-129.0184814130579
 30
0.0
 10
103.0459065497594
 20
-128.9230522681165
 30
0.0
 10
103.2384873873848
 20
-128.8238335181413
 30
0.0
 10
103.4668972180569
 20
-128.8004068688416
 30
0.0
 10
103.6405300305135
 20
-128.8004068688416
 30
0.0
 10
103.8117512761304
 20
-128.8004068688416
 30
0.0
 10
104.0422281640936
 20
-128.8217664608501
 30
0.0
 10
104.2348090017191
 20
-128.9230522681165
 30
0.0
  0
SPLINE
  5
7C
330
75
100
AcDbEntity
  8
_U+30EC_U+30A4_U+30E4_U+30FC 1
370
     0
100
AcDbSpline
210
0.0
220
0.0
230
1.0
 70
    11
 71
     3
 72
    17
 73
    13
 74
     0
 42
0.0000000001
 43
0.0000000001
 12
1.0
 22
0.0
 32
0.0
 13
1.0
 23
0.0
 33
0.0
 40
0.0
 40
0.0
 40
0.0
 40
0.0
 40
1.0
 40
1.0
 40
1.0
 40
2.0
 40
2.0
 40
2.0
 40
3.0
 40
3.0
 40
3.0
 40
4.0
 40
4.0
 40
4.0
 40
4.0
 10
103.0121446140039
 20
-129.3209607966628
 30
0.0
 10
103.0121446140039
 20
-129.5707302193434
 30
0.0
 10
103.29567597244
 20
-129.6172390083943
 30
0.0
 10
103.6405300305135
 20
-129.6172390083943
 30
0.0
 10
103.9598903819961
 20
-129.6172390083943
 30
0.0
 10
104.2685709374745
 20
-129.5810655057992
 30
0.0
 10
104.2685709374745
 20
-129.3209607966628
 30
0.0
 10
104.2685709374745
 20
-129.0732584312734
 30
0.0
 10
103.9874511458781
 20
-129.0246825849313
 30
0.0
 10
103.6405300305135
 20
-129.0246825849313
 30
0.0
 10
103.3208251694823
 20
-129.0246825849313
 30
0.0
 10
103.0121446140039
 20
-129.0629231448176
 30
0.0
 10
103.0121446140039
 20
-129.3209607966628
 30
0.0
  0
HATCH
  5
7D
330
75
100
AcDbEntity
  8
_U+30EC_U+30A4_U+30E4_U+30FC 1
 62
     7
420
 16777215
100
AcDbHatch
 10
0.0
 20
0.0
 30
0.0
210
0.0
220
0.0
230
1.0
  2
SOLID
 70
     1
 71
     0
 91
        2
 92
        1
 93
        1
 72
     4
 94
        3
 73
     0
 74
     1
 95
       29
 96
       25
 40
0.0
 40
0.0
 40
0.0
 40
0.0
 40
1.0
 40
1.0
 40
1.0
 40
2.0
 40
2.0
 40
2.0
 40
3.0
 40
3.0
 40
3.0
 40
4.0
 40
4.0
 40
4.0
 40
5.0
 40
5.0
 40
5.0
 40
6.0
 40
6.0
 40
6.0
 40
7.0
 40
7.0
 40
7.0
 40
8.0
 40
8.0
 40
8.0
 40
8.0
 10
104.2348090017191
 20
-128.9230522681165
 10
104.4442708072223
 20
-129.0312282663533
 10
104.4632188323911
 20
-129.2045165692614
 10
104.4632188323911
 20
-129.3209607966628
 10
104.4632188323911
 20
-129.481846755824
 10
104.4167100433403
 20
-129.6234401802677
 10
104.2348090017191
 20
-129.7185248156607
 10
104.0401611068025
 20
-129.8222221897667
 10
103.8031385374173
 20
-129.8415147244841
 10
103.6405300305135
 20
-129.8415147244841
 10
103.49652503923
 20
-129.8415147244841
 10
103.2446885592583
 20
-129.8242892470578
 10
103.0459065497594
 20
-129.7185248156607
 10
102.8429904256782
 20
-129.6106933269723
 10
102.8195637763784
 20
-129.4498073678112
 10
102.8195637763784
 20
-129.3209607966628
 10
102.8195637763784
 20
-129.1621418947928
 10
102.8640055081382
 20
-129.0184814130579
 10
103.0459065497594
 20
-128.9230522681165
 10
103.2384873873848
 20
-128.8238335181413
 10
103.4668972180569
 20
-128.8004068688416
 10
103.6405300305135
 20
-128.8004068688416
 10
103.8117512761304
 20
-128.8004068688416
 10
104.0422281640936
 20
-128.8217664608501
 10
104.2348090017191
 20
-128.9230522681165
 97
        0
 97
        0
 92
        1
 93
        1
 72
     4
 94
        3
 73
     0
 74
     1
 95
       17
 96
       13
 40
0.0
 40
0.0
 40
0.0
 40
0.0
 40
1.0
 40
1.0
 40
1.0
 40
2.0
 40
2.0
 40
2.0
 40
3.0
 40
3.0
 40
3.0
 40
4.0
 40
4.0
 40
4.0
 40
4.0
 10
103.0121446140039
 20
-129.3209607966628
 10
103.0121446140039
 20
-129.5707302193434
 10
103.29567597244
 20
-129.6172390083943
 10
103.6405300305135
 20
-129.6172390083943
 10
103.9598903819961
 20
-129.6172390083943
 10
104.2685709374745
 20
-129.5810655057992
 10
104.2685709374745
 20
-129.3209607966628
 10
104.2685709374745
 20
-129.0732584312734
 10
103.9874511458781
 20
-129.0246825849313
 10
103.6405300305135
 20
-129.0246825849313
 10
103.3208251694823
 20
-129.0246825849313
 10
103.0121446140039
 20
-129.0629231448176
 10
103.0121446140039
 20
-129.3209607966628
 97
        0
 97
        0
 75
     2
 76
     1
 98
        0
  0
ENDBLK
  5
78
330
75
100
AcDbEntity
  8
0
100
AcDbBlockEnd
  0
BLOCK
  5
9D
330
9B
100
AcDbEntity
  8
0
100
AcDbBlockBegin
  2
block 4
 70
     0
 10
0.0
 20
0.0
 30
0.0
  3
block 4
  1

  0
SPLINE
  5
9F
330
9B
100
AcDbEntity
  8
_U+30EC_U+30A4_U+30E4_U+30FC 1
370
     0
100
AcDbSpline
210
0.0
220
0.0
230
1.0
 70
    11
 71
     3
 72
    44
 73
    40
 74
     0
 42
0.0000000001
 43
0.0000000001
 12
1.0
 22
0.0
 32
0.0
 13
1.0
 23
0.0
 33
0.0
 40
0.0
 40
0.0
 40
0.0
 40
0.0
 40
1.0
 40
1.0
 40
1.0
 40
2.0
 40
2.0
 40
2.0
 40
3.0
 40
3.0
 40
3.0
 40
4.0
 40
4.0
 40
4.0
 40
5.0
 40
5.0
 40
5.0
 40
6.0
 40
6.0
 40
6.0
 40
7.0
 40
7.0
 40
7.0
 40
8.0
 40
8.0
 40
8.0
 40
9.0
 40
9.0
 40
9.0
 40
10.0
 40
10.0
 40
10.0
 40
11.0
 40
11.0
 40
11.0
 40
12.0
 40
12.0
 40
12.0
 40
13.0
 40
13.0
 40
13.0
 40
13.0
 10
103.8306993012993
 20
-135.8153102959073
 30
0.0
 10
103.9895182031693
 20
-136.0330403305751
 30
0.0
 10
104.0635877561022
 20
-136.1260579086768
 30
0.0
 10
104.2072482378371
 20
-136.1749782645674
 30
0.0
 10
104.2072482378371
 20
-136.1749782645674
 30
0.0
 10
104.2072482378371
 20
-135.3963866849009
 30
0.0
 10
104.2072482378371
 20
-135.3963866849009
 30
0.0
 10
104.2072482378371
 20
-135.3963866849009
 30
0.0
 10
104.412575928758
 20
-135.3963866849009
 30
0.0
 10
104.412575928758
 20
-135.3963866849009
 30
0.0
 10
104.412575928758
 20
-135.3963866849009
 30
0.0
 10
104.412575928758
 20
-136.4244031776995
 30
0.0
 10
104.412575928758
 20
-136.4244031776995
 30
0.0
 10
104.054975017389
 20
-136.3927082992352
 30
0.0
 10
103.9767713498739
 20
-136.3272514850154
 30
0.0
 10
103.6784260808512
 20
-135.9420898097645
 30
0.0
 10
103.4796440713523
 20
-135.6861192152104
 30
0.0
 10
103.4117756902929
 20
-135.6206624009907
 30
0.0
 10
103.2743163804314
 20
-135.6206624009907
 30
0.0
 10
103.1558050957388
 20
-135.6206624009907
 30
0.0
 10
103.0248914672993
 20
-135.6926648966324
 30
0.0
 10
103.0248914672993
 20
-135.8893798488402
 30
0.0
 10
103.0248914672993
 20
-136.1494845579765
 30
0.0
 10
103.2553683552625
 20
-136.1577527871411
 30
0.0
 10
103.371812582664
 20
-136.162231411272
 30
0.0
 10
103.371812582664
 20
-136.162231411272
 30
0.0
 10
103.371812582664
 20
-136.3865071273617
 30
0.0
 10
103.371812582664
 20
-136.3865071273617
 30
0.0
 10
103.2446885592583
 20
-136.3778943886486
 30
0.0
 10
103.1327229559877
 20
-136.3672145926443
 30
0.0
 10
103.0142116712951
 20
-136.286943867838
 30
0.0
 10
102.8533257121339
 20
-136.1770453218585
 30
0.0
 10
102.8195637763784
 20
-135.9906656561065
 30
0.0
 10
102.8195637763784
 20
-135.8745659382536
 30
0.0
 10
102.8195637763784
 20
-135.597235751691
 30
0.0
 10
103.0035318752908
 20
-135.3898410034789
 30
0.0
 10
103.2763834377226
 20
-135.3898410034789
 30
0.0
 10
103.5051377779432
 20
-135.3898410034789
 30
0.0
 10
103.6043565279184
 20
-135.5062852308804
 30
0.0
 10
103.8306993012993
 20
-135.8153102959073
 30
0.0
  0
HATCH
  5
A0
330
9B
100
AcDbEntity
  8
_U+30EC_U+30A4_U+30E4_U+30FC 1
 62
     7
420
 16777215
100
AcDbHatch
 10
0.0
 20
0.0
 30
0.0
210
0.0
220
0.0
230
1.0
  2
SOLID
 70
     1
 71
     0
 91
        1
 92
        1
 93
        1
 72
     4
 94
        3
 73
     0
 74
     1
 95
       44
 96
       40
 40
0.0
 40
0.0
 40
0.0
 40
0.0
 40
1.0
 40
1.0
 40
1.0
 40
2.0
 40
2.0
 40
2.0
 40
3.0
 40
3.0
 40
3.0
 40
4.0
 40
4.0
 40
4.0
 40
5.0
 40
5.0
 40
5.0
 40
6.0
 40
6.0
 40
6.0
 40
7.0
 40
7.0
 40
7.0
 40
8.0
 40
8.0
 40
8.0
 40
9.0
 40
9.0
 40
9.0
 40
10.0
 40
10.0
 40
10.0
 40
11.0
 40
11.0
 40
11.0
 40
12.0
 40
12.0
 40
12.0
 40
13.0
 40
13.0
 40
13.0
 40
13.0
 10
103.8306993012993
 20
-135.8153102959073
 10
103.9895182031693
 20
-136.0330403305751
 10
104.0635877561022
 20
-136.1260579086768
 10
104.2072482378371
 20
-136.1749782645674
 10
104.2072482378371
 20
-136.1749782645674
 10
104.2072482378371
 20
-135.3963866849009
 10
104.2072482378371
 20
-135.3963866849009
 10
104.2072482378371
 20
-135.3963866849009
 10
104.412575928758
 20
-135.3963866849009
 10
104.412575928758
 20
-135.3963866849009
 10
104.412575928758
 20
-135.3963866849009
 10
104.412575928758
 20
-136.4244031776995
 10
104.412575928758
 20
-136.4244031776995
 10
104.054975017389
 20
-136.3927082992352
 10
103.9767713498739
 20
-136.3272514850154
 10
103.6784260808512
 20
-135.9420898097645
 10
103.4796440713523
 20
-135.6861192152104
 10
103.4117756902929
 20
-135.6206624009907
 10
103.2743163804314
 20
-135.6206624009907
 10
103.1558050957388
 20
-135.6206624009907
 10
103.0248914672993
 20
-135.6926648966324
 10
103.0248914672993
 20
-135.8893798488402
 10
103.0248914672993
 20
-136.1494845579765
 10
103.2553683552625
 20
-136.1577527871411
 10
103.371812582664
 20
-136.162231411272
 10
103.371812582664
 20
-136.162231411272
 10
103.371812582664
 20
-136.3865071273617
 10
103.371812582664
 20
-136.3865071273617
 10
103.2446885592583
 20
-136.3778943886486
 10
103.1327229559877
 20
-136.3672145926443
 10
103.0142116712951
 20
-136.286943867838
 10
102.8533257121339
 20
-136.1770453218585
 10
102.8195637763784
 20
-135.9906656561065
 10
102.8195637763784
 20
-135.8745659382536
 10
102.8195637763784
 20
-135.597235751691
 10
103.0035318752908
 20
-135.3898410034789
 10
103.2763834377226
 20
-135.3898410034789
 10
103.5051377779432
 20
-135.3898410034789
 10
103.6043565279184
 20
-135.5062852308804
 10
103.8306993012993
 20
-135.8153102959073
 97
        0
 97
        0
 75
     2
 76
     1
 98
        0
  0
ENDBLK
  5
9E
330
9B
100
AcDbEntity
  8
0
100
AcDbBlockEnd
  0
BLOCK
  5
AF
330
AD
100
AcDbEntity
  8
0
100
AcDbBlockBegin
  2
block 5
 70
     0
 10
0.0
 20
0.0
 30
0.0
  3
block 5
  1

  0
SPLINE
  5
B1
330
AD
100
AcDbEntity
  8
_U+30EC_U+30A4_U+30E4_U+30FC 1
370
     0
100
AcDbSpline
210
0.0
220
0.0
230
1.0
 70
    11
 71
     3
 72
    26
 73
    22
 74
     0
 42
0.0000000001
 43
0.0000000001
 12
1.0
 22
0.0
 32
0.0
 13
1.0
 23
0.0
 33
0.0
 40
0.0
 40
0.0
 40
0.0
 40
0.0
 40
1.0
 40
1.0
 40
1.0
 40
2.0
 40
2.0
 40
2.0
 40
3.0
 40
3.0
 40
3.0
 40
4.0
 40
4.0
 40
4.0
 40
5.0
 40
5.0
 40
5.0
 40
6.0
 40
6.0
 40
6.0
 40
7.0
 40
7.0
 40
7.0
 40
7.0
 10
93.62632647398925
 20
-118.7558864720472
 30
0.0
 10
93.62632647398925
 20
-118.7558864720472
 30
0.0
 10
93.62632647398925
 20
-117.6515611142503
 30
0.0
 10
93.62632647398925
 20
-117.6515611142503
 30
0.0
 10
93.62632647398925
 20
-117.6515611142503
 30
0.0
 10
93.29628632650233
 20
-117.6515611142503
 30
0.0
 10
93.29628632650233
 20
-117.6515611142503
 30
0.0
 10
93.29628632650233
 20
-117.6515611142503
 30
0.0
 10
93.29628632650233
 20
-117.5035942631588
 30
0.0
 10
93.29628632650233
 20
-117.5035942631588
 30
0.0
 10
93.62839353128041
 20
-117.4887803525722
 30
0.0
 10
93.67490232033128
 20
-117.3258273361199
 30
0.0
 10
93.70453014150442
 20
-117.2116224207839
 30
0.0
 10
93.70453014150442
 20
-117.2116224207839
 30
0.0
 10
93.85060219007902
 20
-117.2116224207839
 30
0.0
 10
93.85060219007902
 20
-117.2116224207839
 30
0.0
 10
93.85060219007902
 20
-117.2116224207839
 30
0.0
 10
93.85060219007902
 20
-118.7558864720472
 30
0.0
 10
93.85060219007902
 20
-118.7558864720472
 30
0.0
 10
93.85060219007902
 20
-118.7558864720472
 30
0.0
 10
93.62632647398925
 20
-118.7558864720472
 30
0.0
 10
93.62632647398925
 20
-118.7558864720472
 30
0.0
  0
HATCH
  5
B2
330
AD
100
AcDbEntity
  8
_U+30EC_U+30A4_U+30E4_U+30FC 1
 62
     7
420
 16777215
100
AcDbHatch
 10
0.0
 20
0.0
 30
0.0
210
0.0
220
0.0
230
1.0
  2
SOLID
 70
     1
 71
     0
 91
        1
 92
        1
 93
        1
 72
     4
 94
        3
 73
     0
 74
     1
 95
       26
 96
       22
 40
0.0
 40
0.0
 40
0.0
 40
0.0
 40
1.0
 40
1.0
 40
1.0
 40
2.0
 40
2.0
 40
2.0
 40
3.0
 40
3.0
 40
3.0
 40
4.0
 40
4.0
 40
4.0
 40
5.0
 40
5.0
 40
5.0
 40
6.0
 40
6.0
 40
6.0
 40
7.0
 40
7.0
 40
7.0
 40
7.0
 10
93.62632647398925
 20
-118.7558864720472
 10
93.62632647398925
 20
-118.7558864720472
 10
93.62632647398925
 20
-117.6515611142503
 10
93.62632647398925
 20
-117.6515611142503
 10
93.62632647398925
 20
-117.6515611142503
 10
93.29628632650233
 20
-117.6515611142503
 10
93.29628632650233
 20
-117.6515611142503
 10
93.29628632650233
 20
-117.6515611142503
 10
93.29628632650233
 20
-117.5035942631588
 10
93.29628632650233
 20
-117.5035942631588
 10
93.62839353128041
 20
-117.4887803525722
 10
93.67490232033128
 20
-117.3258273361199
 10
93.70453014150442
 20
-117.2116224207839
 10
93.70453014150442
 20
-117.2116224207839
 10
93.85060219007902
 20
-117.2116224207839
 10
93.85060219007902
 20
-117.2116224207839
 10
93.85060219007902
 20
-117.2116224207839
 10
93.85060219007902
 20
-118.7558864720472
 10
93.85060219007902
 20
-118.7558864720472
 10
93.85060219007902
 20
-118.7558864720472
 10
93.62632647398925
 20
-118.7558864720472
 10
93.62632647398925
 20
-118.7558864720472
 97
        0
 97
        0
 75
     2
 76
     1
 98
        0
  0
SPLINE
  5
B3
330
AD
100
AcDbEntity
  8
_U+30EC_U+30A4_U+30E4_U+30FC 1
370
     0
100
AcDbSpline
210
0.0
220
0.0
230
1.0
 70
    11
 71
     3
 72
    53
 73
    49
 74
     0
 42
0.0000000001
 43
0.0000000001
 12
1.0
 22
0.0
 32
0.0
 13
1.0
 23
0.0
 33
0.0
 40
0.0
 40
0.0
 40
0.0
 40
0.0
 40
1.0
 40
1.0
 40
1.0
 40
2.0
 40
2.0
 40
2.0
 40
3.0
 40
3.0
 40
3.0
 40
4.0
 40
4.0
 40
4.0
 40
5.0
 40
5.0
 40
5.0
 40
6.0
 40
6.0
 40
6.0
 40
7.0
 40
7.0
 40
7.0
 40
8.0
 40
8.0
 40
8.0
 40
9.0
 40
9.0
 40
9.0
 40
10.0
 40
10.0
 40
10.0
 40
11.0
 40
11.0
 40
11.0
 40
12.0
 40
12.0
 40
12.0
 40
13.0
 40
13.0
 40
13.0
 40
14.0
 40
14.0
 40
14.0
 40
15.0
 40
15.0
 40
15.0
 40
16.0
 40
16.0
 40
16.0
 40
16.0
 10
94.83279891292375
 20
-118.8067016304546
 30
0.0
 10
94.75459524540858
 20
-118.8067016304546
 30
0.0
 10
94.6529649285937
 20
-118.7896484078026
 30
0.0
 10
94.55133461177884
 20
-118.726258650874
 30
0.0
 10
94.37804630887076
 20
-118.6161878501203
 30
0.0
 10
94.35668671686223
 20
-118.4851019669065
 30
0.0
 10
94.33773869169335
 20
-118.3772704782182
 30
0.0
 10
94.33773869169335
 20
-118.3772704782182
 30
0.0
 10
94.55994735049197
 20
-118.3772704782182
 30
0.0
 10
94.55994735049197
 20
-118.3772704782182
 30
0.0
 10
94.61506887825595
 20
-118.5760524877171
 30
0.0
 10
94.74184839211316
 20
-118.6056803088903
 30
0.0
 10
94.83486597021489
 20
-118.6056803088903
 30
0.0
 10
94.97473684691604
 20
-118.6056803088903
 30
0.0
 10
95.12701006736408
 20
-118.5062893041408
 30
0.0
 10
95.12701006736408
 20
-118.2735731041122
 30
0.0
 10
95.12701006736408
 20
-118.0176025095581
 30
0.0
 10
94.94717608303404
 20
-117.9478393259818
 30
0.0
 10
94.82659774105029
 20
-117.9478393259818
 30
0.0
 10
94.794902862586
 20
-117.9478393259818
 30
0.0
 10
94.6529649285937
 20
-117.9478393259818
 30
0.0
 10
94.56408146507427
 20
-118.0768581519044
 30
0.0
 10
94.56408146507427
 20
-118.0768581519044
 30
0.0
 10
94.38872610487505
 20
-118.0577378719613
 30
0.0
 10
94.38872610487505
 20
-118.0577378719613
 30
0.0
 10
94.38872610487505
 20
-118.0577378719613
 30
0.0
 10
94.50930444685879
 20
-117.2116224207839
 30
0.0
 10
94.50930444685879
 20
-117.2116224207839
 30
0.0
 10
94.50930444685879
 20
-117.2116224207839
 30
0.0
 10
95.28755151697673
 20
-117.2116224207839
 30
0.0
 10
95.28755151697673
 20
-117.2116224207839
 30
0.0
 10
95.28755151697673
 20
-117.2116224207839
 30
0.0
 10
95.28755151697673
 20
-117.4062703157005
 30
0.0
 10
95.28755151697673
 20
-117.4062703157005
 30
0.0
 10
95.28755151697673
 20
-117.4062703157005
 30
0.0
 10
94.67191295376259
 20
-117.4062703157005
 30
0.0
 10
94.67191295376259
 20
-117.4062703157005
 30
0.0
 10
94.67191295376259
 20
-117.4062703157005
 30
0.0
 10
94.60645613954283
 20
-117.8293280412892
 30
0.0
 10
94.60645613954283
 20
-117.8293280412892
 30
0.0
 10
94.66777883918029
 20
-117.7953938507595
 30
0.0
 10
94.75046113082628
 20
-117.7552584883563
 30
0.0
 10
94.86862790597034
 20
-117.7552584883563
 30
0.0
 10
95.12253144323326
 20
-117.7552584883563
 30
0.0
 10
95.35955401261845
 20
-117.9414658993341
 30
0.0
 10
95.35955401261845
 20
-118.254452824169
 30
0.0
 10
95.35955401261845
 20
-118.5719183731348
 30
0.0
 10
95.13527829652868
 20
-118.8067016304546
 30
0.0
 10
94.83279891292375
 20
-118.8067016304546
 30
0.0
  0
HATCH
  5
B4
330
AD
100
AcDbEntity
  8
_U+30EC_U+30A4_U+30E4_U+30FC 1
 62
     7
420
 16777215
100
AcDbHatch
 10
0.0
 20
0.0
 30
0.0
210
0.0
220
0.0
230
1.0
  2
SOLID
 70
     1
 71
     0
 91
        1
 92
        1
 93
        1
 72
     4
 94
        3
 73
     0
 74
     1
 95
       53
 96
       49
 40
0.0
 40
0.0
 40
0.0
 40
0.0
 40
1.0
 40
1.0
 40
1.0
 40
2.0
 40
2.0
 40
2.0
 40
3.0
 40
3.0
 40
3.0
 40
4.0
 40
4.0
 40
4.0
 40
5.0
 40
5.0
 40
5.0
 40
6.0
 40
6.0
 40
6.0
 40
7.0
 40
7.0
 40
7.0
 40
8.0
 40
8.0
 40
8.0
 40
9.0
 40
9.0
 40
9.0
 40
10.0
 40
10.0
 40
10.0
 40
11.0
 40
11.0
 40
11.0
 40
12.0
 40
12.0
 40
12.0
 40
13.0
 40
13.0
 40
13.0
 40
14.0
 40
14.0
 40
14.0
 40
15.0
 40
15.0
 40
15.0
 40
16.0
 40
16.0
 40
16.0
 40
16.0
 10
94.83279891292375
 20
-118.8067016304546
 10
94.75459524540858
 20
-118.8067016304546
 10
94.6529649285937
 20
-118.7896484078026
 10
94.55133461177884
 20
-118.726258650874
 10
94.37804630887076
 20
-118.6161878501203
 10
94.35668671686223
 20
-118.4851019669065
 10
94.33773869169335
 20
-118.3772704782182
 10
94.33773869169335
 20
-118.3772704782182
 10
94.55994735049197
 20
-118.3772704782182
 10
94.55994735049197
 20
-118.3772704782182
 10
94.61506887825595
 20
-118.5760524877171
 10
94.74184839211316
 20
-118.6056803088903
 10
94.83486597021489
 20
-118.6056803088903
 10
94.97473684691604
 20
-118.6056803088903
 10
95.12701006736408
 20
-118.5062893041408
 10
95.12701006736408
 20
-118.2735731041122
 10
95.12701006736408
 20
-118.0176025095581
 10
94.94717608303404
 20
-117.9478393259818
 10
94.82659774105029
 20
-117.9478393259818
 10
94.794902862586
 20
-117.9478393259818
 10
94.6529649285937
 20
-117.9478393259818
 10
94.56408146507427
 20
-118.0768581519044
 10
94.56408146507427
 20
-118.0768581519044
 10
94.38872610487505
 20
-118.0577378719613
 10
94.38872610487505
 20
-118.0577378719613
 10
94.38872610487505
 20
-118.0577378719613
 10
94.50930444685879
 20
-117.2116224207839
 10
94.50930444685879
 20
-117.2116224207839
 10
94.50930444685879
 20
-117.2116224207839
 10
95.28755151697673
 20
-117.2116224207839
 10
95.28755151697673
 20
-117.2116224207839
 10
95.28755151697673
 20
-117.2116224207839
 10
95.28755151697673
 20
-117.4062703157005
 10
95.28755151697673
 20
-117.4062703157005
 10
95.28755151697673
 20
-117.4062703157005
 10
94.67191295376259
 20
-117.4062703157005
 10
94.67191295376259
 20
-117.4062703157005
 10
94.67191295376259
 20
-117.4062703157005
 10
94.60645613954283
 20
-117.8293280412892
 10
94.60645613954283
 20
-117.8293280412892
 10
94.66777883918029
 20
-117.7953938507595
 10
94.75046113082628
 20
-117.7552584883563
 10
94.86862790597034
 20
-117.7552584883563
 10
95.12253144323326
 20
-117.7552584883563
 10
95.35955401261845
 20
-117.9414658993341
 10
95.35955401261845
 20
-118.254452824169
 10
95.35955401261845
 20
-118.5719183731348
 10
95.13527829652868
 20
-118.8067016304546
 10
94.83279891292375
 20
-118.8067016304546
 97
        0
 97
        0
 75
     2
 76
     1
 98
        0
  0
ENDBLK
  5
B0
330
AD
100
AcDbEntity
  8
0
100
AcDbBlockEnd
  0
BLOCK
  5
C3
330
C1
100
AcDbEntity
  8
0
100
AcDbBlockBegin
  2
block 6
 70
     0
 10
0.0
 20
0.0
 30
0.0
  3
block 6
  1

  0
POLYLINE
  5
C5
330
C1
100
AcDbEntity
  8
_U+30EC_U+30A4_U+30E4_U+30FC 1
370
     0
100
AcDb2dPolyline
 66
     1
 10
0.0
 20
0.0
 30
0.0
  0
VERTEX
  5
C6
330
C5
100
AcDbEntity
  8
_U+30EC_U+30A4_U+30E4_U+30FC 1
370
     0
100
AcDbVertex
100
AcDb2dVertex
 10
89.09533689178868
 20
-139.2090738584269
 30
0.0
  0
VERTEX
  5
C7
330
C5
100
AcDbEntity
  8
_U+30EC_U+30A4_U+30E4_U+30FC 1
370
     0
100
AcDbVertex
100
AcDb2dVertex
 10
89.09533689178868
 20
-139.5559949737916
 30
0.0
  0
VERTEX
  5
C8
330
C5
100
AcDbEntity
  8
_U+30EC_U+30A4_U+30E4_U+30FC 1
370
     0
100
AcDbVertex
100
AcDb2dVertex
 10
88.87743460234661
 20
-139.5559949737916
 30
0.0
  0
VERTEX
  5
C9
330
C5
100
AcDbEntity
  8
_U+30EC_U+30A4_U+30E4_U+30FC 1
370
     0
100
AcDbVertex
100
AcDb2dVertex
 10
88.87743460234661
 20
-139.2090738584269
 30
0.0
  0
VERTEX
  5
CA
330
C5
100
AcDbEntity
  8
_U+30EC_U+30A4_U+30E4_U+30FC 1
370
     0
100
AcDbVertex
100
AcDb2dVertex
 10
88.22166067672931
 20
-139.2090738584269
 30
0.0
  0
VERTEX
  5
CB
330
C5
100
AcDbEntity
  8
_U+30EC_U+30A4_U+30E4_U+30FC 1
370
     0
100
AcDbVertex
100
AcDb2dVertex
 10
88.22166067672931
 20
-138.9847981423371
 30
0.0
  0
VERTEX
  5
CC
330
C5
100
AcDbEntity
  8
_U+30EC_U+30A4_U+30E4_U+30FC 1
370
     0
100
AcDbVertex
100
AcDb2dVertex
 10
88.90068899687205
 20
-138.0115586677541
 30
0.0
  0
VERTEX
  5
CD
330
C5
100
AcDbEntity
  8
_U+30EC_U+30A4_U+30E4_U+30FC 1
370
     0
100
AcDbVertex
100
AcDb2dVertex
 10
89.09533689178868
 20
-138.0115586677541
 30
0.0
  0
VERTEX
  5
CE
330
C5
100
AcDbEntity
  8
_U+30EC_U+30A4_U+30E4_U+30FC 1
370
     0
100
AcDbVertex
100
AcDb2dVertex
 10
89.09533689178868
 20
-139.010291848928
 30
0.0
  0
VERTEX
  5
CF
330
C5
100
AcDbEntity
  8
_U+30EC_U+30A4_U+30E4_U+30FC 1
370
     0
100
AcDbVertex
100
AcDb2dVertex
 10
89.30273164000072
 20
-139.010291848928
 30
0.0
  0
VERTEX
  5
D0
330
C5
100
AcDbEntity
  8
_U+30EC_U+30A4_U+30E4_U+30FC 1
370
     0
100
AcDbVertex
100
AcDb2dVertex
 10
89.30273164000072
 20
-139.2090738584269
 30
0.0
  0
VERTEX
  5
D1
330
C5
100
AcDbEntity
  8
_U+30EC_U+30A4_U+30E4_U+30FC 1
370
     0
100
AcDbVertex
100
AcDb2dVertex
 10
89.09533689178868
 20
-139.2090738584269
 30
0.0
  0
SEQEND
  5
D2
330
C5
100
AcDbEntity
  8
_U+30EC_U+30A4_U+30E4_U+30FC 1
370
     0
  0
POLYLINE
  5
D3
330
C1
100
AcDbEntity
  8
_U+30EC_U+30A4_U+30E4_U+30FC 1
370
     0
100
AcDb2dPolyline
 66
     1
 10
0.0
 20
0.0
 30
0.0
  0
VERTEX
  5
D4
330
D3
100
AcDbEntity
  8
_U+30EC_U+30A4_U+30E4_U+30FC 1
370
     0
100
AcDbVertex
100
AcDb2dVertex
 10
88.87743460234661
 20
-138.3543456685364
 30
0.0
  0
VERTEX
  5
D5
330
D3
100
AcDbEntity
  8
_U+30EC_U+30A4_U+30E4_U+30FC 1
370
     0
100
AcDbVertex
100
AcDb2dVertex
 10
88.42061494100248
 20
-139.010291848928
 30
0.0
  0
VERTEX
  5
D6
330
D3
100
AcDbEntity
  8
_U+30EC_U+30A4_U+30E4_U+30FC 1
370
     0
100
AcDbVertex
100
AcDb2dVertex
 10
88.87743460234661
 20
-139.010291848928
 30
0.0
  0
VERTEX
  5
D7
330
D3
100
AcDbEntity
  8
_U+30EC_U+30A4_U+30E4_U+30FC 1
370
     0
100
AcDbVertex
100
AcDb2dVertex
 10
88.87743460234661
 20
-138.3543456685364
 30
0.0
  0
SEQEND
  5
D8
330
D3
100
AcDbEntity
  8
_U+30EC_U+30A4_U+30E4_U+30FC 1
370
     0
  0
HATCH
  5
D9
330
C1
100
AcDbEntity
  8
_U+30EC_U+30A4_U+30E4_U+30FC 1
 62
     7
420
 16777215
100
AcDbHatch
 10
0.0
 20
0.0
 30
0.0
210
0.0
220
0.0
230
1.0
  2
SOLID
 70
     1
 71
     0
 91
        2
 92
        1
 93
       11
 72
     1
 10
89.09533689178868
 20
-139.2090738584269
 11
89.09533689178868
 21
-139.5559949737916
 72
     1
 10
89.09533689178868
 20
-139.5559949737916
 11
88.87743460234661
 21
-139.5559949737916
 72
     1
 10
88.87743460234661
 20
-139.5559949737916
 11
88.87743460234661
 21
-139.2090738584269
 72
     1
 10
88.87743460234661
 20
-139.2090738584269
 11
88.22166067672931
 21
-139.2090738584269
 72
     1
 10
88.22166067672931
 20
-139.2090738584269
 11
88.22166067672931
 21
-138.9847981423371
 72
     1
 10
88.22166067672931
 20
-138.9847981423371
 11
88.90068899687205
 21
-138.0115586677541
 72
     1
 10
88.90068899687205
 20
-138.0115586677541
 11
89.09533689178868
 21
-138.0115586677541
 72
     1
 10
89.09533689178868
 20
-138.0115586677541
 11
89.09533689178868
 21
-139.010291848928
 72
     1
 10
89.09533689178868
 20
-139.010291848928
 11
89.30273164000072
 21
-139.010291848928
 72
     1
 10
89.30273164000072
 20
-139.010291848928
 11
89.30273164000072
 21
-139.2090738584269
 72
     1
 10
89.30273164000072
 20
-139.2090738584269
 11
89.09533689178868
 21
-139.2090738584269
 97
        0
 92
        1
 93
        3
 72
     1
 10
88.87743460234661
 20
-138.3543456685364
 11
88.42061494100248
 21
-139.010291848928
 72
     1
 10
88.42061494100248
 20
-139.010291848928
 11
88.87743460234661
 21
-139.010291848928
 72
     1
 10
88.87743460234661
 20
-139.010291848928
 11
88.87743460234661
 21
-138.3543456685364
 97
        0
 75
     2
 76
     1
 98
        0
  0
ENDBLK
  5
C4
330
C1
100
AcDbEntity
  8
0
100
AcDbBlockEnd
  0
BLOCK
  5
EC
330
EA
100
AcDbEntity
  8
0
100
AcDbBlockBegin
  2
block 7
 70
     0
 10
0.0
 20
0.0
 30
0.0
  3
block 7
  1

  0
SPLINE
  5
EE
330
EA
100
AcDbEntity
  8
_U+30EC_U+30A4_U+30E4_U+30FC 1
370
     0
100
AcDbSpline
210
0.0
220
0.0
230
1.0
 70
    11
 71
     3
 72
    29
 73
    25
 74
     0
 42
0.0000000001
 43
0.0000000001
 12
1.0
 22
0.0
 32
0.0
 13
1.0
 23
0.0
 33
0.0
 40
0.0
 40
0.0
 40
0.0
 40
0.0
 40
1.0
 40
1.0
 40
1.0
 40
2.0
 40
2.0
 40
2.0
 40
3.0
 40
3.0
 40
3.0
 40
4.0
 40
4.0
 40
4.0
 40
5.0
 40
5.0
 40
5.0
 40
6.0
 40
6.0
 40
6.0
 40
7.0
 40
7.0
 40
7.0
 40
8.0
 40
8.0
 40
8.0
 40
8.0
 10
104.2348090017191
 20
-121.5732855598845
 30
0.0
 10
104.4442708072223
 20
-121.6814615581213
 30
0.0
 10
104.4632188323911
 20
-121.8547498610294
 30
0.0
 10
104.4632188323911
 20
-121.9711940884308
 30
0.0
 10
104.4632188323911
 20
-122.132080047592
 30
0.0
 10
104.4167100433403
 20
-122.2736734720358
 30
0.0
 10
104.2348090017191
 20
-122.3687581074286
 30
0.0
 10
104.0401611068025
 20
-122.4724554815347
 30
0.0
 10
103.8031385374173
 20
-122.4917480162521
 30
0.0
 10
103.6405300305135
 20
-122.4917480162521
 30
0.0
 10
103.49652503923
 20
-122.4917480162521
 30
0.0
 10
103.2446885592583
 20
-122.4745225388258
 30
0.0
 10
103.0459065497594
 20
-122.3687581074286
 30
0.0
 10
102.8429904256782
 20
-122.2609266187403
 30
0.0
 10
102.8195637763784
 20
-122.1000406595792
 30
0.0
 10
102.8195637763784
 20
-121.9711940884308
 30
0.0
 10
102.8195637763784
 20
-121.8123751865608
 30
0.0
 10
102.8640055081382
 20
-121.6687147048259
 30
0.0
 10
103.0459065497594
 20
-121.5732855598845
 30
0.0
 10
103.2384873873848
 20
-121.4740668099093
 30
0.0
 10
103.4668972180569
 20
-121.4506401606096
 30
0.0
 10
103.6405300305135
 20
-121.4506401606096
 30
0.0
 10
103.8117512761304
 20
-121.4506401606096
 30
0.0
 10
104.0422281640936
 20
-121.4719997526181
 30
0.0
 10
104.2348090017191
 20
-121.5732855598845
 30
0.0
  0
SPLINE
  5
EF
330
EA
100
AcDbEntity
  8
_U+30EC_U+30A4_U+30E4_U+30FC 1
370
     0
100
AcDbSpline
210
0.0
220
0.0
230
1.0
 70
    11
 71
     3
 72
    17
 73
    13
 74
     0
 42
0.0000000001
 43
0.0000000001
 12
1.0
 22
0.0
 32
0.0
 13
1.0
 23
0.0
 33
0.0
 40
0.0
 40
0.0
 40
0.0
 40
0.0
 40
1.0
 40
1.0
 40
1.0
 40
2.0
 40
2.0
 40
2.0
 40
3.0
 40
3.0
 40
3.0
 40
4.0
 40
4.0
 40
4.0
 40
4.0
 10
103.0121446140039
 20
-121.9711940884308
 30
0.0
 10
103.0121446140039
 20
-122.2209635111114
 30
0.0
 10
103.29567597244
 20
-122.2674723001623
 30
0.0
 10
103.6405300305135
 20
-122.2674723001623
 30
0.0
 10
103.9598903819961
 20
-122.2674723001623
 30
0.0
 10
104.2685709374745
 20
-122.2312987975672
 30
0.0
 10
104.2685709374745
 20
-121.9711940884308
 30
0.0
 10
104.2685709374745
 20
-121.7234917230413
 30
0.0
 10
103.9874511458781
 20
-121.6749158766993
 30
0.0
 10
103.6405300305135
 20
-121.6749158766993
 30
0.0
 10
103.3208251694823
 20
-121.6749158766993
 30
0.0
 10
103.0121446140039
 20
-121.7131564365856
 30
0.0
 10
103.0121446140039
 20
-121.9711940884308
 30
0.0
  0
HATCH
  5
F0
330
EA
100
AcDbEntity
  8
_U+30EC_U+30A4_U+30E4_U+30FC 1
 62
     7
420
 16777215
100
AcDbHatch
 10
0.0
 20
0.0
 30
0.0
210
0.0
220
0.0
230
1.0
  2
SOLID
 70
     1
 71
     0
 91
        2
 92
        1
 93
        1
 72
     4
 94
        3
 73
     0
 74
     1
 95
       29
 96
       25
 40
0.0
 40
0.0
 40
0.0
 40
0.0
 40
1.0
 40
1.0
 40
1.0
 40
2.0
 40
2.0
 40
2.0
 40
3.0
 40
3.0
 40
3.0
 40
4.0
 40
4.0
 40
4.0
 40
5.0
 40
5.0
 40
5.0
 40
6.0
 40
6.0
 40
6.0
 40
7.0
 40
7.0
 40
7.0
 40
8.0
 40
8.0
 40
8.0
 40
8.0
 10
104.2348090017191
 20
-121.5732855598845
 10
104.4442708072223
 20
-121.6814615581213
 10
104.4632188323911
 20
-121.8547498610294
 10
104.4632188323911
 20
-121.9711940884308
 10
104.4632188323911
 20
-122.132080047592
 10
104.4167100433403
 20
-122.2736734720358
 10
104.2348090017191
 20
-122.3687581074286
 10
104.0401611068025
 20
-122.4724554815347
 10
103.8031385374173
 20
-122.4917480162521
 10
103.6405300305135
 20
-122.4917480162521
 10
103.49652503923
 20
-122.4917480162521
 10
103.2446885592583
 20
-122.4745225388258
 10
103.0459065497594
 20
-122.3687581074286
 10
102.8429904256782
 20
-122.2609266187403
 10
102.8195637763784
 20
-122.1000406595792
 10
102.8195637763784
 20
-121.9711940884308
 10
102.8195637763784
 20
-121.8123751865608
 10
102.8640055081382
 20
-121.6687147048259
 10
103.0459065497594
 20
-121.5732855598845
 10
103.2384873873848
 20
-121.4740668099093
 10
103.4668972180569
 20
-121.4506401606096
 10
103.6405300305135
 20
-121.4506401606096
 10
103.8117512761304
 20
-121.4506401606096
 10
104.0422281640936
 20
-121.4719997526181
 10
104.2348090017191
 20
-121.5732855598845
 97
        0
 97
        0
 92
        1
 93
        1
 72
     4
 94
        3
 73
     0
 74
     1
 95
       17
 96
       13
 40
0.0
 40
0.0
 40
0.0
 40
0.0
 40
1.0
 40
1.0
 40
1.0
 40
2.0
 40
2.0
 40
2.0
 40
3.0
 40
3.0
 40
3.0
 40
4.0
 40
4.0
 40
4.0
 40
4.0
 10
103.0121446140039
 20
-121.9711940884308
 10
103.0121446140039
 20
-122.2209635111114
 10
103.29567597244
 20
-122.2674723001623
 10
103.6405300305135
 20
-122.2674723001623
 10
103.9598903819961
 20
-122.2674723001623
 10
104.2685709374745
 20
-122.2312987975672
 10
104.2685709374745
 20
-121.9711940884308
 10
104.2685709374745
 20
-121.7234917230413
 10
103.9874511458781
 20
-121.6749158766993
 10
103.6405300305135
 20
-121.6749158766993
 10
103.3208251694823
 20
-121.6749158766993
 10
103.0121446140039
 20
-121.7131564365856
 10
103.0121446140039
 20
-121.9711940884308
 97
        0
 97
        0
 75
     2
 76
     1
 98
        0
  0
POLYLINE
  5
F1
330
EA
100
AcDbEntity
  8
_U+30EC_U+30A4_U+30E4_U+30FC 1
370
     0
100
AcDb2dPolyline
 66
     1
 10
0.0
 20
0.0
 30
0.0
  0
VERTEX
  5
F2
330
F1
100
AcDbEntity
  8
_U+30EC_U+30A4_U+30E4_U+30FC 1
370
     0
100
AcDbVertex
100
AcDb2dVertex
 10
104.412575928758
 20
-121.2342881641359
 30
0.0
  0
VERTEX
  5
F3
330
F1
100
AcDbEntity
  8
_U+30EC_U+30A4_U+30E4_U+30FC 1
370
     0
100
AcDbVertex
100
AcDb2dVertex
 10
104.1607394487862
 20
-121.2342881641359
 30
0.0
  0
VERTEX
  5
F4
330
F1
100
AcDbEntity
  8
_U+30EC_U+30A4_U+30E4_U+30FC 1
370
     0
100
AcDbVertex
100
AcDb2dVertex
 10
104.1607394487862
 20
-120.9824516841641
 30
0.0
  0
VERTEX
  5
F5
330
F1
100
AcDbEntity
  8
_U+30EC_U+30A4_U+30E4_U+30FC 1
370
     0
100
AcDbVertex
100
AcDb2dVertex
 10
104.412575928758
 20
-120.9824516841641
 30
0.0
  0
VERTEX
  5
F6
330
F1
100
AcDbEntity
  8
_U+30EC_U+30A4_U+30E4_U+30FC 1
370
     0
100
AcDbVertex
100
AcDb2dVertex
 10
104.412575928758
 20
-121.2342881641359
 30
0.0
  0
SEQEND
  5
F7
330
F1
100
AcDbEntity
  8
_U+30EC_U+30A4_U+30E4_U+30FC 1
370
     0
  0
HATCH
  5
F8
330
EA
100
AcDbEntity
  8
_U+30EC_U+30A4_U+30E4_U+30FC 1
 62
     7
420
 16777215
100
AcDbHatch
 10
0.0
 20
0.0
 30
0.0
210
0.0
220
0.0
230
1.0
  2
SOLID
 70
     1
 71
     0
 91
        1
 92
        1
 93
        4
 72
     1
 10
104.412575928758
 20
-121.2342881641359
 11
104.1607394487862
 21
-121.2342881641359
 72
     1
 10
104.1607394487862
 20
-121.2342881641359
 11
104.1607394487862
 21
-120.9824516841641
 72
     1
 10
104.1607394487862
 20
-120.9824516841641
 11
104.412575928758
 21
-120.9824516841641
 72
     1
 10
104.412575928758
 20
-120.9824516841641
 11
104.412575928758
 21
-121.2342881641359
 97
        0
 75
     2
 76
     1
 98
        0
  0
SPLINE
  5
F9
330
EA
100
AcDbEntity
  8
_U+30EC_U+30A4_U+30E4_U+30FC 1
370
     0
100
AcDbSpline
210
0.0
220
0.0
230
1.0
 70
    11
 71
     3
 72
    29
 73
    25
 74
     0
 42
0.0000000001
 43
0.0000000001
 12
1.0
 22
0.0
 32
0.0
 13
1.0
 23
0.0
 33
0.0
 40
0.0
 40
0.0
 40
0.0
 40
0.0
 40
1.0
 40
1.0
 40
1.0
 40
2.0
 40
2.0
 40
2.0
 40
3.0
 40
3.0
 40
3.0
 40
4.0
 40
4.0
 40
4.0
 40
5.0
 40
5.0
 40
5.0
 40
6.0
 40
6.0
 40
6.0
 40
7.0
 40
7.0
 40
7.0
 40
8.0
 40
8.0
 40
8.0
 40
8.0
 10
104.4632188323911
 20
-120.2462347789662
 30
0.0
 10
104.4632188323911
 20
-120.5128851695246
 30
0.0
 10
104.3257595225297
 20
-120.766444197239
 30
0.0
 10
103.9767713498739
 20
-120.766444197239
 30
0.0
 10
103.7208007553198
 20
-120.766444197239
 30
0.0
 10
103.6257161199269
 20
-120.6248507727952
 30
0.0
 10
103.5643934202895
 20
-120.519086341398
 30
0.0
 10
103.5051377779432
 20
-120.6437987979641
 30
0.0
 10
103.3907606078329
 20
-120.7199354081881
 30
0.0
 10
103.2298746486717
 20
-120.7199354081881
 30
0.0
 10
102.9549560289488
 20
-120.7199354081881
 30
0.0
 10
102.8195637763784
 20
-120.5211533986892
 30
0.0
 10
102.8195637763784
 20
-120.2462347789662
 30
0.0
 10
102.8195637763784
 20
-119.9627034205302
 30
0.0
 10
102.9635687676619
 20
-119.7721896401958
 30
0.0
 10
103.2298746486717
 20
-119.7721896401958
 30
0.0
 10
103.3907606078329
 20
-119.7721896401958
 30
0.0
 10
103.5051377779432
 20
-119.8507378172595
 30
0.0
 10
103.5643934202895
 20
-119.9754502738256
 30
0.0
 10
103.6150363239226
 20
-119.8865668103061
 30
0.0
 10
103.7101209593155
 20
-119.7277479084361
 30
0.0
 10
103.9726372352916
 20
-119.7277479084361
 30
0.0
 10
104.3471191145382
 20
-119.7277479084361
 30
0.0
 10
104.4632188323911
 20
-120.0071451522899
 30
0.0
 10
104.4632188323911
 20
-120.2462347789662
 30
0.0
  0
SPLINE
  5
FA
330
EA
100
AcDbEntity
  8
_U+30EC_U+30A4_U+30E4_U+30FC 1
370
     0
100
AcDbSpline
210
0.0
220
0.0
230
1.0
 70
    11
 71
     3
 72
    17
 73
    13
 74
     0
 42
0.0000000001
 43
0.0000000001
 12
1.0
 22
0.0
 32
0.0
 13
1.0
 23
0.0
 33
0.0
 40
0.0
 40
0.0
 40
0.0
 40
0.0
 40
1.0
 40
1.0
 40
1.0
 40
2.0
 40
2.0
 40
2.0
 40
3.0
 40
3.0
 40
3.0
 40
4.0
 40
4.0
 40
4.0
 40
4.0
 10
103.0121446140039
 20
-120.2462347789662
 30
0.0
 10
103.0121446140039
 20
-120.4112548527097
 30
0.0
 10
103.1072292493968
 20
-120.4956596920983
 30
0.0
 10
103.2426215019671
 20
-120.4956596920983
 30
0.0
 10
103.365266901242
 20
-120.4956596920983
 30
0.0
 10
103.4837781859346
 20
-120.4240017060051
 30
0.0
 10
103.4837781859346
 20
-120.2462347789662
 30
0.0
 10
103.4837781859346
 20
-120.0684678519273
 30
0.0
 10
103.365266901242
 20
-119.9964653562856
 30
0.0
 10
103.2426215019671
 20
-119.9964653562856
 30
0.0
 10
103.1072292493968
 20
-119.9964653562856
 30
0.0
 10
103.0121446140039
 20
-120.0832817625139
 30
0.0
 10
103.0121446140039
 20
-120.2462347789662
 30
0.0
  0
SPLINE
  5
FB
330
EA
100
AcDbEntity
  8
_U+30EC_U+30A4_U+30E4_U+30FC 1
370
     0
100
AcDbSpline
210
0.0
220
0.0
230
1.0
 70
    11
 71
     3
 72
    17
 73
    13
 74
     0
 42
0.0000000001
 43
0.0000000001
 12
1.0
 22
0.0
 32
0.0
 13
1.0
 23
0.0
 33
0.0
 40
0.0
 40
0.0
 40
0.0
 40
0.0
 40
1.0
 40
1.0
 40
1.0
 40
2.0
 40
2.0
 40
2.0
 40
3.0
 40
3.0
 40
3.0
 40
4.0
 40
4.0
 40
4.0
 40
4.0
 10
103.6722249089778
 20
-120.2462347789662
 30
0.0
 10
103.6722249089778
 20
-120.3898952607011
 30
0.0
 10
103.7590413152061
 20
-120.5425129906977
 30
0.0
 10
103.9619574392873
 20
-120.5425129906977
 30
0.0
 10
104.1672851302082
 20
-120.5425129906977
 30
0.0
 10
104.2685709374745
 20
-120.415388967292
 30
0.0
 10
104.2685709374745
 20
-120.2462347789662
 30
0.0
 10
104.2685709374745
 20
-120.0601996227627
 30
0.0
 10
104.1459255381996
 20
-119.9499565672347
 30
0.0
 10
103.9681586111607
 20
-119.9499565672347
 30
0.0
 10
103.7462944619107
 20
-119.9499565672347
 30
0.0
 10
103.6722249089778
 20
-120.1129095836871
 30
0.0
 10
103.6722249089778
 20
-120.2462347789662
 30
0.0
  0
HATCH
  5
FC
330
EA
100
AcDbEntity
  8
_U+30EC_U+30A4_U+30E4_U+30FC 1
 62
     7
420
 16777215
100
AcDbHatch
 10
0.0
 20
0.0
 30
0.0
210
0.0
220
0.0
230
1.0
  2
SOLID
 70
     1
 71
     0
 91
        3
 92
        1
 93
        1
 72
     4
 94
        3
 73
     0
 74
     1
 95
       29
 96
       25
 40
0.0
 40
0.0
 40
0.0
 40
0.0
 40
1.0
 40
1.0
 40
1.0
 40
2.0
 40
2.0
 40
2.0
 40
3.0
 40
3.0
 40
3.0
 40
4.0
 40
4.0
 40
4.0
 40
5.0
 40
5.0
 40
5.0
 40
6.0
 40
6.0
 40
6.0
 40
7.0
 40
7.0
 40
7.0
 40
8.0
 40
8.0
 40
8.0
 40
8.0
 10
104.4632188323911
 20
-120.2462347789662
 10
104.4632188323911
 20
-120.5128851695246
 10
104.3257595225297
 20
-120.766444197239
 10
103.9767713498739
 20
-120.766444197239
 10
103.7208007553198
 20
-120.766444197239
 10
103.6257161199269
 20
-120.6248507727952
 10
103.5643934202895
 20
-120.519086341398
 10
103.5051377779432
 20
-120.6437987979641
 10
103.3907606078329
 20
-120.7199354081881
 10
103.2298746486717
 20
-120.7199354081881
 10
102.9549560289488
 20
-120.7199354081881
 10
102.8195637763784
 20
-120.5211533986892
 10
102.8195637763784
 20
-120.2462347789662
 10
102.8195637763784
 20
-119.9627034205302
 10
102.9635687676619
 20
-119.7721896401958
 10
103.2298746486717
 20
-119.7721896401958
 10
103.3907606078329
 20
-119.7721896401958
 10
103.5051377779432
 20
-119.8507378172595
 10
103.5643934202895
 20
-119.9754502738256
 10
103.6150363239226
 20
-119.8865668103061
 10
103.7101209593155
 20
-119.7277479084361
 10
103.9726372352916
 20
-119.7277479084361
 10
104.3471191145382
 20
-119.7277479084361
 10
104.4632188323911
 20
-120.0071451522899
 10
104.4632188323911
 20
-120.2462347789662
 97
        0
 97
        0
 92
        1
 93
        1
 72
     4
 94
        3
 73
     0
 74
     1
 95
       17
 96
       13
 40
0.0
 40
0.0
 40
0.0
 40
0.0
 40
1.0
 40
1.0
 40
1.0
 40
2.0
 40
2.0
 40
2.0
 40
3.0
 40
3.0
 40
3.0
 40
4.0
 40
4.0
 40
4.0
 40
4.0
 10
103.0121446140039
 20
-120.2462347789662
 10
103.0121446140039
 20
-120.4112548527097
 10
103.1072292493968
 20
-120.4956596920983
 10
103.2426215019671
 20
-120.4956596920983
 10
103.365266901242
 20
-120.4956596920983
 10
103.4837781859346
 20
-120.4240017060051
 10
103.4837781859346
 20
-120.2462347789662
 10
103.4837781859346
 20
-120.0684678519273
 10
103.365266901242
 20
-119.9964653562856
 10
103.2426215019671
 20
-119.9964653562856
 10
103.1072292493968
 20
-119.9964653562856
 10
103.0121446140039
 20
-120.0832817625139
 10
103.0121446140039
 20
-120.2462347789662
 97
        0
 97
        0
 92
        1
 93
        1
 72
     4
 94
        3
 73
     0
 74
     1
 95
       17
 96
       13
 40
0.0
 40
0.0
 40
0.0
 40
0.0
 40
1.0
 40
1.0
 40
1.0
 40
2.0
 40
2.0
 40
2.0
 40
3.0
 40
3.0
 40
3.0
 40
4.0
 40
4.0
 40
4.0
 40
4.0
 10
103.6722249089778
 20
-120.2462347789662
 10
103.6722249089778
 20
-120.3898952607011
 10
103.7590413152061
 20
-120.5425129906977
 10
103.9619574392873
 20
-120.5425129906977
 10
104.1672851302082
 20
-120.5425129906977
 10
104.2685709374745
 20
-120.415388967292
 10
104.2685709374745
 20
-120.2462347789662
 10
104.2685709374745
 20
-120.0601996227627
 10
104.1459255381996
 20
-119.9499565672347
 10
103.9681586111607
 20
-119.9499565672347
 10
103.7462944619107
 20
-119.9499565672347
 10
103.6722249089778
 20
-120.1129095836871
 10
103.6722249089778
 20
-120.2462347789662
 97
        0
 97
        0
 75
     2
 76
     1
 98
        0
  0
ENDBLK
  5
ED
330
EA
100
AcDbEntity
  8
0
100
AcDbBlockEnd
  0
ENDSEC
  0
SECTION
  2
ENTITIES
  0
POLYLINE
  5
41
330
1F
100
AcDbEntity
  8
_U+30EC_U+30A4_U+30E4_U+30FC 1
 62
     7
420
 16777215
370
     9
100
AcDb2dPolyline
 66
     1
 10
0.0
 20
0.0
 30
0.0
  0
VERTEX
  5
42
330
41
100
AcDbEntity
  8
_U+30EC_U+30A4_U+30E4_U+30FC 1
 62
     7
420
 16777215
370
     9
100
AcDbVertex
100
AcDb2dVertex
 10
85.77805558939727
 20
-132.2606574669347
 30
0.0
  0
VERTEX
  5
43
330
41
100
AcDbEntity
  8
_U+30EC_U+30A4_U+30E4_U+30FC 1
 62
     7
420
 16777215
370
     9
100
AcDbVertex
100
AcDb2dVertex
 10
84.91195088927121
 20
-132.7608963556984
 30
0.0
  0
SEQEND
  5
44
330
41
100
AcDbEntity
  8
_U+30EC_U+30A4_U+30E4_U+30FC 1
 62
     7
420
 16777215
370
     9
  0
POLYLINE
  5
45
330
1F
100
AcDbEntity
  8
_U+30EC_U+30A4_U+30E4_U+30FC 1
 62
     7
420
 16777215
370
     9
100
AcDb2dPolyline
 66
     1
 10
0.0
 20
0.0
 30
0.0
  0
VERTEX
  5
46
330
45
100
AcDbEntity
  8
_U+30EC_U+30A4_U+30E4_U+30FC 1
 62
     7
420
 16777215
370
     9
100
AcDbVertex
100
AcDb2dVertex
 10
85.77805558939727
 20
-132.2606574669347
 30
0.0
  0
VERTEX
  5
47
330
45
100
AcDbEntity
  8
_U+30EC_U+30A4_U+30E4_U+30FC 1
 62
     7
420
 16777215
370
     9
100
AcDbVertex
100
AcDb2dVertex
 10
81.79484180212863
 20
-136.2442241326059
 30
0.0
  0
SEQEND
  5
48
330
45
100
AcDbEntity
  8
_U+30EC_U+30A4_U+30E4_U+30FC 1
 62
     7
420
 16777215
370
     9
  0
POLYLINE
  5
49
330
1F
100
AcDbEntity
  8
_U+30EC_U+30A4_U+30E4_U+30FC 1
 62
     7
420
 16777215
370
     9
100
AcDb2dPolyline
 66
     1
 10
0.0
 20
0.0
 30
0.0
  0
VERTEX
  5
4A
330
49
100
AcDbEntity
  8
_U+30EC_U+30A4_U+30E4_U+30FC 1
 62
     7
420
 16777215
370
     9
100
AcDbVertex
100
AcDb2dVertex
 10
85.77805558939727
 20
-132.2606574669347
 30
0.0
  0
VERTEX
  5
4B
330
49
100
AcDbEntity
  8
_U+30EC_U+30A4_U+30E4_U+30FC 1
 62
     7
420
 16777215
370
     9
100
AcDbVertex
100
AcDb2dVertex
 10
85.27781671327054
 20
-133.1267621889407
 30
0.0
  0
SEQEND
  5
4C
330
49
100
AcDbEntity
  8
_U+30EC_U+30A4_U+30E4_U+30FC 1
 62
     7
420
 16777215
370
     9
  0
INSERT
  5
4E
330
1F
100
AcDbEntity
  8
_U+30EC_U+30A4_U+30E4_U+30FC 1
100
AcDbBlockReference
  2
block 2
 10
0.0
 20
0.0
 30
0.0
  0
INSERT
  5
76
330
1F
100
AcDbEntity
  8
_U+30EC_U+30A4_U+30E4_U+30FC 1
100
AcDbBlockReference
  2
block 3
 10
0.0
 20
0.0
 30
0.0
  0
POLYLINE
  5
7E
330
1F
100
AcDbEntity
  8
_U+30EC_U+30A4_U+30E4_U+30FC 1
 62
     7
420
 16777215
370
    25
100
AcDb2dPolyline
 66
     1
 10
0.0
 20
0.0
 30
0.0
  0
VERTEX
  5
7F
330
7E
100
AcDbEntity
  8
_U+30EC_U+30A4_U+30E4_U+30FC 1
 62
     7
420
 16777215
370
    25
100
AcDbVertex
100
AcDb2dVertex
 10
86.76403417535397
 20
-124.1073280245287
 30
0.0
  0
VERTEX
  5
80
330
7E
100
AcDbEntity
  8
_U+30EC_U+30A4_U+30E4_U+30FC 1
 62
     7
420
 16777215
370
    25
100
AcDbVertex
100
AcDb2dVertex
 10
101.7636510149041
 20
-124.1073280245287
 30
0.0
  0
VERTEX
  5
81
330
7E
100
AcDbEntity
  8
_U+30EC_U+30A4_U+30E4_U+30FC 1
 62
     7
420
 16777215
370
    25
100
AcDbVertex
100
AcDb2dVertex
 10
101.7636510149041
 20
-124.9072869132176
 30
0.0
  0
VERTEX
  5
82
330
7E
100
AcDbEntity
  8
_U+30EC_U+30A4_U+30E4_U+30FC 1
 62
     7
420
 16777215
370
    25
100
AcDbVertex
100
AcDb2dVertex
 10
87.5639930438342
 20
-124.9072869132176
 30
0.0
  0
VERTEX
  5
83
330
7E
100
AcDbEntity
  8
_U+30EC_U+30A4_U+30E4_U+30FC 1
 62
     7
420
 16777215
370
    25
100
AcDbVertex
100
AcDb2dVertex
 10
87.5639930438342
 20
-136.107804965973
 30
0.0
  0
VERTEX
  5
84
330
7E
100
AcDbEntity
  8
_U+30EC_U+30A4_U+30E4_U+30FC 1
 62
     7
420
 16777215
370
    25
100
AcDbVertex
100
AcDb2dVertex
 10
89.96348159372926
 20
-136.107804965973
 30
0.0
  0
VERTEX
  5
85
330
7E
100
AcDbEntity
  8
_U+30EC_U+30A4_U+30E4_U+30FC 1
 62
     7
420
 16777215
370
    25
100
AcDbVertex
100
AcDb2dVertex
 10
89.96348159372926
 20
-134.9075138551623
 30
0.0
  0
VERTEX
  5
86
330
7E
100
AcDbEntity
  8
_U+30EC_U+30A4_U+30E4_U+30FC 1
 62
     7
420
 16777215
370
    25
100
AcDbVertex
100
AcDb2dVertex
 10
90.7634404622095
 20
-134.9075138551623
 30
0.0
  0
VERTEX
  5
87
330
7E
100
AcDbEntity
  8
_U+30EC_U+30A4_U+30E4_U+30FC 1
 62
     7
420
 16777215
370
    25
100
AcDbVertex
100
AcDb2dVertex
 10
90.7634404622095
 20
-136.9077638546617
 30
0.0
  0
VERTEX
  5
88
330
7E
100
AcDbEntity
  8
_U+30EC_U+30A4_U+30E4_U+30FC 1
 62
     7
420
 16777215
370
    25
100
AcDbVertex
100
AcDb2dVertex
 10
86.76403417535397
 20
-136.9077638546617
 30
0.0
  0
VERTEX
  5
89
330
7E
100
AcDbEntity
  8
_U+30EC_U+30A4_U+30E4_U+30FC 1
 62
     7
420
 16777215
370
    25
100
AcDbVertex
100
AcDb2dVertex
 10
86.76403417535397
 20
-124.1073280245287
 30
0.0
  0
SEQEND
  5
8A
330
7E
100
AcDbEntity
  8
_U+30EC_U+30A4_U+30E4_U+30FC 1
 62
     7
420
 16777215
370
    25
  0
SPLINE
  5
8B
330
1F
100
AcDbEntity
  8
_U+30EC_U+30A4_U+30E4_U+30FC 1
 62
     7
420
 16777215
370
     9
100
AcDbSpline
210
0.0
220
0.0
230
1.0
 70
    11
 71
     3
 72
    17
 73
    13
 74
     0
 42
0.0000000001
 43
0.0000000001
 12
1.0
 22
0.0
 32
0.0
 13
1.0
 23
0.0
 33
0.0
 40
0.0
 40
0.0
 40
0.0
 40
0.0
 40
1.0
 40
1.0
 40
1.0
 40
2.0
 40
2.0
 40
2.0
 40
3.0
 40
3.0
 40
3.0
 40
4.0
 40
4.0
 40
4.0
 40
4.0
 10
105.8639870214069
 20
-124.1073280245287
 30
0.0
 10
105.8639870214069
 20
-124.0521888578759
 30
0.0
 10
105.8192221957671
 20
-124.0074213578871
 30
0.0
 10
105.7634100795284
 20
-124.0074213578871
 30
0.0
 10
105.7082709142684
 20
-124.0074213578871
 30
0.0
 10
105.6635034154106
 20
-124.0521888578759
 30
0.0
 10
105.6635034154106
 20
-124.1073280245287
 30
0.0
 10
105.6635034154106
 20
-124.1624319134039
 30
0.0
 10
105.7082709142684
 20
-124.2072346911703
 30
0.0
 10
105.7634100795284
 20
-124.2072346911703
 30
0.0
 10
105.8192221957671
 20
-124.2072346911703
 30
0.0
 10
105.8639870214069
 20
-124.1624319134039
 30
0.0
 10
105.8639870214069
 20
-124.1073280245287
 30
0.0
  0
SPLINE
  5
8C
330
1F
100
AcDbEntity
  8
_U+30EC_U+30A4_U+30E4_U+30FC 1
 62
     7
420
 16777215
370
     9
100
AcDbSpline
210
0.0
220
0.0
230
1.0
 70
    11
 71
     3
 72
    17
 73
    13
 74
     0
 42
0.0000000001
 43
0.0000000001
 12
1.0
 22
0.0
 32
0.0
 13
1.0
 23
0.0
 33
0.0
 40
0.0
 40
0.0
 40
0.0
 40
0.0
 40
1.0
 40
1.0
 40
1.0
 40
2.0
 40
2.0
 40
2.0
 40
3.0
 40
3.0
 40
3.0
 40
4.0
 40
4.0
 40
4.0
 40
4.0
 10
105.8639870214069
 20
-134.9075138551623
 30
0.0
 10
105.8639870214069
 20
-134.8524099662868
 30
0.0
 10
105.8192221957671
 20
-134.8076071885201
 30
0.0
 10
105.7634100795284
 20
-134.8076071885201
 30
0.0
 10
105.7082709142684
 20
-134.8076071885201
 30
0.0
 10
105.6635034154106
 20
-134.8524099662868
 30
0.0
 10
105.6635034154106
 20
-134.9075138551623
 30
0.0
 10
105.6635034154106
 20
-134.9626530218148
 30
0.0
 10
105.7082709142684
 20
-135.007420521804
 30
0.0
 10
105.7634100795284
 20
-135.007420521804
 30
0.0
 10
105.8192221957671
 20
-135.007420521804
 30
0.0
 10
105.8639870214069
 20
-134.9626530218148
 30
0.0
 10
105.8639870214069
 20
-134.9075138551623
 30
0.0
  0
SPLINE
  5
8D
330
1F
100
AcDbEntity
  8
_U+30EC_U+30A4_U+30E4_U+30FC 1
 62
     7
420
 16777215
370
     9
100
AcDbSpline
210
0.0
220
0.0
230
1.0
 70
    11
 71
     3
 72
    17
 73
    13
 74
     0
 42
0.0000000001
 43
0.0000000001
 12
1.0
 22
0.0
 32
0.0
 13
1.0
 23
0.0
 33
0.0
 40
0.0
 40
0.0
 40
0.0
 40
0.0
 40
1.0
 40
1.0
 40
1.0
 40
2.0
 40
2.0
 40
2.0
 40
3.0
 40
3.0
 40
3.0
 40
4.0
 40
4.0
 40
4.0
 40
4.0
 10
105.8639870214069
 20
-136.9077638546617
 30
0.0
 10
105.8639870214069
 20
-136.8526246880092
 30
0.0
 10
105.8192221957671
 20
-136.80785718802
 30
0.0
 10
105.7634100795284
 20
-136.80785718802
 30
0.0
 10
105.7082709142684
 20
-136.80785718802
 30
0.0
 10
105.6635034154106
 20
-136.8526246880092
 30
0.0
 10
105.6635034154106
 20
-136.9077638546617
 30
0.0
 10
105.6635034154106
 20
-136.9628677435372
 30
0.0
 10
105.7082709142684
 20
-137.0076705213039
 30
0.0
 10
105.7634100795284
 20
-137.0076705213039
 30
0.0
 10
105.8192221957671
 20
-137.0076705213039
 30
0.0
 10
105.8639870214069
 20
-136.9628677435372
 30
0.0
 10
105.8639870214069
 20
-136.9077638546617
 30
0.0
  0
SPLINE
  5
8E
330
1F
100
AcDbEntity
  8
_U+30EC_U+30A4_U+30E4_U+30FC 1
 62
     7
420
 16777215
370
     9
100
AcDbSpline
210
0.0
220
0.0
230
1.0
 70
    11
 71
     3
 72
    17
 73
    13
 74
     0
 42
0.0000000001
 43
0.0000000001
 12
1.0
 22
0.0
 32
0.0
 13
1.0
 23
0.0
 33
0.0
 40
0.0
 40
0.0
 40
0.0
 40
0.0
 40
1.0
 40
1.0
 40
1.0
 40
2.0
 40
2.0
 40
2.0
 40
3.0
 40
3.0
 40
3.0
 40
4.0
 40
4.0
 40
4.0
 40
4.0
 10
90.86334712632734
 20
-140.9081932981065
 30
0.0
 10
90.86334712632734
 20
-140.8523838536761
 30
0.0
 10
90.81857962746945
 20
-140.8075810759094
 30
0.0
 10
90.7634404622095
 20
-140.8075810759094
 30
0.0
 10
90.70833886621188
 20
-140.8075810759094
 30
0.0
 10
90.66353608844516
 20
-140.8523838536761
 30
0.0
 10
90.66353608844516
 20
-140.9081932981065
 30
0.0
 10
90.66353608844516
 20
-140.963332464759
 30
0.0
 10
90.70833886621188
 20
-141.0080999647482
 30
0.0
 10
90.7634404622095
 20
-141.0080999647482
 30
0.0
 10
90.81857962746945
 20
-141.0080999647482
 30
0.0
 10
90.86334712632734
 20
-140.963332464759
 30
0.0
 10
90.86334712632734
 20
-140.9081932981065
 30
0.0
  0
SPLINE
  5
8F
330
1F
100
AcDbEntity
  8
_U+30EC_U+30A4_U+30E4_U+30FC 1
 62
     7
420
 16777215
370
     9
100
AcDbSpline
210
0.0
220
0.0
230
1.0
 70
    11
 71
     3
 72
    17
 73
    13
 74
     0
 42
0.0000000001
 43
0.0000000001
 12
1.0
 22
0.0
 32
0.0
 13
1.0
 23
0.0
 33
0.0
 40
0.0
 40
0.0
 40
0.0
 40
0.0
 40
1.0
 40
1.0
 40
1.0
 40
2.0
 40
2.0
 40
2.0
 40
3.0
 40
3.0
 40
3.0
 40
4.0
 40
4.0
 40
4.0
 40
4.0
 10
105.8639870214069
 20
-124.9072869132176
 30
0.0
 10
105.8639870214069
 20
-124.8521477465649
 30
0.0
 10
105.8192221957671
 20
-124.807380246576
 30
0.0
 10
105.7634100795284
 20
-124.807380246576
 30
0.0
 10
105.7082709142684
 20
-124.807380246576
 30
0.0
 10
105.6635034154106
 20
-124.8521477465649
 30
0.0
 10
105.6635034154106
 20
-124.9072869132176
 30
0.0
 10
105.6635034154106
 20
-124.9630963576481
 30
0.0
 10
105.7082709142684
 20
-125.0078638576369
 30
0.0
 10
105.7634100795284
 20
-125.0078638576369
 30
0.0
 10
105.8192221957671
 20
-125.0078638576369
 30
0.0
 10
105.8639870214069
 20
-124.9630963576481
 30
0.0
 10
105.8639870214069
 20
-124.9072869132176
 30
0.0
  0
SPLINE
  5
90
330
1F
100
AcDbEntity
  8
_U+30EC_U+30A4_U+30E4_U+30FC 1
 62
     7
420
 16777215
370
     9
100
AcDbSpline
210
0.0
220
0.0
230
1.0
 70
    11
 71
     3
 72
    17
 73
    13
 74
     0
 42
0.0000000001
 43
0.0000000001
 12
1.0
 22
0.0
 32
0.0
 13
1.0
 23
0.0
 33
0.0
 40
0.0
 40
0.0
 40
0.0
 40
0.0
 40
1.0
 40
1.0
 40
1.0
 40
2.0
 40
2.0
 40
2.0
 40
3.0
 40
3.0
 40
3.0
 40
4.0
 40
4.0
 40
4.0
 40
4.0
 10
101.8635576790219
 20
-120.1075688588621
 30
0.0
 10
101.8635576790219
 20
-120.0524649699869
 30
0.0
 10
101.8187549023872
 20
-120.0076621922205
 30
0.0
 10
101.7636510149041
 20
-120.0076621922205
 30
0.0
 10
101.7085118496441
 20
-120.0076621922205
 30
0.0
 10
101.6637443507862
 20
-120.0524649699869
 30
0.0
 10
101.6637443507862
 20
-120.1075688588621
 30
0.0
 10
101.6637443507862
 20
-120.1627080255149
 30
0.0
 10
101.7085118496441
 20
-120.2074755255038
 30
0.0
 10
101.7636510149041
 20
-120.2074755255038
 30
0.0
 10
101.8187549023872
 20
-120.2074755255038
 30
0.0
 10
101.8635576790219
 20
-120.1627080255149
 30
0.0
 10
101.8635576790219
 20
-120.1075688588621
 30
0.0
  0
SPLINE
  5
91
330
1F
100
AcDbEntity
  8
_U+30EC_U+30A4_U+30E4_U+30FC 1
 62
     7
420
 16777215
370
     9
100
AcDbSpline
210
0.0
220
0.0
230
1.0
 70
    11
 71
     3
 72
    17
 73
    13
 74
     0
 42
0.0000000001
 43
0.0000000001
 12
1.0
 22
0.0
 32
0.0
 13
1.0
 23
0.0
 33
0.0
 40
0.0
 40
0.0
 40
0.0
 40
0.0
 40
1.0
 40
1.0
 40
1.0
 40
2.0
 40
2.0
 40
2.0
 40
3.0
 40
3.0
 40
3.0
 40
4.0
 40
4.0
 40
4.0
 40
4.0
 10
86.8639408394718
 20
-120.1075688588621
 30
0.0
 10
86.8639408394718
 20
-120.0524649699869
 30
0.0
 10
86.81917334061392
 20
-120.0076621922205
 30
0.0
 10
86.76403417535397
 20
-120.0076621922205
 30
0.0
 10
86.70822473233333
 20
-120.0076621922205
 30
0.0
 10
86.66345723347546
 20
-120.0524649699869
 30
0.0
 10
86.66345723347546
 20
-120.1075688588621
 30
0.0
 10
86.66345723347546
 20
-120.1627080255149
 30
0.0
 10
86.70822473233333
 20
-120.2074755255038
 30
0.0
 10
86.76403417535397
 20
-120.2074755255038
 30
0.0
 10
86.81917334061392
 20
-120.2074755255038
 30
0.0
 10
86.8639408394718
 20
-120.1627080255149
 30
0.0
 10
86.8639408394718
 20
-120.1075688588621
 30
0.0
  0
SPLINE
  5
92
330
1F
100
AcDbEntity
  8
_U+30EC_U+30A4_U+30E4_U+30FC 1
 62
     7
420
 16777215
370
     9
100
AcDbSpline
210
0.0
220
0.0
230
1.0
 70
    11
 71
     3
 72
    17
 73
    13
 74
     0
 42
0.0000000001
 43
0.0000000001
 12
1.0
 22
0.0
 32
0.0
 13
1.0
 23
0.0
 33
0.0
 40
0.0
 40
0.0
 40
0.0
 40
0.0
 40
1.0
 40
1.0
 40
1.0
 40
2.0
 40
2.0
 40
2.0
 40
3.0
 40
3.0
 40
3.0
 40
4.0
 40
4.0
 40
4.0
 40
4.0
 10
86.8639408394718
 20
-140.9081932981065
 30
0.0
 10
86.8639408394718
 20
-140.8523838536761
 30
0.0
 10
86.81917334061392
 20
-140.8075810759094
 30
0.0
 10
86.76403417535397
 20
-140.8075810759094
 30
0.0
 10
86.70822473233333
 20
-140.8075810759094
 30
0.0
 10
86.66345723347546
 20
-140.8523838536761
 30
0.0
 10
86.66345723347546
 20
-140.9081932981065
 30
0.0
 10
86.66345723347546
 20
-140.963332464759
 30
0.0
 10
86.70822473233333
 20
-141.0080999647482
 30
0.0
 10
86.76403417535397
 20
-141.0080999647482
 30
0.0
 10
86.81917334061392
 20
-141.0080999647482
 30
0.0
 10
86.8639408394718
 20
-140.963332464759
 30
0.0
 10
86.8639408394718
 20
-140.9081932981065
 30
0.0
  0
POLYLINE
  5
93
330
1F
100
AcDbEntity
  8
_U+30EC_U+30A4_U+30E4_U+30FC 1
 62
     7
420
 16777215
370
     9
100
AcDb2dPolyline
 66
     1
 10
0.0
 20
0.0
 30
0.0
  0
VERTEX
  5
94
330
93
100
AcDbEntity
  8
_U+30EC_U+30A4_U+30E4_U+30FC 1
 62
     7
420
 16777215
370
     9
100
AcDbVertex
100
AcDb2dVertex
 10
105.7634100795284
 20
-133.9077769109673
 30
0.0
  0
VERTEX
  5
95
330
93
100
AcDbEntity
  8
_U+30EC_U+30A4_U+30E4_U+30FC 1
 62
     7
420
 16777215
370
     9
100
AcDbVertex
100
AcDb2dVertex
 10
105.7634100795284
 20
-136.9077638546617
 30
0.0
  0
SEQEND
  5
96
330
93
100
AcDbEntity
  8
_U+30EC_U+30A4_U+30E4_U+30FC 1
 62
     7
420
 16777215
370
     9
  0
POLYLINE
  5
97
330
1F
100
AcDbEntity
  8
_U+30EC_U+30A4_U+30E4_U+30FC 1
 62
     7
420
 16777215
370
     9
100
AcDb2dPolyline
 66
     1
 10
0.0
 20
0.0
 30
0.0
  0
VERTEX
  5
98
330
97
100
AcDbEntity
  8
_U+30EC_U+30A4_U+30E4_U+30FC 1
 62
     7
420
 16777215
370
     9
100
AcDbVertex
100
AcDb2dVertex
 10
93.30386373073124
 20
-136.9077638546617
 30
0.0
  0
VERTEX
  5
99
330
97
100
AcDbEntity
  8
_U+30EC_U+30A4_U+30E4_U+30FC 1
 62
     7
420
 16777215
370
     9
100
AcDbVertex
100
AcDb2dVertex
 10
106.763852554005
 20
-136.9077638546617
 30
0.0
  0
SEQEND
  5
9A
330
97
100
AcDbEntity
  8
_U+30EC_U+30A4_U+30E4_U+30FC 1
 62
     7
420
 16777215
370
     9
  0
INSERT
  5
9C
330
1F
100
AcDbEntity
  8
_U+30EC_U+30A4_U+30E4_U+30FC 1
100
AcDbBlockReference
  2
block 4
 10
0.0
 20
0.0
 30
0.0
  0
POLYLINE
  5
A1
330
1F
100
AcDbEntity
  8
_U+30EC_U+30A4_U+30E4_U+30FC 1
 62
     7
420
 16777215
370
     9
100
AcDb2dPolyline
 66
     1
 10
0.0
 20
0.0
 30
0.0
  0
VERTEX
  5
A2
330
A1
100
AcDbEntity
  8
_U+30EC_U+30A4_U+30E4_U+30FC 1
 62
     7
420
 16777215
370
     9
100
AcDbVertex
100
AcDb2dVertex
 10
86.76403417535397
 20
-120.1075688588621
 30
0.0
  0
VERTEX
  5
A3
330
A1
100
AcDbEntity
  8
_U+30EC_U+30A4_U+30E4_U+30FC 1
 62
     7
420
 16777215
370
     9
100
AcDbVertex
100
AcDb2dVertex
 10
101.7636510149041
 20
-120.1075688588621
 30
0.0
  0
SEQEND
  5
A4
330
A1
100
AcDbEntity
  8
_U+30EC_U+30A4_U+30E4_U+30FC 1
 62
     7
420
 16777215
370
     9
  0
POLYLINE
  5
A5
330
1F
100
AcDbEntity
  8
_U+30EC_U+30A4_U+30E4_U+30FC 1
 62
     7
420
 16777215
370
     9
100
AcDb2dPolyline
 66
     1
 10
0.0
 20
0.0
 30
0.0
  0
VERTEX
  5
A6
330
A5
100
AcDbEntity
  8
_U+30EC_U+30A4_U+30E4_U+30FC 1
 62
     7
420
 16777215
370
     9
100
AcDbVertex
100
AcDb2dVertex
 10
86.76403417535397
 20
-121.5676102473858
 30
0.0
  0
VERTEX
  5
A7
330
A5
100
AcDbEntity
  8
_U+30EC_U+30A4_U+30E4_U+30FC 1
 62
     7
420
 16777215
370
     9
100
AcDbVertex
100
AcDb2dVertex
 10
86.76403417535397
 20
-119.1077966368896
 30
0.0
  0
SEQEND
  5
A8
330
A5
100
AcDbEntity
  8
_U+30EC_U+30A4_U+30E4_U+30FC 1
 62
     7
420
 16777215
370
     9
  0
POLYLINE
  5
A9
330
1F
100
AcDbEntity
  8
_U+30EC_U+30A4_U+30E4_U+30FC 1
 62
     7
420
 16777215
370
     9
100
AcDb2dPolyline
 66
     1
 10
0.0
 20
0.0
 30
0.0
  0
VERTEX
  5
AA
330
A9
100
AcDbEntity
  8
_U+30EC_U+30A4_U+30E4_U+30FC 1
 62
     7
420
 16777215
370
     9
100
AcDbVertex
100
AcDb2dVertex
 10
101.7636510149041
 20
-121.5676102473858
 30
0.0
  0
VERTEX
  5
AB
330
A9
100
AcDbEntity
  8
_U+30EC_U+30A4_U+30E4_U+30FC 1
 62
     7
420
 16777215
370
     9
100
AcDbVertex
100
AcDb2dVertex
 10
101.7636510149041
 20
-119.1077966368896
 30
0.0
  0
SEQEND
  5
AC
330
A9
100
AcDbEntity
  8
_U+30EC_U+30A4_U+30E4_U+30FC 1
 62
     7
420
 16777215
370
     9
  0
INSERT
  5
AE
330
1F
100
AcDbEntity
  8
_U+30EC_U+30A4_U+30E4_U+30FC 1
100
AcDbBlockReference
  2
block 5
 10
0.0
 20
0.0
 30
0.0
  0
POLYLINE
  5
B5
330
1F
100
AcDbEntity
  8
_U+30EC_U+30A4_U+30E4_U+30FC 1
 62
     7
420
 16777215
370
     9
100
AcDb2dPolyline
 66
     1
 10
0.0
 20
0.0
 30
0.0
  0
VERTEX
  5
B6
330
B5
100
AcDbEntity
  8
_U+30EC_U+30A4_U+30E4_U+30FC 1
 62
     7
420
 16777215
370
     9
100
AcDbVertex
100
AcDb2dVertex
 10
86.76403417535397
 20
-140.9081932981065
 30
0.0
  0
VERTEX
  5
B7
330
B5
100
AcDbEntity
  8
_U+30EC_U+30A4_U+30E4_U+30FC 1
 62
     7
420
 16777215
370
     9
100
AcDbVertex
100
AcDb2dVertex
 10
90.7634404622095
 20
-140.9081932981065
 30
0.0
  0
SEQEND
  5
B8
330
B5
100
AcDbEntity
  8
_U+30EC_U+30A4_U+30E4_U+30FC 1
 62
     7
420
 16777215
370
     9
  0
POLYLINE
  5
B9
330
1F
100
AcDbEntity
  8
_U+30EC_U+30A4_U+30E4_U+30FC 1
 62
     7
420
 16777215
370
     9
100
AcDb2dPolyline
 66
     1
 10
0.0
 20
0.0
 30
0.0
  0
VERTEX
  5
BA
330
B9
100
AcDbEntity
  8
_U+30EC_U+30A4_U+30E4_U+30FC 1
 62
     7
420
 16777215
370
     9
100
AcDbVertex
100
AcDb2dVertex
 10
86.76403417535397
 20
-139.4481519095822
 30
0.0
  0
VERTEX
  5
BB
330
B9
100
AcDbEntity
  8
_U+30EC_U+30A4_U+30E4_U+30FC 1
 62
     7
420
 16777215
370
     9
100
AcDbVertex
100
AcDb2dVertex
 10
86.76403417535397
 20
-141.9079655200784
 30
0.0
  0
SEQEND
  5
BC
330
B9
100
AcDbEntity
  8
_U+30EC_U+30A4_U+30E4_U+30FC 1
 62
     7
420
 16777215
370
     9
  0
POLYLINE
  5
BD
330
1F
100
AcDbEntity
  8
_U+30EC_U+30A4_U+30E4_U+30FC 1
 62
     7
420
 16777215
370
     9
100
AcDb2dPolyline
 66
     1
 10
0.0
 20
0.0
 30
0.0
  0
VERTEX
  5
BE
330
BD
100
AcDbEntity
  8
_U+30EC_U+30A4_U+30E4_U+30FC 1
 62
     7
420
 16777215
370
     9
100
AcDbVertex
100
AcDb2dVertex
 10
90.7634404622095
 20
-139.4481519095822
 30
0.0
  0
VERTEX
  5
BF
330
BD
100
AcDbEntity
  8
_U+30EC_U+30A4_U+30E4_U+30FC 1
 62
     7
420
 16777215
370
     9
100
AcDbVertex
100
AcDb2dVertex
 10
90.7634404622095
 20
-141.9079655200784
 30
0.0
  0
SEQEND
  5
C0
330
BD
100
AcDbEntity
  8
_U+30EC_U+30A4_U+30E4_U+30FC 1
 62
     7
420
 16777215
370
     9
  0
INSERT
  5
C2
330
1F
100
AcDbEntity
  8
_U+30EC_U+30A4_U+30E4_U+30FC 1
100
AcDbBlockReference
  2
block 6
 10
0.0
 20
0.0
 30
0.0
  0
POLYLINE
  5
DA
330
1F
100
AcDbEntity
  8
_U+30EC_U+30A4_U+30E4_U+30FC 1
 62
     7
420
 16777215
370
     9
100
AcDb2dPolyline
 66
     1
 10
0.0
 20
0.0
 30
0.0
  0
VERTEX
  5
DB
330
DA
100
AcDbEntity
  8
_U+30EC_U+30A4_U+30E4_U+30FC 1
 62
     7
420
 16777215
370
     9
100
AcDbVertex
100
AcDb2dVertex
 10
105.7634100795284
 20
-124.1073280245287
 30
0.0
  0
VERTEX
  5
DC
330
DA
100
AcDbEntity
  8
_U+30EC_U+30A4_U+30E4_U+30FC 1
 62
     7
420
 16777215
370
     9
100
AcDbVertex
100
AcDb2dVertex
 10
105.7634100795284
 20
-118.8497749702875
 30
0.0
  0
SEQEND
  5
DD
330
DA
100
AcDbEntity
  8
_U+30EC_U+30A4_U+30E4_U+30FC 1
 62
     7
420
 16777215
370
     9
  0
POLYLINE
  5
DE
330
1F
100
AcDbEntity
  8
_U+30EC_U+30A4_U+30E4_U+30FC 1
 62
     7
420
 16777215
370
     9
100
AcDb2dPolyline
 66
     1
 10
0.0
 20
0.0
 30
0.0
  0
VERTEX
  5
DF
330
DE
100
AcDbEntity
  8
_U+30EC_U+30A4_U+30E4_U+30FC 1
 62
     7
420
 16777215
370
     9
100
AcDbVertex
100
AcDb2dVertex
 10
105.7634100795284
 20
-124.9072869132176
 30
0.0
  0
VERTEX
  5
E0
330
DE
100
AcDbEntity
  8
_U+30EC_U+30A4_U+30E4_U+30FC 1
 62
     7
420
 16777215
370
     9
100
AcDbVertex
100
AcDb2dVertex
 10
105.7634100795284
 20
-124.1073280245287
 30
0.0
  0
SEQEND
  5
E1
330
DE
100
AcDbEntity
  8
_U+30EC_U+30A4_U+30E4_U+30FC 1
 62
     7
420
 16777215
370
     9
  0
POLYLINE
  5
E2
330
1F
100
AcDbEntity
  8
_U+30EC_U+30A4_U+30E4_U+30FC 1
 62
     7
420
 16777215
370
     9
100
AcDb2dPolyline
 66
     1
 10
0.0
 20
0.0
 30
0.0
  0
VERTEX
  5
E3
330
E2
100
AcDbEntity
  8
_U+30EC_U+30A4_U+30E4_U+30FC 1
 62
     7
420
 16777215
370
     9
100
AcDbVertex
100
AcDb2dVertex
 10
104.304041640591
 20
-124.9072869132176
 30
0.0
  0
VERTEX
  5
E4
330
E2
100
AcDbEntity
  8
_U+30EC_U+30A4_U+30E4_U+30FC 1
 62
     7
420
 16777215
370
     9
100
AcDbVertex
100
AcDb2dVertex
 10
106.763852554005
 20
-124.9072869132176
 30
0.0
  0
SEQEND
  5
E5
330
E2
100
AcDbEntity
  8
_U+30EC_U+30A4_U+30E4_U+30FC 1
 62
     7
420
 16777215
370
     9
  0
POLYLINE
  5
E6
330
1F
100
AcDbEntity
  8
_U+30EC_U+30A4_U+30E4_U+30FC 1
 62
     7
420
 16777215
370
     9
100
AcDb2dPolyline
 66
     1
 10
0.0
 20
0.0
 30
0.0
  0
VERTEX
  5
E7
330
E6
100
AcDbEntity
  8
_U+30EC_U+30A4_U+30E4_U+30FC 1
 62
     7
420
 16777215
370
     9
100
AcDbVertex
100
AcDb2dVertex
 10
104.304041640591
 20
-124.1073280245287
 30
0.0
  0
VERTEX
  5
E8
330
E6
100
AcDbEntity
  8
_U+30EC_U+30A4_U+30E4_U+30FC 1
 62
     7
420
 16777215
370
     9
100
AcDbVertex
100
AcDb2dVertex
 10
106.763852554005
 20
-124.1073280245287
 30
0.0
  0
SEQEND
  5
E9
330
E6
100
AcDbEntity
  8
_U+30EC_U+30A4_U+30E4_U+30FC 1
 62
     7
420
 16777215
370
     9
  0
INSERT
  5
EB
330
1F
100
AcDbEntity
  8
_U+30EC_U+30A4_U+30E4_U+30FC 1
100
AcDbBlockReference
  2
block 7
 10
0.0
 20
0.0
 30
0.0
  0
POLYLINE
  5
FD
330
1F
100
AcDbEntity
  8
_U+30EC_U+30A4_U+30E4_U+30FC 1
 62
     7
420
 16777215
370
     9
100
AcDb2dPolyline
 66
     1
 10
0.0
 20
0.0
 30
0.0
  0
VERTEX
  5
FE
330
FD
100
AcDbEntity
  8
_U+30EC_U+30A4_U+30E4_U+30FC 1
 62
     7
420
 16777215
370
     9
100
AcDbVertex
100
AcDb2dVertex
 10
105.7634100795284
 20
-124.9072869132176
 30
0.0
  0
VERTEX
  5
FF
330
FD
100
AcDbEntity
  8
_U+30EC_U+30A4_U+30E4_U+30FC 1
 62
     7
420
 16777215
370
     9
100
AcDbVertex
100
AcDb2dVertex
 10
105.7634100795284
 20
-133.9077769109673
 30
0.0
  0
SEQEND
  5
100
330
FD
100
AcDbEntity
  8
_U+30EC_U+30A4_U+30E4_U+30FC 1
 62
     7
420
 16777215
370
     9
  0
POLYLINE
  5
101
330
1F
100
AcDbEntity
  8
_U+30EC_U+30A4_U+30E4_U+30FC 1
 62
     7
420
 16777215
370
     9
100
AcDb2dPolyline
 66
     1
 10
0.0
 20
0.0
 30
0.0
  0
VERTEX
  5
102
330
101
100
AcDbEntity
  8
_U+30EC_U+30A4_U+30E4_U+30FC 1
 62
     7
420
 16777215
370
     9
100
AcDbVertex
100
AcDb2dVertex
 10
104.304041640591
 20
-124.9072869132176
 30
0.0
  0
VERTEX
  5
103
330
101
100
AcDbEntity
  8
_U+30EC_U+30A4_U+30E4_U+30FC 1
 62
     7
420
 16777215
370
     9
100
AcDbVertex
100
AcDb2dVertex
 10
106.763852554005
 20
-124.9072869132176
 30
0.0
  0
SEQEND
  5
104
330
101
100
AcDbEntity
  8
_U+30EC_U+30A4_U+30E4_U+30FC 1
 62
     7
420
 16777215
370
     9
  0
POLYLINE
  5
105
330
1F
100
AcDbEntity
  8
_U+30EC_U+30A4_U+30E4_U+30FC 1
 62
     7
420
 16777215
370
     9
100
AcDb2dPolyline
 66
     1
 10
0.0
 20
0.0
 30
0.0
  0
VERTEX
  5
106
330
105
100
AcDbEntity
  8
_U+30EC_U+30A4_U+30E4_U+30FC 1
 62
     7
420
 16777215
370
     9
100
AcDbVertex
100
AcDb2dVertex
 10
93.30386373073124
 20
-134.9075138551623
 30
0.0
  0
VERTEX
  5
107
330
105
100
AcDbEntity
  8
_U+30EC_U+30A4_U+30E4_U+30FC 1
 62
     7
420
 16777215
370
     9
100
AcDbVertex
100
AcDb2dVertex
 10
106.763852554005
 20
-134.9075138551623
 30
0.0
  0
SEQEND
  5
108
330
105
100
AcDbEntity
  8
_U+30EC_U+30A4_U+30E4_U+30FC 1
 62
     7
420
 16777215
370
     9
  0
POLYLINE
  5
109
330
1F
100
AcDbEntity
  8
_U+30EC_U+30A4_U+30E4_U+30FC 1
  6
AI-Linetype-1
 62
   154
420
    23468
370
    25
100
AcDb2dPolyline
 66
     1
 10
0.0
 20
0.0
 30
0.0
  0
VERTEX
  5
10A
330
109
100
AcDbEntity
  8
_U+30EC_U+30A4_U+30E4_U+30FC 1
  6
AI-Linetype-1
 62
   154
420
    23468
370
    25
100
AcDbVertex
100
AcDb2dVertex
 10
85.95719614038256
 20
-124.1982741356172
 30
0.0
  0
VERTEX
  5
10B
330
109
100
AcDbEntity
  8
_U+30EC_U+30A4_U+30E4_U+30FC 1
  6
AI-Linetype-1
 62
   154
420
    23468
370
    25
100
AcDbVertex
100
AcDb2dVertex
 10
85.95719614038256
 20
-132.1986391336172
 30
0.0
  0
SEQEND
  5
10D
330
109
100
AcDbEntity
  8
_U+30EC_U+30A4_U+30E4_U+30FC 1
  6
AI-Linetype-1
 62
   154
420
    23468
370
    25
  0
ENDSEC
  0
SECTION
  2
OBJECTS
  0
DICTIONARY
  5
C
330
0
100
AcDbDictionary
281
     1
  3
ACAD_GROUP
350
D
  3
ACAD_LAYOUT
350
1A
  3
ACAD_MATERIAL
350
3B
  3
ACAD_MLEADERSTYLE
350
10F
  3
ACAD_MLINESTYLE
350
17
  3
ACAD_PLOTSETTINGS
350
19
  3
ACAD_PLOTSTYLENAME
350
E
  3
ACAD_TABLESTYLE
350
10E
  3
ACAD_VISUALSTYLE
350
2A
  0
SUN
  5
3F
330
29
100
AcDbSun
 90
        1
290
     0
 63
     7
421
 16777215
 40
1.0
291
     1
 91
  2455826
 92
 54000000
292
     0
 70
     2
 71
   256
280
     1
  0
DICTIONARY
  5
D
102
{ACAD_REACTORS
330
C
102
}
330
C
100
AcDbDictionary
281
     1
  0
DICTIONARY
  5
1A
102
{ACAD_REACTORS
330
C
102
}
330
C
100
AcDbDictionary
281
     1
  3
Layout1
350
1E
  3
Layout2
350
26
  3
Model
350
22
  0
DICTIONARY
  5
3B
102
{ACAD_REACTORS
330
C
102
}
330
C
100
AcDbDictionary
281
     1
  3
ByBlock
350
3D
  3
ByLayer
350
3C
  3
Global
350
3E
  0
DICTIONARY
  5
10F
102
{ACAD_REACTORS
330
C
102
}
330
C
100
AcDbDictionary
281
     1
  0
DICTIONARY
  5
17
102
{ACAD_REACTORS
330
C
102
}
330
C
100
AcDbDictionary
281
     1
  3
Standard
350
18
  0
DICTIONARY
  5
19
102
{ACAD_REACTORS
330
C
102
}
330
C
100
AcDbDictionary
281
     1
  0
ACDBDICTIONARYWDFLT
  5
E
102
{ACAD_REACTORS
330
C
102
}
330
C
100
AcDbDictionary
281
     1
  3
Normal
350
F
100
AcDbDictionaryWithDefault
340
F
  0
DICTIONARY
  5
10E
102
{ACAD_REACTORS
330
C
102
}
330
C
100
AcDbDictionary
281
     1
  0
DICTIONARY
  5
2A
102
{ACAD_REACTORS
330
C
102
}
330
C
100
AcDbDictionary
281
     1
  3
2dWireframe
350
2F
  3
3D Hidden
350
31
  3
3dWireframe
350
30
  3
Basic
350
32
  3
Brighten
350
36
  3
ColorChange
350
3A
  3
Conceptual
350
34
  3
Dim
350
35
  3
Facepattern
350
39
  3
Flat
350
2B
  3
FlatWithEdges
350
2C
  3
Gouraud
350
2D
  3
GouraudWithEdges
350
2E
  3
Linepattern
350
38
  3
Realistic
350
33
  3
Thicken
350
37
  0
LAYOUT
  5
1E
102
{ACAD_REACTORS
330
1A
102
}
330
1A
100
AcDbPlotSettings
  1

  2
none_device
  4

  6

 40
0.0
 41
0.0
 42
0.0
 43
0.0
 44
0.0
 45
0.0
 46
0.0
 47
0.0
 48
0.0
 49
0.0
140
0.0
141
0.0
142
1.0
143
1.0
 70
   688
 72
     0
 73
     0
 74
     5
  7

 75
    16
 76
     0
 77
     2
 78
   300
147
1.0
148
0.0
149
0.0
100
AcDbLayout
  1
Layout1
 70
     1
 71
     1
 10
0.0
 20
0.0
 11
12.0
 21
9.0
 12
0.0
 22
0.0
 32
0.0
 14
1.000000000000000E+20
 24
1.000000000000000E+20
 34
1.000000000000000E+20
 15
-1.000000000000000E+20
 25
-1.000000000000000E+20
 35
-1.000000000000000E+20
146
0.0
 13
0.0
 23
0.0
 33
0.0
 16
1.0
 26
0.0
 36
0.0
 17
0.0
 27
1.0
 37
0.0
 76
     0
330
1B
  0
LAYOUT
  5
26
102
{ACAD_REACTORS
330
1A
102
}
330
1A
100
AcDbPlotSettings
  1

  2
none_device
  4

  6

 40
0.0
 41
0.0
 42
0.0
 43
0.0
 44
0.0
 45
0.0
 46
0.0
 47
0.0
 48
0.0
 49
0.0
140
0.0
141
0.0
142
1.0
143
1.0
 70
   688
 72
     0
 73
     0
 74
     5
  7

 75
    16
 76
     0
 77
     2
 78
   300
147
1.0
148
0.0
149
0.0
100
AcDbLayout
  1
Layout2
 70
     1
 71
     2
 10
0.0
 20
0.0
 11
0.0
 21
0.0
 12
0.0
 22
0.0
 32
0.0
 14
0.0
 24
0.0
 34
0.0
 15
0.0
 25
0.0
 35
0.0
146
0.0
 13
0.0
 23
0.0
 33
0.0
 16
1.0
 26
0.0
 36
0.0
 17
0.0
 27
1.0
 37
0.0
 76
     0
330
23
  0
LAYOUT
  5
22
102
{ACAD_REACTORS
330
1A
102
}
330
1A
100
AcDbPlotSettings
  1

  2
none_device
  4

  6

 40
0.0
 41
0.0
 42
0.0
 43
0.0
 44
0.0
 45
0.0
 46
0.0
 47
0.0
 48
0.0
 49
0.0
140
0.0
141
0.0
142
1.0
143
1.0
 70
  1712
 72
     0
 73
     0
 74
     0
  7

 75
     0
 76
     0
 77
     2
 78
   300
147
1.0
148
0.0
149
0.0
100
AcDbLayout
  1
Model
 70
     1
 71
     0
 10
0.0
 20
0.0
 11
12.0
 21
9.0
 12
0.0
 22
0.0
 32
0.0
 14
1.000000000000000E+20
 24
1.000000000000000E+20
 34
1.000000000000000E+20
 15
-1.000000000000000E+20
 25
-1.000000000000000E+20
 35
-1.000000000000000E+20
146
0.0
 13
0.0
 23
0.0
 33
0.0
 16
1.0
 26
0.0
 36
0.0
 17
0.0
 27
1.0
 37
0.0
 76
     0
330
1F
331
29
  0
MATERIAL
  5
3D
102
{ACAD_REACTORS
330
3B
102
}
330
3B
100
AcDbMaterial
  1
ByBlock
 72
     1
 94
      127
  0
MATERIAL
  5
3C
102
{ACAD_REACTORS
330
3B
102
}
330
3B
100
AcDbMaterial
  1
ByLayer
 72
     1
 94
      127
  0
MATERIAL
  5
3E
102
{ACAD_REACTORS
330
3B
102
}
330
3B
100
AcDbMaterial
  1
Global
 72
     1
 94
      127
  0
MLINESTYLE
  5
18
102
{ACAD_REACTORS
330
17
102
}
330
17
100
AcDbMlineStyle
  2
Standard
 70
     0
  3

 62
   256
 51
90.0
 52
90.0
 71
     2
 49
0.5
 62
   256
  6
BYLAYER
 49
-0.5
 62
   256
  6
BYLAYER
  0
ACDBPLACEHOLDER
  5
F
102
{ACAD_REACTORS
330
E
102
}
330
E
  0
VISUALSTYLE
  5
2F
102
{ACAD_REACTORS
330
2A
102
}
330
2A
100
AcDbVisualStyle
  2
2dWireframe
 70
     4
177
     2
291
     0
 71
     0
176
     1
 72
     2
176
     1
 73
     0
176
     1
 90
        0
176
     1
 40
-0.6
176
     1
 41
-30.0
176
     1
 62
     5
 63
     7
421
 16777215
176
     1
 74
     1
176
     1
 91
        4
176
     1
 64
     7
176
     1
 65
   257
176
     1
 75
     1
176
     1
175
     1
176
     1
 42
1.0
176
     1
 92
        0
176
     1
 66
   257
176
     1
 43
1.0
176
     1
 76
     1
176
     1
 77
     6
176
     1
 78
     2
176
     1
 67
     7
176
     1
 79
     5
176
     1
170
     0
176
     1
171
     0
176
     1
290
     0
176
     1
 93
        1
176
     1
 44
0.0
176
     1
173
     0
176
     1
  0
VISUALSTYLE
  5
31
102
{ACAD_REACTORS
330
2A
102
}
330
2A
100
AcDbVisualStyle
  2
3D Hidden
 70
     6
177
     2
291
     0
 71
     1
176
     1
 72
     2
176
     1
 73
     2
176
     1
 90
        0
176
     1
 40
-0.6
176
     1
 41
-30.0
176
     1
 62
     5
 63
     7
421
 16777215
176
     1
 74
     2
176
     1
 91
        2
176
     1
 64
     7
176
     1
 65
   257
176
     1
 75
     2
176
     1
175
     1
176
     1
 42
40.0
176
     1
 92
        0
176
     1
 66
   257
176
     1
 43
1.0
176
     1
 76
     1
176
     1
 77
     6
176
     1
 78
     2
176
     1
 67
     7
176
     1
 79
     3
176
     1
170
     0
176
     1
171
     0
176
     1
290
     0
176
     1
 93
        1
176
     1
 44
0.0
176
     1
173
     0
176
     1
  0
VISUALSTYLE
  5
30
102
{ACAD_REACTORS
330
2A
102
}
330
2A
100
AcDbVisualStyle
  2
3dWireframe
 70
     5
177
     2
291
     0
 71
     0
176
     1
 72
     2
176
     1
 73
     0
176
     1
 90
        0
176
     1
 40
-0.6
176
     1
 41
-30.0
176
     1
 62
     5
 63
     7
421
 16777215
176
     1
 74
     1
176
     1
 91
        4
176
     1
 64
     7
176
     1
 65
   257
176
     1
 75
     1
176
     1
175
     1
176
     1
 42
1.0
176
     1
 92
        0
176
     1
 66
   257
176
     1
 43
1.0
176
     1
 76
     1
176
     1
 77
     6
176
     1
 78
     2
176
     1
 67
     7
176
     1
 79
     5
176
     1
170
     0
176
     1
171
     0
176
     1
290
     0
176
     1
 93
        1
176
     1
 44
0.0
176
     1
173
     0
176
     1
  0
VISUALSTYLE
  5
32
102
{ACAD_REACTORS
330
2A
102
}
330
2A
100
AcDbVisualStyle
  2
Basic
 70
     7
177
     2
291
     1
 71
     1
176
     1
 72
     0
176
     1
 73
     1
176
     1
 90
        0
176
     1
 40
-0.6
176
     1
 41
-30.0
176
     1
 62
     5
 63
     7
421
 16777215
176
     1
 74
     0
176
     1
 91
        4
176
     1
 64
     7
176
     1
 65
   257
176
     1
 75
     1
176
     1
175
     1
176
     1
 42
1.0
176
     1
 92
        8
176
     1
 66
     7
176
     1
 43
1.0
176
     1
 76
     1
176
     1
 77
     6
176
     1
 78
     2
176
     1
 67
     7
176
     1
 79
     5
176
     1
170
     0
176
     1
171
     0
176
     1
290
     0
176
     1
 93
        1
176
     1
 44
0.0
176
     1
173
     0
176
     1
  0
VISUALSTYLE
  5
36
102
{ACAD_REACTORS
330
2A
102
}
330
2A
100
AcDbVisualStyle
  2
Brighten
 70
    12
177
     2
291
     1
 71
     2
176
     1
 72
     2
176
     1
 73
     0
176
     1
 90
        0
176
     1
 40
-0.6
176
     1
 41
-30.0
176
     1
 62
     5
 63
     7
421
 16777215
176
     1
 74
     1
176
     1
 91
        4
176
     1
 64
     7
176
     1
 65
   257
176
     1
 75
     1
176
     1
175
     1
176
     1
 42
1.0
176
     1
 92
        8
176
     1
 66
     7
176
     1
 43
1.0
176
     1
 76
     1
176
     1
 77
     6
176
     1
 78
     2
176
     1
 67
     7
176
     1
 79
     5
176
     1
170
     0
176
     1
171
     0
176
     1
290
     0
176
     1
 93
        1
176
     1
 44
50.0
176
     1
173
     0
176
     1
  0
VISUALSTYLE
  5
3A
102
{ACAD_REACTORS
330
2A
102
}
330
2A
100
AcDbVisualStyle
  2
ColorChange
 70
    16
177
     2
291
     1
 71
     2
176
     1
 72
     2
176
     1
 73
     3
176
     1
 90
        0
176
     1
 40
-0.6
176
     1
 41
-30.0
176
     1
 62
     5
 63
     8
421
  8421504
176
     1
 74
     1
176
     1
 91
        4
176
     1
 64
     7
176
     1
 65
   257
176
     1
 75
     1
176
     1
175
     1
176
     1
 42
1.0
176
     1
 92
        8
176
     1
 66
     8
424
  8421504
176
     1
 43
1.0
176
     1
 76
     1
176
     1
 77
     6
176
     1
 78
     2
176
     1
 67
     7
176
     1
 79
     5
176
     1
170
     0
176
     1
171
     0
176
     1
290
     0
176
     1
 93
        1
176
     1
 44
0.0
176
     1
173
     0
176
     1
  0
VISUALSTYLE
  5
34
102
{ACAD_REACTORS
330
2A
102
}
330
2A
100
AcDbVisualStyle
  2
Conceptual
 70
     9
177
     2
291
     0
 71
     3
176
     1
 72
     2
176
     1
 73
     0
176
     1
 90
        0
176
     1
 40
-0.6
176
     1
 41
-30.0
176
     1
 62
     5
 63
     7
421
 16777215
176
     1
 74
     2
176
     1
 91
        2
176
     1
 64
     7
176
     1
 65
   257
176
     1
 75
     1
176
     1
175
     1
176
     1
 42
40.0
176
     1
 92
        8
176
     1
 66
     7
176
     1
 43
1.0
176
     1
 76
     1
176
     1
 77
     6
176
     1
 78
     2
176
     1
 67
     7
176
     1
 79
     3
176
     1
170
     0
176
     1
171
     0
176
     1
290
     0
176
     1
 93
        1
176
     1
 44
0.0
176
     1
173
     0
176
     1
  0
VISUALSTYLE
  5
35
102
{ACAD_REACTORS
330
2A
102
}
330
2A
100
AcDbVisualStyle
  2
Dim
 70
    11
177
     2
291
     1
 71
     2
176
     1
 72
     2
176
     1
 73
     0
176
     1
 90
        0
176
     1
 40
-0.6
176
     1
 41
-30.0
176
     1
 62
     5
 63
     7
421
 16777215
176
     1
 74
     1
176
     1
 91
        4
176
     1
 64
     7
176
     1
 65
   257
176
     1
 75
     1
176
     1
175
     1
176
     1
 42
1.0
176
     1
 92
        8
176
     1
 66
     7
176
     1
 43
1.0
176
     1
 76
     1
176
     1
 77
     6
176
     1
 78
     2
176
     1
 67
     7
176
     1
 79
     5
176
     1
170
     0
176
     1
171
     0
176
     1
290
     0
176
     1
 93
        1
176
     1
 44
-50.0
176
     1
173
     0
176
     1
  0
VISUALSTYLE
  5
39
102
{ACAD_REACTORS
330
2A
102
}
330
2A
100
AcDbVisualStyle
  2
Facepattern
 70
    15
177
     2
291
     1
 71
     2
176
     1
 72
     2
176
     1
 73
     0
176
     1
 90
        0
176
     1
 40
-0.6
176
     1
 41
-30.0
176
     1
 62
     5
 63
     7
421
 16777215
176
     1
 74
     1
176
     1
 91
        4
176
     1
 64
     7
176
     1
 65
   257
176
     1
 75
     1
176
     1
175
     1
176
     1
 42
1.0
176
     1
 92
        8
176
     1
 66
     7
176
     1
 43
1.0
176
     1
 76
     1
176
     1
 77
     6
176
     1
 78
     2
176
     1
 67
     7
176
     1
 79
     5
176
     1
170
     0
176
     1
171
     0
176
     1
290
     0
176
     1
 93
        1
176
     1
 44
0.0
176
     1
173
     0
176
     1
  0
VISUALSTYLE
  5
2B
102
{ACAD_REACTORS
330
2A
102
}
330
2A
100
AcDbVisualStyle
  2
Flat
 70
     0
177
     2
291
     1
 71
     2
176
     1
 72
     1
176
     1
 73
     1
176
     1
 90
        2
176
     1
 40
-0.6
176
     1
 41
30.0
176
     1
 62
     5
 63
     7
421
 16777215
176
     1
 74
     0
176
     1
 91
        4
176
     1
 64
     7
176
     1
 65
   257
176
     1
 75
     1
176
     1
175
     1
176
     1
 42
1.0
176
     1
 92
        8
176
     1
 66
     7
176
     1
 43
1.0
176
     1
 76
     1
176
     1
 77
     6
176
     1
 78
     2
176
     1
 67
     7
176
     1
 79
     5
176
     1
170
     0
176
     1
171
     0
176
     1
290
     0
176
     1
 93
       13
176
     1
 44
0.0
176
     1
173
     0
176
     1
  0
VISUALSTYLE
  5
2C
102
{ACAD_REACTORS
330
2A
102
}
330
2A
100
AcDbVisualStyle
  2
FlatWithEdges
 70
     1
177
     2
291
     1
 71
     2
176
     1
 72
     1
176
     1
 73
     1
176
     1
 90
        2
176
     1
 40
-0.6
176
     1
 41
30.0
176
     1
 62
     5
 63
     7
421
 16777215
176
     1
 74
     1
176
     1
 91
        4
176
     1
 64
     7
176
     1
 65
   257
176
     1
 75
     1
176
     1
175
     1
176
     1
 42
1.0
176
     1
 92
        0
176
     1
 66
   257
176
     1
 43
1.0
176
     1
 76
     1
176
     1
 77
     6
176
     1
 78
     2
176
     1
 67
     7
176
     1
 79
     5
176
     1
170
     0
176
     1
171
     0
176
     1
290
     0
176
     1
 93
       13
176
     1
 44
0.0
176
     1
173
     0
176
     1
  0
VISUALSTYLE
  5
2D
102
{ACAD_REACTORS
330
2A
102
}
330
2A
100
AcDbVisualStyle
  2
Gouraud
 70
     2
177
     2
291
     1
 71
     2
176
     1
 72
     2
176
     1
 73
     1
176
     1
 90
        2
176
     1
 40
-0.6
176
     1
 41
30.0
176
     1
 62
     5
 63
     7
421
 16777215
176
     1
 74
     0
176
     1
 91
        4
176
     1
 64
     7
176
     1
 65
   257
176
     1
 75
     1
176
     1
175
     1
176
     1
 42
1.0
176
     1
 92
        0
176
     1
 66
     7
176
     1
 43
1.0
176
     1
 76
     1
176
     1
 77
     6
176
     1
 78
     2
176
     1
 67
     7
176
     1
 79
     5
176
     1
170
     0
176
     1
171
     0
176
     1
290
     0
176
     1
 93
       13
176
     1
 44
0.0
176
     1
173
     0
176
     1
  0
VISUALSTYLE
  5
2E
102
{ACAD_REACTORS
330
2A
102
}
330
2A
100
AcDbVisualStyle
  2
GouraudWithEdges
 70
     3
177
     2
291
     1
 71
     2
176
     1
 72
     2
176
     1
 73
     1
176
     1
 90
        2
176
     1
 40
-0.6
176
     1
 41
30.0
176
     1
 62
     5
 63
     7
421
 16777215
176
     1
 74
     1
176
     1
 91
        4
176
     1
 64
     7
176
     1
 65
   257
176
     1
 75
     1
176
     1
175
     1
176
     1
 42
1.0
176
     1
 92
        0
176
     1
 66
   257
176
     1
 43
1.0
176
     1
 76
     1
176
     1
 77
     6
176
     1
 78
     2
176
     1
 67
     7
176
     1
 79
     5
176
     1
170
     0
176
     1
171
     0
176
     1
290
     0
176
     1
 93
       13
176
     1
 44
0.0
176
     1
173
     0
176
     1
  0
VISUALSTYLE
  5
38
102
{ACAD_REACTORS
330
2A
102
}
330
2A
100
AcDbVisualStyle
  2
Linepattern
 70
    14
177
     2
291
     1
 71
     2
176
     1
 72
     2
176
     1
 73
     0
176
     1
 90
        0
176
     1
 40
-0.6
176
     1
 41
-30.0
176
     1
 62
     5
 63
     7
421
 16777215
176
     1
 74
     1
176
     1
 91
        4
176
     1
 64
     7
176
     1
 65
   257
176
     1
 75
     7
176
     1
175
     7
176
     1
 42
1.0
176
     1
 92
        8
176
     1
 66
     7
176
     1
 43
1.0
176
     1
 76
     1
176
     1
 77
     6
176
     1
 78
     2
176
     1
 67
     7
176
     1
 79
     5
176
     1
170
     0
176
     1
171
     0
176
     1
290
     0
176
     1
 93
        1
176
     1
 44
0.0
176
     1
173
     0
176
     1
  0
VISUALSTYLE
  5
33
102
{ACAD_REACTORS
330
2A
102
}
330
2A
100
AcDbVisualStyle
  2
Realistic
 70
     8
177
     2
291
     0
 71
     2
176
     1
 72
     2
176
     1
 73
     0
176
     1
 90
        0
176
     1
 40
-0.6
176
     1
 41
-30.0
176
     1
 62
     5
 63
     7
421
 16777215
176
     1
 74
     1
176
     1
 91
        0
176
     1
 64
     7
176
     1
 65
   257
176
     1
 75
     1
176
     1
175
     1
176
     1
 42
1.0
176
     1
 92
        8
176
     1
 66
     8
424
  7895160
176
     1
 43
1.0
176
     1
 76
     1
176
     1
 77
     6
176
     1
 78
     2
176
     1
 67
     7
176
     1
 79
     5
176
     1
170
     0
176
     1
171
     0
176
     1
290
     0
176
     1
 93
       13
176
     1
 44
0.0
176
     1
173
     0
176
     1
  0
VISUALSTYLE
  5
37
102
{ACAD_REACTORS
330
2A
102
}
330
2A
100
AcDbVisualStyle
  2
Thicken
 70
    13
177
     2
291
     1
 71
     2
176
     1
 72
     2
176
     1
 73
     0
176
     1
 90
        0
176
     1
 40
-0.6
176
     1
 41
-30.0
176
     1
 62
     5
 63
     7
421
 16777215
176
     1
 74
     1
176
     1
 91
        4
176
     1
 64
     7
176
     1
 65
   257
176
     1
 75
     1
176
     1
175
     1
176
     1
 42
1.0
176
     1
 92
       12
176
     1
 66
     7
176
     1
 43
1.0
176
     1
 76
     1
176
     1
 77
     6
176
     1
 78
     2
176
     1
 67
     7
176
     1
 79
     5
176
     1
170
     0
176
     1
171
     0
176
     1
290
     0
176
     1
 93
        1
176
     1
 44
0.0
176
     1
173
     0
176
     1
  0
ENDSEC
  0
EOF
