  0
SECTION
  2
HEADER
  9
$ACADVER
  1
AC1024
  9
$ACADMAINTVER
 70
     6
  9
$DWGCODEPAGE
  3
UNDEFINED
  9
$INSBASE
 10
0.0
 20
0.0
 30
0.0
  9
$EXTMIN
 10
1.000000000000000E+20
 20
1.000000000000000E+20
 30
1.000000000000000E+20
  9
$EXTMAX
 10
-1.000000000000000E+20
 20
-1.000000000000000E+20
 30
-1.000000000000000E+20
  9
$LIMMIN
 10
0.0
 20
0.0
  9
$LIMMAX
 10
12.0
 20
9.0
  9
$ORTHOMODE
 70
     0
  9
$REGENMODE
 70
     1
  9
$FILLMODE
 70
     1
  9
$QTEXTMODE
 70
     0
  9
$MIRRTEXT
 70
     1
  9
$LTSCALE
 40
1.0
  9
$ATTMODE
 70
     1
  9
$TEXTSIZE
 40
0.2
  9
$TRACEWID
 40
0.05
  9
$TEXTSTYLE
  7
Standard
  9
$CLAYER
  8
0
  9
$CELTYPE
  6
ByLayer
  9
$CECOLOR
 62
   256
  9
$CELTSCALE
 40
1.0
  9
$DISPSILH
 70
     0
  9
$DIMSCALE
 40
1.0
  9
$DIMASZ
 40
0.18
  9
$DIMEXO
 40
0.0625
  9
$DIMDLI
 40
0.38
  9
$DIMRND
 40
0.0
  9
$DIMDLE
 40
0.0
  9
$DIMEXE
 40
0.18
  9
$DIMTP
 40
0.0
  9
$DIMTM
 40
0.0
  9
$DIMTXT
 40
0.18
  9
$DIMCEN
 40
0.09
  9
$DIMTSZ
 40
0.0
  9
$DIMTOL
 70
     0
  9
$DIMLIM
 70
     0
  9
$DIMTIH
 70
     1
  9
$DIMTOH
 70
     1
  9
$DIMSE1
 70
     0
  9
$DIMSE2
 70
     0
  9
$DIMTAD
 70
     0
  9
$DIMZIN
 70
     0
  9
$DIMBLK
  1

  9
$DIMASO
 70
     1
  9
$DIMSHO
 70
     1
  9
$DIMPOST
  1

  9
$DIMAPOST
  1

  9
$DIMALT
 70
     0
  9
$DIMALTD
 70
     2
  9
$DIMALTF
 40
25.4
  9
$DIMLFAC
 40
1.0
  9
$DIMTOFL
 70
     0
  9
$DIMTVP
 40
0.0
  9
$DIMTIX
 70
     0
  9
$DIMSOXD
 70
     0
  9
$DIMSAH
 70
     0
  9
$DIMBLK1
  1

  9
$DIMBLK2
  1

  9
$DIMSTYLE
  2
Standard
  9
$DIMCLRD
 70
     0
  9
$DIMCLRE
 70
     0
  9
$DIMCLRT
 70
     0
  9
$DIMTFAC
 40
1.0
  9
$DIMGAP
 40
0.09
  9
$DIMJUST
 70
     0
  9
$DIMSD1
 70
     0
  9
$DIMSD2
 70
     0
  9
$DIMTOLJ
 70
     1
  9
$DIMTZIN
 70
     0
  9
$DIMALTZ
 70
     0
  9
$DIMALTTZ
 70
     0
  9
$DIMUPT
 70
     0
  9
$DIMDEC
 70
     4
  9
$DIMTDEC
 70
     4
  9
$DIMALTU
 70
     2
  9
$DIMALTTD
 70
     2
  9
$DIMTXSTY
  7
Standard
  9
$DIMAUNIT
 70
     0
  9
$DIMADEC
 70
     0
  9
$DIMALTRND
 40
0.0
  9
$DIMAZIN
 70
     0
  9
$DIMDSEP
 70
    46
  9
$DIMATFIT
 70
     3
  9
$DIMFRAC
 70
     0
  9
$DIMLDRBLK
  1

  9
$DIMLUNIT
 70
     2
  9
$DIMLWD
 70
    -2
  9
$DIMLWE
 70
    -2
  9
$DIMTMOVE
 70
     0
  9
$DIMFXL
 40
1.0
  9
$DIMFXLON
 70
     0
  9
$DIMJOGANG
 40
0.7853981633974483
  9
$DIMTFILL
 70
     0
  9
$DIMTFILLCLR
 70
     0
  9
$DIMARCSYM
 70
     0
  9
$DIMLTYPE
  6

  9
$DIMLTEX1
  6

  9
$DIMLTEX2
  6

  9
$DIMTXTDIRECTION
 70
     0
  9
$LUNITS
 70
     2
  9
$LUPREC
 70
     4
  9
$SKETCHINC
 40
0.1
  9
$FILLETRAD
 40
0.5
  9
$AUNITS
 70
     0
  9
$AUPREC
 70
     0
  9
$MENU
  1
.
  9
$ELEVATION
 40
0.0
  9
$PELEVATION
 40
0.0
  9
$THICKNESS
 40
0.0
  9
$LIMCHECK
 70
     0
  9
$CHAMFERA
 40
0.5
  9
$CHAMFERB
 40
0.5
  9
$CHAMFERC
 40
1.0
  9
$CHAMFERD
 40
0.0
  9
$SKPOLY
 70
     0
  9
$TDCREATE
 40
2457917.588877303
  9
$TDUCREATE
 40
2457917.213877315
  9
$TDUPDATE
 40
2457917.588877303
  9
$TDUUPDATE
 40
2457917.213877315
  9
$TDINDWG
 40
0.0000000116
  9
$TDUSRTIMER
 40
0.0000000116
  9
$USRTIMER
 70
     1
  9
$ANGBASE
 50
0.0
  9
$ANGDIR
 70
     0
  9
$PDMODE
 70
     0
  9
$PDSIZE
 40
0.0
  9
$PLINEWID
 40
0.0
  9
$SPLFRAME
 70
     0
  9
$SPLINETYPE
 70
     6
  9
$SPLINESEGS
 70
     8
  9
$HANDSEED
  5
D3
  9
$SURFTAB1
 70
     6
  9
$SURFTAB2
 70
     6
  9
$SURFTYPE
 70
     6
  9
$SURFU
 70
     6
  9
$SURFV
 70
     6
  9
$UCSBASE
  2

  9
$UCSNAME
  2

  9
$UCSORG
 10
0.0
 20
0.0
 30
0.0
  9
$UCSXDIR
 10
1.0
 20
0.0
 30
0.0
  9
$UCSYDIR
 10
0.0
 20
1.0
 30
0.0
  9
$UCSORTHOREF
  2

  9
$UCSORTHOVIEW
 70
     0
  9
$UCSORGTOP
 10
0.0
 20
0.0
 30
0.0
  9
$UCSORGBOTTOM
 10
0.0
 20
0.0
 30
0.0
  9
$UCSORGLEFT
 10
0.0
 20
0.0
 30
0.0
  9
$UCSORGRIGHT
 10
0.0
 20
0.0
 30
0.0
  9
$UCSORGFRONT
 10
0.0
 20
0.0
 30
0.0
  9
$UCSORGBACK
 10
0.0
 20
0.0
 30
0.0
  9
$PUCSBASE
  2

  9
$PUCSNAME
  2

  9
$PUCSORG
 10
0.0
 20
0.0
 30
0.0
  9
$PUCSXDIR
 10
1.0
 20
0.0
 30
0.0
  9
$PUCSYDIR
 10
0.0
 20
1.0
 30
0.0
  9
$PUCSORTHOREF
  2

  9
$PUCSORTHOVIEW
 70
     0
  9
$PUCSORGTOP
 10
0.0
 20
0.0
 30
0.0
  9
$PUCSORGBOTTOM
 10
0.0
 20
0.0
 30
0.0
  9
$PUCSORGLEFT
 10
0.0
 20
0.0
 30
0.0
  9
$PUCSORGRIGHT
 10
0.0
 20
0.0
 30
0.0
  9
$PUCSORGFRONT
 10
0.0
 20
0.0
 30
0.0
  9
$PUCSORGBACK
 10
0.0
 20
0.0
 30
0.0
  9
$USERI1
 70
     0
  9
$USERI2
 70
     0
  9
$USERI3
 70
     0
  9
$USERI4
 70
     0
  9
$USERI5
 70
     0
  9
$USERR1
 40
0.0
  9
$USERR2
 40
0.0
  9
$USERR3
 40
0.0
  9
$USERR4
 40
0.0
  9
$USERR5
 40
0.0
  9
$WORLDVIEW
 70
     1
  9
$SHADEDGE
 70
     3
  9
$SHADEDIF
 70
    70
  9
$TILEMODE
 70
     1
  9
$MAXACTVP
 70
    64
  9
$PINSBASE
 10
0.0
 20
0.0
 30
0.0
  9
$PLIMCHECK
 70
     0
  9
$PEXTMIN
 10
1.000000000000000E+20
 20
1.000000000000000E+20
 30
1.000000000000000E+20
  9
$PEXTMAX
 10
-1.000000000000000E+20
 20
-1.000000000000000E+20
 30
-1.000000000000000E+20
  9
$PLIMMIN
 10
0.0
 20
0.0
  9
$PLIMMAX
 10
12.0
 20
9.0
  9
$UNITMODE
 70
     0
  9
$VISRETAIN
 70
     1
  9
$PLINEGEN
 70
     0
  9
$PSLTSCALE
 70
     1
  9
$TREEDEPTH
 70
  3020
  9
$CMLSTYLE
  2
Standard
  9
$CMLJUST
 70
     0
  9
$CMLSCALE
 40
1.0
  9
$PROXYGRAPHICS
 70
     1
  9
$MEASUREMENT
 70
     0
  9
$CELWEIGHT
370
    -1
  9
$ENDCAPS
280
     0
  9
$JOINSTYLE
280
     0
  9
$LWDISPLAY
290
     1
  9
$INSUNITS
 70
     1
  9
$HYPERLINKBASE
  1

  9
$STYLESHEET
  1

  9
$XEDIT
290
     1
  9
$CEPSNTYPE
380
     0
  9
$PSTYLEMODE
290
     1
  9
$FINGERPRINTGUID
  2
{E712F627-7993-5B75-D575-94A450C4293C}
  9
$VERSIONGUID
  2
{FAEB1C32-E019-11D5-929B-00C0DF256EC4}
  9
$EXTNAMES
290
     1
  9
$PSVPSCALE
 40
0.0
  9
$OLESTARTUP
290
     0
  9
$SORTENTS
280
   127
  9
$INDEXCTL
280
     0
  9
$HIDETEXT
280
     1
  9
$XCLIPFRAME
280
     2
  9
$HALOGAP
280
     0
  9
$OBSCOLOR
 70
   257
  9
$OBSLTYPE
280
     0
  9
$INTERSECTIONDISPLAY
280
     0
  9
$INTERSECTIONCOLOR
 70
   257
  9
$DIMASSOC
280
     2
  9
$PROJECTNAME
  1

  9
$CAMERADISPLAY
290
     0
  9
$LENSLENGTH
 40
50.0
  9
$CAMERAHEIGHT
 40
0.0
  9
$STEPSPERSEC
 40
2.0
  9
$STEPSIZE
 40
6.0
  9
$3DDWFPREC
 40
2.0
  9
$PSOLWIDTH
 40
0.25
  9
$PSOLHEIGHT
 40
4.0
  9
$LOFTANG1
 40
1.570796326794897
  9
$LOFTANG2
 40
1.570796326794897
  9
$LOFTMAG1
 40
0.0
  9
$LOFTMAG2
 40
0.0
  9
$LOFTPARAM
 70
     7
  9
$LOFTNORMALS
280
     1
  9
$LATITUDE
 40
37.795
  9
$LONGITUDE
 40
-122.394
  9
$NORTHDIRECTION
 40
0.0
  9
$TIMEZONE
 70
 -8000
  9
$LIGHTGLYPHDISPLAY
280
     1
  9
$TILEMODELIGHTSYNCH
280
     1
  9
$CMATERIAL
347
3C
  9
$SOLIDHIST
280
     1
  9
$SHOWHIST
280
     1
  9
$DWFFRAME
280
     2
  9
$DGNFRAME
280
     2
  9
$REALWORLDSCALE
290
     1
  9
$INTERFERECOLOR
 62
   256
  9
$CSHADOW
280
     0
  9
$SHADOWPLANELOCATION
 40
0.0
  0
ENDSEC
  0
SECTION
  2
CLASSES
  0
CLASS
  1
ACDBDICTIONARYWDFLT
  2
AcDbDictionaryWithDefault
  3
ObjectDBX Classes
 90
        0
 91
        4
280
     0
281
     0
  0
CLASS
  1
VISUALSTYLE
  2
AcDbVisualStyle
  3
ObjectDBX Classes
 90
     4095
 91
        4
280
     0
281
     0
  0
CLASS
  1
MATERIAL
  2
AcDbMaterial
  3
ObjectDBX Classes
 90
     1153
 91
        4
280
     0
281
     0
  0
CLASS
  1
SUN
  2
AcDbSun
  3
SCENEOE
 90
     1024
 91
        4
280
     0
281
     0
  0
ENDSEC
  0
SECTION
  2
TABLES
  0
TABLE
  2
VPORT
  5
8
330
0
100
AcDbSymbolTable
 70
     1
  0
VPORT
  5
29
330
8
100
AcDbSymbolTableRecord
100
AcDbViewportTableRecord
  2
*Active
 70
     0
 10
0.0
 20
0.0
 11
1.0
 21
1.0
 12
0.0
 22
0.0
 13
0.0
 23
0.0
 14
0.5
 24
0.5
 15
0.5
 25
0.5
 16
0.0
 26
0.0
 36
1.0
 17
63.499999984125
 27
-89.00059456108309
 37
0.0
 40
178.0011891221662
 41
0.7134783795241226
 42
50.0
 43
0.0
 44
0.0
 50
0.0
 51
0.0
 71
     0
 72
   100
 73
     1
 74
     3
 75
     0
 76
     0
 77
     0
 78
     0
281
     0
 65
     1
110
0.0
120
0.0
130
0.0
111
1.0
121
0.0
131
0.0
112
0.0
122
1.0
132
0.0
 79
     0
146
0.0
 60
     3
 61
     5
292
     1
282
     1
141
0.0
142
0.0
 63
   250
361
3F
  0
ENDTAB
  0
TABLE
  2
LTYPE
  5
5
330
0
100
AcDbSymbolTable
 70
     1
  0
LTYPE
  5
14
330
5
100
AcDbSymbolTableRecord
100
AcDbLinetypeTableRecord
  2
ByBlock
 70
     0
  3

 72
    65
 73
     0
 40
0.0
  0
LTYPE
  5
15
330
5
100
AcDbSymbolTableRecord
100
AcDbLinetypeTableRecord
  2
ByLayer
 70
     0
  3

 72
    65
 73
     0
 40
0.0
  0
LTYPE
  5
16
330
5
100
AcDbSymbolTableRecord
100
AcDbLinetypeTableRecord
  2
Continuous
 70
     0
  3
Solid line
 72
    65
 73
     0
 40
0.0
  0
ENDTAB
  0
TABLE
  2
LAYER
  5
2
330
0
100
AcDbSymbolTable
 70
     2
  0
LAYER
  5
10
330
2
100
AcDbSymbolTableRecord
100
AcDbLayerTableRecord
  2
0
 70
     0
 62
     7
  6
Continuous
370
    -3
390
F
347
3E
  0
LAYER
  5
40
330
2
100
AcDbSymbolTableRecord
100
AcDbLayerTableRecord
  2
_U+30EC_U+30A4_U+30E4_U+30FC 1
 70
     0
 62
     7
  6
Continuous
370
    -3
390
F
347
3E
  0
ENDTAB
  0
TABLE
  2
STYLE
  5
3
330
0
100
AcDbSymbolTable
 70
     1
  0
STYLE
  5
11
330
3
100
AcDbSymbolTableRecord
100
AcDbTextStyleTableRecord
  2
Standard
 70
     0
 40
0.0
 41
1.0
 50
0.0
 71
     0
 42
0.2
  3
txt
  4

  0
ENDTAB
  0
TABLE
  2
VIEW
  5
6
330
0
100
AcDbSymbolTable
 70
     0
  0
ENDTAB
  0
TABLE
  2
UCS
  5
7
330
0
100
AcDbSymbolTable
 70
     0
  0
ENDTAB
  0
TABLE
  2
APPID
  5
9
330
0
100
AcDbSymbolTable
 70
     1
  0
APPID
  5
12
330
9
100
AcDbSymbolTableRecord
100
AcDbRegAppTableRecord
  2
ACAD
 70
     0
  0
ENDTAB
  0
TABLE
  2
DIMSTYLE
  5
A
330
0
100
AcDbSymbolTable
 70
     1
100
AcDbDimStyleTable
  0
DIMSTYLE
105
27
330
A
100
AcDbSymbolTableRecord
100
AcDbDimStyleTableRecord
  2
Standard
 70
     0
178
     0
340
11
  0
ENDTAB
  0
TABLE
  2
BLOCK_RECORD
  5
1
330
0
100
AcDbSymbolTable
 70
     6
  0
BLOCK_RECORD
  5
1F
330
1
100
AcDbSymbolTableRecord
100
AcDbBlockTableRecord
  2
*Model_Space
340
22
 70
     0
280
     1
281
     0
  0
BLOCK_RECORD
  5
1B
330
1
100
AcDbSymbolTableRecord
100
AcDbBlockTableRecord
  2
*Paper_Space
340
1E
 70
     0
280
     1
281
     0
  0
BLOCK_RECORD
  5
23
330
1
100
AcDbSymbolTableRecord
100
AcDbBlockTableRecord
  2
*Paper_Space0
340
26
 70
     0
280
     1
281
     0
  0
BLOCK_RECORD
  5
8E
330
1
100
AcDbSymbolTableRecord
100
AcDbBlockTableRecord
  2
block 2
340
0
102
{BLKREFS
331
8F
102
}
 70
     0
280
     1
281
     0
  0
BLOCK_RECORD
  5
A1
330
1
100
AcDbSymbolTableRecord
100
AcDbBlockTableRecord
  2
block 3
340
0
102
{BLKREFS
331
A2
102
}
 70
     0
280
     1
281
     0
  0
BLOCK_RECORD
  5
A7
330
1
100
AcDbSymbolTableRecord
100
AcDbBlockTableRecord
  2
block 4
340
0
102
{BLKREFS
331
A8
102
}
 70
     0
280
     1
281
     0
  0
BLOCK_RECORD
  5
C0
330
1
100
AcDbSymbolTableRecord
100
AcDbBlockTableRecord
  2
block 5
340
0
102
{BLKREFS
331
C1
102
}
 70
     0
280
     1
281
     0
  0
BLOCK_RECORD
  5
C8
330
1
100
AcDbSymbolTableRecord
100
AcDbBlockTableRecord
  2
block 6
340
0
102
{BLKREFS
331
C9
102
}
 70
     0
280
     1
281
     0
  0
ENDTAB
  0
ENDSEC
  0
SECTION
  2
BLOCKS
  0
BLOCK
  5
20
330
1F
100
AcDbEntity
  8
0
100
AcDbBlockBegin
  2
*Model_Space
 70
     0
 10
0.0
 20
0.0
 30
0.0
  3
*Model_Space
  1

  0
ENDBLK
  5
21
330
1F
100
AcDbEntity
  8
0
100
AcDbBlockEnd
  0
BLOCK
  5
1C
330
1B
100
AcDbEntity
 67
     1
  8
0
100
AcDbBlockBegin
  2
*Paper_Space
 70
     0
 10
0.0
 20
0.0
 30
0.0
  3
*Paper_Space
  1

  0
ENDBLK
  5
1D
330
1B
100
AcDbEntity
 67
     1
  8
0
100
AcDbBlockEnd
  0
BLOCK
  5
24
330
23
100
AcDbEntity
  8
0
100
AcDbBlockBegin
  2
*Paper_Space0
 70
     0
 10
0.0
 20
0.0
 30
0.0
  3
*Paper_Space0
  1

  0
ENDBLK
  5
25
330
23
100
AcDbEntity
  8
0
100
AcDbBlockEnd
  0
BLOCK
  5
90
330
8E
100
AcDbEntity
  8
0
100
AcDbBlockBegin
  2
block 2
 70
     0
 10
0.0
 20
0.0
 30
0.0
  3
block 2
  1

  0
SPLINE
  5
92
330
8E
100
AcDbEntity
  8
_U+30EC_U+30A4_U+30E4_U+30FC 1
370
     0
100
AcDbSpline
210
0.0
220
0.0
230
1.0
 70
    11
 71
     3
 72
    29
 73
    25
 74
     0
 42
0.0000000001
 43
0.0000000001
 12
1.0
 22
0.0
 32
0.0
 13
1.0
 23
0.0
 33
0.0
 40
0.0
 40
0.0
 40
0.0
 40
0.0
 40
1.0
 40
1.0
 40
1.0
 40
2.0
 40
2.0
 40
2.0
 40
3.0
 40
3.0
 40
3.0
 40
4.0
 40
4.0
 40
4.0
 40
5.0
 40
5.0
 40
5.0
 40
6.0
 40
6.0
 40
6.0
 40
7.0
 40
7.0
 40
7.0
 40
8.0
 40
8.0
 40
8.0
 40
8.0
 10
71.60217554633557
 20
-82.02427840831338
 30
0.0
 10
71.81163735183875
 20
-82.13245440655022
 30
0.0
 10
71.83058537700764
 20
-82.30574270945829
 30
0.0
 10
71.83058537700764
 20
-82.42218693685973
 30
0.0
 10
71.83058537700764
 20
-82.58307289602091
 30
0.0
 10
71.78407658795676
 20
-82.72466632046466
 30
0.0
 10
71.60217554633557
 20
-82.81975095585757
 30
0.0
 10
71.40718314187043
 20
-82.92344832996359
 30
0.0
 10
71.17050508203377
 20
-82.94274086468099
 30
0.0
 10
71.00755206558145
 20
-82.94274086468099
 30
0.0
 10
70.86354707429801
 20
-82.94274086468099
 30
0.0
 10
70.61205510387477
 20
-82.92551538725473
 30
0.0
 10
70.41292858482733
 20
-82.81975095585757
 30
0.0
 10
70.21001246074611
 20
-82.71191946716925
 30
0.0
 10
70.18693032099493
 20
-82.55103350800808
 30
0.0
 10
70.18693032099493
 20
-82.42218693685973
 30
0.0
 10
70.18693032099493
 20
-82.26336803498971
 30
0.0
 10
70.23102754320614
 20
-82.1197075532548
 30
0.0
 10
70.41292858482733
 20
-82.02427840831338
 30
0.0
 10
70.60585393200132
 20
-81.92505965833818
 30
0.0
 10
70.83391925312486
 20
-81.90163300903849
 30
0.0
 10
71.00755206558145
 20
-81.90163300903849
 30
0.0
 10
71.1791178207469
 20
-81.90163300903849
 30
0.0
 10
71.4095947087101
 20
-81.92299260104703
 30
0.0
 10
71.60217554633557
 20
-82.02427840831338
 30
0.0
  0
SPLINE
  5
93
330
8E
100
AcDbEntity
  8
_U+30EC_U+30A4_U+30E4_U+30FC 1
370
     0
100
AcDbSpline
210
0.0
220
0.0
230
1.0
 70
    11
 71
     3
 72
    17
 73
    13
 74
     0
 42
0.0000000001
 43
0.0000000001
 12
1.0
 22
0.0
 32
0.0
 13
1.0
 23
0.0
 33
0.0
 40
0.0
 40
0.0
 40
0.0
 40
0.0
 40
1.0
 40
1.0
 40
1.0
 40
2.0
 40
2.0
 40
2.0
 40
3.0
 40
3.0
 40
3.0
 40
4.0
 40
4.0
 40
4.0
 40
4.0
 10
70.37916664907188
 20
-82.42218693685973
 30
0.0
 10
70.37916664907188
 20
-82.67195635954035
 30
0.0
 10
70.66304251705647
 20
-82.71846514859122
 30
0.0
 10
71.00755206558145
 20
-82.71846514859122
 30
0.0
 10
71.32725692661263
 20
-82.71846514859122
 30
0.0
 10
71.63593748209102
 20
-82.6822916459961
 30
0.0
 10
71.63593748209102
 20
-82.42218693685973
 30
0.0
 10
71.63593748209102
 20
-82.17448457147027
 30
0.0
 10
71.3544731809461
 20
-82.12590872512826
 30
0.0
 10
71.00755206558145
 20
-82.12590872512826
 30
0.0
 10
70.68819171409879
 20
-82.12590872512826
 30
0.0
 10
70.37916664907188
 20
-82.16414928501452
 30
0.0
 10
70.37916664907188
 20
-82.42218693685973
 30
0.0
  0
HATCH
  5
94
330
8E
100
AcDbEntity
  8
_U+30EC_U+30A4_U+30E4_U+30FC 1
 62
     7
420
 16777215
100
AcDbHatch
 10
0.0
 20
0.0
 30
0.0
210
0.0
220
0.0
230
1.0
  2
SOLID
 70
     1
 71
     0
 91
        2
 92
        1
 93
        1
 72
     4
 94
        3
 73
     0
 74
     1
 95
       29
 96
       25
 40
0.0
 40
0.0
 40
0.0
 40
0.0
 40
1.0
 40
1.0
 40
1.0
 40
2.0
 40
2.0
 40
2.0
 40
3.0
 40
3.0
 40
3.0
 40
4.0
 40
4.0
 40
4.0
 40
5.0
 40
5.0
 40
5.0
 40
6.0
 40
6.0
 40
6.0
 40
7.0
 40
7.0
 40
7.0
 40
8.0
 40
8.0
 40
8.0
 40
8.0
 10
71.60217554633557
 20
-82.02427840831338
 10
71.81163735183875
 20
-82.13245440655022
 10
71.83058537700764
 20
-82.30574270945829
 10
71.83058537700764
 20
-82.42218693685973
 10
71.83058537700764
 20
-82.58307289602091
 10
71.78407658795676
 20
-82.72466632046466
 10
71.60217554633557
 20
-82.81975095585757
 10
71.40718314187043
 20
-82.92344832996359
 10
71.17050508203377
 20
-82.94274086468099
 10
71.00755206558145
 20
-82.94274086468099
 10
70.86354707429801
 20
-82.94274086468099
 10
70.61205510387477
 20
-82.92551538725473
 10
70.41292858482733
 20
-82.81975095585757
 10
70.21001246074611
 20
-82.71191946716925
 10
70.18693032099493
 20
-82.55103350800808
 10
70.18693032099493
 20
-82.42218693685973
 10
70.18693032099493
 20
-82.26336803498971
 10
70.23102754320614
 20
-82.1197075532548
 10
70.41292858482733
 20
-82.02427840831338
 10
70.60585393200132
 20
-81.92505965833818
 10
70.83391925312486
 20
-81.90163300903849
 10
71.00755206558145
 20
-81.90163300903849
 10
71.1791178207469
 20
-81.90163300903849
 10
71.4095947087101
 20
-81.92299260104703
 10
71.60217554633557
 20
-82.02427840831338
 97
        0
 97
        0
 92
        1
 93
        1
 72
     4
 94
        3
 73
     0
 74
     1
 95
       17
 96
       13
 40
0.0
 40
0.0
 40
0.0
 40
0.0
 40
1.0
 40
1.0
 40
1.0
 40
2.0
 40
2.0
 40
2.0
 40
3.0
 40
3.0
 40
3.0
 40
4.0
 40
4.0
 40
4.0
 40
4.0
 10
70.37916664907188
 20
-82.42218693685973
 10
70.37916664907188
 20
-82.67195635954035
 10
70.66304251705647
 20
-82.71846514859122
 10
71.00755206558145
 20
-82.71846514859122
 10
71.32725692661263
 20
-82.71846514859122
 10
71.63593748209102
 20
-82.6822916459961
 10
71.63593748209102
 20
-82.42218693685973
 10
71.63593748209102
 20
-82.17448457147027
 10
71.3544731809461
 20
-82.12590872512826
 10
71.00755206558145
 20
-82.12590872512826
 10
70.68819171409879
 20
-82.12590872512826
 10
70.37916664907188
 20
-82.16414928501452
 10
70.37916664907188
 20
-82.42218693685973
 97
        0
 97
        0
 75
     2
 76
     1
 98
        0
  0
POLYLINE
  5
95
330
8E
100
AcDbEntity
  8
_U+30EC_U+30A4_U+30E4_U+30FC 1
370
     0
100
AcDb2dPolyline
 66
     1
 10
0.0
 20
0.0
 30
0.0
  0
VERTEX
  5
96
330
95
100
AcDbEntity
  8
_U+30EC_U+30A4_U+30E4_U+30FC 1
370
     0
100
AcDbVertex
100
AcDb2dVertex
 10
71.77994247337446
 20
-81.6852810125648
 30
0.0
  0
VERTEX
  5
97
330
95
100
AcDbEntity
  8
_U+30EC_U+30A4_U+30E4_U+30FC 1
370
     0
100
AcDbVertex
100
AcDb2dVertex
 10
71.5281059934027
 20
-81.6852810125648
 30
0.0
  0
VERTEX
  5
98
330
95
100
AcDbEntity
  8
_U+30EC_U+30A4_U+30E4_U+30FC 1
370
     0
100
AcDbVertex
100
AcDb2dVertex
 10
71.5281059934027
 20
-81.43344453259303
 30
0.0
  0
VERTEX
  5
99
330
95
100
AcDbEntity
  8
_U+30EC_U+30A4_U+30E4_U+30FC 1
370
     0
100
AcDbVertex
100
AcDb2dVertex
 10
71.77994247337446
 20
-81.43344453259303
 30
0.0
  0
VERTEX
  5
9A
330
95
100
AcDbEntity
  8
_U+30EC_U+30A4_U+30E4_U+30FC 1
370
     0
100
AcDbVertex
100
AcDb2dVertex
 10
71.77994247337446
 20
-81.6852810125648
 30
0.0
  0
SEQEND
  5
9B
330
95
100
AcDbEntity
  8
_U+30EC_U+30A4_U+30E4_U+30FC 1
370
     0
  0
HATCH
  5
9C
330
8E
100
AcDbEntity
  8
_U+30EC_U+30A4_U+30E4_U+30FC 1
 62
     7
420
 16777215
100
AcDbHatch
 10
0.0
 20
0.0
 30
0.0
210
0.0
220
0.0
230
1.0
  2
SOLID
 70
     1
 71
     0
 91
        1
 92
        1
 93
        4
 72
     1
 10
71.77994247337446
 20
-81.6852810125648
 11
71.5281059934027
 21
-81.6852810125648
 72
     1
 10
71.5281059934027
 20
-81.6852810125648
 11
71.5281059934027
 21
-81.43344453259303
 72
     1
 10
71.5281059934027
 20
-81.43344453259303
 11
71.77994247337446
 21
-81.43344453259303
 72
     1
 10
71.77994247337446
 20
-81.43344453259303
 11
71.77994247337446
 21
-81.6852810125648
 97
        0
 75
     2
 76
     1
 98
        0
  0
SPLINE
  5
9D
330
8E
100
AcDbEntity
  8
_U+30EC_U+30A4_U+30E4_U+30FC 1
370
     0
100
AcDbSpline
210
0.0
220
0.0
230
1.0
 70
    11
 71
     3
 72
    29
 73
    25
 74
     0
 42
0.0000000001
 43
0.0000000001
 12
1.0
 22
0.0
 32
0.0
 13
1.0
 23
0.0
 33
0.0
 40
0.0
 40
0.0
 40
0.0
 40
0.0
 40
1.0
 40
1.0
 40
1.0
 40
2.0
 40
2.0
 40
2.0
 40
3.0
 40
3.0
 40
3.0
 40
4.0
 40
4.0
 40
4.0
 40
5.0
 40
5.0
 40
5.0
 40
6.0
 40
6.0
 40
6.0
 40
7.0
 40
7.0
 40
7.0
 40
8.0
 40
8.0
 40
8.0
 40
8.0
 10
71.83058537700764
 20
-80.69722762739514
 30
0.0
 10
71.83058537700764
 20
-80.96387801795348
 30
0.0
 10
71.69312606714617
 20
-81.21743704566786
 30
0.0
 10
71.34379338494183
 20
-81.21743704566786
 30
0.0
 10
71.08816729993629
 20
-81.21743704566786
 30
0.0
 10
70.99273815499487
 20
-81.0758436212241
 30
0.0
 10
70.93141545535742
 20
-80.97007918982693
 30
0.0
 10
70.87215981301112
 20
-81.09479164639298
 30
0.0
 10
70.75812715244936
 20
-81.17092825661699
 30
0.0
 10
70.5972411932882
 20
-81.17092825661699
 30
0.0
 10
70.32197806401673
 20
-81.17092825661699
 30
0.0
 10
70.18693032099493
 20
-80.97214624711808
 30
0.0
 10
70.18693032099493
 20
-80.69722762739514
 30
0.0
 10
70.18693032099493
 20
-80.41369626895909
 30
0.0
 10
70.33059080272986
 20
-80.22318248862476
 30
0.0
 10
70.5972411932882
 20
-80.22318248862476
 30
0.0
 10
70.75812715244936
 20
-80.22318248862476
 30
0.0
 10
70.87215981301112
 20
-80.30173066568845
 30
0.0
 10
70.93141545535742
 20
-80.4264431222545
 30
0.0
 10
70.9820583589906
 20
-80.33755965873506
 30
0.0
 10
71.07748750393202
 20
-80.17874075686504
 30
0.0
 10
71.33965927035953
 20
-80.17874075686504
 30
0.0
 10
71.71414114960619
 20
-80.17874075686504
 30
0.0
 10
71.83058537700764
 20
-80.4581380007188
 30
0.0
 10
71.83058537700764
 20
-80.69722762739514
 30
0.0
  0
SPLINE
  5
9E
330
8E
100
AcDbEntity
  8
_U+30EC_U+30A4_U+30E4_U+30FC 1
370
     0
100
AcDbSpline
210
0.0
220
0.0
230
1.0
 70
    11
 71
     3
 72
    17
 73
    13
 74
     0
 42
0.0000000001
 43
0.0000000001
 12
1.0
 22
0.0
 32
0.0
 13
1.0
 23
0.0
 33
0.0
 40
0.0
 40
0.0
 40
0.0
 40
0.0
 40
1.0
 40
1.0
 40
1.0
 40
2.0
 40
2.0
 40
2.0
 40
3.0
 40
3.0
 40
3.0
 40
4.0
 40
4.0
 40
4.0
 40
4.0
 10
70.37916664907188
 20
-80.69722762739514
 30
0.0
 10
70.37916664907188
 20
-80.86224770113861
 30
0.0
 10
70.47425128446477
 20
-80.94665254052723
 30
0.0
 10
70.60998804658362
 20
-80.94665254052723
 30
0.0
 10
70.73263344585851
 20
-80.94665254052723
 30
0.0
 10
70.85114473055111
 20
-80.87499455443404
 30
0.0
 10
70.85114473055111
 20
-80.69722762739514
 30
0.0
 10
70.85114473055111
 20
-80.51946070035625
 30
0.0
 10
70.73263344585851
 20
-80.44745820471452
 30
0.0
 10
70.60998804658362
 20
-80.44745820471452
 30
0.0
 10
70.47425128446477
 20
-80.44745820471452
 30
0.0
 10
70.37916664907188
 20
-80.53427461094283
 30
0.0
 10
70.37916664907188
 20
-80.69722762739514
 30
0.0
  0
SPLINE
  5
9F
330
8E
100
AcDbEntity
  8
_U+30EC_U+30A4_U+30E4_U+30FC 1
370
     0
100
AcDbSpline
210
0.0
220
0.0
230
1.0
 70
    11
 71
     3
 72
    17
 73
    13
 74
     0
 42
0.0000000001
 43
0.0000000001
 12
1.0
 22
0.0
 32
0.0
 13
1.0
 23
0.0
 33
0.0
 40
0.0
 40
0.0
 40
0.0
 40
0.0
 40
1.0
 40
1.0
 40
1.0
 40
2.0
 40
2.0
 40
2.0
 40
3.0
 40
3.0
 40
3.0
 40
4.0
 40
4.0
 40
4.0
 40
4.0
 10
71.03924694404574
 20
-80.69722762739514
 30
0.0
 10
71.03924694404574
 20
-80.84088810913006
 30
0.0
 10
71.12606335027404
 20
-80.99350583912663
 30
0.0
 10
71.32932398390378
 20
-80.99350583912663
 30
0.0
 10
71.53430716527615
 20
-80.99350583912663
 30
0.0
 10
71.63593748209102
 20
-80.86638181572091
 30
0.0
 10
71.63593748209102
 20
-80.69722762739514
 30
0.0
 10
71.63593748209102
 20
-80.51119247119165
 30
0.0
 10
71.51329208281612
 20
-80.40094941566366
 30
0.0
 10
71.33552515577723
 20
-80.40094941566366
 30
0.0
 10
71.11331649697861
 20
-80.40094941566366
 30
0.0
 10
71.03924694404574
 20
-80.56390243211597
 30
0.0
 10
71.03924694404574
 20
-80.69722762739514
 30
0.0
  0
HATCH
  5
A0
330
8E
100
AcDbEntity
  8
_U+30EC_U+30A4_U+30E4_U+30FC 1
 62
     7
420
 16777215
100
AcDbHatch
 10
0.0
 20
0.0
 30
0.0
210
0.0
220
0.0
230
1.0
  2
SOLID
 70
     1
 71
     0
 91
        3
 92
        1
 93
        1
 72
     4
 94
        3
 73
     0
 74
     1
 95
       29
 96
       25
 40
0.0
 40
0.0
 40
0.0
 40
0.0
 40
1.0
 40
1.0
 40
1.0
 40
2.0
 40
2.0
 40
2.0
 40
3.0
 40
3.0
 40
3.0
 40
4.0
 40
4.0
 40
4.0
 40
5.0
 40
5.0
 40
5.0
 40
6.0
 40
6.0
 40
6.0
 40
7.0
 40
7.0
 40
7.0
 40
8.0
 40
8.0
 40
8.0
 40
8.0
 10
71.83058537700764
 20
-80.69722762739514
 10
71.83058537700764
 20
-80.96387801795348
 10
71.69312606714617
 20
-81.21743704566786
 10
71.34379338494183
 20
-81.21743704566786
 10
71.08816729993629
 20
-81.21743704566786
 10
70.99273815499487
 20
-81.0758436212241
 10
70.93141545535742
 20
-80.97007918982693
 10
70.87215981301112
 20
-81.09479164639298
 10
70.75812715244936
 20
-81.17092825661699
 10
70.5972411932882
 20
-81.17092825661699
 10
70.32197806401673
 20
-81.17092825661699
 10
70.18693032099493
 20
-80.97214624711808
 10
70.18693032099493
 20
-80.69722762739514
 10
70.18693032099493
 20
-80.41369626895909
 10
70.33059080272986
 20
-80.22318248862476
 10
70.5972411932882
 20
-80.22318248862476
 10
70.75812715244936
 20
-80.22318248862476
 10
70.87215981301112
 20
-80.30173066568845
 10
70.93141545535742
 20
-80.4264431222545
 10
70.9820583589906
 20
-80.33755965873506
 10
71.07748750393202
 20
-80.17874075686504
 10
71.33965927035953
 20
-80.17874075686504
 10
71.71414114960619
 20
-80.17874075686504
 10
71.83058537700764
 20
-80.4581380007188
 10
71.83058537700764
 20
-80.69722762739514
 97
        0
 97
        0
 92
        1
 93
        1
 72
     4
 94
        3
 73
     0
 74
     1
 95
       17
 96
       13
 40
0.0
 40
0.0
 40
0.0
 40
0.0
 40
1.0
 40
1.0
 40
1.0
 40
2.0
 40
2.0
 40
2.0
 40
3.0
 40
3.0
 40
3.0
 40
4.0
 40
4.0
 40
4.0
 40
4.0
 10
70.37916664907188
 20
-80.69722762739514
 10
70.37916664907188
 20
-80.86224770113861
 10
70.47425128446477
 20
-80.94665254052723
 10
70.60998804658362
 20
-80.94665254052723
 10
70.73263344585851
 20
-80.94665254052723
 10
70.85114473055111
 20
-80.87499455443404
 10
70.85114473055111
 20
-80.69722762739514
 10
70.85114473055111
 20
-80.51946070035625
 10
70.73263344585851
 20
-80.44745820471452
 10
70.60998804658362
 20
-80.44745820471452
 10
70.47425128446477
 20
-80.44745820471452
 10
70.37916664907188
 20
-80.53427461094283
 10
70.37916664907188
 20
-80.69722762739514
 97
        0
 97
        0
 92
        1
 93
        1
 72
     4
 94
        3
 73
     0
 74
     1
 95
       17
 96
       13
 40
0.0
 40
0.0
 40
0.0
 40
0.0
 40
1.0
 40
1.0
 40
1.0
 40
2.0
 40
2.0
 40
2.0
 40
3.0
 40
3.0
 40
3.0
 40
4.0
 40
4.0
 40
4.0
 40
4.0
 10
71.03924694404574
 20
-80.69722762739514
 10
71.03924694404574
 20
-80.84088810913006
 10
71.12606335027404
 20
-80.99350583912663
 10
71.32932398390378
 20
-80.99350583912663
 10
71.53430716527615
 20
-80.99350583912663
 10
71.63593748209102
 20
-80.86638181572091
 10
71.63593748209102
 20
-80.69722762739514
 10
71.63593748209102
 20
-80.51119247119165
 10
71.51329208281612
 20
-80.40094941566366
 10
71.33552515577723
 20
-80.40094941566366
 10
71.11331649697861
 20
-80.40094941566366
 10
71.03924694404574
 20
-80.56390243211597
 10
71.03924694404574
 20
-80.69722762739514
 97
        0
 97
        0
 75
     2
 76
     1
 98
        0
  0
ENDBLK
  5
91
330
8E
100
AcDbEntity
  8
0
100
AcDbBlockEnd
  0
BLOCK
  5
A3
330
A1
100
AcDbEntity
  8
0
100
AcDbBlockBegin
  2
block 3
 70
     0
 10
0.0
 20
0.0
 30
0.0
  3
block 3
  1

  0
SPLINE
  5
A5
330
A1
100
AcDbEntity
  8
_U+30EC_U+30A4_U+30E4_U+30FC 1
370
     0
100
AcDbSpline
210
0.0
220
0.0
230
1.0
 70
    11
 71
     3
 72
    44
 73
    40
 74
     0
 42
0.0000000001
 43
0.0000000001
 12
1.0
 22
0.0
 32
0.0
 13
1.0
 23
0.0
 33
0.0
 40
0.0
 40
0.0
 40
0.0
 40
0.0
 40
1.0
 40
1.0
 40
1.0
 40
2.0
 40
2.0
 40
2.0
 40
3.0
 40
3.0
 40
3.0
 40
4.0
 40
4.0
 40
4.0
 40
5.0
 40
5.0
 40
5.0
 40
6.0
 40
6.0
 40
6.0
 40
7.0
 40
7.0
 40
7.0
 40
8.0
 40
8.0
 40
8.0
 40
9.0
 40
9.0
 40
9.0
 40
10.0
 40
10.0
 40
10.0
 40
11.0
 40
11.0
 40
11.0
 40
12.0
 40
12.0
 40
12.0
 40
13.0
 40
13.0
 40
13.0
 40
13.0
 10
71.19806584591576
 20
-96.2663031443362
 30
0.0
 10
71.35688474778578
 20
-96.484033179004
 30
0.0
 10
71.43095430071865
 20
-96.57705075710574
 30
0.0
 10
71.57461478245357
 20
-96.62597111299628
 30
0.0
 10
71.57461478245357
 20
-96.62597111299628
 30
0.0
 10
71.57461478245357
 20
-95.84737953332983
 30
0.0
 10
71.57461478245357
 20
-95.84737953332983
 30
0.0
 10
71.57461478245357
 20
-95.84737953332983
 30
0.0
 10
71.77994247337446
 20
-95.84737953332983
 30
0.0
 10
71.77994247337446
 20
-95.84737953332983
 30
0.0
 10
71.77994247337446
 20
-95.84737953332983
 30
0.0
 10
71.77994247337446
 20
-96.87539602612837
 30
0.0
 10
71.77994247337446
 20
-96.87539602612837
 30
0.0
 10
71.42234156200553
 20
-96.84370114766408
 30
0.0
 10
71.34413789449036
 20
-96.77824433344433
 30
0.0
 10
71.04579262546773
 20
-96.3930826581934
 30
0.0
 10
70.84701061596881
 20
-96.13711206363934
 30
0.0
 10
70.77914223490939
 20
-96.07165524941959
 30
0.0
 10
70.64168292504792
 20
-96.07165524941959
 30
0.0
 10
70.52317164035532
 20
-96.07165524941959
 30
0.0
 10
70.39225801191583
 20
-96.14365774506132
 30
0.0
 10
70.39225801191583
 20
-96.34037269726907
 30
0.0
 10
70.39225801191583
 20
-96.60047740640545
 30
0.0
 10
70.62273489987903
 20
-96.60874563557005
 30
0.0
 10
70.73917912728048
 20
-96.61322425970087
 30
0.0
 10
70.73917912728048
 20
-96.61322425970087
 30
0.0
 10
70.73917912728048
 20
-96.83749997579064
 30
0.0
 10
70.73917912728048
 20
-96.83749997579064
 30
0.0
 10
70.61205510387477
 20
-96.82888723707751
 30
0.0
 10
70.50008950060415
 20
-96.81820744107323
 30
0.0
 10
70.38157821591156
 20
-96.73793671626692
 30
0.0
 10
70.22069225675038
 20
-96.62803817028744
 30
0.0
 10
70.18693032099493
 20
-96.44165850453543
 30
0.0
 10
70.18693032099493
 20
-96.3255587866825
 30
0.0
 10
70.18693032099493
 20
-96.0482286001199
 30
0.0
 10
70.37089841990728
 20
-95.84083385190785
 30
0.0
 10
70.64374998233906
 20
-95.84083385190785
 30
0.0
 10
70.87250432255965
 20
-95.84083385190785
 30
0.0
 10
70.97172307253486
 20
-95.95727807930929
 30
0.0
 10
71.19806584591576
 20
-96.2663031443362
 30
0.0
  0
HATCH
  5
A6
330
A1
100
AcDbEntity
  8
_U+30EC_U+30A4_U+30E4_U+30FC 1
 62
     7
420
 16777215
100
AcDbHatch
 10
0.0
 20
0.0
 30
0.0
210
0.0
220
0.0
230
1.0
  2
SOLID
 70
     1
 71
     0
 91
        1
 92
        1
 93
        1
 72
     4
 94
        3
 73
     0
 74
     1
 95
       44
 96
       40
 40
0.0
 40
0.0
 40
0.0
 40
0.0
 40
1.0
 40
1.0
 40
1.0
 40
2.0
 40
2.0
 40
2.0
 40
3.0
 40
3.0
 40
3.0
 40
4.0
 40
4.0
 40
4.0
 40
5.0
 40
5.0
 40
5.0
 40
6.0
 40
6.0
 40
6.0
 40
7.0
 40
7.0
 40
7.0
 40
8.0
 40
8.0
 40
8.0
 40
9.0
 40
9.0
 40
9.0
 40
10.0
 40
10.0
 40
10.0
 40
11.0
 40
11.0
 40
11.0
 40
12.0
 40
12.0
 40
12.0
 40
13.0
 40
13.0
 40
13.0
 40
13.0
 10
71.19806584591576
 20
-96.2663031443362
 10
71.35688474778578
 20
-96.484033179004
 10
71.43095430071865
 20
-96.57705075710574
 10
71.57461478245357
 20
-96.62597111299628
 10
71.57461478245357
 20
-96.62597111299628
 10
71.57461478245357
 20
-95.84737953332983
 10
71.57461478245357
 20
-95.84737953332983
 10
71.57461478245357
 20
-95.84737953332983
 10
71.77994247337446
 20
-95.84737953332983
 10
71.77994247337446
 20
-95.84737953332983
 10
71.77994247337446
 20
-95.84737953332983
 10
71.77994247337446
 20
-96.87539602612837
 10
71.77994247337446
 20
-96.87539602612837
 10
71.42234156200553
 20
-96.84370114766408
 10
71.34413789449036
 20
-96.77824433344433
 10
71.04579262546773
 20
-96.3930826581934
 10
70.84701061596881
 20
-96.13711206363934
 10
70.77914223490939
 20
-96.07165524941959
 10
70.64168292504792
 20
-96.07165524941959
 10
70.52317164035532
 20
-96.07165524941959
 10
70.39225801191583
 20
-96.14365774506132
 10
70.39225801191583
 20
-96.34037269726907
 10
70.39225801191583
 20
-96.60047740640545
 10
70.62273489987903
 20
-96.60874563557005
 10
70.73917912728048
 20
-96.61322425970087
 10
70.73917912728048
 20
-96.61322425970087
 10
70.73917912728048
 20
-96.83749997579064
 10
70.73917912728048
 20
-96.83749997579064
 10
70.61205510387477
 20
-96.82888723707751
 10
70.50008950060415
 20
-96.81820744107323
 10
70.38157821591156
 20
-96.73793671626692
 10
70.22069225675038
 20
-96.62803817028744
 10
70.18693032099493
 20
-96.44165850453543
 10
70.18693032099493
 20
-96.3255587866825
 10
70.18693032099493
 20
-96.0482286001199
 10
70.37089841990728
 20
-95.84083385190785
 10
70.64374998233906
 20
-95.84083385190785
 10
70.87250432255965
 20
-95.84083385190785
 10
70.97172307253486
 20
-95.95727807930929
 10
71.19806584591576
 20
-96.2663031443362
 97
        0
 97
        0
 75
     2
 76
     1
 98
        0
  0
ENDBLK
  5
A4
330
A1
100
AcDbEntity
  8
0
100
AcDbBlockEnd
  0
BLOCK
  5
A9
330
A7
100
AcDbEntity
  8
0
100
AcDbBlockBegin
  2
block 4
 70
     0
 10
0.0
 20
0.0
 30
0.0
  3
block 4
  1

  0
POLYLINE
  5
AB
330
A7
100
AcDbEntity
  8
_U+30EC_U+30A4_U+30E4_U+30FC 1
370
     0
100
AcDb2dPolyline
 66
     1
 10
0.0
 20
0.0
 30
0.0
  0
VERTEX
  5
AC
330
AB
100
AcDbEntity
  8
_U+30EC_U+30A4_U+30E4_U+30FC 1
370
     0
100
AcDbVertex
100
AcDb2dVertex
 10
56.46356471027647
 20
-99.66144474504992
 30
0.0
  0
VERTEX
  5
AD
330
AB
100
AcDbEntity
  8
_U+30EC_U+30A4_U+30E4_U+30FC 1
370
     0
100
AcDbVertex
100
AcDb2dVertex
 10
56.46356471027647
 20
-100.0083658604146
 30
0.0
  0
VERTEX
  5
AE
330
AB
100
AcDbEntity
  8
_U+30EC_U+30A4_U+30E4_U+30FC 1
370
     0
100
AcDbVertex
100
AcDb2dVertex
 10
56.24566242083442
 20
-100.0083658604146
 30
0.0
  0
VERTEX
  5
AF
330
AB
100
AcDbEntity
  8
_U+30EC_U+30A4_U+30E4_U+30FC 1
370
     0
100
AcDbVertex
100
AcDb2dVertex
 10
56.24566242083442
 20
-99.66144474504992
 30
0.0
  0
VERTEX
  5
B0
330
AB
100
AcDbEntity
  8
_U+30EC_U+30A4_U+30E4_U+30FC 1
370
     0
100
AcDbVertex
100
AcDb2dVertex
 10
55.58988849521712
 20
-99.66144474504992
 30
0.0
  0
VERTEX
  5
B1
330
AB
100
AcDbEntity
  8
_U+30EC_U+30A4_U+30E4_U+30FC 1
370
     0
100
AcDbVertex
100
AcDb2dVertex
 10
55.58988849521712
 20
-99.43716902896016
 30
0.0
  0
VERTEX
  5
B2
330
AB
100
AcDbEntity
  8
_U+30EC_U+30A4_U+30E4_U+30FC 1
370
     0
100
AcDbVertex
100
AcDb2dVertex
 10
56.26891681535986
 20
-98.46392955437707
 30
0.0
  0
VERTEX
  5
B3
330
AB
100
AcDbEntity
  8
_U+30EC_U+30A4_U+30E4_U+30FC 1
370
     0
100
AcDbVertex
100
AcDb2dVertex
 10
56.46356471027647
 20
-98.46392955437707
 30
0.0
  0
VERTEX
  5
B4
330
AB
100
AcDbEntity
  8
_U+30EC_U+30A4_U+30E4_U+30FC 1
370
     0
100
AcDbVertex
100
AcDb2dVertex
 10
56.46356471027647
 20
-99.462662735551
 30
0.0
  0
VERTEX
  5
B5
330
AB
100
AcDbEntity
  8
_U+30EC_U+30A4_U+30E4_U+30FC 1
370
     0
100
AcDbVertex
100
AcDb2dVertex
 10
56.67095945848851
 20
-99.462662735551
 30
0.0
  0
VERTEX
  5
B6
330
AB
100
AcDbEntity
  8
_U+30EC_U+30A4_U+30E4_U+30FC 1
370
     0
100
AcDbVertex
100
AcDb2dVertex
 10
56.67095945848851
 20
-99.66144474504992
 30
0.0
  0
VERTEX
  5
B7
330
AB
100
AcDbEntity
  8
_U+30EC_U+30A4_U+30E4_U+30FC 1
370
     0
100
AcDbVertex
100
AcDb2dVertex
 10
56.46356471027647
 20
-99.66144474504992
 30
0.0
  0
SEQEND
  5
B8
330
AB
100
AcDbEntity
  8
_U+30EC_U+30A4_U+30E4_U+30FC 1
370
     0
  0
POLYLINE
  5
B9
330
A7
100
AcDbEntity
  8
_U+30EC_U+30A4_U+30E4_U+30FC 1
370
     0
100
AcDb2dPolyline
 66
     1
 10
0.0
 20
0.0
 30
0.0
  0
VERTEX
  5
BA
330
B9
100
AcDbEntity
  8
_U+30EC_U+30A4_U+30E4_U+30FC 1
370
     0
100
AcDbVertex
100
AcDb2dVertex
 10
56.24566242083442
 20
-98.80671655515944
 30
0.0
  0
VERTEX
  5
BB
330
B9
100
AcDbEntity
  8
_U+30EC_U+30A4_U+30E4_U+30FC 1
370
     0
100
AcDbVertex
100
AcDb2dVertex
 10
55.78884275949029
 20
-99.462662735551
 30
0.0
  0
VERTEX
  5
BC
330
B9
100
AcDbEntity
  8
_U+30EC_U+30A4_U+30E4_U+30FC 1
370
     0
100
AcDbVertex
100
AcDb2dVertex
 10
56.24566242083442
 20
-99.462662735551
 30
0.0
  0
VERTEX
  5
BD
330
B9
100
AcDbEntity
  8
_U+30EC_U+30A4_U+30E4_U+30FC 1
370
     0
100
AcDbVertex
100
AcDb2dVertex
 10
56.24566242083442
 20
-98.80671655515944
 30
0.0
  0
SEQEND
  5
BE
330
B9
100
AcDbEntity
  8
_U+30EC_U+30A4_U+30E4_U+30FC 1
370
     0
  0
HATCH
  5
BF
330
A7
100
AcDbEntity
  8
_U+30EC_U+30A4_U+30E4_U+30FC 1
 62
     7
420
 16777215
100
AcDbHatch
 10
0.0
 20
0.0
 30
0.0
210
0.0
220
0.0
230
1.0
  2
SOLID
 70
     1
 71
     0
 91
        2
 92
        1
 93
       11
 72
     1
 10
56.46356471027647
 20
-99.66144474504992
 11
56.46356471027647
 21
-100.0083658604146
 72
     1
 10
56.46356471027647
 20
-100.0083658604146
 11
56.24566242083442
 21
-100.0083658604146
 72
     1
 10
56.24566242083442
 20
-100.0083658604146
 11
56.24566242083442
 21
-99.66144474504992
 72
     1
 10
56.24566242083442
 20
-99.66144474504992
 11
55.58988849521712
 21
-99.66144474504992
 72
     1
 10
55.58988849521712
 20
-99.66144474504992
 11
55.58988849521712
 21
-99.43716902896016
 72
     1
 10
55.58988849521712
 20
-99.43716902896016
 11
56.26891681535986
 21
-98.46392955437707
 72
     1
 10
56.26891681535986
 20
-98.46392955437707
 11
56.46356471027647
 21
-98.46392955437707
 72
     1
 10
56.46356471027647
 20
-98.46392955437707
 11
56.46356471027647
 21
-99.462662735551
 72
     1
 10
56.46356471027647
 20
-99.462662735551
 11
56.67095945848851
 21
-99.462662735551
 72
     1
 10
56.67095945848851
 20
-99.462662735551
 11
56.67095945848851
 21
-99.66144474504992
 72
     1
 10
56.67095945848851
 20
-99.66144474504992
 11
56.46356471027647
 21
-99.66144474504992
 97
        0
 92
        1
 93
        3
 72
     1
 10
56.24566242083442
 20
-98.80671655515944
 11
55.78884275949029
 21
-99.462662735551
 72
     1
 10
55.78884275949029
 20
-99.462662735551
 11
56.24566242083442
 21
-99.462662735551
 72
     1
 10
56.24566242083442
 20
-99.462662735551
 11
56.24566242083442
 21
-98.80671655515944
 97
        0
 75
     2
 76
     1
 98
        0
  0
ENDBLK
  5
AA
330
A7
100
AcDbEntity
  8
0
100
AcDbBlockEnd
  0
BLOCK
  5
C2
330
C0
100
AcDbEntity
  8
0
100
AcDbBlockBegin
  2
block 5
 70
     0
 10
0.0
 20
0.0
 30
0.0
  3
block 5
  1

  0
SPLINE
  5
C4
330
C0
100
AcDbEntity
  8
_U+30EC_U+30A4_U+30E4_U+30FC 1
370
     0
100
AcDbSpline
210
0.0
220
0.0
230
1.0
 70
    11
 71
     3
 72
    26
 73
    22
 74
     0
 42
0.0000000001
 43
0.0000000001
 12
1.0
 22
0.0
 32
0.0
 13
1.0
 23
0.0
 33
0.0
 40
0.0
 40
0.0
 40
0.0
 40
0.0
 40
1.0
 40
1.0
 40
1.0
 40
2.0
 40
2.0
 40
2.0
 40
3.0
 40
3.0
 40
3.0
 40
4.0
 40
4.0
 40
4.0
 40
5.0
 40
5.0
 40
5.0
 40
6.0
 40
6.0
 40
6.0
 40
7.0
 40
7.0
 40
7.0
 40
7.0
 10
60.9943820377028
 20
-79.20756833957311
 30
0.0
 10
60.9943820377028
 20
-79.20756833957311
 30
0.0
 10
60.9943820377028
 20
-78.10324298177628
 30
0.0
 10
60.9943820377028
 20
-78.10324298177628
 30
0.0
 10
60.9943820377028
 20
-78.10324298177628
 30
0.0
 10
60.66434189021586
 20
-78.10324298177628
 30
0.0
 10
60.66434189021586
 20
-78.10324298177628
 30
0.0
 10
60.66434189021586
 20
-78.10324298177628
 30
0.0
 10
60.66434189021586
 20
-77.9552761306848
 30
0.0
 10
60.66434189021586
 20
-77.9552761306848
 30
0.0
 10
60.99644909499395
 20
-77.94046222009823
 30
0.0
 10
61.04295788404482
 20
-77.7775092036459
 30
0.0
 10
61.07258570521797
 20
-77.66330428830987
 30
0.0
 10
61.07258570521797
 20
-77.66330428830987
 30
0.0
 10
61.21865775379256
 20
-77.66330428830987
 30
0.0
 10
61.21865775379256
 20
-77.66330428830987
 30
0.0
 10
61.21865775379256
 20
-77.66330428830987
 30
0.0
 10
61.21865775379256
 20
-79.20756833957311
 30
0.0
 10
61.21865775379256
 20
-79.20756833957311
 30
0.0
 10
61.21865775379256
 20
-79.20756833957311
 30
0.0
 10
60.9943820377028
 20
-79.20756833957311
 30
0.0
 10
60.9943820377028
 20
-79.20756833957311
 30
0.0
  0
HATCH
  5
C5
330
C0
100
AcDbEntity
  8
_U+30EC_U+30A4_U+30E4_U+30FC 1
 62
     7
420
 16777215
100
AcDbHatch
 10
0.0
 20
0.0
 30
0.0
210
0.0
220
0.0
230
1.0
  2
SOLID
 70
     1
 71
     0
 91
        1
 92
        1
 93
        1
 72
     4
 94
        3
 73
     0
 74
     1
 95
       26
 96
       22
 40
0.0
 40
0.0
 40
0.0
 40
0.0
 40
1.0
 40
1.0
 40
1.0
 40
2.0
 40
2.0
 40
2.0
 40
3.0
 40
3.0
 40
3.0
 40
4.0
 40
4.0
 40
4.0
 40
5.0
 40
5.0
 40
5.0
 40
6.0
 40
6.0
 40
6.0
 40
7.0
 40
7.0
 40
7.0
 40
7.0
 10
60.9943820377028
 20
-79.20756833957311
 10
60.9943820377028
 20
-79.20756833957311
 10
60.9943820377028
 20
-78.10324298177628
 10
60.9943820377028
 20
-78.10324298177628
 10
60.9943820377028
 20
-78.10324298177628
 10
60.66434189021586
 20
-78.10324298177628
 10
60.66434189021586
 20
-78.10324298177628
 10
60.66434189021586
 20
-78.10324298177628
 10
60.66434189021586
 20
-77.9552761306848
 10
60.66434189021586
 20
-77.9552761306848
 10
60.99644909499395
 20
-77.94046222009823
 10
61.04295788404482
 20
-77.7775092036459
 10
61.07258570521797
 20
-77.66330428830987
 10
61.07258570521797
 20
-77.66330428830987
 10
61.21865775379256
 20
-77.66330428830987
 10
61.21865775379256
 20
-77.66330428830987
 10
61.21865775379256
 20
-77.66330428830987
 10
61.21865775379256
 20
-79.20756833957311
 10
61.21865775379256
 20
-79.20756833957311
 10
61.21865775379256
 20
-79.20756833957311
 10
60.9943820377028
 20
-79.20756833957311
 10
60.9943820377028
 20
-79.20756833957311
 97
        0
 97
        0
 75
     2
 76
     1
 98
        0
  0
SPLINE
  5
C6
330
C0
100
AcDbEntity
  8
_U+30EC_U+30A4_U+30E4_U+30FC 1
370
     0
100
AcDbSpline
210
0.0
220
0.0
230
1.0
 70
    11
 71
     3
 72
    53
 73
    49
 74
     0
 42
0.0000000001
 43
0.0000000001
 12
1.0
 22
0.0
 32
0.0
 13
1.0
 23
0.0
 33
0.0
 40
0.0
 40
0.0
 40
0.0
 40
0.0
 40
1.0
 40
1.0
 40
1.0
 40
2.0
 40
2.0
 40
2.0
 40
3.0
 40
3.0
 40
3.0
 40
4.0
 40
4.0
 40
4.0
 40
5.0
 40
5.0
 40
5.0
 40
6.0
 40
6.0
 40
6.0
 40
7.0
 40
7.0
 40
7.0
 40
8.0
 40
8.0
 40
8.0
 40
9.0
 40
9.0
 40
9.0
 40
10.0
 40
10.0
 40
10.0
 40
11.0
 40
11.0
 40
11.0
 40
12.0
 40
12.0
 40
12.0
 40
13.0
 40
13.0
 40
13.0
 40
14.0
 40
14.0
 40
14.0
 40
15.0
 40
15.0
 40
15.0
 40
16.0
 40
16.0
 40
16.0
 40
16.0
 10
62.20085447663729
 20
-79.25838349798055
 30
0.0
 10
62.12265080912212
 20
-79.25838349798055
 30
0.0
 10
62.02102049230725
 20
-79.24133027532856
 30
0.0
 10
61.91939017549237
 20
-79.17794051839996
 30
0.0
 10
61.74610187258431
 20
-79.06786971764623
 30
0.0
 10
61.72474228057576
 20
-78.93678383443248
 30
0.0
 10
61.70579425540689
 20
-78.82895234574416
 30
0.0
 10
61.70579425540689
 20
-78.82895234574416
 30
0.0
 10
61.9280029142055
 20
-78.82895234574416
 30
0.0
 10
61.9280029142055
 20
-78.82895234574416
 30
0.0
 10
61.98277993242097
 20
-79.02773435524307
 30
0.0
 10
62.1099039558267
 20
-79.05736217641622
 30
0.0
 10
62.20292153392844
 20
-79.05736217641622
 30
0.0
 10
62.34244790108106
 20
-79.05736217641622
 30
0.0
 10
62.4947211215291
 20
-78.95797117166676
 30
0.0
 10
62.4947211215291
 20
-78.72525497163814
 30
0.0
 10
62.4947211215291
 20
-78.46928437708407
 30
0.0
 10
62.31488713719906
 20
-78.39952119350777
 30
0.0
 10
62.19430879521531
 20
-78.39952119350777
 30
0.0
 10
62.16261391675101
 20
-78.39952119350777
 30
0.0
 10
62.02102049230725
 20
-78.39952119350777
 30
0.0
 10
61.9321370287878
 20
-78.52854001943037
 30
0.0
 10
61.9321370287878
 20
-78.52854001943037
 30
0.0
 10
61.75643715904006
 20
-78.50941973948723
 30
0.0
 10
61.75643715904006
 20
-78.50941973948723
 30
0.0
 10
61.75643715904006
 20
-78.50941973948723
 30
0.0
 10
61.87701550102381
 20
-77.66330428830987
 30
0.0
 10
61.87701550102381
 20
-77.66330428830987
 30
0.0
 10
61.87701550102381
 20
-77.66330428830987
 30
0.0
 10
62.65560708069027
 20
-77.66330428830987
 30
0.0
 10
62.65560708069027
 20
-77.66330428830987
 30
0.0
 10
62.65560708069027
 20
-77.66330428830987
 30
0.0
 10
62.65560708069027
 20
-77.85795218322649
 30
0.0
 10
62.65560708069027
 20
-77.85795218322649
 30
0.0
 10
62.65560708069027
 20
-77.85795218322649
 30
0.0
 10
62.03996851747612
 20
-77.85795218322649
 30
0.0
 10
62.03996851747612
 20
-77.85795218322649
 30
0.0
 10
62.03996851747612
 20
-77.85795218322649
 30
0.0
 10
61.97451170325638
 20
-78.28100990881516
 30
0.0
 10
61.97451170325638
 20
-78.28100990881516
 30
0.0
 10
62.03583440289382
 20
-78.24707571828546
 30
0.0
 10
62.11817218499129
 20
-78.2069403558823
 30
0.0
 10
62.23668346968389
 20
-78.2069403558823
 30
0.0
 10
62.4905870069468
 20
-78.2069403558823
 30
0.0
 10
62.72760957633199
 20
-78.39314776686005
 30
0.0
 10
62.72760957633199
 20
-78.706134691695
 30
0.0
 10
62.72760957633199
 20
-79.02360024066077
 30
0.0
 10
62.50333386024222
 20
-79.25838349798055
 30
0.0
 10
62.20085447663729
 20
-79.25838349798055
 30
0.0
  0
HATCH
  5
C7
330
C0
100
AcDbEntity
  8
_U+30EC_U+30A4_U+30E4_U+30FC 1
 62
     7
420
 16777215
100
AcDbHatch
 10
0.0
 20
0.0
 30
0.0
210
0.0
220
0.0
230
1.0
  2
SOLID
 70
     1
 71
     0
 91
        1
 92
        1
 93
        1
 72
     4
 94
        3
 73
     0
 74
     1
 95
       53
 96
       49
 40
0.0
 40
0.0
 40
0.0
 40
0.0
 40
1.0
 40
1.0
 40
1.0
 40
2.0
 40
2.0
 40
2.0
 40
3.0
 40
3.0
 40
3.0
 40
4.0
 40
4.0
 40
4.0
 40
5.0
 40
5.0
 40
5.0
 40
6.0
 40
6.0
 40
6.0
 40
7.0
 40
7.0
 40
7.0
 40
8.0
 40
8.0
 40
8.0
 40
9.0
 40
9.0
 40
9.0
 40
10.0
 40
10.0
 40
10.0
 40
11.0
 40
11.0
 40
11.0
 40
12.0
 40
12.0
 40
12.0
 40
13.0
 40
13.0
 40
13.0
 40
14.0
 40
14.0
 40
14.0
 40
15.0
 40
15.0
 40
15.0
 40
16.0
 40
16.0
 40
16.0
 40
16.0
 10
62.20085447663729
 20
-79.25838349798055
 10
62.12265080912212
 20
-79.25838349798055
 10
62.02102049230725
 20
-79.24133027532856
 10
61.91939017549237
 20
-79.17794051839996
 10
61.74610187258431
 20
-79.06786971764623
 10
61.72474228057576
 20
-78.93678383443248
 10
61.70579425540689
 20
-78.82895234574416
 10
61.70579425540689
 20
-78.82895234574416
 10
61.9280029142055
 20
-78.82895234574416
 10
61.9280029142055
 20
-78.82895234574416
 10
61.98277993242097
 20
-79.02773435524307
 10
62.1099039558267
 20
-79.05736217641622
 10
62.20292153392844
 20
-79.05736217641622
 10
62.34244790108106
 20
-79.05736217641622
 10
62.4947211215291
 20
-78.95797117166676
 10
62.4947211215291
 20
-78.72525497163814
 10
62.4947211215291
 20
-78.46928437708407
 10
62.31488713719906
 20
-78.39952119350777
 10
62.19430879521531
 20
-78.39952119350777
 10
62.16261391675101
 20
-78.39952119350777
 10
62.02102049230725
 20
-78.39952119350777
 10
61.9321370287878
 20
-78.52854001943037
 10
61.9321370287878
 20
-78.52854001943037
 10
61.75643715904006
 20
-78.50941973948723
 10
61.75643715904006
 20
-78.50941973948723
 10
61.75643715904006
 20
-78.50941973948723
 10
61.87701550102381
 20
-77.66330428830987
 10
61.87701550102381
 20
-77.66330428830987
 10
61.87701550102381
 20
-77.66330428830987
 10
62.65560708069027
 20
-77.66330428830987
 10
62.65560708069027
 20
-77.66330428830987
 10
62.65560708069027
 20
-77.66330428830987
 10
62.65560708069027
 20
-77.85795218322649
 10
62.65560708069027
 20
-77.85795218322649
 10
62.65560708069027
 20
-77.85795218322649
 10
62.03996851747612
 20
-77.85795218322649
 10
62.03996851747612
 20
-77.85795218322649
 10
62.03996851747612
 20
-77.85795218322649
 10
61.97451170325638
 20
-78.28100990881516
 10
61.97451170325638
 20
-78.28100990881516
 10
62.03583440289382
 20
-78.24707571828546
 10
62.11817218499129
 20
-78.2069403558823
 10
62.23668346968389
 20
-78.2069403558823
 10
62.4905870069468
 20
-78.2069403558823
 10
62.72760957633199
 20
-78.39314776686005
 10
62.72760957633199
 20
-78.706134691695
 10
62.72760957633199
 20
-79.02360024066077
 10
62.50333386024222
 20
-79.25838349798055
 10
62.20085447663729
 20
-79.25838349798055
 97
        0
 97
        0
 75
     2
 76
     1
 98
        0
  0
ENDBLK
  5
C3
330
C0
100
AcDbEntity
  8
0
100
AcDbBlockEnd
  0
BLOCK
  5
CA
330
C8
100
AcDbEntity
  8
0
100
AcDbBlockBegin
  2
block 6
 70
     0
 10
0.0
 20
0.0
 30
0.0
  3
block 6
  1

  0
SPLINE
  5
CC
330
C8
100
AcDbEntity
  8
_U+30EC_U+30A4_U+30E4_U+30FC 1
370
     0
100
AcDbSpline
210
0.0
220
0.0
230
1.0
 70
    11
 71
     3
 72
    26
 73
    22
 74
     0
 42
0.0000000001
 43
0.0000000001
 12
1.0
 22
0.0
 32
0.0
 13
1.0
 23
0.0
 33
0.0
 40
0.0
 40
0.0
 40
0.0
 40
0.0
 40
1.0
 40
1.0
 40
1.0
 40
2.0
 40
2.0
 40
2.0
 40
3.0
 40
3.0
 40
3.0
 40
4.0
 40
4.0
 40
4.0
 40
5.0
 40
5.0
 40
5.0
 40
6.0
 40
6.0
 40
6.0
 40
7.0
 40
7.0
 40
7.0
 40
7.0
 10
71.77994247337446
 20
-90.99702959964658
 30
0.0
 10
71.77994247337446
 20
-90.99702959964658
 30
0.0
 10
70.6757893703519
 20
-90.99702959964658
 30
0.0
 10
70.6757893703519
 20
-90.99702959964658
 30
0.0
 10
70.6757893703519
 20
-90.99702959964658
 30
0.0
 10
70.6757893703519
 20
-91.32706974713352
 30
0.0
 10
70.6757893703519
 20
-91.32706974713352
 30
0.0
 10
70.6757893703519
 20
-91.32706974713352
 30
0.0
 10
70.52765026448614
 20
-91.32706974713352
 30
0.0
 10
70.52765026448614
 20
-91.32706974713352
 30
0.0
 10
70.51283635389957
 20
-90.99496254235542
 30
0.0
 10
70.34988333744725
 20
-90.94845375330456
 30
0.0
 10
70.23550616733696
 20
-90.91882593213141
 30
0.0
 10
70.23550616733696
 20
-90.91882593213141
 30
0.0
 10
70.23550616733696
 20
-90.77275388355682
 30
0.0
 10
70.23550616733696
 20
-90.77275388355682
 30
0.0
 10
70.23550616733696
 20
-90.77275388355682
 30
0.0
 10
71.77994247337446
 20
-90.77275388355682
 30
0.0
 10
71.77994247337446
 20
-90.77275388355682
 30
0.0
 10
71.77994247337446
 20
-90.77275388355682
 30
0.0
 10
71.77994247337446
 20
-90.99702959964658
 30
0.0
 10
71.77994247337446
 20
-90.99702959964658
 30
0.0
  0
HATCH
  5
CD
330
C8
100
AcDbEntity
  8
_U+30EC_U+30A4_U+30E4_U+30FC 1
 62
     7
420
 16777215
100
AcDbHatch
 10
0.0
 20
0.0
 30
0.0
210
0.0
220
0.0
230
1.0
  2
SOLID
 70
     1
 71
     0
 91
        1
 92
        1
 93
        1
 72
     4
 94
        3
 73
     0
 74
     1
 95
       26
 96
       22
 40
0.0
 40
0.0
 40
0.0
 40
0.0
 40
1.0
 40
1.0
 40
1.0
 40
2.0
 40
2.0
 40
2.0
 40
3.0
 40
3.0
 40
3.0
 40
4.0
 40
4.0
 40
4.0
 40
5.0
 40
5.0
 40
5.0
 40
6.0
 40
6.0
 40
6.0
 40
7.0
 40
7.0
 40
7.0
 40
7.0
 10
71.77994247337446
 20
-90.99702959964658
 10
71.77994247337446
 20
-90.99702959964658
 10
70.6757893703519
 20
-90.99702959964658
 10
70.6757893703519
 20
-90.99702959964658
 10
70.6757893703519
 20
-90.99702959964658
 10
70.6757893703519
 20
-91.32706974713352
 10
70.6757893703519
 20
-91.32706974713352
 10
70.6757893703519
 20
-91.32706974713352
 10
70.52765026448614
 20
-91.32706974713352
 10
70.52765026448614
 20
-91.32706974713352
 10
70.51283635389957
 20
-90.99496254235542
 10
70.34988333744725
 20
-90.94845375330456
 10
70.23550616733696
 20
-90.91882593213141
 10
70.23550616733696
 20
-90.91882593213141
 10
70.23550616733696
 20
-90.77275388355682
 10
70.23550616733696
 20
-90.77275388355682
 10
70.23550616733696
 20
-90.77275388355682
 10
71.77994247337446
 20
-90.77275388355682
 10
71.77994247337446
 20
-90.77275388355682
 10
71.77994247337446
 20
-90.77275388355682
 10
71.77994247337446
 20
-90.99702959964658
 10
71.77994247337446
 20
-90.99702959964658
 97
        0
 97
        0
 75
     2
 76
     1
 98
        0
  0
SPLINE
  5
CE
330
C8
100
AcDbEntity
  8
_U+30EC_U+30A4_U+30E4_U+30FC 1
370
     0
100
AcDbSpline
210
0.0
220
0.0
230
1.0
 70
    11
 71
     3
 72
    29
 73
    25
 74
     0
 42
0.0000000001
 43
0.0000000001
 12
1.0
 22
0.0
 32
0.0
 13
1.0
 23
0.0
 33
0.0
 40
0.0
 40
0.0
 40
0.0
 40
0.0
 40
1.0
 40
1.0
 40
1.0
 40
2.0
 40
2.0
 40
2.0
 40
3.0
 40
3.0
 40
3.0
 40
4.0
 40
4.0
 40
4.0
 40
5.0
 40
5.0
 40
5.0
 40
6.0
 40
6.0
 40
6.0
 40
7.0
 40
7.0
 40
7.0
 40
8.0
 40
8.0
 40
8.0
 40
8.0
 10
71.60217554633557
 20
-89.37370060699686
 30
0.0
 10
71.81163735183875
 20
-89.48187660523371
 30
0.0
 10
71.83058537700764
 20
-89.65516490814177
 30
0.0
 10
71.83058537700764
 20
-89.77160913554322
 30
0.0
 10
71.83058537700764
 20
-89.93249509470438
 30
0.0
 10
71.78407658795676
 20
-90.07408851914815
 30
0.0
 10
71.60217554633557
 20
-90.16917315454104
 30
0.0
 10
71.40752765141896
 20
-90.27287052864706
 30
0.0
 10
71.1708495915823
 20
-90.29181855381594
 30
0.0
 10
71.00789657512998
 20
-90.29181855381594
 30
0.0
 10
70.86389158384652
 20
-90.29181855381594
 30
0.0
 10
70.61205510387477
 20
-90.27493758593822
 30
0.0
 10
70.41327309437585
 20
-90.16917315454104
 30
0.0
 10
70.21035697029464
 20
-90.06134166585272
 30
0.0
 10
70.18693032099493
 20
-89.90045570669156
 30
0.0
 10
70.18693032099493
 20
-89.77160913554322
 30
0.0
 10
70.18693032099493
 20
-89.6127902336732
 30
0.0
 10
70.23137205275466
 20
-89.46912975193828
 30
0.0
 10
70.41327309437585
 20
-89.37370060699686
 30
0.0
 10
70.60585393200132
 20
-89.27448185702166
 30
0.0
 10
70.83426376267339
 20
-89.25105520772196
 30
0.0
 10
71.00789657512998
 20
-89.25105520772196
 30
0.0
 10
71.1791178207469
 20
-89.25105520772196
 30
0.0
 10
71.4095947087101
 20
-89.27241479973051
 30
0.0
 10
71.60217554633557
 20
-89.37370060699686
 30
0.0
  0
SPLINE
  5
CF
330
C8
100
AcDbEntity
  8
_U+30EC_U+30A4_U+30E4_U+30FC 1
370
     0
100
AcDbSpline
210
0.0
220
0.0
230
1.0
 70
    11
 71
     3
 72
    17
 73
    13
 74
     0
 42
0.0000000001
 43
0.0000000001
 12
1.0
 22
0.0
 32
0.0
 13
1.0
 23
0.0
 33
0.0
 40
0.0
 40
0.0
 40
0.0
 40
0.0
 40
1.0
 40
1.0
 40
1.0
 40
2.0
 40
2.0
 40
2.0
 40
3.0
 40
3.0
 40
3.0
 40
4.0
 40
4.0
 40
4.0
 40
4.0
 10
70.3795111586204
 20
-89.77160913554322
 30
0.0
 10
70.3795111586204
 20
-90.0210340486753
 30
0.0
 10
70.66304251705647
 20
-90.0678873472747
 30
0.0
 10
71.00789657512998
 20
-90.0678873472747
 30
0.0
 10
71.32725692661263
 20
-90.0678873472747
 30
0.0
 10
71.63593748209102
 20
-90.03171384467957
 30
0.0
 10
71.63593748209102
 20
-89.77160913554322
 30
0.0
 10
71.63593748209102
 20
-89.52390677015374
 30
0.0
 10
71.35481769049463
 20
-89.47533092381173
 30
0.0
 10
71.00789657512998
 20
-89.47533092381173
 30
0.0
 10
70.68819171409879
 20
-89.47533092381173
 30
0.0
 10
70.3795111586204
 20
-89.513571483698
 30
0.0
 10
70.3795111586204
 20
-89.77160913554322
 30
0.0
  0
HATCH
  5
D0
330
C8
100
AcDbEntity
  8
_U+30EC_U+30A4_U+30E4_U+30FC 1
 62
     7
420
 16777215
100
AcDbHatch
 10
0.0
 20
0.0
 30
0.0
210
0.0
220
0.0
230
1.0
  2
SOLID
 70
     1
 71
     0
 91
        2
 92
        1
 93
        1
 72
     4
 94
        3
 73
     0
 74
     1
 95
       29
 96
       25
 40
0.0
 40
0.0
 40
0.0
 40
0.0
 40
1.0
 40
1.0
 40
1.0
 40
2.0
 40
2.0
 40
2.0
 40
3.0
 40
3.0
 40
3.0
 40
4.0
 40
4.0
 40
4.0
 40
5.0
 40
5.0
 40
5.0
 40
6.0
 40
6.0
 40
6.0
 40
7.0
 40
7.0
 40
7.0
 40
8.0
 40
8.0
 40
8.0
 40
8.0
 10
71.60217554633557
 20
-89.37370060699686
 10
71.81163735183875
 20
-89.48187660523371
 10
71.83058537700764
 20
-89.65516490814177
 10
71.83058537700764
 20
-89.77160913554322
 10
71.83058537700764
 20
-89.93249509470438
 10
71.78407658795676
 20
-90.07408851914815
 10
71.60217554633557
 20
-90.16917315454104
 10
71.40752765141896
 20
-90.27287052864706
 10
71.1708495915823
 20
-90.29181855381594
 10
71.00789657512998
 20
-90.29181855381594
 10
70.86389158384652
 20
-90.29181855381594
 10
70.61205510387477
 20
-90.27493758593822
 10
70.41327309437585
 20
-90.16917315454104
 10
70.21035697029464
 20
-90.06134166585272
 10
70.18693032099493
 20
-89.90045570669156
 10
70.18693032099493
 20
-89.77160913554322
 10
70.18693032099493
 20
-89.6127902336732
 10
70.23137205275466
 20
-89.46912975193828
 10
70.41327309437585
 20
-89.37370060699686
 10
70.60585393200132
 20
-89.27448185702166
 10
70.83426376267339
 20
-89.25105520772196
 10
71.00789657512998
 20
-89.25105520772196
 10
71.1791178207469
 20
-89.25105520772196
 10
71.4095947087101
 20
-89.27241479973051
 10
71.60217554633557
 20
-89.37370060699686
 97
        0
 97
        0
 92
        1
 93
        1
 72
     4
 94
        3
 73
     0
 74
     1
 95
       17
 96
       13
 40
0.0
 40
0.0
 40
0.0
 40
0.0
 40
1.0
 40
1.0
 40
1.0
 40
2.0
 40
2.0
 40
2.0
 40
3.0
 40
3.0
 40
3.0
 40
4.0
 40
4.0
 40
4.0
 40
4.0
 10
70.3795111586204
 20
-89.77160913554322
 10
70.3795111586204
 20
-90.0210340486753
 10
70.66304251705647
 20
-90.0678873472747
 10
71.00789657512998
 20
-90.0678873472747
 10
71.32725692661263
 20
-90.0678873472747
 10
71.63593748209102
 20
-90.03171384467957
 10
71.63593748209102
 20
-89.77160913554322
 10
71.63593748209102
 20
-89.52390677015374
 10
71.35481769049463
 20
-89.47533092381173
 10
71.00789657512998
 20
-89.47533092381173
 10
70.68819171409879
 20
-89.47533092381173
 10
70.3795111586204
 20
-89.513571483698
 10
70.3795111586204
 20
-89.77160913554322
 97
        0
 97
        0
 75
     2
 76
     1
 98
        0
  0
ENDBLK
  5
CB
330
C8
100
AcDbEntity
  8
0
100
AcDbBlockEnd
  0
ENDSEC
  0
SECTION
  2
ENTITIES
  0
POLYLINE
  5
41
330
1F
100
AcDbEntity
  8
_U+30EC_U+30A4_U+30E4_U+30FC 1
 62
     7
420
 16777215
370
    25
100
AcDb2dPolyline
 66
     1
 10
0.0
 20
0.0
 30
0.0
  0
VERTEX
  5
42
330
41
100
AcDbEntity
  8
_U+30EC_U+30A4_U+30E4_U+30FC 1
 62
     7
420
 16777215
370
    25
100
AcDbVertex
100
AcDb2dVertex
 10
58.13167323915968
 20
-97.36010497566018
 30
0.0
  0
VERTEX
  5
43
330
41
100
AcDbEntity
  8
_U+30EC_U+30A4_U+30E4_U+30FC 1
 62
     7
420
 16777215
370
    25
100
AcDbVertex
100
AcDb2dVertex
 10
58.13167323915968
 20
-95.3602430317155
 30
0.0
  0
VERTEX
  5
44
330
41
100
AcDbEntity
  8
_U+30EC_U+30A4_U+30E4_U+30FC 1
 62
     7
420
 16777215
370
    25
100
AcDbVertex
100
AcDb2dVertex
 10
57.33171437067944
 20
-95.3602430317155
 30
0.0
  0
VERTEX
  5
45
330
41
100
AcDbEntity
  8
_U+30EC_U+30A4_U+30E4_U+30FC 1
 62
     7
420
 16777215
370
    25
100
AcDbVertex
100
AcDb2dVertex
 10
57.33171437067944
 20
-96.56018136474907
 30
0.0
  0
VERTEX
  5
46
330
41
100
AcDbEntity
  8
_U+30EC_U+30A4_U+30E4_U+30FC 1
 62
     7
420
 16777215
370
    25
100
AcDbVertex
100
AcDb2dVertex
 10
54.93187304301561
 20
-96.56018136474907
 30
0.0
  0
VERTEX
  5
47
330
41
100
AcDbEntity
  8
_U+30EC_U+30A4_U+30E4_U+30FC 1
 62
     7
420
 16777215
370
    25
100
AcDbVertex
100
AcDb2dVertex
 10
54.93187304301561
 20
-85.35913414532705
 30
0.0
  0
VERTEX
  5
48
330
41
100
AcDbEntity
  8
_U+30EC_U+30A4_U+30E4_U+30FC 1
 62
     7
420
 16777215
370
    25
100
AcDbVertex
100
AcDb2dVertex
 10
69.13170740296988
 20
-85.35913414532705
 30
0.0
  0
VERTEX
  5
49
330
41
100
AcDbEntity
  8
_U+30EC_U+30A4_U+30E4_U+30FC 1
 62
     7
420
 16777215
370
    25
100
AcDbVertex
100
AcDb2dVertex
 10
69.13170740296988
 20
-84.5591752566381
 30
0.0
  0
VERTEX
  5
4A
330
41
100
AcDbEntity
  8
_U+30EC_U+30A4_U+30E4_U+30FC 1
 62
     7
420
 16777215
370
    25
100
AcDbVertex
100
AcDb2dVertex
 10
54.13156139676659
 20
-84.5591752566381
 30
0.0
  0
VERTEX
  5
4B
330
41
100
AcDbEntity
  8
_U+30EC_U+30A4_U+30E4_U+30FC 1
 62
     7
420
 16777215
370
    25
100
AcDbVertex
100
AcDb2dVertex
 10
54.13156139676659
 20
-97.36010497566018
 30
0.0
  0
VERTEX
  5
4C
330
41
100
AcDbEntity
  8
_U+30EC_U+30A4_U+30E4_U+30FC 1
 62
     7
420
 16777215
370
    25
100
AcDbVertex
100
AcDb2dVertex
 10
58.13167323915968
 20
-97.36010497566018
 30
0.0
  0
SEQEND
  5
4D
330
41
100
AcDbEntity
  8
_U+30EC_U+30A4_U+30E4_U+30FC 1
 62
     7
420
 16777215
370
    25
  0
SPLINE
  5
4E
330
1F
100
AcDbEntity
  8
_U+30EC_U+30A4_U+30E4_U+30FC 1
 62
     7
420
 16777215
370
     9
100
AcDbSpline
210
0.0
220
0.0
230
1.0
 70
    11
 71
     3
 72
    17
 73
    13
 74
     0
 42
0.0000000001
 43
0.0000000001
 12
1.0
 22
0.0
 32
0.0
 13
1.0
 23
0.0
 33
0.0
 40
0.0
 40
0.0
 40
0.0
 40
0.0
 40
1.0
 40
1.0
 40
1.0
 40
2.0
 40
2.0
 40
2.0
 40
3.0
 40
3.0
 40
3.0
 40
4.0
 40
4.0
 40
4.0
 40
4.0
 10
73.23169063170393
 20
-84.5591752566381
 30
0.0
 10
73.23169063170393
 20
-84.50407136776286
 30
0.0
 10
73.18692498170354
 20
-84.45926858999614
 30
0.0
 10
73.13178396758609
 20
-84.45926858999614
 30
0.0
 10
73.07668008010302
 20
-84.45926858999614
 30
0.0
 10
73.03187730346825
 20
-84.50407136776286
 30
0.0
 10
73.03187730346825
 20
-84.5591752566381
 30
0.0
 10
73.03187730346825
 20
-84.61498470106854
 30
0.0
 10
73.07668008010302
 20
-84.65908192327974
 30
0.0
 10
73.13178396758609
 20
-84.65908192327974
 30
0.0
 10
73.18692498170354
 20
-84.65908192327974
 30
0.0
 10
73.23169063170393
 20
-84.61498470106854
 30
0.0
 10
73.23169063170393
 20
-84.5591752566381
 30
0.0
  0
SPLINE
  5
4F
330
1F
100
AcDbEntity
  8
_U+30EC_U+30A4_U+30E4_U+30FC 1
 62
     7
420
 16777215
370
     9
100
AcDbSpline
210
0.0
220
0.0
230
1.0
 70
    11
 71
     3
 72
    17
 73
    13
 74
     0
 42
0.0000000001
 43
0.0000000001
 12
1.0
 22
0.0
 32
0.0
 13
1.0
 23
0.0
 33
0.0
 40
0.0
 40
0.0
 40
0.0
 40
0.0
 40
1.0
 40
1.0
 40
1.0
 40
2.0
 40
2.0
 40
2.0
 40
3.0
 40
3.0
 40
3.0
 40
4.0
 40
4.0
 40
4.0
 40
4.0
 10
73.23169063170393
 20
-85.35913414532705
 30
0.0
 10
73.23169063170393
 20
-85.30399497867397
 30
0.0
 10
73.18692498170354
 20
-85.25922747868509
 30
0.0
 10
73.13178396758609
 20
-85.25922747868509
 30
0.0
 10
73.07668008010302
 20
-85.25922747868509
 30
0.0
 10
73.03187730346825
 20
-85.30399497867397
 30
0.0
 10
73.03187730346825
 20
-85.35913414532705
 30
0.0
 10
73.03187730346825
 20
-85.41494358975748
 30
0.0
 10
73.07668008010302
 20
-85.45971108974604
 30
0.0
 10
73.13178396758609
 20
-85.45971108974604
 30
0.0
 10
73.18692498170354
 20
-85.45971108974604
 30
0.0
 10
73.23169063170393
 20
-85.41494358975748
 30
0.0
 10
73.23169063170393
 20
-85.35913414532705
 30
0.0
  0
SPLINE
  5
50
330
1F
100
AcDbEntity
  8
_U+30EC_U+30A4_U+30E4_U+30FC 1
 62
     7
420
 16777215
370
     9
100
AcDbSpline
210
0.0
220
0.0
230
1.0
 70
    11
 71
     3
 72
    17
 73
    13
 74
     0
 42
0.0000000001
 43
0.0000000001
 12
1.0
 22
0.0
 32
0.0
 13
1.0
 23
0.0
 33
0.0
 40
0.0
 40
0.0
 40
0.0
 40
0.0
 40
1.0
 40
1.0
 40
1.0
 40
2.0
 40
2.0
 40
2.0
 40
3.0
 40
3.0
 40
3.0
 40
4.0
 40
4.0
 40
4.0
 40
4.0
 10
69.2319333160252
 20
-80.55923970208234
 30
0.0
 10
69.2319333160252
 20
-80.50413581320741
 30
0.0
 10
69.18716406822172
 20
-80.4593330354407
 30
0.0
 10
69.13170740296988
 20
-80.4593330354407
 30
0.0
 10
69.07656823770992
 20
-80.4593330354407
 30
0.0
 10
69.03180073885204
 20
-80.50413581320741
 30
0.0
 10
69.03180073885204
 20
-80.55923970208234
 30
0.0
 10
69.03180073885204
 20
-80.61437886873541
 30
0.0
 10
69.07656823770992
 20
-80.65914636872397
 30
0.0
 10
69.13170740296988
 20
-80.65914636872397
 30
0.0
 10
69.18716406822172
 20
-80.65914636872397
 30
0.0
 10
69.2319333160252
 20
-80.61437886873541
 30
0.0
 10
69.2319333160252
 20
-80.55923970208234
 30
0.0
  0
SPLINE
  5
51
330
1F
100
AcDbEntity
  8
_U+30EC_U+30A4_U+30E4_U+30FC 1
 62
     7
420
 16777215
370
     9
100
AcDbSpline
210
0.0
220
0.0
230
1.0
 70
    11
 71
     3
 72
    17
 73
    13
 74
     0
 42
0.0000000001
 43
0.0000000001
 12
1.0
 22
0.0
 32
0.0
 13
1.0
 23
0.0
 33
0.0
 40
0.0
 40
0.0
 40
0.0
 40
0.0
 40
1.0
 40
1.0
 40
1.0
 40
2.0
 40
2.0
 40
2.0
 40
3.0
 40
3.0
 40
3.0
 40
4.0
 40
4.0
 40
4.0
 40
4.0
 10
58.2319326810463
 20
-101.3598641413264
 30
0.0
 10
58.2319326810463
 20
-101.3047602524515
 30
0.0
 10
58.18712990441153
 20
-101.2599574746848
 30
0.0
 10
58.13167323915968
 20
-101.2599574746848
 30
0.0
 10
58.07656935167661
 20
-101.2599574746848
 30
0.0
 10
58.03176657504185
 20
-101.3047602524515
 30
0.0
 10
58.03176657504185
 20
-101.3598641413264
 30
0.0
 10
58.03176657504185
 20
-101.4150033079795
 30
0.0
 10
58.07656935167661
 20
-101.4597708079687
 30
0.0
 10
58.13167323915968
 20
-101.4597708079687
 30
0.0
 10
58.18712990441153
 20
-101.4597708079687
 30
0.0
 10
58.2319326810463
 20
-101.4150033079795
 30
0.0
 10
58.2319326810463
 20
-101.3598641413264
 30
0.0
  0
SPLINE
  5
52
330
1F
100
AcDbEntity
  8
_U+30EC_U+30A4_U+30E4_U+30FC 1
 62
     7
420
 16777215
370
     9
100
AcDbSpline
210
0.0
220
0.0
230
1.0
 70
    11
 71
     3
 72
    17
 73
    13
 74
     0
 42
0.0000000001
 43
0.0000000001
 12
1.0
 22
0.0
 32
0.0
 13
1.0
 23
0.0
 33
0.0
 40
0.0
 40
0.0
 40
0.0
 40
0.0
 40
1.0
 40
1.0
 40
1.0
 40
2.0
 40
2.0
 40
2.0
 40
3.0
 40
3.0
 40
3.0
 40
4.0
 40
4.0
 40
4.0
 40
4.0
 10
73.23169063170393
 20
-97.36010497566018
 30
0.0
 10
73.23169063170393
 20
-97.30500108678463
 30
0.0
 10
73.18692498170354
 20
-97.26019830901855
 30
0.0
 10
73.13178396758609
 20
-97.26019830901855
 30
0.0
 10
73.07668008010302
 20
-97.26019830901855
 30
0.0
 10
73.03187730346825
 20
-97.30500108678463
 30
0.0
 10
73.03187730346825
 20
-97.36010497566018
 30
0.0
 10
73.03187730346825
 20
-97.41524414231262
 30
0.0
 10
73.07668008010302
 20
-97.46001164230182
 30
0.0
 10
73.13178396758609
 20
-97.46001164230182
 30
0.0
 10
73.18692498170354
 20
-97.46001164230182
 30
0.0
 10
73.23169063170393
 20
-97.41524414231262
 30
0.0
 10
73.23169063170393
 20
-97.36010497566018
 30
0.0
  0
SPLINE
  5
53
330
1F
100
AcDbEntity
  8
_U+30EC_U+30A4_U+30E4_U+30FC 1
 62
     7
420
 16777215
370
     9
100
AcDbSpline
210
0.0
220
0.0
230
1.0
 70
    11
 71
     3
 72
    17
 73
    13
 74
     0
 42
0.0000000001
 43
0.0000000001
 12
1.0
 22
0.0
 32
0.0
 13
1.0
 23
0.0
 33
0.0
 40
0.0
 40
0.0
 40
0.0
 40
0.0
 40
1.0
 40
1.0
 40
1.0
 40
2.0
 40
2.0
 40
2.0
 40
3.0
 40
3.0
 40
3.0
 40
4.0
 40
4.0
 40
4.0
 40
4.0
 10
73.23169063170393
 20
-95.3602430317155
 30
0.0
 10
73.23169063170393
 20
-95.30513914284059
 30
0.0
 10
73.18692498170354
 20
-95.26033636507387
 30
0.0
 10
73.13178396758609
 20
-95.26033636507387
 30
0.0
 10
73.07668008010302
 20
-95.26033636507387
 30
0.0
 10
73.03187730346825
 20
-95.30513914284059
 30
0.0
 10
73.03187730346825
 20
-95.3602430317155
 30
0.0
 10
73.03187730346825
 20
-95.41538219836858
 30
0.0
 10
73.07668008010302
 20
-95.46014969835714
 30
0.0
 10
73.13178396758609
 20
-95.46014969835714
 30
0.0
 10
73.18692498170354
 20
-95.46014969835714
 30
0.0
 10
73.23169063170393
 20
-95.41538219836858
 30
0.0
 10
73.23169063170393
 20
-95.3602430317155
 30
0.0
  0
SPLINE
  5
54
330
1F
100
AcDbEntity
  8
_U+30EC_U+30A4_U+30E4_U+30FC 1
 62
     7
420
 16777215
370
     9
100
AcDbSpline
210
0.0
220
0.0
230
1.0
 70
    11
 71
     3
 72
    17
 73
    13
 74
     0
 42
0.0000000001
 43
0.0000000001
 12
1.0
 22
0.0
 32
0.0
 13
1.0
 23
0.0
 33
0.0
 40
0.0
 40
0.0
 40
0.0
 40
0.0
 40
1.0
 40
1.0
 40
1.0
 40
2.0
 40
2.0
 40
2.0
 40
3.0
 40
3.0
 40
3.0
 40
4.0
 40
4.0
 40
4.0
 40
4.0
 10
54.23182220866429
 20
-80.55923970208234
 30
0.0
 10
54.23182220866429
 20
-80.50413581320741
 30
0.0
 10
54.18705333979532
 20
-80.4593330354407
 30
0.0
 10
54.13156139676659
 20
-80.4593330354407
 30
0.0
 10
54.07645750928352
 20
-80.4593330354407
 30
0.0
 10
54.03165473264876
 20
-80.50413581320741
 30
0.0
 10
54.03165473264876
 20
-80.55923970208234
 30
0.0
 10
54.03165473264876
 20
-80.61437886873541
 30
0.0
 10
54.07645750928352
 20
-80.65914636872397
 30
0.0
 10
54.13156139676659
 20
-80.65914636872397
 30
0.0
 10
54.18705333979532
 20
-80.65914636872397
 30
0.0
 10
54.23182220866429
 20
-80.61437886873541
 30
0.0
 10
54.23182220866429
 20
-80.55923970208234
 30
0.0
  0
SPLINE
  5
55
330
1F
100
AcDbEntity
  8
_U+30EC_U+30A4_U+30E4_U+30FC 1
 62
     7
420
 16777215
370
     9
100
AcDbSpline
210
0.0
220
0.0
230
1.0
 70
    11
 71
     3
 72
    17
 73
    13
 74
     0
 42
0.0000000001
 43
0.0000000001
 12
1.0
 22
0.0
 32
0.0
 13
1.0
 23
0.0
 33
0.0
 40
0.0
 40
0.0
 40
0.0
 40
0.0
 40
1.0
 40
1.0
 40
1.0
 40
2.0
 40
2.0
 40
2.0
 40
3.0
 40
3.0
 40
3.0
 40
4.0
 40
4.0
 40
4.0
 40
4.0
 10
54.23182220866429
 20
-101.3598641413264
 30
0.0
 10
54.23182220866429
 20
-101.3047602524515
 30
0.0
 10
54.18705333979532
 20
-101.2599574746848
 30
0.0
 10
54.13156139676659
 20
-101.2599574746848
 30
0.0
 10
54.07645750928352
 20
-101.2599574746848
 30
0.0
 10
54.03165473264876
 20
-101.3047602524515
 30
0.0
 10
54.03165473264876
 20
-101.3598641413264
 30
0.0
 10
54.03165473264876
 20
-101.4150033079795
 30
0.0
 10
54.07645750928352
 20
-101.4597708079687
 30
0.0
 10
54.13156139676659
 20
-101.4597708079687
 30
0.0
 10
54.18705333979532
 20
-101.4597708079687
 30
0.0
 10
54.23182220866429
 20
-101.4150033079795
 30
0.0
 10
54.23182220866429
 20
-101.3598641413264
 30
0.0
  0
POLYLINE
  5
56
330
1F
100
AcDbEntity
  8
_U+30EC_U+30A4_U+30E4_U+30FC 1
 62
     7
420
 16777215
370
     9
100
AcDb2dPolyline
 66
     1
 10
0.0
 20
0.0
 30
0.0
  0
VERTEX
  5
57
330
56
100
AcDbEntity
  8
_U+30EC_U+30A4_U+30E4_U+30FC 1
 62
     7
420
 16777215
370
     9
100
AcDbVertex
100
AcDb2dVertex
 10
73.13178396758609
 20
-84.5591752566381
 30
0.0
  0
VERTEX
  5
58
330
56
100
AcDbEntity
  8
_U+30EC_U+30A4_U+30E4_U+30FC 1
 62
     7
420
 16777215
370
     9
100
AcDbVertex
100
AcDb2dVertex
 10
73.13178396758609
 20
-79.3010930357303
 30
0.0
  0
SEQEND
  5
59
330
56
100
AcDbEntity
  8
_U+30EC_U+30A4_U+30E4_U+30FC 1
 62
     7
420
 16777215
370
     9
  0
POLYLINE
  5
5A
330
1F
100
AcDbEntity
  8
_U+30EC_U+30A4_U+30E4_U+30FC 1
 62
     7
420
 16777215
370
     9
100
AcDb2dPolyline
 66
     1
 10
0.0
 20
0.0
 30
0.0
  0
VERTEX
  5
5B
330
5A
100
AcDbEntity
  8
_U+30EC_U+30A4_U+30E4_U+30FC 1
 62
     7
420
 16777215
370
     9
100
AcDbVertex
100
AcDb2dVertex
 10
73.13178396758609
 20
-84.5591752566381
 30
0.0
  0
VERTEX
  5
5C
330
5A
100
AcDbEntity
  8
_U+30EC_U+30A4_U+30E4_U+30FC 1
 62
     7
420
 16777215
370
     9
100
AcDbVertex
100
AcDb2dVertex
 10
73.13178396758609
 20
-85.35913414532705
 30
0.0
  0
SEQEND
  5
5D
330
5A
100
AcDbEntity
  8
_U+30EC_U+30A4_U+30E4_U+30FC 1
 62
     7
420
 16777215
370
     9
  0
POLYLINE
  5
5E
330
1F
100
AcDbEntity
  8
_U+30EC_U+30A4_U+30E4_U+30FC 1
 62
     7
420
 16777215
370
     9
100
AcDb2dPolyline
 66
     1
 10
0.0
 20
0.0
 30
0.0
  0
VERTEX
  5
5F
330
5E
100
AcDbEntity
  8
_U+30EC_U+30A4_U+30E4_U+30FC 1
 62
     7
420
 16777215
370
     9
100
AcDbVertex
100
AcDb2dVertex
 10
71.67177789372283
 20
-84.5591752566381
 30
0.0
  0
VERTEX
  5
60
330
5E
100
AcDbEntity
  8
_U+30EC_U+30A4_U+30E4_U+30FC 1
 62
     7
420
 16777215
370
     9
100
AcDbVertex
100
AcDb2dVertex
 10
74.13226171983955
 20
-84.5591752566381
 30
0.0
  0
SEQEND
  5
61
330
5E
100
AcDbEntity
  8
_U+30EC_U+30A4_U+30E4_U+30FC 1
 62
     7
420
 16777215
370
     9
  0
POLYLINE
  5
62
330
1F
100
AcDbEntity
  8
_U+30EC_U+30A4_U+30E4_U+30FC 1
 62
     7
420
 16777215
370
     9
100
AcDb2dPolyline
 66
     1
 10
0.0
 20
0.0
 30
0.0
  0
VERTEX
  5
63
330
62
100
AcDbEntity
  8
_U+30EC_U+30A4_U+30E4_U+30FC 1
 62
     7
420
 16777215
370
     9
100
AcDbVertex
100
AcDb2dVertex
 10
71.67177789372283
 20
-85.35913414532705
 30
0.0
  0
VERTEX
  5
64
330
62
100
AcDbEntity
  8
_U+30EC_U+30A4_U+30E4_U+30FC 1
 62
     7
420
 16777215
370
     9
100
AcDbVertex
100
AcDb2dVertex
 10
74.13226171983955
 20
-85.35913414532705
 30
0.0
  0
SEQEND
  5
65
330
62
100
AcDbEntity
  8
_U+30EC_U+30A4_U+30E4_U+30FC 1
 62
     7
420
 16777215
370
     9
  0
POLYLINE
  5
66
330
1F
100
AcDbEntity
  8
_U+30EC_U+30A4_U+30E4_U+30FC 1
 62
     7
420
 16777215
370
     9
100
AcDb2dPolyline
 66
     1
 10
0.0
 20
0.0
 30
0.0
  0
VERTEX
  5
67
330
66
100
AcDbEntity
  8
_U+30EC_U+30A4_U+30E4_U+30FC 1
 62
     7
420
 16777215
370
     9
100
AcDbVertex
100
AcDb2dVertex
 10
73.13178396758609
 20
-94.36011803196584
 30
0.0
  0
VERTEX
  5
68
330
66
100
AcDbEntity
  8
_U+30EC_U+30A4_U+30E4_U+30FC 1
 62
     7
420
 16777215
370
     9
100
AcDbVertex
100
AcDb2dVertex
 10
73.13178396758609
 20
-97.36010497566018
 30
0.0
  0
SEQEND
  5
69
330
66
100
AcDbEntity
  8
_U+30EC_U+30A4_U+30E4_U+30FC 1
 62
     7
420
 16777215
370
     9
  0
POLYLINE
  5
6A
330
1F
100
AcDbEntity
  8
_U+30EC_U+30A4_U+30E4_U+30FC 1
 62
     7
420
 16777215
370
     9
100
AcDb2dPolyline
 66
     1
 10
0.0
 20
0.0
 30
0.0
  0
VERTEX
  5
6B
330
6A
100
AcDbEntity
  8
_U+30EC_U+30A4_U+30E4_U+30FC 1
 62
     7
420
 16777215
370
     9
100
AcDbVertex
100
AcDb2dVertex
 10
60.67174372991264
 20
-97.36010497566018
 30
0.0
  0
VERTEX
  5
6C
330
6A
100
AcDbEntity
  8
_U+30EC_U+30A4_U+30E4_U+30FC 1
 62
     7
420
 16777215
370
     9
100
AcDbVertex
100
AcDb2dVertex
 10
74.13226171983955
 20
-97.36010497566018
 30
0.0
  0
SEQEND
  5
6D
330
6A
100
AcDbEntity
  8
_U+30EC_U+30A4_U+30E4_U+30FC 1
 62
     7
420
 16777215
370
     9
  0
POLYLINE
  5
6E
330
1F
100
AcDbEntity
  8
_U+30EC_U+30A4_U+30E4_U+30FC 1
 62
     7
420
 16777215
370
     9
100
AcDb2dPolyline
 66
     1
 10
0.0
 20
0.0
 30
0.0
  0
VERTEX
  5
6F
330
6E
100
AcDbEntity
  8
_U+30EC_U+30A4_U+30E4_U+30FC 1
 62
     7
420
 16777215
370
     9
100
AcDbVertex
100
AcDb2dVertex
 10
54.13156139676659
 20
-101.3598641413264
 30
0.0
  0
VERTEX
  5
70
330
6E
100
AcDbEntity
  8
_U+30EC_U+30A4_U+30E4_U+30FC 1
 62
     7
420
 16777215
370
     9
100
AcDbVertex
100
AcDb2dVertex
 10
58.13167323915968
 20
-101.3598641413264
 30
0.0
  0
SEQEND
  5
71
330
6E
100
AcDbEntity
  8
_U+30EC_U+30A4_U+30E4_U+30FC 1
 62
     7
420
 16777215
370
     9
  0
POLYLINE
  5
72
330
1F
100
AcDbEntity
  8
_U+30EC_U+30A4_U+30E4_U+30FC 1
 62
     7
420
 16777215
370
     9
100
AcDb2dPolyline
 66
     1
 10
0.0
 20
0.0
 30
0.0
  0
VERTEX
  5
73
330
72
100
AcDbEntity
  8
_U+30EC_U+30A4_U+30E4_U+30FC 1
 62
     7
420
 16777215
370
     9
100
AcDbVertex
100
AcDb2dVertex
 10
54.13156139676659
 20
-99.89985803058087
 30
0.0
  0
VERTEX
  5
74
330
72
100
AcDbEntity
  8
_U+30EC_U+30A4_U+30E4_U+30FC 1
 62
     7
420
 16777215
370
     9
100
AcDbVertex
100
AcDb2dVertex
 10
54.13156139676659
 20
-102.359636363299
 30
0.0
  0
SEQEND
  5
75
330
72
100
AcDbEntity
  8
_U+30EC_U+30A4_U+30E4_U+30FC 1
 62
     7
420
 16777215
370
     9
  0
POLYLINE
  5
76
330
1F
100
AcDbEntity
  8
_U+30EC_U+30A4_U+30E4_U+30FC 1
 62
     7
420
 16777215
370
     9
100
AcDb2dPolyline
 66
     1
 10
0.0
 20
0.0
 30
0.0
  0
VERTEX
  5
77
330
76
100
AcDbEntity
  8
_U+30EC_U+30A4_U+30E4_U+30FC 1
 62
     7
420
 16777215
370
     9
100
AcDbVertex
100
AcDb2dVertex
 10
58.13167323915968
 20
-99.89985803058087
 30
0.0
  0
VERTEX
  5
78
330
76
100
AcDbEntity
  8
_U+30EC_U+30A4_U+30E4_U+30FC 1
 62
     7
420
 16777215
370
     9
100
AcDbVertex
100
AcDb2dVertex
 10
58.13167323915968
 20
-102.359636363299
 30
0.0
  0
SEQEND
  5
79
330
76
100
AcDbEntity
  8
_U+30EC_U+30A4_U+30E4_U+30FC 1
 62
     7
420
 16777215
370
     9
  0
POLYLINE
  5
7A
330
1F
100
AcDbEntity
  8
_U+30EC_U+30A4_U+30E4_U+30FC 1
 62
     7
420
 16777215
370
     9
100
AcDb2dPolyline
 66
     1
 10
0.0
 20
0.0
 30
0.0
  0
VERTEX
  5
7B
330
7A
100
AcDbEntity
  8
_U+30EC_U+30A4_U+30E4_U+30FC 1
 62
     7
420
 16777215
370
     9
100
AcDbVertex
100
AcDb2dVertex
 10
54.13156139676659
 20
-80.55923970208234
 30
0.0
  0
VERTEX
  5
7C
330
7A
100
AcDbEntity
  8
_U+30EC_U+30A4_U+30E4_U+30FC 1
 62
     7
420
 16777215
370
     9
100
AcDbVertex
100
AcDb2dVertex
 10
69.13170740296988
 20
-80.55923970208234
 30
0.0
  0
SEQEND
  5
7D
330
7A
100
AcDbEntity
  8
_U+30EC_U+30A4_U+30E4_U+30FC 1
 62
     7
420
 16777215
370
     9
  0
POLYLINE
  5
7E
330
1F
100
AcDbEntity
  8
_U+30EC_U+30A4_U+30E4_U+30FC 1
 62
     7
420
 16777215
370
     9
100
AcDb2dPolyline
 66
     1
 10
0.0
 20
0.0
 30
0.0
  0
VERTEX
  5
7F
330
7E
100
AcDbEntity
  8
_U+30EC_U+30A4_U+30E4_U+30FC 1
 62
     7
420
 16777215
370
     9
100
AcDbVertex
100
AcDb2dVertex
 10
54.13156139676659
 20
-82.01928109060637
 30
0.0
  0
VERTEX
  5
80
330
7E
100
AcDbEntity
  8
_U+30EC_U+30A4_U+30E4_U+30FC 1
 62
     7
420
 16777215
370
     9
100
AcDbVertex
100
AcDb2dVertex
 10
54.13156139676659
 20
-79.55879720233243
 30
0.0
  0
SEQEND
  5
81
330
7E
100
AcDbEntity
  8
_U+30EC_U+30A4_U+30E4_U+30FC 1
 62
     7
420
 16777215
370
     9
  0
POLYLINE
  5
82
330
1F
100
AcDbEntity
  8
_U+30EC_U+30A4_U+30E4_U+30FC 1
 62
     7
420
 16777215
370
     9
100
AcDb2dPolyline
 66
     1
 10
0.0
 20
0.0
 30
0.0
  0
VERTEX
  5
83
330
82
100
AcDbEntity
  8
_U+30EC_U+30A4_U+30E4_U+30FC 1
 62
     7
420
 16777215
370
     9
100
AcDbVertex
100
AcDb2dVertex
 10
69.13170740296988
 20
-82.01928109060637
 30
0.0
  0
VERTEX
  5
84
330
82
100
AcDbEntity
  8
_U+30EC_U+30A4_U+30E4_U+30FC 1
 62
     7
420
 16777215
370
     9
100
AcDbVertex
100
AcDb2dVertex
 10
69.13170740296988
 20
-79.55879720233243
 30
0.0
  0
SEQEND
  5
85
330
82
100
AcDbEntity
  8
_U+30EC_U+30A4_U+30E4_U+30FC 1
 62
     7
420
 16777215
370
     9
  0
POLYLINE
  5
86
330
1F
100
AcDbEntity
  8
_U+30EC_U+30A4_U+30E4_U+30FC 1
 62
     7
420
 16777215
370
     9
100
AcDb2dPolyline
 66
     1
 10
0.0
 20
0.0
 30
0.0
  0
VERTEX
  5
87
330
86
100
AcDbEntity
  8
_U+30EC_U+30A4_U+30E4_U+30FC 1
 62
     7
420
 16777215
370
     9
100
AcDbVertex
100
AcDb2dVertex
 10
73.13178396758609
 20
-94.36011803196584
 30
0.0
  0
VERTEX
  5
88
330
86
100
AcDbEntity
  8
_U+30EC_U+30A4_U+30E4_U+30FC 1
 62
     7
420
 16777215
370
     9
100
AcDbVertex
100
AcDb2dVertex
 10
73.13178396758609
 20
-85.35913414532705
 30
0.0
  0
SEQEND
  5
89
330
86
100
AcDbEntity
  8
_U+30EC_U+30A4_U+30E4_U+30FC 1
 62
     7
420
 16777215
370
     9
  0
POLYLINE
  5
8A
330
1F
100
AcDbEntity
  8
_U+30EC_U+30A4_U+30E4_U+30FC 1
 62
     7
420
 16777215
370
     9
100
AcDb2dPolyline
 66
     1
 10
0.0
 20
0.0
 30
0.0
  0
VERTEX
  5
8B
330
8A
100
AcDbEntity
  8
_U+30EC_U+30A4_U+30E4_U+30FC 1
 62
     7
420
 16777215
370
     9
100
AcDbVertex
100
AcDb2dVertex
 10
60.67174372991264
 20
-95.3602430317155
 30
0.0
  0
VERTEX
  5
8C
330
8A
100
AcDbEntity
  8
_U+30EC_U+30A4_U+30E4_U+30FC 1
 62
     7
420
 16777215
370
     9
100
AcDbVertex
100
AcDb2dVertex
 10
74.13226171983955
 20
-95.3602430317155
 30
0.0
  0
SEQEND
  5
8D
330
8A
100
AcDbEntity
  8
_U+30EC_U+30A4_U+30E4_U+30FC 1
 62
     7
420
 16777215
370
     9
  0
INSERT
  5
8F
330
1F
100
AcDbEntity
  8
_U+30EC_U+30A4_U+30E4_U+30FC 1
100
AcDbBlockReference
  2
block 2
 10
0.0
 20
0.0
 30
0.0
  0
INSERT
  5
A2
330
1F
100
AcDbEntity
  8
_U+30EC_U+30A4_U+30E4_U+30FC 1
100
AcDbBlockReference
  2
block 3
 10
0.0
 20
0.0
 30
0.0
  0
INSERT
  5
A8
330
1F
100
AcDbEntity
  8
_U+30EC_U+30A4_U+30E4_U+30FC 1
100
AcDbBlockReference
  2
block 4
 10
0.0
 20
0.0
 30
0.0
  0
INSERT
  5
C1
330
1F
100
AcDbEntity
  8
_U+30EC_U+30A4_U+30E4_U+30FC 1
100
AcDbBlockReference
  2
block 5
 10
0.0
 20
0.0
 30
0.0
  0
INSERT
  5
C9
330
1F
100
AcDbEntity
  8
_U+30EC_U+30A4_U+30E4_U+30FC 1
100
AcDbBlockReference
  2
block 6
 10
0.0
 20
0.0
 30
0.0
  0
ENDSEC
  0
SECTION
  2
OBJECTS
  0
DICTIONARY
  5
C
330
0
100
AcDbDictionary
281
     1
  3
ACAD_GROUP
350
D
  3
ACAD_LAYOUT
350
1A
  3
ACAD_MATERIAL
350
3B
  3
ACAD_MLEADERSTYLE
350
D2
  3
ACAD_MLINESTYLE
350
17
  3
ACAD_PLOTSETTINGS
350
19
  3
ACAD_PLOTSTYLENAME
350
E
  3
ACAD_TABLESTYLE
350
D1
  3
ACAD_VISUALSTYLE
350
2A
  0
SUN
  5
3F
330
29
100
AcDbSun
 90
        1
290
     0
 63
     7
421
 16777215
 40
1.0
291
     1
 91
  2455826
 92
 54000000
292
     0
 70
     2
 71
   256
280
     1
  0
DICTIONARY
  5
D
102
{ACAD_REACTORS
330
C
102
}
330
C
100
AcDbDictionary
281
     1
  0
DICTIONARY
  5
1A
102
{ACAD_REACTORS
330
C
102
}
330
C
100
AcDbDictionary
281
     1
  3
Layout1
350
1E
  3
Layout2
350
26
  3
Model
350
22
  0
DICTIONARY
  5
3B
102
{ACAD_REACTORS
330
C
102
}
330
C
100
AcDbDictionary
281
     1
  3
ByBlock
350
3D
  3
ByLayer
350
3C
  3
Global
350
3E
  0
DICTIONARY
  5
D2
102
{ACAD_REACTORS
330
C
102
}
330
C
100
AcDbDictionary
281
     1
  0
DICTIONARY
  5
17
102
{ACAD_REACTORS
330
C
102
}
330
C
100
AcDbDictionary
281
     1
  3
Standard
350
18
  0
DICTIONARY
  5
19
102
{ACAD_REACTORS
330
C
102
}
330
C
100
AcDbDictionary
281
     1
  0
ACDBDICTIONARYWDFLT
  5
E
102
{ACAD_REACTORS
330
C
102
}
330
C
100
AcDbDictionary
281
     1
  3
Normal
350
F
100
AcDbDictionaryWithDefault
340
F
  0
DICTIONARY
  5
D1
102
{ACAD_REACTORS
330
C
102
}
330
C
100
AcDbDictionary
281
     1
  0
DICTIONARY
  5
2A
102
{ACAD_REACTORS
330
C
102
}
330
C
100
AcDbDictionary
281
     1
  3
2dWireframe
350
2F
  3
3D Hidden
350
31
  3
3dWireframe
350
30
  3
Basic
350
32
  3
Brighten
350
36
  3
ColorChange
350
3A
  3
Conceptual
350
34
  3
Dim
350
35
  3
Facepattern
350
39
  3
Flat
350
2B
  3
FlatWithEdges
350
2C
  3
Gouraud
350
2D
  3
GouraudWithEdges
350
2E
  3
Linepattern
350
38
  3
Realistic
350
33
  3
Thicken
350
37
  0
LAYOUT
  5
1E
102
{ACAD_REACTORS
330
1A
102
}
330
1A
100
AcDbPlotSettings
  1

  2
none_device
  4

  6

 40
0.0
 41
0.0
 42
0.0
 43
0.0
 44
0.0
 45
0.0
 46
0.0
 47
0.0
 48
0.0
 49
0.0
140
0.0
141
0.0
142
1.0
143
1.0
 70
   688
 72
     0
 73
     0
 74
     5
  7

 75
    16
 76
     0
 77
     2
 78
   300
147
1.0
148
0.0
149
0.0
100
AcDbLayout
  1
Layout1
 70
     1
 71
     1
 10
0.0
 20
0.0
 11
12.0
 21
9.0
 12
0.0
 22
0.0
 32
0.0
 14
1.000000000000000E+20
 24
1.000000000000000E+20
 34
1.000000000000000E+20
 15
-1.000000000000000E+20
 25
-1.000000000000000E+20
 35
-1.000000000000000E+20
146
0.0
 13
0.0
 23
0.0
 33
0.0
 16
1.0
 26
0.0
 36
0.0
 17
0.0
 27
1.0
 37
0.0
 76
     0
330
1B
  0
LAYOUT
  5
26
102
{ACAD_REACTORS
330
1A
102
}
330
1A
100
AcDbPlotSettings
  1

  2
none_device
  4

  6

 40
0.0
 41
0.0
 42
0.0
 43
0.0
 44
0.0
 45
0.0
 46
0.0
 47
0.0
 48
0.0
 49
0.0
140
0.0
141
0.0
142
1.0
143
1.0
 70
   688
 72
     0
 73
     0
 74
     5
  7

 75
    16
 76
     0
 77
     2
 78
   300
147
1.0
148
0.0
149
0.0
100
AcDbLayout
  1
Layout2
 70
     1
 71
     2
 10
0.0
 20
0.0
 11
0.0
 21
0.0
 12
0.0
 22
0.0
 32
0.0
 14
0.0
 24
0.0
 34
0.0
 15
0.0
 25
0.0
 35
0.0
146
0.0
 13
0.0
 23
0.0
 33
0.0
 16
1.0
 26
0.0
 36
0.0
 17
0.0
 27
1.0
 37
0.0
 76
     0
330
23
  0
LAYOUT
  5
22
102
{ACAD_REACTORS
330
1A
102
}
330
1A
100
AcDbPlotSettings
  1

  2
none_device
  4

  6

 40
0.0
 41
0.0
 42
0.0
 43
0.0
 44
0.0
 45
0.0
 46
0.0
 47
0.0
 48
0.0
 49
0.0
140
0.0
141
0.0
142
1.0
143
1.0
 70
  1712
 72
     0
 73
     0
 74
     0
  7

 75
     0
 76
     0
 77
     2
 78
   300
147
1.0
148
0.0
149
0.0
100
AcDbLayout
  1
Model
 70
     1
 71
     0
 10
0.0
 20
0.0
 11
12.0
 21
9.0
 12
0.0
 22
0.0
 32
0.0
 14
1.000000000000000E+20
 24
1.000000000000000E+20
 34
1.000000000000000E+20
 15
-1.000000000000000E+20
 25
-1.000000000000000E+20
 35
-1.000000000000000E+20
146
0.0
 13
0.0
 23
0.0
 33
0.0
 16
1.0
 26
0.0
 36
0.0
 17
0.0
 27
1.0
 37
0.0
 76
     0
330
1F
331
29
  0
MATERIAL
  5
3D
102
{ACAD_REACTORS
330
3B
102
}
330
3B
100
AcDbMaterial
  1
ByBlock
 72
     1
 94
      127
  0
MATERIAL
  5
3C
102
{ACAD_REACTORS
330
3B
102
}
330
3B
100
AcDbMaterial
  1
ByLayer
 72
     1
 94
      127
  0
MATERIAL
  5
3E
102
{ACAD_REACTORS
330
3B
102
}
330
3B
100
AcDbMaterial
  1
Global
 72
     1
 94
      127
  0
MLINESTYLE
  5
18
102
{ACAD_REACTORS
330
17
102
}
330
17
100
AcDbMlineStyle
  2
Standard
 70
     0
  3

 62
   256
 51
90.0
 52
90.0
 71
     2
 49
0.5
 62
   256
  6
BYLAYER
 49
-0.5
 62
   256
  6
BYLAYER
  0
ACDBPLACEHOLDER
  5
F
102
{ACAD_REACTORS
330
E
102
}
330
E
  0
VISUALSTYLE
  5
2F
102
{ACAD_REACTORS
330
2A
102
}
330
2A
100
AcDbVisualStyle
  2
2dWireframe
 70
     4
177
     2
291
     0
 71
     0
176
     1
 72
     2
176
     1
 73
     0
176
     1
 90
        0
176
     1
 40
-0.6
176
     1
 41
-30.0
176
     1
 62
     5
 63
     7
421
 16777215
176
     1
 74
     1
176
     1
 91
        4
176
     1
 64
     7
176
     1
 65
   257
176
     1
 75
     1
176
     1
175
     1
176
     1
 42
1.0
176
     1
 92
        0
176
     1
 66
   257
176
     1
 43
1.0
176
     1
 76
     1
176
     1
 77
     6
176
     1
 78
     2
176
     1
 67
     7
176
     1
 79
     5
176
     1
170
     0
176
     1
171
     0
176
     1
290
     0
176
     1
 93
        1
176
     1
 44
0.0
176
     1
173
     0
176
     1
  0
VISUALSTYLE
  5
31
102
{ACAD_REACTORS
330
2A
102
}
330
2A
100
AcDbVisualStyle
  2
3D Hidden
 70
     6
177
     2
291
     0
 71
     1
176
     1
 72
     2
176
     1
 73
     2
176
     1
 90
        0
176
     1
 40
-0.6
176
     1
 41
-30.0
176
     1
 62
     5
 63
     7
421
 16777215
176
     1
 74
     2
176
     1
 91
        2
176
     1
 64
     7
176
     1
 65
   257
176
     1
 75
     2
176
     1
175
     1
176
     1
 42
40.0
176
     1
 92
        0
176
     1
 66
   257
176
     1
 43
1.0
176
     1
 76
     1
176
     1
 77
     6
176
     1
 78
     2
176
     1
 67
     7
176
     1
 79
     3
176
     1
170
     0
176
     1
171
     0
176
     1
290
     0
176
     1
 93
        1
176
     1
 44
0.0
176
     1
173
     0
176
     1
  0
VISUALSTYLE
  5
30
102
{ACAD_REACTORS
330
2A
102
}
330
2A
100
AcDbVisualStyle
  2
3dWireframe
 70
     5
177
     2
291
     0
 71
     0
176
     1
 72
     2
176
     1
 73
     0
176
     1
 90
        0
176
     1
 40
-0.6
176
     1
 41
-30.0
176
     1
 62
     5
 63
     7
421
 16777215
176
     1
 74
     1
176
     1
 91
        4
176
     1
 64
     7
176
     1
 65
   257
176
     1
 75
     1
176
     1
175
     1
176
     1
 42
1.0
176
     1
 92
        0
176
     1
 66
   257
176
     1
 43
1.0
176
     1
 76
     1
176
     1
 77
     6
176
     1
 78
     2
176
     1
 67
     7
176
     1
 79
     5
176
     1
170
     0
176
     1
171
     0
176
     1
290
     0
176
     1
 93
        1
176
     1
 44
0.0
176
     1
173
     0
176
     1
  0
VISUALSTYLE
  5
32
102
{ACAD_REACTORS
330
2A
102
}
330
2A
100
AcDbVisualStyle
  2
Basic
 70
     7
177
     2
291
     1
 71
     1
176
     1
 72
     0
176
     1
 73
     1
176
     1
 90
        0
176
     1
 40
-0.6
176
     1
 41
-30.0
176
     1
 62
     5
 63
     7
421
 16777215
176
     1
 74
     0
176
     1
 91
        4
176
     1
 64
     7
176
     1
 65
   257
176
     1
 75
     1
176
     1
175
     1
176
     1
 42
1.0
176
     1
 92
        8
176
     1
 66
     7
176
     1
 43
1.0
176
     1
 76
     1
176
     1
 77
     6
176
     1
 78
     2
176
     1
 67
     7
176
     1
 79
     5
176
     1
170
     0
176
     1
171
     0
176
     1
290
     0
176
     1
 93
        1
176
     1
 44
0.0
176
     1
173
     0
176
     1
  0
VISUALSTYLE
  5
36
102
{ACAD_REACTORS
330
2A
102
}
330
2A
100
AcDbVisualStyle
  2
Brighten
 70
    12
177
     2
291
     1
 71
     2
176
     1
 72
     2
176
     1
 73
     0
176
     1
 90
        0
176
     1
 40
-0.6
176
     1
 41
-30.0
176
     1
 62
     5
 63
     7
421
 16777215
176
     1
 74
     1
176
     1
 91
        4
176
     1
 64
     7
176
     1
 65
   257
176
     1
 75
     1
176
     1
175
     1
176
     1
 42
1.0
176
     1
 92
        8
176
     1
 66
     7
176
     1
 43
1.0
176
     1
 76
     1
176
     1
 77
     6
176
     1
 78
     2
176
     1
 67
     7
176
     1
 79
     5
176
     1
170
     0
176
     1
171
     0
176
     1
290
     0
176
     1
 93
        1
176
     1
 44
50.0
176
     1
173
     0
176
     1
  0
VISUALSTYLE
  5
3A
102
{ACAD_REACTORS
330
2A
102
}
330
2A
100
AcDbVisualStyle
  2
ColorChange
 70
    16
177
     2
291
     1
 71
     2
176
     1
 72
     2
176
     1
 73
     3
176
     1
 90
        0
176
     1
 40
-0.6
176
     1
 41
-30.0
176
     1
 62
     5
 63
     8
421
  8421504
176
     1
 74
     1
176
     1
 91
        4
176
     1
 64
     7
176
     1
 65
   257
176
     1
 75
     1
176
     1
175
     1
176
     1
 42
1.0
176
     1
 92
        8
176
     1
 66
     8
424
  8421504
176
     1
 43
1.0
176
     1
 76
     1
176
     1
 77
     6
176
     1
 78
     2
176
     1
 67
     7
176
     1
 79
     5
176
     1
170
     0
176
     1
171
     0
176
     1
290
     0
176
     1
 93
        1
176
     1
 44
0.0
176
     1
173
     0
176
     1
  0
VISUALSTYLE
  5
34
102
{ACAD_REACTORS
330
2A
102
}
330
2A
100
AcDbVisualStyle
  2
Conceptual
 70
     9
177
     2
291
     0
 71
     3
176
     1
 72
     2
176
     1
 73
     0
176
     1
 90
        0
176
     1
 40
-0.6
176
     1
 41
-30.0
176
     1
 62
     5
 63
     7
421
 16777215
176
     1
 74
     2
176
     1
 91
        2
176
     1
 64
     7
176
     1
 65
   257
176
     1
 75
     1
176
     1
175
     1
176
     1
 42
40.0
176
     1
 92
        8
176
     1
 66
     7
176
     1
 43
1.0
176
     1
 76
     1
176
     1
 77
     6
176
     1
 78
     2
176
     1
 67
     7
176
     1
 79
     3
176
     1
170
     0
176
     1
171
     0
176
     1
290
     0
176
     1
 93
        1
176
     1
 44
0.0
176
     1
173
     0
176
     1
  0
VISUALSTYLE
  5
35
102
{ACAD_REACTORS
330
2A
102
}
330
2A
100
AcDbVisualStyle
  2
Dim
 70
    11
177
     2
291
     1
 71
     2
176
     1
 72
     2
176
     1
 73
     0
176
     1
 90
        0
176
     1
 40
-0.6
176
     1
 41
-30.0
176
     1
 62
     5
 63
     7
421
 16777215
176
     1
 74
     1
176
     1
 91
        4
176
     1
 64
     7
176
     1
 65
   257
176
     1
 75
     1
176
     1
175
     1
176
     1
 42
1.0
176
     1
 92
        8
176
     1
 66
     7
176
     1
 43
1.0
176
     1
 76
     1
176
     1
 77
     6
176
     1
 78
     2
176
     1
 67
     7
176
     1
 79
     5
176
     1
170
     0
176
     1
171
     0
176
     1
290
     0
176
     1
 93
        1
176
     1
 44
-50.0
176
     1
173
     0
176
     1
  0
VISUALSTYLE
  5
39
102
{ACAD_REACTORS
330
2A
102
}
330
2A
100
AcDbVisualStyle
  2
Facepattern
 70
    15
177
     2
291
     1
 71
     2
176
     1
 72
     2
176
     1
 73
     0
176
     1
 90
        0
176
     1
 40
-0.6
176
     1
 41
-30.0
176
     1
 62
     5
 63
     7
421
 16777215
176
     1
 74
     1
176
     1
 91
        4
176
     1
 64
     7
176
     1
 65
   257
176
     1
 75
     1
176
     1
175
     1
176
     1
 42
1.0
176
     1
 92
        8
176
     1
 66
     7
176
     1
 43
1.0
176
     1
 76
     1
176
     1
 77
     6
176
     1
 78
     2
176
     1
 67
     7
176
     1
 79
     5
176
     1
170
     0
176
     1
171
     0
176
     1
290
     0
176
     1
 93
        1
176
     1
 44
0.0
176
     1
173
     0
176
     1
  0
VISUALSTYLE
  5
2B
102
{ACAD_REACTORS
330
2A
102
}
330
2A
100
AcDbVisualStyle
  2
Flat
 70
     0
177
     2
291
     1
 71
     2
176
     1
 72
     1
176
     1
 73
     1
176
     1
 90
        2
176
     1
 40
-0.6
176
     1
 41
30.0
176
     1
 62
     5
 63
     7
421
 16777215
176
     1
 74
     0
176
     1
 91
        4
176
     1
 64
     7
176
     1
 65
   257
176
     1
 75
     1
176
     1
175
     1
176
     1
 42
1.0
176
     1
 92
        8
176
     1
 66
     7
176
     1
 43
1.0
176
     1
 76
     1
176
     1
 77
     6
176
     1
 78
     2
176
     1
 67
     7
176
     1
 79
     5
176
     1
170
     0
176
     1
171
     0
176
     1
290
     0
176
     1
 93
       13
176
     1
 44
0.0
176
     1
173
     0
176
     1
  0
VISUALSTYLE
  5
2C
102
{ACAD_REACTORS
330
2A
102
}
330
2A
100
AcDbVisualStyle
  2
FlatWithEdges
 70
     1
177
     2
291
     1
 71
     2
176
     1
 72
     1
176
     1
 73
     1
176
     1
 90
        2
176
     1
 40
-0.6
176
     1
 41
30.0
176
     1
 62
     5
 63
     7
421
 16777215
176
     1
 74
     1
176
     1
 91
        4
176
     1
 64
     7
176
     1
 65
   257
176
     1
 75
     1
176
     1
175
     1
176
     1
 42
1.0
176
     1
 92
        0
176
     1
 66
   257
176
     1
 43
1.0
176
     1
 76
     1
176
     1
 77
     6
176
     1
 78
     2
176
     1
 67
     7
176
     1
 79
     5
176
     1
170
     0
176
     1
171
     0
176
     1
290
     0
176
     1
 93
       13
176
     1
 44
0.0
176
     1
173
     0
176
     1
  0
VISUALSTYLE
  5
2D
102
{ACAD_REACTORS
330
2A
102
}
330
2A
100
AcDbVisualStyle
  2
Gouraud
 70
     2
177
     2
291
     1
 71
     2
176
     1
 72
     2
176
     1
 73
     1
176
     1
 90
        2
176
     1
 40
-0.6
176
     1
 41
30.0
176
     1
 62
     5
 63
     7
421
 16777215
176
     1
 74
     0
176
     1
 91
        4
176
     1
 64
     7
176
     1
 65
   257
176
     1
 75
     1
176
     1
175
     1
176
     1
 42
1.0
176
     1
 92
        0
176
     1
 66
     7
176
     1
 43
1.0
176
     1
 76
     1
176
     1
 77
     6
176
     1
 78
     2
176
     1
 67
     7
176
     1
 79
     5
176
     1
170
     0
176
     1
171
     0
176
     1
290
     0
176
     1
 93
       13
176
     1
 44
0.0
176
     1
173
     0
176
     1
  0
VISUALSTYLE
  5
2E
102
{ACAD_REACTORS
330
2A
102
}
330
2A
100
AcDbVisualStyle
  2
GouraudWithEdges
 70
     3
177
     2
291
     1
 71
     2
176
     1
 72
     2
176
     1
 73
     1
176
     1
 90
        2
176
     1
 40
-0.6
176
     1
 41
30.0
176
     1
 62
     5
 63
     7
421
 16777215
176
     1
 74
     1
176
     1
 91
        4
176
     1
 64
     7
176
     1
 65
   257
176
     1
 75
     1
176
     1
175
     1
176
     1
 42
1.0
176
     1
 92
        0
176
     1
 66
   257
176
     1
 43
1.0
176
     1
 76
     1
176
     1
 77
     6
176
     1
 78
     2
176
     1
 67
     7
176
     1
 79
     5
176
     1
170
     0
176
     1
171
     0
176
     1
290
     0
176
     1
 93
       13
176
     1
 44
0.0
176
     1
173
     0
176
     1
  0
VISUALSTYLE
  5
38
102
{ACAD_REACTORS
330
2A
102
}
330
2A
100
AcDbVisualStyle
  2
Linepattern
 70
    14
177
     2
291
     1
 71
     2
176
     1
 72
     2
176
     1
 73
     0
176
     1
 90
        0
176
     1
 40
-0.6
176
     1
 41
-30.0
176
     1
 62
     5
 63
     7
421
 16777215
176
     1
 74
     1
176
     1
 91
        4
176
     1
 64
     7
176
     1
 65
   257
176
     1
 75
     7
176
     1
175
     7
176
     1
 42
1.0
176
     1
 92
        8
176
     1
 66
     7
176
     1
 43
1.0
176
     1
 76
     1
176
     1
 77
     6
176
     1
 78
     2
176
     1
 67
     7
176
     1
 79
     5
176
     1
170
     0
176
     1
171
     0
176
     1
290
     0
176
     1
 93
        1
176
     1
 44
0.0
176
     1
173
     0
176
     1
  0
VISUALSTYLE
  5
33
102
{ACAD_REACTORS
330
2A
102
}
330
2A
100
AcDbVisualStyle
  2
Realistic
 70
     8
177
     2
291
     0
 71
     2
176
     1
 72
     2
176
     1
 73
     0
176
     1
 90
        0
176
     1
 40
-0.6
176
     1
 41
-30.0
176
     1
 62
     5
 63
     7
421
 16777215
176
     1
 74
     1
176
     1
 91
        0
176
     1
 64
     7
176
     1
 65
   257
176
     1
 75
     1
176
     1
175
     1
176
     1
 42
1.0
176
     1
 92
        8
176
     1
 66
     8
424
  7895160
176
     1
 43
1.0
176
     1
 76
     1
176
     1
 77
     6
176
     1
 78
     2
176
     1
 67
     7
176
     1
 79
     5
176
     1
170
     0
176
     1
171
     0
176
     1
290
     0
176
     1
 93
       13
176
     1
 44
0.0
176
     1
173
     0
176
     1
  0
VISUALSTYLE
  5
37
102
{ACAD_REACTORS
330
2A
102
}
330
2A
100
AcDbVisualStyle
  2
Thicken
 70
    13
177
     2
291
     1
 71
     2
176
     1
 72
     2
176
     1
 73
     0
176
     1
 90
        0
176
     1
 40
-0.6
176
     1
 41
-30.0
176
     1
 62
     5
 63
     7
421
 16777215
176
     1
 74
     1
176
     1
 91
        4
176
     1
 64
     7
176
     1
 65
   257
176
     1
 75
     1
176
     1
175
     1
176
     1
 42
1.0
176
     1
 92
       12
176
     1
 66
     7
176
     1
 43
1.0
176
     1
 76
     1
176
     1
 77
     6
176
     1
 78
     2
176
     1
 67
     7
176
     1
 79
     5
176
     1
170
     0
176
     1
171
     0
176
     1
290
     0
176
     1
 93
        1
176
     1
 44
0.0
176
     1
173
     0
176
     1
  0
ENDSEC
  0
EOF
