  0
SECTION
  2
HEADER
  9
$ACADVER
  1
AC1024
  9
$ACADMAINTVER
 70
     6
  9
$DWGCODEPAGE
  3
UNDEFINED
  9
$INSBASE
 10
0.0
 20
0.0
 30
0.0
  9
$EXTMIN
 10
1.000000000000000E+20
 20
1.000000000000000E+20
 30
1.000000000000000E+20
  9
$EXTMAX
 10
-1.000000000000000E+20
 20
-1.000000000000000E+20
 30
-1.000000000000000E+20
  9
$LIMMIN
 10
0.0
 20
0.0
  9
$LIMMAX
 10
12.0
 20
9.0
  9
$ORTHOMODE
 70
     0
  9
$REGENMODE
 70
     1
  9
$FILLMODE
 70
     1
  9
$QTEXTMODE
 70
     0
  9
$MIRRTEXT
 70
     1
  9
$LTSCALE
 40
1.0
  9
$ATTMODE
 70
     1
  9
$TEXTSIZE
 40
0.2
  9
$TRACEWID
 40
0.05
  9
$TEXTSTYLE
  7
Standard
  9
$CLAYER
  8
0
  9
$CELTYPE
  6
ByLayer
  9
$CECOLOR
 62
   256
  9
$CELTSCALE
 40
1.0
  9
$DISPSILH
 70
     0
  9
$DIMSCALE
 40
1.0
  9
$DIMASZ
 40
0.18
  9
$DIMEXO
 40
0.0625
  9
$DIMDLI
 40
0.38
  9
$DIMRND
 40
0.0
  9
$DIMDLE
 40
0.0
  9
$DIMEXE
 40
0.18
  9
$DIMTP
 40
0.0
  9
$DIMTM
 40
0.0
  9
$DIMTXT
 40
0.18
  9
$DIMCEN
 40
0.09
  9
$DIMTSZ
 40
0.0
  9
$DIMTOL
 70
     0
  9
$DIMLIM
 70
     0
  9
$DIMTIH
 70
     1
  9
$DIMTOH
 70
     1
  9
$DIMSE1
 70
     0
  9
$DIMSE2
 70
     0
  9
$DIMTAD
 70
     0
  9
$DIMZIN
 70
     0
  9
$DIMBLK
  1

  9
$DIMASO
 70
     1
  9
$DIMSHO
 70
     1
  9
$DIMPOST
  1

  9
$DIMAPOST
  1

  9
$DIMALT
 70
     0
  9
$DIMALTD
 70
     2
  9
$DIMALTF
 40
25.4
  9
$DIMLFAC
 40
1.0
  9
$DIMTOFL
 70
     0
  9
$DIMTVP
 40
0.0
  9
$DIMTIX
 70
     0
  9
$DIMSOXD
 70
     0
  9
$DIMSAH
 70
     0
  9
$DIMBLK1
  1

  9
$DIMBLK2
  1

  9
$DIMSTYLE
  2
Standard
  9
$DIMCLRD
 70
     0
  9
$DIMCLRE
 70
     0
  9
$DIMCLRT
 70
     0
  9
$DIMTFAC
 40
1.0
  9
$DIMGAP
 40
0.09
  9
$DIMJUST
 70
     0
  9
$DIMSD1
 70
     0
  9
$DIMSD2
 70
     0
  9
$DIMTOLJ
 70
     1
  9
$DIMTZIN
 70
     0
  9
$DIMALTZ
 70
     0
  9
$DIMALTTZ
 70
     0
  9
$DIMUPT
 70
     0
  9
$DIMDEC
 70
     4
  9
$DIMTDEC
 70
     4
  9
$DIMALTU
 70
     2
  9
$DIMALTTD
 70
     2
  9
$DIMTXSTY
  7
Standard
  9
$DIMAUNIT
 70
     0
  9
$DIMADEC
 70
     0
  9
$DIMALTRND
 40
0.0
  9
$DIMAZIN
 70
     0
  9
$DIMDSEP
 70
    46
  9
$DIMATFIT
 70
     3
  9
$DIMFRAC
 70
     0
  9
$DIMLDRBLK
  1

  9
$DIMLUNIT
 70
     2
  9
$DIMLWD
 70
    -2
  9
$DIMLWE
 70
    -2
  9
$DIMTMOVE
 70
     0
  9
$DIMFXL
 40
1.0
  9
$DIMFXLON
 70
     0
  9
$DIMJOGANG
 40
0.7853981633974483
  9
$DIMTFILL
 70
     0
  9
$DIMTFILLCLR
 70
     0
  9
$DIMARCSYM
 70
     0
  9
$DIMLTYPE
  6

  9
$DIMLTEX1
  6

  9
$DIMLTEX2
  6

  9
$DIMTXTDIRECTION
 70
     0
  9
$LUNITS
 70
     2
  9
$LUPREC
 70
     4
  9
$SKETCHINC
 40
0.1
  9
$FILLETRAD
 40
0.5
  9
$AUNITS
 70
     0
  9
$AUPREC
 70
     0
  9
$MENU
  1
.
  9
$ELEVATION
 40
0.0
  9
$PELEVATION
 40
0.0
  9
$THICKNESS
 40
0.0
  9
$LIMCHECK
 70
     0
  9
$CHAMFERA
 40
0.5
  9
$CHAMFERB
 40
0.5
  9
$CHAMFERC
 40
1.0
  9
$CHAMFERD
 40
0.0
  9
$SKPOLY
 70
     0
  9
$TDCREATE
 40
2457917.588865729
  9
$TDUCREATE
 40
2457917.213865741
  9
$TDUPDATE
 40
2457917.588865729
  9
$TDUUPDATE
 40
2457917.213865741
  9
$TDINDWG
 40
0.0000000116
  9
$TDUSRTIMER
 40
0.0000000116
  9
$USRTIMER
 70
     1
  9
$ANGBASE
 50
0.0
  9
$ANGDIR
 70
     0
  9
$PDMODE
 70
     0
  9
$PDSIZE
 40
0.0
  9
$PLINEWID
 40
0.0
  9
$SPLFRAME
 70
     0
  9
$SPLINETYPE
 70
     6
  9
$SPLINESEGS
 70
     8
  9
$HANDSEED
  5
DB
  9
$SURFTAB1
 70
     6
  9
$SURFTAB2
 70
     6
  9
$SURFTYPE
 70
     6
  9
$SURFU
 70
     6
  9
$SURFV
 70
     6
  9
$UCSBASE
  2

  9
$UCSNAME
  2

  9
$UCSORG
 10
0.0
 20
0.0
 30
0.0
  9
$UCSXDIR
 10
1.0
 20
0.0
 30
0.0
  9
$UCSYDIR
 10
0.0
 20
1.0
 30
0.0
  9
$UCSORTHOREF
  2

  9
$UCSORTHOVIEW
 70
     0
  9
$UCSORGTOP
 10
0.0
 20
0.0
 30
0.0
  9
$UCSORGBOTTOM
 10
0.0
 20
0.0
 30
0.0
  9
$UCSORGLEFT
 10
0.0
 20
0.0
 30
0.0
  9
$UCSORGRIGHT
 10
0.0
 20
0.0
 30
0.0
  9
$UCSORGFRONT
 10
0.0
 20
0.0
 30
0.0
  9
$UCSORGBACK
 10
0.0
 20
0.0
 30
0.0
  9
$PUCSBASE
  2

  9
$PUCSNAME
  2

  9
$PUCSORG
 10
0.0
 20
0.0
 30
0.0
  9
$PUCSXDIR
 10
1.0
 20
0.0
 30
0.0
  9
$PUCSYDIR
 10
0.0
 20
1.0
 30
0.0
  9
$PUCSORTHOREF
  2

  9
$PUCSORTHOVIEW
 70
     0
  9
$PUCSORGTOP
 10
0.0
 20
0.0
 30
0.0
  9
$PUCSORGBOTTOM
 10
0.0
 20
0.0
 30
0.0
  9
$PUCSORGLEFT
 10
0.0
 20
0.0
 30
0.0
  9
$PUCSORGRIGHT
 10
0.0
 20
0.0
 30
0.0
  9
$PUCSORGFRONT
 10
0.0
 20
0.0
 30
0.0
  9
$PUCSORGBACK
 10
0.0
 20
0.0
 30
0.0
  9
$USERI1
 70
     0
  9
$USERI2
 70
     0
  9
$USERI3
 70
     0
  9
$USERI4
 70
     0
  9
$USERI5
 70
     0
  9
$USERR1
 40
0.0
  9
$USERR2
 40
0.0
  9
$USERR3
 40
0.0
  9
$USERR4
 40
0.0
  9
$USERR5
 40
0.0
  9
$WORLDVIEW
 70
     1
  9
$SHADEDGE
 70
     3
  9
$SHADEDIF
 70
    70
  9
$TILEMODE
 70
     1
  9
$MAXACTVP
 70
    64
  9
$PINSBASE
 10
0.0
 20
0.0
 30
0.0
  9
$PLIMCHECK
 70
     0
  9
$PEXTMIN
 10
1.000000000000000E+20
 20
1.000000000000000E+20
 30
1.000000000000000E+20
  9
$PEXTMAX
 10
-1.000000000000000E+20
 20
-1.000000000000000E+20
 30
-1.000000000000000E+20
  9
$PLIMMIN
 10
0.0
 20
0.0
  9
$PLIMMAX
 10
12.0
 20
9.0
  9
$UNITMODE
 70
     0
  9
$VISRETAIN
 70
     1
  9
$PLINEGEN
 70
     0
  9
$PSLTSCALE
 70
     1
  9
$TREEDEPTH
 70
  3020
  9
$CMLSTYLE
  2
Standard
  9
$CMLJUST
 70
     0
  9
$CMLSCALE
 40
1.0
  9
$PROXYGRAPHICS
 70
     1
  9
$MEASUREMENT
 70
     0
  9
$CELWEIGHT
370
    -1
  9
$ENDCAPS
280
     0
  9
$JOINSTYLE
280
     0
  9
$LWDISPLAY
290
     1
  9
$INSUNITS
 70
     1
  9
$HYPERLINKBASE
  1

  9
$STYLESHEET
  1

  9
$XEDIT
290
     1
  9
$CEPSNTYPE
380
     0
  9
$PSTYLEMODE
290
     1
  9
$FINGERPRINTGUID
  2
{D2FB5D2F-A7B8-A287-AF01-07006BA0E43C}
  9
$VERSIONGUID
  2
{FAEB1C32-E019-11D5-929B-00C0DF256EC4}
  9
$EXTNAMES
290
     1
  9
$PSVPSCALE
 40
0.0
  9
$OLESTARTUP
290
     0
  9
$SORTENTS
280
   127
  9
$INDEXCTL
280
     0
  9
$HIDETEXT
280
     1
  9
$XCLIPFRAME
280
     2
  9
$HALOGAP
280
     0
  9
$OBSCOLOR
 70
   257
  9
$OBSLTYPE
280
     0
  9
$INTERSECTIONDISPLAY
280
     0
  9
$INTERSECTIONCOLOR
 70
   257
  9
$DIMASSOC
280
     2
  9
$PROJECTNAME
  1

  9
$CAMERADISPLAY
290
     0
  9
$LENSLENGTH
 40
50.0
  9
$CAMERAHEIGHT
 40
0.0
  9
$STEPSPERSEC
 40
2.0
  9
$STEPSIZE
 40
6.0
  9
$3DDWFPREC
 40
2.0
  9
$PSOLWIDTH
 40
0.25
  9
$PSOLHEIGHT
 40
4.0
  9
$LOFTANG1
 40
1.570796326794897
  9
$LOFTANG2
 40
1.570796326794897
  9
$LOFTMAG1
 40
0.0
  9
$LOFTMAG2
 40
0.0
  9
$LOFTPARAM
 70
     7
  9
$LOFTNORMALS
280
     1
  9
$LATITUDE
 40
37.795
  9
$LONGITUDE
 40
-122.394
  9
$NORTHDIRECTION
 40
0.0
  9
$TIMEZONE
 70
 -8000
  9
$LIGHTGLYPHDISPLAY
280
     1
  9
$TILEMODELIGHTSYNCH
280
     1
  9
$CMATERIAL
347
3C
  9
$SOLIDHIST
280
     1
  9
$SHOWHIST
280
     1
  9
$DWFFRAME
280
     2
  9
$DGNFRAME
280
     2
  9
$REALWORLDSCALE
290
     1
  9
$INTERFERECOLOR
 62
   256
  9
$CSHADOW
280
     0
  9
$SHADOWPLANELOCATION
 40
0.0
  0
ENDSEC
  0
SECTION
  2
CLASSES
  0
CLASS
  1
ACDBDICTIONARYWDFLT
  2
AcDbDictionaryWithDefault
  3
ObjectDBX Classes
 90
        0
 91
        4
280
     0
281
     0
  0
CLASS
  1
VISUALSTYLE
  2
AcDbVisualStyle
  3
ObjectDBX Classes
 90
     4095
 91
        4
280
     0
281
     0
  0
CLASS
  1
MATERIAL
  2
AcDbMaterial
  3
ObjectDBX Classes
 90
     1153
 91
        4
280
     0
281
     0
  0
CLASS
  1
SUN
  2
AcDbSun
  3
SCENEOE
 90
     1024
 91
        4
280
     0
281
     0
  0
ENDSEC
  0
SECTION
  2
TABLES
  0
TABLE
  2
VPORT
  5
8
330
0
100
AcDbSymbolTable
 70
     1
  0
VPORT
  5
29
330
8
100
AcDbSymbolTableRecord
100
AcDbViewportTableRecord
  2
*Active
 70
     0
 10
0.0
 20
0.0
 11
1.0
 21
1.0
 12
0.0
 22
0.0
 13
0.0
 23
0.0
 14
0.5
 24
0.5
 15
0.5
 25
0.5
 16
0.0
 26
0.0
 36
1.0
 17
63.499999984125
 27
-89.00059456108309
 37
0.0
 40
178.0011891221662
 41
0.7134783795241226
 42
50.0
 43
0.0
 44
0.0
 50
0.0
 51
0.0
 71
     0
 72
   100
 73
     1
 74
     3
 75
     0
 76
     0
 77
     0
 78
     0
281
     0
 65
     1
110
0.0
120
0.0
130
0.0
111
1.0
121
0.0
131
0.0
112
0.0
122
1.0
132
0.0
 79
     0
146
0.0
 60
     3
 61
     5
292
     1
282
     1
141
0.0
142
0.0
 63
   250
361
3F
  0
ENDTAB
  0
TABLE
  2
LTYPE
  5
5
330
0
100
AcDbSymbolTable
 70
     1
  0
LTYPE
  5
14
330
5
100
AcDbSymbolTableRecord
100
AcDbLinetypeTableRecord
  2
ByBlock
 70
     0
  3

 72
    65
 73
     0
 40
0.0
  0
LTYPE
  5
15
330
5
100
AcDbSymbolTableRecord
100
AcDbLinetypeTableRecord
  2
ByLayer
 70
     0
  3

 72
    65
 73
     0
 40
0.0
  0
LTYPE
  5
16
330
5
100
AcDbSymbolTableRecord
100
AcDbLinetypeTableRecord
  2
Continuous
 70
     0
  3
Solid line
 72
    65
 73
     0
 40
0.0
  0
ENDTAB
  0
TABLE
  2
LAYER
  5
2
330
0
100
AcDbSymbolTable
 70
     2
  0
LAYER
  5
10
330
2
100
AcDbSymbolTableRecord
100
AcDbLayerTableRecord
  2
0
 70
     0
 62
     7
  6
Continuous
370
    -3
390
F
347
3E
  0
LAYER
  5
40
330
2
100
AcDbSymbolTableRecord
100
AcDbLayerTableRecord
  2
_U+30EC_U+30A4_U+30E4_U+30FC 1
 70
     0
 62
     7
  6
Continuous
370
    -3
390
F
347
3E
  0
ENDTAB
  0
TABLE
  2
STYLE
  5
3
330
0
100
AcDbSymbolTable
 70
     1
  0
STYLE
  5
11
330
3
100
AcDbSymbolTableRecord
100
AcDbTextStyleTableRecord
  2
Standard
 70
     0
 40
0.0
 41
1.0
 50
0.0
 71
     0
 42
0.2
  3
txt
  4

  0
ENDTAB
  0
TABLE
  2
VIEW
  5
6
330
0
100
AcDbSymbolTable
 70
     0
  0
ENDTAB
  0
TABLE
  2
UCS
  5
7
330
0
100
AcDbSymbolTable
 70
     0
  0
ENDTAB
  0
TABLE
  2
APPID
  5
9
330
0
100
AcDbSymbolTable
 70
     1
  0
APPID
  5
12
330
9
100
AcDbSymbolTableRecord
100
AcDbRegAppTableRecord
  2
ACAD
 70
     0
  0
ENDTAB
  0
TABLE
  2
DIMSTYLE
  5
A
330
0
100
AcDbSymbolTable
 70
     1
100
AcDbDimStyleTable
  0
DIMSTYLE
105
27
330
A
100
AcDbSymbolTableRecord
100
AcDbDimStyleTableRecord
  2
Standard
 70
     0
178
     0
340
11
  0
ENDTAB
  0
TABLE
  2
BLOCK_RECORD
  5
1
330
0
100
AcDbSymbolTable
 70
     6
  0
BLOCK_RECORD
  5
1F
330
1
100
AcDbSymbolTableRecord
100
AcDbBlockTableRecord
  2
*Model_Space
340
22
 70
     0
280
     1
281
     0
  0
BLOCK_RECORD
  5
1B
330
1
100
AcDbSymbolTableRecord
100
AcDbBlockTableRecord
  2
*Paper_Space
340
1E
 70
     0
280
     1
281
     0
  0
BLOCK_RECORD
  5
23
330
1
100
AcDbSymbolTableRecord
100
AcDbBlockTableRecord
  2
*Paper_Space0
340
26
 70
     0
280
     1
281
     0
  0
BLOCK_RECORD
  5
8E
330
1
100
AcDbSymbolTableRecord
100
AcDbBlockTableRecord
  2
block 2
340
0
102
{BLKREFS
331
8F
102
}
 70
     0
280
     1
281
     0
  0
BLOCK_RECORD
  5
A1
330
1
100
AcDbSymbolTableRecord
100
AcDbBlockTableRecord
  2
block 3
340
0
102
{BLKREFS
331
A2
102
}
 70
     0
280
     1
281
     0
  0
BLOCK_RECORD
  5
A7
330
1
100
AcDbSymbolTableRecord
100
AcDbBlockTableRecord
  2
block 4
340
0
102
{BLKREFS
331
A8
102
}
 70
     0
280
     1
281
     0
  0
BLOCK_RECORD
  5
C0
330
1
100
AcDbSymbolTableRecord
100
AcDbBlockTableRecord
  2
block 5
340
0
102
{BLKREFS
331
C1
102
}
 70
     0
280
     1
281
     0
  0
BLOCK_RECORD
  5
C8
330
1
100
AcDbSymbolTableRecord
100
AcDbBlockTableRecord
  2
block 6
340
0
102
{BLKREFS
331
C9
102
}
 70
     0
280
     1
281
     0
  0
ENDTAB
  0
ENDSEC
  0
SECTION
  2
BLOCKS
  0
BLOCK
  5
20
330
1F
100
AcDbEntity
  8
0
100
AcDbBlockBegin
  2
*Model_Space
 70
     0
 10
0.0
 20
0.0
 30
0.0
  3
*Model_Space
  1

  0
ENDBLK
  5
21
330
1F
100
AcDbEntity
  8
0
100
AcDbBlockEnd
  0
BLOCK
  5
1C
330
1B
100
AcDbEntity
 67
     1
  8
0
100
AcDbBlockBegin
  2
*Paper_Space
 70
     0
 10
0.0
 20
0.0
 30
0.0
  3
*Paper_Space
  1

  0
ENDBLK
  5
1D
330
1B
100
AcDbEntity
 67
     1
  8
0
100
AcDbBlockEnd
  0
BLOCK
  5
24
330
23
100
AcDbEntity
  8
0
100
AcDbBlockBegin
  2
*Paper_Space0
 70
     0
 10
0.0
 20
0.0
 30
0.0
  3
*Paper_Space0
  1

  0
ENDBLK
  5
25
330
23
100
AcDbEntity
  8
0
100
AcDbBlockEnd
  0
BLOCK
  5
90
330
8E
100
AcDbEntity
  8
0
100
AcDbBlockBegin
  2
block 2
 70
     0
 10
0.0
 20
0.0
 30
0.0
  3
block 2
  1

  0
SPLINE
  5
92
330
8E
100
AcDbEntity
  8
_U+30EC_U+30A4_U+30E4_U+30FC 1
370
     0
100
AcDbSpline
210
0.0
220
0.0
230
1.0
 70
    11
 71
     3
 72
    29
 73
    25
 74
     0
 42
0.0000000001
 43
0.0000000001
 12
1.0
 22
0.0
 32
0.0
 13
1.0
 23
0.0
 33
0.0
 40
0.0
 40
0.0
 40
0.0
 40
0.0
 40
1.0
 40
1.0
 40
1.0
 40
2.0
 40
2.0
 40
2.0
 40
3.0
 40
3.0
 40
3.0
 40
4.0
 40
4.0
 40
4.0
 40
5.0
 40
5.0
 40
5.0
 40
6.0
 40
6.0
 40
6.0
 40
7.0
 40
7.0
 40
7.0
 40
8.0
 40
8.0
 40
8.0
 40
8.0
 10
71.60217554633557
 20
-83.87567272208665
 30
0.0
 10
71.81163735183875
 20
-83.98384872032348
 30
0.0
 10
71.83058537700764
 20
-84.15713702323156
 30
0.0
 10
71.83058537700764
 20
-84.273581250633
 30
0.0
 10
71.83058537700764
 20
-84.43446720979416
 30
0.0
 10
71.78407658795676
 20
-84.57606063423793
 30
0.0
 10
71.60217554633557
 20
-84.67114526963083
 30
0.0
 10
71.40752765141896
 20
-84.77484264373685
 30
0.0
 10
71.1708495915823
 20
-84.79413517845425
 30
0.0
 10
71.00789657512998
 20
-84.79413517845425
 30
0.0
 10
70.86389158384652
 20
-84.79413517845425
 30
0.0
 10
70.61205510387477
 20
-84.776909701028
 30
0.0
 10
70.41327309437585
 20
-84.67114526963083
 30
0.0
 10
70.21035697029464
 20
-84.56331378094251
 30
0.0
 10
70.18693032099493
 20
-84.40242782178134
 30
0.0
 10
70.18693032099493
 20
-84.273581250633
 30
0.0
 10
70.18693032099493
 20
-84.11476234876298
 30
0.0
 10
70.23137205275466
 20
-83.97110186702807
 30
0.0
 10
70.41327309437585
 20
-83.87567272208665
 30
0.0
 10
70.60585393200132
 20
-83.77645397211144
 30
0.0
 10
70.83426376267339
 20
-83.75302732281175
 30
0.0
 10
71.00789657512998
 20
-83.75302732281175
 30
0.0
 10
71.1791178207469
 20
-83.75302732281175
 30
0.0
 10
71.4095947087101
 20
-83.7743869148203
 30
0.0
 10
71.60217554633557
 20
-83.87567272208665
 30
0.0
  0
SPLINE
  5
93
330
8E
100
AcDbEntity
  8
_U+30EC_U+30A4_U+30E4_U+30FC 1
370
     0
100
AcDbSpline
210
0.0
220
0.0
230
1.0
 70
    11
 71
     3
 72
    17
 73
    13
 74
     0
 42
0.0000000001
 43
0.0000000001
 12
1.0
 22
0.0
 32
0.0
 13
1.0
 23
0.0
 33
0.0
 40
0.0
 40
0.0
 40
0.0
 40
0.0
 40
1.0
 40
1.0
 40
1.0
 40
2.0
 40
2.0
 40
2.0
 40
3.0
 40
3.0
 40
3.0
 40
4.0
 40
4.0
 40
4.0
 40
4.0
 10
70.3795111586204
 20
-84.273581250633
 30
0.0
 10
70.3795111586204
 20
-84.52335067331362
 30
0.0
 10
70.66304251705647
 20
-84.56985946236448
 30
0.0
 10
71.00789657512998
 20
-84.56985946236448
 30
0.0
 10
71.32725692661263
 20
-84.56985946236448
 30
0.0
 10
71.63593748209102
 20
-84.53368595976936
 30
0.0
 10
71.63593748209102
 20
-84.273581250633
 30
0.0
 10
71.63593748209102
 20
-84.02587888524353
 30
0.0
 10
71.35481769049463
 20
-83.97730303890151
 30
0.0
 10
71.00789657512998
 20
-83.97730303890151
 30
0.0
 10
70.68819171409879
 20
-83.97730303890151
 30
0.0
 10
70.3795111586204
 20
-84.01554359878779
 30
0.0
 10
70.3795111586204
 20
-84.273581250633
 30
0.0
  0
HATCH
  5
94
330
8E
100
AcDbEntity
  8
_U+30EC_U+30A4_U+30E4_U+30FC 1
 62
     7
420
 16777215
100
AcDbHatch
 10
0.0
 20
0.0
 30
0.0
210
0.0
220
0.0
230
1.0
  2
SOLID
 70
     1
 71
     0
 91
        2
 92
        1
 93
        1
 72
     4
 94
        3
 73
     0
 74
     1
 95
       29
 96
       25
 40
0.0
 40
0.0
 40
0.0
 40
0.0
 40
1.0
 40
1.0
 40
1.0
 40
2.0
 40
2.0
 40
2.0
 40
3.0
 40
3.0
 40
3.0
 40
4.0
 40
4.0
 40
4.0
 40
5.0
 40
5.0
 40
5.0
 40
6.0
 40
6.0
 40
6.0
 40
7.0
 40
7.0
 40
7.0
 40
8.0
 40
8.0
 40
8.0
 40
8.0
 10
71.60217554633557
 20
-83.87567272208665
 10
71.81163735183875
 20
-83.98384872032348
 10
71.83058537700764
 20
-84.15713702323156
 10
71.83058537700764
 20
-84.273581250633
 10
71.83058537700764
 20
-84.43446720979416
 10
71.78407658795676
 20
-84.57606063423793
 10
71.60217554633557
 20
-84.67114526963083
 10
71.40752765141896
 20
-84.77484264373685
 10
71.1708495915823
 20
-84.79413517845425
 10
71.00789657512998
 20
-84.79413517845425
 10
70.86389158384652
 20
-84.79413517845425
 10
70.61205510387477
 20
-84.776909701028
 10
70.41327309437585
 20
-84.67114526963083
 10
70.21035697029464
 20
-84.56331378094251
 10
70.18693032099493
 20
-84.40242782178134
 10
70.18693032099493
 20
-84.273581250633
 10
70.18693032099493
 20
-84.11476234876298
 10
70.23137205275466
 20
-83.97110186702807
 10
70.41327309437585
 20
-83.87567272208665
 10
70.60585393200132
 20
-83.77645397211144
 10
70.83426376267339
 20
-83.75302732281175
 10
71.00789657512998
 20
-83.75302732281175
 10
71.1791178207469
 20
-83.75302732281175
 10
71.4095947087101
 20
-83.7743869148203
 10
71.60217554633557
 20
-83.87567272208665
 97
        0
 97
        0
 92
        1
 93
        1
 72
     4
 94
        3
 73
     0
 74
     1
 95
       17
 96
       13
 40
0.0
 40
0.0
 40
0.0
 40
0.0
 40
1.0
 40
1.0
 40
1.0
 40
2.0
 40
2.0
 40
2.0
 40
3.0
 40
3.0
 40
3.0
 40
4.0
 40
4.0
 40
4.0
 40
4.0
 10
70.3795111586204
 20
-84.273581250633
 10
70.3795111586204
 20
-84.52335067331362
 10
70.66304251705647
 20
-84.56985946236448
 10
71.00789657512998
 20
-84.56985946236448
 10
71.32725692661263
 20
-84.56985946236448
 10
71.63593748209102
 20
-84.53368595976936
 10
71.63593748209102
 20
-84.273581250633
 10
71.63593748209102
 20
-84.02587888524353
 10
71.35481769049463
 20
-83.97730303890151
 10
71.00789657512998
 20
-83.97730303890151
 10
70.68819171409879
 20
-83.97730303890151
 10
70.3795111586204
 20
-84.01554359878779
 10
70.3795111586204
 20
-84.273581250633
 97
        0
 97
        0
 75
     2
 76
     1
 98
        0
  0
POLYLINE
  5
95
330
8E
100
AcDbEntity
  8
_U+30EC_U+30A4_U+30E4_U+30FC 1
370
     0
100
AcDb2dPolyline
 66
     1
 10
0.0
 20
0.0
 30
0.0
  0
VERTEX
  5
96
330
95
100
AcDbEntity
  8
_U+30EC_U+30A4_U+30E4_U+30FC 1
370
     0
100
AcDbVertex
100
AcDb2dVertex
 10
71.77994247337446
 20
-83.53667532633806
 30
0.0
  0
VERTEX
  5
97
330
95
100
AcDbEntity
  8
_U+30EC_U+30A4_U+30E4_U+30FC 1
370
     0
100
AcDbVertex
100
AcDb2dVertex
 10
71.5281059934027
 20
-83.53667532633806
 30
0.0
  0
VERTEX
  5
98
330
95
100
AcDbEntity
  8
_U+30EC_U+30A4_U+30E4_U+30FC 1
370
     0
100
AcDbVertex
100
AcDb2dVertex
 10
71.5281059934027
 20
-83.2848388463663
 30
0.0
  0
VERTEX
  5
99
330
95
100
AcDbEntity
  8
_U+30EC_U+30A4_U+30E4_U+30FC 1
370
     0
100
AcDbVertex
100
AcDb2dVertex
 10
71.77994247337446
 20
-83.2848388463663
 30
0.0
  0
VERTEX
  5
9A
330
95
100
AcDbEntity
  8
_U+30EC_U+30A4_U+30E4_U+30FC 1
370
     0
100
AcDbVertex
100
AcDb2dVertex
 10
71.77994247337446
 20
-83.53667532633806
 30
0.0
  0
SEQEND
  5
9B
330
95
100
AcDbEntity
  8
_U+30EC_U+30A4_U+30E4_U+30FC 1
370
     0
  0
HATCH
  5
9C
330
8E
100
AcDbEntity
  8
_U+30EC_U+30A4_U+30E4_U+30FC 1
 62
     7
420
 16777215
100
AcDbHatch
 10
0.0
 20
0.0
 30
0.0
210
0.0
220
0.0
230
1.0
  2
SOLID
 70
     1
 71
     0
 91
        1
 92
        1
 93
        4
 72
     1
 10
71.77994247337446
 20
-83.53667532633806
 11
71.5281059934027
 21
-83.53667532633806
 72
     1
 10
71.5281059934027
 20
-83.53667532633806
 11
71.5281059934027
 21
-83.2848388463663
 72
     1
 10
71.5281059934027
 20
-83.2848388463663
 11
71.77994247337446
 21
-83.2848388463663
 72
     1
 10
71.77994247337446
 20
-83.2848388463663
 11
71.77994247337446
 21
-83.53667532633806
 97
        0
 75
     2
 76
     1
 98
        0
  0
SPLINE
  5
9D
330
8E
100
AcDbEntity
  8
_U+30EC_U+30A4_U+30E4_U+30FC 1
370
     0
100
AcDbSpline
210
0.0
220
0.0
230
1.0
 70
    11
 71
     3
 72
    29
 73
    25
 74
     0
 42
0.0000000001
 43
0.0000000001
 12
1.0
 22
0.0
 32
0.0
 13
1.0
 23
0.0
 33
0.0
 40
0.0
 40
0.0
 40
0.0
 40
0.0
 40
1.0
 40
1.0
 40
1.0
 40
2.0
 40
2.0
 40
2.0
 40
3.0
 40
3.0
 40
3.0
 40
4.0
 40
4.0
 40
4.0
 40
5.0
 40
5.0
 40
5.0
 40
6.0
 40
6.0
 40
6.0
 40
7.0
 40
7.0
 40
7.0
 40
8.0
 40
8.0
 40
8.0
 40
8.0
 10
71.83058537700764
 20
-82.5486219411684
 30
0.0
 10
71.83058537700764
 20
-82.81527233172675
 30
0.0
 10
71.69312606714617
 20
-83.06883135944113
 30
0.0
 10
71.34413789449036
 20
-83.06883135944113
 30
0.0
 10
71.08816729993629
 20
-83.06883135944113
 30
0.0
 10
70.9930826645434
 20
-82.92723793499736
 30
0.0
 10
70.93175996490595
 20
-82.82147350360019
 30
0.0
 10
70.87250432255965
 20
-82.94618596016623
 30
0.0
 10
70.75812715244936
 20
-83.02232257039026
 30
0.0
 10
70.5972411932882
 20
-83.02232257039026
 30
0.0
 10
70.32232257356526
 20
-83.02232257039026
 30
0.0
 10
70.18693032099493
 20
-82.82354056089135
 30
0.0
 10
70.18693032099493
 20
-82.5486219411684
 30
0.0
 10
70.18693032099493
 20
-82.26509058273234
 30
0.0
 10
70.33093531227838
 20
-82.07457680239803
 30
0.0
 10
70.5972411932882
 20
-82.07457680239803
 30
0.0
 10
70.75812715244936
 20
-82.07457680239803
 30
0.0
 10
70.87250432255965
 20
-82.15312497946172
 30
0.0
 10
70.93175996490595
 20
-82.27783743602777
 30
0.0
 10
70.98240286853913
 20
-82.18895397250832
 30
0.0
 10
71.07748750393202
 20
-82.03013507063831
 30
0.0
 10
71.34000377990806
 20
-82.03013507063831
 30
0.0
 10
71.71448565915472
 20
-82.03013507063831
 30
0.0
 10
71.83058537700764
 20
-82.30953231449206
 30
0.0
 10
71.83058537700764
 20
-82.5486219411684
 30
0.0
  0
SPLINE
  5
9E
330
8E
100
AcDbEntity
  8
_U+30EC_U+30A4_U+30E4_U+30FC 1
370
     0
100
AcDbSpline
210
0.0
220
0.0
230
1.0
 70
    11
 71
     3
 72
    17
 73
    13
 74
     0
 42
0.0000000001
 43
0.0000000001
 12
1.0
 22
0.0
 32
0.0
 13
1.0
 23
0.0
 33
0.0
 40
0.0
 40
0.0
 40
0.0
 40
0.0
 40
1.0
 40
1.0
 40
1.0
 40
2.0
 40
2.0
 40
2.0
 40
3.0
 40
3.0
 40
3.0
 40
4.0
 40
4.0
 40
4.0
 40
4.0
 10
70.3795111586204
 20
-82.5486219411684
 30
0.0
 10
70.3795111586204
 20
-82.71364201491187
 30
0.0
 10
70.4745957940133
 20
-82.7980468543005
 30
0.0
 10
70.60998804658362
 20
-82.7980468543005
 30
0.0
 10
70.73263344585851
 20
-82.7980468543005
 30
0.0
 10
70.85114473055111
 20
-82.7263888682073
 30
0.0
 10
70.85114473055111
 20
-82.5486219411684
 30
0.0
 10
70.85114473055111
 20
-82.37085501412952
 30
0.0
 10
70.73263344585851
 20
-82.29885251848779
 30
0.0
 10
70.60998804658362
 20
-82.29885251848779
 30
0.0
 10
70.4745957940133
 20
-82.29885251848779
 30
0.0
 10
70.3795111586204
 20
-82.38566892471609
 30
0.0
 10
70.3795111586204
 20
-82.5486219411684
 30
0.0
  0
SPLINE
  5
9F
330
8E
100
AcDbEntity
  8
_U+30EC_U+30A4_U+30E4_U+30FC 1
370
     0
100
AcDbSpline
210
0.0
220
0.0
230
1.0
 70
    11
 71
     3
 72
    17
 73
    13
 74
     0
 42
0.0000000001
 43
0.0000000001
 12
1.0
 22
0.0
 32
0.0
 13
1.0
 23
0.0
 33
0.0
 40
0.0
 40
0.0
 40
0.0
 40
0.0
 40
1.0
 40
1.0
 40
1.0
 40
2.0
 40
2.0
 40
2.0
 40
3.0
 40
3.0
 40
3.0
 40
4.0
 40
4.0
 40
4.0
 40
4.0
 10
71.03959145359427
 20
-82.5486219411684
 30
0.0
 10
71.03959145359427
 20
-82.69228242290332
 30
0.0
 10
71.12640785982256
 20
-82.8449001528999
 30
0.0
 10
71.32932398390378
 20
-82.8449001528999
 30
0.0
 10
71.53465167482467
 20
-82.8449001528999
 30
0.0
 10
71.63593748209102
 20
-82.71777612949417
 30
0.0
 10
71.63593748209102
 20
-82.5486219411684
 30
0.0
 10
71.63593748209102
 20
-82.36258678496492
 30
0.0
 10
71.51329208281612
 20
-82.25234372943692
 30
0.0
 10
71.33552515577723
 20
-82.25234372943692
 30
0.0
 10
71.11366100652714
 20
-82.25234372943692
 30
0.0
 10
71.03959145359427
 20
-82.41529674588924
 30
0.0
 10
71.03959145359427
 20
-82.5486219411684
 30
0.0
  0
HATCH
  5
A0
330
8E
100
AcDbEntity
  8
_U+30EC_U+30A4_U+30E4_U+30FC 1
 62
     7
420
 16777215
100
AcDbHatch
 10
0.0
 20
0.0
 30
0.0
210
0.0
220
0.0
230
1.0
  2
SOLID
 70
     1
 71
     0
 91
        3
 92
        1
 93
        1
 72
     4
 94
        3
 73
     0
 74
     1
 95
       29
 96
       25
 40
0.0
 40
0.0
 40
0.0
 40
0.0
 40
1.0
 40
1.0
 40
1.0
 40
2.0
 40
2.0
 40
2.0
 40
3.0
 40
3.0
 40
3.0
 40
4.0
 40
4.0
 40
4.0
 40
5.0
 40
5.0
 40
5.0
 40
6.0
 40
6.0
 40
6.0
 40
7.0
 40
7.0
 40
7.0
 40
8.0
 40
8.0
 40
8.0
 40
8.0
 10
71.83058537700764
 20
-82.5486219411684
 10
71.83058537700764
 20
-82.81527233172675
 10
71.69312606714617
 20
-83.06883135944113
 10
71.34413789449036
 20
-83.06883135944113
 10
71.08816729993629
 20
-83.06883135944113
 10
70.9930826645434
 20
-82.92723793499736
 10
70.93175996490595
 20
-82.82147350360019
 10
70.87250432255965
 20
-82.94618596016623
 10
70.75812715244936
 20
-83.02232257039026
 10
70.5972411932882
 20
-83.02232257039026
 10
70.32232257356526
 20
-83.02232257039026
 10
70.18693032099493
 20
-82.82354056089135
 10
70.18693032099493
 20
-82.5486219411684
 10
70.18693032099493
 20
-82.26509058273234
 10
70.33093531227838
 20
-82.07457680239803
 10
70.5972411932882
 20
-82.07457680239803
 10
70.75812715244936
 20
-82.07457680239803
 10
70.87250432255965
 20
-82.15312497946172
 10
70.93175996490595
 20
-82.27783743602777
 10
70.98240286853913
 20
-82.18895397250832
 10
71.07748750393202
 20
-82.03013507063831
 10
71.34000377990806
 20
-82.03013507063831
 10
71.71448565915472
 20
-82.03013507063831
 10
71.83058537700764
 20
-82.30953231449206
 10
71.83058537700764
 20
-82.5486219411684
 97
        0
 97
        0
 92
        1
 93
        1
 72
     4
 94
        3
 73
     0
 74
     1
 95
       17
 96
       13
 40
0.0
 40
0.0
 40
0.0
 40
0.0
 40
1.0
 40
1.0
 40
1.0
 40
2.0
 40
2.0
 40
2.0
 40
3.0
 40
3.0
 40
3.0
 40
4.0
 40
4.0
 40
4.0
 40
4.0
 10
70.3795111586204
 20
-82.5486219411684
 10
70.3795111586204
 20
-82.71364201491187
 10
70.4745957940133
 20
-82.7980468543005
 10
70.60998804658362
 20
-82.7980468543005
 10
70.73263344585851
 20
-82.7980468543005
 10
70.85114473055111
 20
-82.7263888682073
 10
70.85114473055111
 20
-82.5486219411684
 10
70.85114473055111
 20
-82.37085501412952
 10
70.73263344585851
 20
-82.29885251848779
 10
70.60998804658362
 20
-82.29885251848779
 10
70.4745957940133
 20
-82.29885251848779
 10
70.3795111586204
 20
-82.38566892471609
 10
70.3795111586204
 20
-82.5486219411684
 97
        0
 97
        0
 92
        1
 93
        1
 72
     4
 94
        3
 73
     0
 74
     1
 95
       17
 96
       13
 40
0.0
 40
0.0
 40
0.0
 40
0.0
 40
1.0
 40
1.0
 40
1.0
 40
2.0
 40
2.0
 40
2.0
 40
3.0
 40
3.0
 40
3.0
 40
4.0
 40
4.0
 40
4.0
 40
4.0
 10
71.03959145359427
 20
-82.5486219411684
 10
71.03959145359427
 20
-82.69228242290332
 10
71.12640785982256
 20
-82.8449001528999
 10
71.32932398390378
 20
-82.8449001528999
 10
71.53465167482467
 20
-82.8449001528999
 10
71.63593748209102
 20
-82.71777612949417
 10
71.63593748209102
 20
-82.5486219411684
 10
71.63593748209102
 20
-82.36258678496492
 10
71.51329208281612
 20
-82.25234372943692
 10
71.33552515577723
 20
-82.25234372943692
 10
71.11366100652714
 20
-82.25234372943692
 10
71.03959145359427
 20
-82.41529674588924
 10
71.03959145359427
 20
-82.5486219411684
 97
        0
 97
        0
 75
     2
 76
     1
 98
        0
  0
ENDBLK
  5
91
330
8E
100
AcDbEntity
  8
0
100
AcDbBlockEnd
  0
BLOCK
  5
A3
330
A1
100
AcDbEntity
  8
0
100
AcDbBlockBegin
  2
block 3
 70
     0
 10
0.0
 20
0.0
 30
0.0
  3
block 3
  1

  0
SPLINE
  5
A5
330
A1
100
AcDbEntity
  8
_U+30EC_U+30A4_U+30E4_U+30FC 1
370
     0
100
AcDbSpline
210
0.0
220
0.0
230
1.0
 70
    11
 71
     3
 72
    44
 73
    40
 74
     0
 42
0.0000000001
 43
0.0000000001
 12
1.0
 22
0.0
 32
0.0
 13
1.0
 23
0.0
 33
0.0
 40
0.0
 40
0.0
 40
0.0
 40
0.0
 40
1.0
 40
1.0
 40
1.0
 40
2.0
 40
2.0
 40
2.0
 40
3.0
 40
3.0
 40
3.0
 40
4.0
 40
4.0
 40
4.0
 40
5.0
 40
5.0
 40
5.0
 40
6.0
 40
6.0
 40
6.0
 40
7.0
 40
7.0
 40
7.0
 40
8.0
 40
8.0
 40
8.0
 40
9.0
 40
9.0
 40
9.0
 40
10.0
 40
10.0
 40
10.0
 40
11.0
 40
11.0
 40
11.0
 40
12.0
 40
12.0
 40
12.0
 40
13.0
 40
13.0
 40
13.0
 40
13.0
 10
71.19806584591576
 20
-94.61713593554711
 30
0.0
 10
71.35688474778578
 20
-94.83486597021489
 30
0.0
 10
71.43095430071865
 20
-94.92788354831664
 30
0.0
 10
71.57461478245357
 20
-94.97680390420719
 30
0.0
 10
71.57461478245357
 20
-94.97680390420719
 30
0.0
 10
71.57461478245357
 20
-94.19821232454073
 30
0.0
 10
71.57461478245357
 20
-94.19821232454073
 30
0.0
 10
71.57461478245357
 20
-94.19821232454073
 30
0.0
 10
71.77994247337446
 20
-94.19821232454073
 30
0.0
 10
71.77994247337446
 20
-94.19821232454073
 30
0.0
 10
71.77994247337446
 20
-94.19821232454073
 30
0.0
 10
71.77994247337446
 20
-95.22622881733928
 30
0.0
 10
71.77994247337446
 20
-95.22622881733928
 30
0.0
 10
71.42234156200553
 20
-95.19453393887498
 30
0.0
 10
71.34413789449036
 20
-95.12907712465524
 30
0.0
 10
71.04579262546773
 20
-94.7439154494043
 30
0.0
 10
70.84701061596881
 20
-94.48794485485024
 30
0.0
 10
70.77914223490939
 20
-94.4224880406305
 30
0.0
 10
70.64168292504792
 20
-94.4224880406305
 30
0.0
 10
70.52317164035532
 20
-94.4224880406305
 30
0.0
 10
70.39225801191583
 20
-94.49449053627221
 30
0.0
 10
70.39225801191583
 20
-94.69120548847998
 30
0.0
 10
70.39225801191583
 20
-94.95131019761634
 30
0.0
 10
70.62273489987903
 20
-94.95992293632946
 30
0.0
 10
70.73917912728048
 20
-94.96405705091176
 30
0.0
 10
70.73917912728048
 20
-94.96405705091176
 30
0.0
 10
70.73917912728048
 20
-95.18833276700153
 30
0.0
 10
70.73917912728048
 20
-95.18833276700153
 30
0.0
 10
70.61205510387477
 20
-95.1797200282884
 30
0.0
 10
70.50008950060415
 20
-95.16904023228413
 30
0.0
 10
70.38157821591156
 20
-95.0887695074778
 30
0.0
 10
70.22069225675038
 20
-94.97887096149834
 30
0.0
 10
70.18693032099493
 20
-94.79249129574633
 30
0.0
 10
70.18693032099493
 20
-94.67639157789341
 30
0.0
 10
70.18693032099493
 20
-94.39906139133079
 30
0.0
 10
70.37089841990728
 20
-94.19166664311875
 30
0.0
 10
70.64374998233906
 20
-94.19166664311875
 30
0.0
 10
70.87250432255965
 20
-94.19166664311875
 30
0.0
 10
70.97172307253486
 20
-94.3081108705202
 30
0.0
 10
71.19806584591576
 20
-94.61713593554711
 30
0.0
  0
HATCH
  5
A6
330
A1
100
AcDbEntity
  8
_U+30EC_U+30A4_U+30E4_U+30FC 1
 62
     7
420
 16777215
100
AcDbHatch
 10
0.0
 20
0.0
 30
0.0
210
0.0
220
0.0
230
1.0
  2
SOLID
 70
     1
 71
     0
 91
        1
 92
        1
 93
        1
 72
     4
 94
        3
 73
     0
 74
     1
 95
       44
 96
       40
 40
0.0
 40
0.0
 40
0.0
 40
0.0
 40
1.0
 40
1.0
 40
1.0
 40
2.0
 40
2.0
 40
2.0
 40
3.0
 40
3.0
 40
3.0
 40
4.0
 40
4.0
 40
4.0
 40
5.0
 40
5.0
 40
5.0
 40
6.0
 40
6.0
 40
6.0
 40
7.0
 40
7.0
 40
7.0
 40
8.0
 40
8.0
 40
8.0
 40
9.0
 40
9.0
 40
9.0
 40
10.0
 40
10.0
 40
10.0
 40
11.0
 40
11.0
 40
11.0
 40
12.0
 40
12.0
 40
12.0
 40
13.0
 40
13.0
 40
13.0
 40
13.0
 10
71.19806584591576
 20
-94.61713593554711
 10
71.35688474778578
 20
-94.83486597021489
 10
71.43095430071865
 20
-94.92788354831664
 10
71.57461478245357
 20
-94.97680390420719
 10
71.57461478245357
 20
-94.97680390420719
 10
71.57461478245357
 20
-94.19821232454073
 10
71.57461478245357
 20
-94.19821232454073
 10
71.57461478245357
 20
-94.19821232454073
 10
71.77994247337446
 20
-94.19821232454073
 10
71.77994247337446
 20
-94.19821232454073
 10
71.77994247337446
 20
-94.19821232454073
 10
71.77994247337446
 20
-95.22622881733928
 10
71.77994247337446
 20
-95.22622881733928
 10
71.42234156200553
 20
-95.19453393887498
 10
71.34413789449036
 20
-95.12907712465524
 10
71.04579262546773
 20
-94.7439154494043
 10
70.84701061596881
 20
-94.48794485485024
 10
70.77914223490939
 20
-94.4224880406305
 10
70.64168292504792
 20
-94.4224880406305
 10
70.52317164035532
 20
-94.4224880406305
 10
70.39225801191583
 20
-94.49449053627221
 10
70.39225801191583
 20
-94.69120548847998
 10
70.39225801191583
 20
-94.95131019761634
 10
70.62273489987903
 20
-94.95992293632946
 10
70.73917912728048
 20
-94.96405705091176
 10
70.73917912728048
 20
-94.96405705091176
 10
70.73917912728048
 20
-95.18833276700153
 10
70.73917912728048
 20
-95.18833276700153
 10
70.61205510387477
 20
-95.1797200282884
 10
70.50008950060415
 20
-95.16904023228413
 10
70.38157821591156
 20
-95.0887695074778
 10
70.22069225675038
 20
-94.97887096149834
 10
70.18693032099493
 20
-94.79249129574633
 10
70.18693032099493
 20
-94.67639157789341
 10
70.18693032099493
 20
-94.39906139133079
 10
70.37089841990728
 20
-94.19166664311875
 10
70.64374998233906
 20
-94.19166664311875
 10
70.87250432255965
 20
-94.19166664311875
 10
70.97172307253486
 20
-94.3081108705202
 10
71.19806584591576
 20
-94.61713593554711
 97
        0
 97
        0
 75
     2
 76
     1
 98
        0
  0
ENDBLK
  5
A4
330
A1
100
AcDbEntity
  8
0
100
AcDbBlockEnd
  0
BLOCK
  5
A9
330
A7
100
AcDbEntity
  8
0
100
AcDbBlockBegin
  2
block 4
 70
     0
 10
0.0
 20
0.0
 30
0.0
  3
block 4
  1

  0
POLYLINE
  5
AB
330
A7
100
AcDbEntity
  8
_U+30EC_U+30A4_U+30E4_U+30FC 1
370
     0
100
AcDb2dPolyline
 66
     1
 10
0.0
 20
0.0
 30
0.0
  0
VERTEX
  5
AC
330
AB
100
AcDbEntity
  8
_U+30EC_U+30A4_U+30E4_U+30FC 1
370
     0
100
AcDbVertex
100
AcDb2dVertex
 10
56.46356471027647
 20
-98.01227753626083
 30
0.0
  0
VERTEX
  5
AD
330
AB
100
AcDbEntity
  8
_U+30EC_U+30A4_U+30E4_U+30FC 1
370
     0
100
AcDbVertex
100
AcDb2dVertex
 10
56.46356471027647
 20
-98.35919865162548
 30
0.0
  0
VERTEX
  5
AE
330
AB
100
AcDbEntity
  8
_U+30EC_U+30A4_U+30E4_U+30FC 1
370
     0
100
AcDbVertex
100
AcDb2dVertex
 10
56.24566242083442
 20
-98.35919865162548
 30
0.0
  0
VERTEX
  5
AF
330
AB
100
AcDbEntity
  8
_U+30EC_U+30A4_U+30E4_U+30FC 1
370
     0
100
AcDbVertex
100
AcDb2dVertex
 10
56.24566242083442
 20
-98.01227753626083
 30
0.0
  0
VERTEX
  5
B0
330
AB
100
AcDbEntity
  8
_U+30EC_U+30A4_U+30E4_U+30FC 1
370
     0
100
AcDbVertex
100
AcDb2dVertex
 10
55.58988849521712
 20
-98.01227753626083
 30
0.0
  0
VERTEX
  5
B1
330
AB
100
AcDbEntity
  8
_U+30EC_U+30A4_U+30E4_U+30FC 1
370
     0
100
AcDbVertex
100
AcDb2dVertex
 10
55.58988849521712
 20
-97.78800182017106
 30
0.0
  0
VERTEX
  5
B2
330
AB
100
AcDbEntity
  8
_U+30EC_U+30A4_U+30E4_U+30FC 1
370
     0
100
AcDbVertex
100
AcDb2dVertex
 10
56.26891681535986
 20
-96.81476234558798
 30
0.0
  0
VERTEX
  5
B3
330
AB
100
AcDbEntity
  8
_U+30EC_U+30A4_U+30E4_U+30FC 1
370
     0
100
AcDbVertex
100
AcDb2dVertex
 10
56.46356471027647
 20
-96.81476234558798
 30
0.0
  0
VERTEX
  5
B4
330
AB
100
AcDbEntity
  8
_U+30EC_U+30A4_U+30E4_U+30FC 1
370
     0
100
AcDbVertex
100
AcDb2dVertex
 10
56.46356471027647
 20
-97.81349552676191
 30
0.0
  0
VERTEX
  5
B5
330
AB
100
AcDbEntity
  8
_U+30EC_U+30A4_U+30E4_U+30FC 1
370
     0
100
AcDbVertex
100
AcDb2dVertex
 10
56.67095945848851
 20
-97.81349552676191
 30
0.0
  0
VERTEX
  5
B6
330
AB
100
AcDbEntity
  8
_U+30EC_U+30A4_U+30E4_U+30FC 1
370
     0
100
AcDbVertex
100
AcDb2dVertex
 10
56.67095945848851
 20
-98.01227753626083
 30
0.0
  0
VERTEX
  5
B7
330
AB
100
AcDbEntity
  8
_U+30EC_U+30A4_U+30E4_U+30FC 1
370
     0
100
AcDbVertex
100
AcDb2dVertex
 10
56.46356471027647
 20
-98.01227753626083
 30
0.0
  0
SEQEND
  5
B8
330
AB
100
AcDbEntity
  8
_U+30EC_U+30A4_U+30E4_U+30FC 1
370
     0
  0
POLYLINE
  5
B9
330
A7
100
AcDbEntity
  8
_U+30EC_U+30A4_U+30E4_U+30FC 1
370
     0
100
AcDb2dPolyline
 66
     1
 10
0.0
 20
0.0
 30
0.0
  0
VERTEX
  5
BA
330
B9
100
AcDbEntity
  8
_U+30EC_U+30A4_U+30E4_U+30FC 1
370
     0
100
AcDbVertex
100
AcDb2dVertex
 10
56.24566242083442
 20
-97.15754934637035
 30
0.0
  0
VERTEX
  5
BB
330
B9
100
AcDbEntity
  8
_U+30EC_U+30A4_U+30E4_U+30FC 1
370
     0
100
AcDbVertex
100
AcDb2dVertex
 10
55.78884275949029
 20
-97.81349552676191
 30
0.0
  0
VERTEX
  5
BC
330
B9
100
AcDbEntity
  8
_U+30EC_U+30A4_U+30E4_U+30FC 1
370
     0
100
AcDbVertex
100
AcDb2dVertex
 10
56.24566242083442
 20
-97.81349552676191
 30
0.0
  0
VERTEX
  5
BD
330
B9
100
AcDbEntity
  8
_U+30EC_U+30A4_U+30E4_U+30FC 1
370
     0
100
AcDbVertex
100
AcDb2dVertex
 10
56.24566242083442
 20
-97.15754934637035
 30
0.0
  0
SEQEND
  5
BE
330
B9
100
AcDbEntity
  8
_U+30EC_U+30A4_U+30E4_U+30FC 1
370
     0
  0
HATCH
  5
BF
330
A7
100
AcDbEntity
  8
_U+30EC_U+30A4_U+30E4_U+30FC 1
 62
     7
420
 16777215
100
AcDbHatch
 10
0.0
 20
0.0
 30
0.0
210
0.0
220
0.0
230
1.0
  2
SOLID
 70
     1
 71
     0
 91
        2
 92
        1
 93
       11
 72
     1
 10
56.46356471027647
 20
-98.01227753626083
 11
56.46356471027647
 21
-98.35919865162548
 72
     1
 10
56.46356471027647
 20
-98.35919865162548
 11
56.24566242083442
 21
-98.35919865162548
 72
     1
 10
56.24566242083442
 20
-98.35919865162548
 11
56.24566242083442
 21
-98.01227753626083
 72
     1
 10
56.24566242083442
 20
-98.01227753626083
 11
55.58988849521712
 21
-98.01227753626083
 72
     1
 10
55.58988849521712
 20
-98.01227753626083
 11
55.58988849521712
 21
-97.78800182017106
 72
     1
 10
55.58988849521712
 20
-97.78800182017106
 11
56.26891681535986
 21
-96.81476234558798
 72
     1
 10
56.26891681535986
 20
-96.81476234558798
 11
56.46356471027647
 21
-96.81476234558798
 72
     1
 10
56.46356471027647
 20
-96.81476234558798
 11
56.46356471027647
 21
-97.81349552676191
 72
     1
 10
56.46356471027647
 20
-97.81349552676191
 11
56.67095945848851
 21
-97.81349552676191
 72
     1
 10
56.67095945848851
 20
-97.81349552676191
 11
56.67095945848851
 21
-98.01227753626083
 72
     1
 10
56.67095945848851
 20
-98.01227753626083
 11
56.46356471027647
 21
-98.01227753626083
 97
        0
 92
        1
 93
        3
 72
     1
 10
56.24566242083442
 20
-97.15754934637035
 11
55.78884275949029
 21
-97.81349552676191
 72
     1
 10
55.78884275949029
 20
-97.81349552676191
 11
56.24566242083442
 21
-97.81349552676191
 72
     1
 10
56.24566242083442
 20
-97.81349552676191
 11
56.24566242083442
 21
-97.15754934637035
 97
        0
 75
     2
 76
     1
 98
        0
  0
ENDBLK
  5
AA
330
A7
100
AcDbEntity
  8
0
100
AcDbBlockEnd
  0
BLOCK
  5
C2
330
C0
100
AcDbEntity
  8
0
100
AcDbBlockBegin
  2
block 5
 70
     0
 10
0.0
 20
0.0
 30
0.0
  3
block 5
  1

  0
SPLINE
  5
C4
330
C0
100
AcDbEntity
  8
_U+30EC_U+30A4_U+30E4_U+30FC 1
370
     0
100
AcDbSpline
210
0.0
220
0.0
230
1.0
 70
    11
 71
     3
 72
    26
 73
    22
 74
     0
 42
0.0000000001
 43
0.0000000001
 12
1.0
 22
0.0
 32
0.0
 13
1.0
 23
0.0
 33
0.0
 40
0.0
 40
0.0
 40
0.0
 40
0.0
 40
1.0
 40
1.0
 40
1.0
 40
2.0
 40
2.0
 40
2.0
 40
3.0
 40
3.0
 40
3.0
 40
4.0
 40
4.0
 40
4.0
 40
5.0
 40
5.0
 40
5.0
 40
6.0
 40
6.0
 40
6.0
 40
7.0
 40
7.0
 40
7.0
 40
7.0
 10
60.9943820377028
 20
-81.0593071628949
 30
0.0
 10
60.9943820377028
 20
-81.0593071628949
 30
0.0
 10
60.9943820377028
 20
-79.95498180509806
 30
0.0
 10
60.9943820377028
 20
-79.95498180509806
 30
0.0
 10
60.9943820377028
 20
-79.95498180509806
 30
0.0
 10
60.66434189021586
 20
-79.95498180509806
 30
0.0
 10
60.66434189021586
 20
-79.95498180509806
 30
0.0
 10
60.66434189021586
 20
-79.95498180509806
 30
0.0
 10
60.66434189021586
 20
-79.80701495400659
 30
0.0
 10
60.66434189021586
 20
-79.80701495400659
 30
0.0
 10
60.99644909499395
 20
-79.79220104342001
 30
0.0
 10
61.04295788404482
 20
-79.62924802696769
 30
0.0
 10
61.07258570521797
 20
-79.51504311163166
 30
0.0
 10
61.07258570521797
 20
-79.51504311163166
 30
0.0
 10
61.21865775379256
 20
-79.51504311163166
 30
0.0
 10
61.21865775379256
 20
-79.51504311163166
 30
0.0
 10
61.21865775379256
 20
-79.51504311163166
 30
0.0
 10
61.21865775379256
 20
-81.0593071628949
 30
0.0
 10
61.21865775379256
 20
-81.0593071628949
 30
0.0
 10
61.21865775379256
 20
-81.0593071628949
 30
0.0
 10
60.9943820377028
 20
-81.0593071628949
 30
0.0
 10
60.9943820377028
 20
-81.0593071628949
 30
0.0
  0
HATCH
  5
C5
330
C0
100
AcDbEntity
  8
_U+30EC_U+30A4_U+30E4_U+30FC 1
 62
     7
420
 16777215
100
AcDbHatch
 10
0.0
 20
0.0
 30
0.0
210
0.0
220
0.0
230
1.0
  2
SOLID
 70
     1
 71
     0
 91
        1
 92
        1
 93
        1
 72
     4
 94
        3
 73
     0
 74
     1
 95
       26
 96
       22
 40
0.0
 40
0.0
 40
0.0
 40
0.0
 40
1.0
 40
1.0
 40
1.0
 40
2.0
 40
2.0
 40
2.0
 40
3.0
 40
3.0
 40
3.0
 40
4.0
 40
4.0
 40
4.0
 40
5.0
 40
5.0
 40
5.0
 40
6.0
 40
6.0
 40
6.0
 40
7.0
 40
7.0
 40
7.0
 40
7.0
 10
60.9943820377028
 20
-81.0593071628949
 10
60.9943820377028
 20
-81.0593071628949
 10
60.9943820377028
 20
-79.95498180509806
 10
60.9943820377028
 20
-79.95498180509806
 10
60.9943820377028
 20
-79.95498180509806
 10
60.66434189021586
 20
-79.95498180509806
 10
60.66434189021586
 20
-79.95498180509806
 10
60.66434189021586
 20
-79.95498180509806
 10
60.66434189021586
 20
-79.80701495400659
 10
60.66434189021586
 20
-79.80701495400659
 10
60.99644909499395
 20
-79.79220104342001
 10
61.04295788404482
 20
-79.62924802696769
 10
61.07258570521797
 20
-79.51504311163166
 10
61.07258570521797
 20
-79.51504311163166
 10
61.21865775379256
 20
-79.51504311163166
 10
61.21865775379256
 20
-79.51504311163166
 10
61.21865775379256
 20
-79.51504311163166
 10
61.21865775379256
 20
-81.0593071628949
 10
61.21865775379256
 20
-81.0593071628949
 10
61.21865775379256
 20
-81.0593071628949
 10
60.9943820377028
 20
-81.0593071628949
 10
60.9943820377028
 20
-81.0593071628949
 97
        0
 97
        0
 75
     2
 76
     1
 98
        0
  0
SPLINE
  5
C6
330
C0
100
AcDbEntity
  8
_U+30EC_U+30A4_U+30E4_U+30FC 1
370
     0
100
AcDbSpline
210
0.0
220
0.0
230
1.0
 70
    11
 71
     3
 72
    53
 73
    49
 74
     0
 42
0.0000000001
 43
0.0000000001
 12
1.0
 22
0.0
 32
0.0
 13
1.0
 23
0.0
 33
0.0
 40
0.0
 40
0.0
 40
0.0
 40
0.0
 40
1.0
 40
1.0
 40
1.0
 40
2.0
 40
2.0
 40
2.0
 40
3.0
 40
3.0
 40
3.0
 40
4.0
 40
4.0
 40
4.0
 40
5.0
 40
5.0
 40
5.0
 40
6.0
 40
6.0
 40
6.0
 40
7.0
 40
7.0
 40
7.0
 40
8.0
 40
8.0
 40
8.0
 40
9.0
 40
9.0
 40
9.0
 40
10.0
 40
10.0
 40
10.0
 40
11.0
 40
11.0
 40
11.0
 40
12.0
 40
12.0
 40
12.0
 40
13.0
 40
13.0
 40
13.0
 40
14.0
 40
14.0
 40
14.0
 40
15.0
 40
15.0
 40
15.0
 40
16.0
 40
16.0
 40
16.0
 40
16.0
 10
62.20085447663729
 20
-81.11012232130233
 30
0.0
 10
62.12265080912212
 20
-81.11012232130233
 30
0.0
 10
62.02102049230725
 20
-81.09306909865035
 30
0.0
 10
61.91939017549237
 20
-81.02967934172175
 30
0.0
 10
61.74610187258431
 20
-80.91960854096801
 30
0.0
 10
61.72474228057576
 20
-80.78852265775426
 30
0.0
 10
61.70579425540689
 20
-80.68069116906594
 30
0.0
 10
61.70579425540689
 20
-80.68069116906594
 30
0.0
 10
61.9280029142055
 20
-80.68069116906594
 30
0.0
 10
61.9280029142055
 20
-80.68069116906594
 30
0.0
 10
61.98277993242097
 20
-80.87947317856485
 30
0.0
 10
62.1099039558267
 20
-80.909100999738
 30
0.0
 10
62.20292153392844
 20
-80.909100999738
 30
0.0
 10
62.34244790108106
 20
-80.909100999738
 30
0.0
 10
62.4947211215291
 20
-80.80970999498855
 30
0.0
 10
62.4947211215291
 20
-80.57699379495992
 30
0.0
 10
62.4947211215291
 20
-80.32102320040586
 30
0.0
 10
62.31488713719906
 20
-80.25126001682955
 30
0.0
 10
62.19430879521531
 20
-80.25126001682955
 30
0.0
 10
62.16261391675101
 20
-80.25126001682955
 30
0.0
 10
62.02102049230725
 20
-80.25126001682955
 30
0.0
 10
61.9321370287878
 20
-80.38027884275216
 30
0.0
 10
61.9321370287878
 20
-80.38027884275216
 30
0.0
 10
61.75643715904006
 20
-80.36115856280902
 30
0.0
 10
61.75643715904006
 20
-80.36115856280902
 30
0.0
 10
61.75643715904006
 20
-80.36115856280902
 30
0.0
 10
61.87701550102381
 20
-79.51504311163166
 30
0.0
 10
61.87701550102381
 20
-79.51504311163166
 30
0.0
 10
61.87701550102381
 20
-79.51504311163166
 30
0.0
 10
62.65560708069027
 20
-79.51504311163166
 30
0.0
 10
62.65560708069027
 20
-79.51504311163166
 30
0.0
 10
62.65560708069027
 20
-79.51504311163166
 30
0.0
 10
62.65560708069027
 20
-79.70969100654827
 30
0.0
 10
62.65560708069027
 20
-79.70969100654827
 30
0.0
 10
62.65560708069027
 20
-79.70969100654827
 30
0.0
 10
62.03996851747612
 20
-79.70969100654827
 30
0.0
 10
62.03996851747612
 20
-79.70969100654827
 30
0.0
 10
62.03996851747612
 20
-79.70969100654827
 30
0.0
 10
61.97451170325638
 20
-80.13274873213696
 30
0.0
 10
61.97451170325638
 20
-80.13274873213696
 30
0.0
 10
62.03583440289382
 20
-80.09881454160724
 30
0.0
 10
62.11817218499129
 20
-80.05867917920408
 30
0.0
 10
62.23668346968389
 20
-80.05867917920408
 30
0.0
 10
62.4905870069468
 20
-80.05867917920408
 30
0.0
 10
62.72760957633199
 20
-80.24488659018184
 30
0.0
 10
62.72760957633199
 20
-80.55787351501678
 30
0.0
 10
62.72760957633199
 20
-80.87533906398255
 30
0.0
 10
62.50333386024222
 20
-81.11012232130233
 30
0.0
 10
62.20085447663729
 20
-81.11012232130233
 30
0.0
  0
HATCH
  5
C7
330
C0
100
AcDbEntity
  8
_U+30EC_U+30A4_U+30E4_U+30FC 1
 62
     7
420
 16777215
100
AcDbHatch
 10
0.0
 20
0.0
 30
0.0
210
0.0
220
0.0
230
1.0
  2
SOLID
 70
     1
 71
     0
 91
        1
 92
        1
 93
        1
 72
     4
 94
        3
 73
     0
 74
     1
 95
       53
 96
       49
 40
0.0
 40
0.0
 40
0.0
 40
0.0
 40
1.0
 40
1.0
 40
1.0
 40
2.0
 40
2.0
 40
2.0
 40
3.0
 40
3.0
 40
3.0
 40
4.0
 40
4.0
 40
4.0
 40
5.0
 40
5.0
 40
5.0
 40
6.0
 40
6.0
 40
6.0
 40
7.0
 40
7.0
 40
7.0
 40
8.0
 40
8.0
 40
8.0
 40
9.0
 40
9.0
 40
9.0
 40
10.0
 40
10.0
 40
10.0
 40
11.0
 40
11.0
 40
11.0
 40
12.0
 40
12.0
 40
12.0
 40
13.0
 40
13.0
 40
13.0
 40
14.0
 40
14.0
 40
14.0
 40
15.0
 40
15.0
 40
15.0
 40
16.0
 40
16.0
 40
16.0
 40
16.0
 10
62.20085447663729
 20
-81.11012232130233
 10
62.12265080912212
 20
-81.11012232130233
 10
62.02102049230725
 20
-81.09306909865035
 10
61.91939017549237
 20
-81.02967934172175
 10
61.74610187258431
 20
-80.91960854096801
 10
61.72474228057576
 20
-80.78852265775426
 10
61.70579425540689
 20
-80.68069116906594
 10
61.70579425540689
 20
-80.68069116906594
 10
61.9280029142055
 20
-80.68069116906594
 10
61.9280029142055
 20
-80.68069116906594
 10
61.98277993242097
 20
-80.87947317856485
 10
62.1099039558267
 20
-80.909100999738
 10
62.20292153392844
 20
-80.909100999738
 10
62.34244790108106
 20
-80.909100999738
 10
62.4947211215291
 20
-80.80970999498855
 10
62.4947211215291
 20
-80.57699379495992
 10
62.4947211215291
 20
-80.32102320040586
 10
62.31488713719906
 20
-80.25126001682955
 10
62.19430879521531
 20
-80.25126001682955
 10
62.16261391675101
 20
-80.25126001682955
 10
62.02102049230725
 20
-80.25126001682955
 10
61.9321370287878
 20
-80.38027884275216
 10
61.9321370287878
 20
-80.38027884275216
 10
61.75643715904006
 20
-80.36115856280902
 10
61.75643715904006
 20
-80.36115856280902
 10
61.75643715904006
 20
-80.36115856280902
 10
61.87701550102381
 20
-79.51504311163166
 10
61.87701550102381
 20
-79.51504311163166
 10
61.87701550102381
 20
-79.51504311163166
 10
62.65560708069027
 20
-79.51504311163166
 10
62.65560708069027
 20
-79.51504311163166
 10
62.65560708069027
 20
-79.51504311163166
 10
62.65560708069027
 20
-79.70969100654827
 10
62.65560708069027
 20
-79.70969100654827
 10
62.65560708069027
 20
-79.70969100654827
 10
62.03996851747612
 20
-79.70969100654827
 10
62.03996851747612
 20
-79.70969100654827
 10
62.03996851747612
 20
-79.70969100654827
 10
61.97451170325638
 20
-80.13274873213696
 10
61.97451170325638
 20
-80.13274873213696
 10
62.03583440289382
 20
-80.09881454160724
 10
62.11817218499129
 20
-80.05867917920408
 10
62.23668346968389
 20
-80.05867917920408
 10
62.4905870069468
 20
-80.05867917920408
 10
62.72760957633199
 20
-80.24488659018184
 10
62.72760957633199
 20
-80.55787351501678
 10
62.72760957633199
 20
-80.87533906398255
 10
62.50333386024222
 20
-81.11012232130233
 10
62.20085447663729
 20
-81.11012232130233
 97
        0
 97
        0
 75
     2
 76
     1
 98
        0
  0
ENDBLK
  5
C3
330
C0
100
AcDbEntity
  8
0
100
AcDbBlockEnd
  0
BLOCK
  5
CA
330
C8
100
AcDbEntity
  8
0
100
AcDbBlockBegin
  2
block 6
 70
     0
 10
0.0
 20
0.0
 30
0.0
  3
block 6
  1

  0
SPLINE
  5
CC
330
C8
100
AcDbEntity
  8
_U+30EC_U+30A4_U+30E4_U+30FC 1
370
     0
100
AcDbSpline
210
0.0
220
0.0
230
1.0
 70
    11
 71
     3
 72
    32
 73
    28
 74
     0
 42
0.0000000001
 43
0.0000000001
 12
1.0
 22
0.0
 32
0.0
 13
1.0
 23
0.0
 33
0.0
 40
0.0
 40
0.0
 40
0.0
 40
0.0
 40
1.0
 40
1.0
 40
1.0
 40
2.0
 40
2.0
 40
2.0
 40
3.0
 40
3.0
 40
3.0
 40
4.0
 40
4.0
 40
4.0
 40
5.0
 40
5.0
 40
5.0
 40
6.0
 40
6.0
 40
6.0
 40
7.0
 40
7.0
 40
7.0
 40
8.0
 40
8.0
 40
8.0
 40
9.0
 40
9.0
 40
9.0
 40
9.0
 10
71.83058537700764
 20
-91.31949053706596
 30
0.0
 10
71.83058537700764
 20
-91.83556584075639
 30
0.0
 10
71.27661402297946
 20
-91.84417857946951
 30
0.0
 10
71.06267359334545
 20
-91.84417857946951
 30
0.0
 10
70.83219670538223
 20
-91.84417857946951
 30
0.0
 10
70.18486326370379
 20
-91.82488604475212
 30
0.0
 10
70.18486326370379
 20
-91.2812499771797
 30
0.0
 10
70.18486326370379
 20
-91.10796167427162
 30
0.0
 10
70.25479870205436
 20
-90.8623263661733
 30
0.0
 10
70.58690590683244
 20
-90.82443031583556
 30
0.0
 10
70.58690590683244
 20
-90.82443031583556
 30
0.0
 10
70.58690590683244
 20
-91.03802623592105
 30
0.0
 10
70.58690590683244
 20
-91.03802623592105
 30
0.0
 10
70.5297173217773
 20
-91.04870603192533
 30
0.0
 10
70.38157821591156
 20
-91.08040091038963
 30
0.0
 10
70.38157821591156
 20
-91.28331703447084
 30
0.0
 10
70.38157821591156
 20
-91.57546113162003
 30
0.0
 10
70.70955130610734
 20
-91.61542423924892
 30
0.0
 10
70.9145344874797
 20
-91.62817109254435
 30
0.0
 10
70.83633081996453
 20
-91.5351535144426
 30
0.0
 10
70.77707517761823
 20
-91.46728513338319
 30
0.0
 10
70.77707517761823
 20
-91.285384091762
 30
0.0
 10
70.77707517761823
 20
-91.10555010743195
 30
0.0
 10
70.88525117585507
 20
-90.80307072382702
 30
0.0
 10
71.29142793356604
 20
-90.80307072382702
 30
0.0
 10
71.6107882850487
 20
-90.80307072382702
 30
0.0
 10
71.83058537700764
 20
-91.00219724287446
 30
0.0
 10
71.83058537700764
 20
-91.31949053706596
 30
0.0
  0
SPLINE
  5
CD
330
C8
100
AcDbEntity
  8
_U+30EC_U+30A4_U+30E4_U+30FC 1
370
     0
100
AcDbSpline
210
0.0
220
0.0
230
1.0
 70
    11
 71
     3
 72
    17
 73
    13
 74
     0
 42
0.0000000001
 43
0.0000000001
 12
1.0
 22
0.0
 32
0.0
 13
1.0
 23
0.0
 33
0.0
 40
0.0
 40
0.0
 40
0.0
 40
0.0
 40
1.0
 40
1.0
 40
1.0
 40
2.0
 40
2.0
 40
2.0
 40
3.0
 40
3.0
 40
3.0
 40
4.0
 40
4.0
 40
4.0
 40
4.0
 10
70.97172307253486
 20
-91.30260956918823
 30
0.0
 10
70.97172307253486
 20
-91.56478133561575
 30
0.0
 10
71.1832519353292
 20
-91.6026773859535
 30
0.0
 10
71.29969616273064
 20
-91.6026773859535
 30
0.0
 10
71.47539603247837
 20
-91.6026773859535
 30
0.0
 10
71.63834904893069
 20
-91.5075927505606
 30
0.0
 10
71.63834904893069
 20
-91.32362465164826
 30
0.0
 10
71.63834904893069
 20
-91.20304630966451
 30
0.0
 10
71.57909340658439
 20
-91.02734643991678
 30
0.0
 10
71.29349499085718
 20
-91.02734643991678
 30
0.0
 10
71.06921927476742
 20
-91.02734643991678
 30
0.0
 10
70.97172307253486
 20
-91.1668728070694
 30
0.0
 10
70.97172307253486
 20
-91.30260956918823
 30
0.0
  0
HATCH
  5
CE
330
C8
100
AcDbEntity
  8
_U+30EC_U+30A4_U+30E4_U+30FC 1
 62
     7
420
 16777215
100
AcDbHatch
 10
0.0
 20
0.0
 30
0.0
210
0.0
220
0.0
230
1.0
  2
SOLID
 70
     1
 71
     0
 91
        2
 92
        1
 93
        1
 72
     4
 94
        3
 73
     0
 74
     1
 95
       32
 96
       28
 40
0.0
 40
0.0
 40
0.0
 40
0.0
 40
1.0
 40
1.0
 40
1.0
 40
2.0
 40
2.0
 40
2.0
 40
3.0
 40
3.0
 40
3.0
 40
4.0
 40
4.0
 40
4.0
 40
5.0
 40
5.0
 40
5.0
 40
6.0
 40
6.0
 40
6.0
 40
7.0
 40
7.0
 40
7.0
 40
8.0
 40
8.0
 40
8.0
 40
9.0
 40
9.0
 40
9.0
 40
9.0
 10
71.83058537700764
 20
-91.31949053706596
 10
71.83058537700764
 20
-91.83556584075639
 10
71.27661402297946
 20
-91.84417857946951
 10
71.06267359334545
 20
-91.84417857946951
 10
70.83219670538223
 20
-91.84417857946951
 10
70.18486326370379
 20
-91.82488604475212
 10
70.18486326370379
 20
-91.2812499771797
 10
70.18486326370379
 20
-91.10796167427162
 10
70.25479870205436
 20
-90.8623263661733
 10
70.58690590683244
 20
-90.82443031583556
 10
70.58690590683244
 20
-90.82443031583556
 10
70.58690590683244
 20
-91.03802623592105
 10
70.58690590683244
 20
-91.03802623592105
 10
70.5297173217773
 20
-91.04870603192533
 10
70.38157821591156
 20
-91.08040091038963
 10
70.38157821591156
 20
-91.28331703447084
 10
70.38157821591156
 20
-91.57546113162003
 10
70.70955130610734
 20
-91.61542423924892
 10
70.9145344874797
 20
-91.62817109254435
 10
70.83633081996453
 20
-91.5351535144426
 10
70.77707517761823
 20
-91.46728513338319
 10
70.77707517761823
 20
-91.285384091762
 10
70.77707517761823
 20
-91.10555010743195
 10
70.88525117585507
 20
-90.80307072382702
 10
71.29142793356604
 20
-90.80307072382702
 10
71.6107882850487
 20
-90.80307072382702
 10
71.83058537700764
 20
-91.00219724287446
 10
71.83058537700764
 20
-91.31949053706596
 97
        0
 97
        0
 92
        1
 93
        1
 72
     4
 94
        3
 73
     0
 74
     1
 95
       17
 96
       13
 40
0.0
 40
0.0
 40
0.0
 40
0.0
 40
1.0
 40
1.0
 40
1.0
 40
2.0
 40
2.0
 40
2.0
 40
3.0
 40
3.0
 40
3.0
 40
4.0
 40
4.0
 40
4.0
 40
4.0
 10
70.97172307253486
 20
-91.30260956918823
 10
70.97172307253486
 20
-91.56478133561575
 10
71.1832519353292
 20
-91.6026773859535
 10
71.29969616273064
 20
-91.6026773859535
 10
71.47539603247837
 20
-91.6026773859535
 10
71.63834904893069
 20
-91.5075927505606
 10
71.63834904893069
 20
-91.32362465164826
 10
71.63834904893069
 20
-91.20304630966451
 10
71.57909340658439
 20
-91.02734643991678
 10
71.29349499085718
 20
-91.02734643991678
 10
71.06921927476742
 20
-91.02734643991678
 10
70.97172307253486
 20
-91.1668728070694
 10
70.97172307253486
 20
-91.30260956918823
 97
        0
 97
        0
 75
     2
 76
     1
 98
        0
  0
POLYLINE
  5
CF
330
C8
100
AcDbEntity
  8
_U+30EC_U+30A4_U+30E4_U+30FC 1
370
     0
100
AcDb2dPolyline
 66
     1
 10
0.0
 20
0.0
 30
0.0
  0
VERTEX
  5
D0
330
CF
100
AcDbEntity
  8
_U+30EC_U+30A4_U+30E4_U+30FC 1
370
     0
100
AcDbVertex
100
AcDb2dVertex
 10
71.77994247337446
 20
-90.58671872735333
 30
0.0
  0
VERTEX
  5
D1
330
CF
100
AcDbEntity
  8
_U+30EC_U+30A4_U+30E4_U+30FC 1
370
     0
100
AcDbVertex
100
AcDb2dVertex
 10
71.5281059934027
 20
-90.58671872735333
 30
0.0
  0
VERTEX
  5
D2
330
CF
100
AcDbEntity
  8
_U+30EC_U+30A4_U+30E4_U+30FC 1
370
     0
100
AcDbVertex
100
AcDb2dVertex
 10
71.5281059934027
 20
-90.33488224738156
 30
0.0
  0
VERTEX
  5
D3
330
CF
100
AcDbEntity
  8
_U+30EC_U+30A4_U+30E4_U+30FC 1
370
     0
100
AcDbVertex
100
AcDb2dVertex
 10
71.77994247337446
 20
-90.33488224738156
 30
0.0
  0
VERTEX
  5
D4
330
CF
100
AcDbEntity
  8
_U+30EC_U+30A4_U+30E4_U+30FC 1
370
     0
100
AcDbVertex
100
AcDb2dVertex
 10
71.77994247337446
 20
-90.58671872735333
 30
0.0
  0
SEQEND
  5
D5
330
CF
100
AcDbEntity
  8
_U+30EC_U+30A4_U+30E4_U+30FC 1
370
     0
  0
HATCH
  5
D6
330
C8
100
AcDbEntity
  8
_U+30EC_U+30A4_U+30E4_U+30FC 1
 62
     7
420
 16777215
100
AcDbHatch
 10
0.0
 20
0.0
 30
0.0
210
0.0
220
0.0
230
1.0
  2
SOLID
 70
     1
 71
     0
 91
        1
 92
        1
 93
        4
 72
     1
 10
71.77994247337446
 20
-90.58671872735333
 11
71.5281059934027
 21
-90.58671872735333
 72
     1
 10
71.5281059934027
 20
-90.58671872735333
 11
71.5281059934027
 21
-90.33488224738156
 72
     1
 10
71.5281059934027
 20
-90.33488224738156
 11
71.77994247337446
 21
-90.33488224738156
 72
     1
 10
71.77994247337446
 20
-90.33488224738156
 11
71.77994247337446
 21
-90.58671872735333
 97
        0
 75
     2
 76
     1
 98
        0
  0
SPLINE
  5
D7
330
C8
100
AcDbEntity
  8
_U+30EC_U+30A4_U+30E4_U+30FC 1
370
     0
100
AcDbSpline
210
0.0
220
0.0
230
1.0
 70
    11
 71
     3
 72
    53
 73
    49
 74
     0
 42
0.0000000001
 43
0.0000000001
 12
1.0
 22
0.0
 32
0.0
 13
1.0
 23
0.0
 33
0.0
 40
0.0
 40
0.0
 40
0.0
 40
0.0
 40
1.0
 40
1.0
 40
1.0
 40
2.0
 40
2.0
 40
2.0
 40
3.0
 40
3.0
 40
3.0
 40
4.0
 40
4.0
 40
4.0
 40
5.0
 40
5.0
 40
5.0
 40
6.0
 40
6.0
 40
6.0
 40
7.0
 40
7.0
 40
7.0
 40
8.0
 40
8.0
 40
8.0
 40
9.0
 40
9.0
 40
9.0
 40
10.0
 40
10.0
 40
10.0
 40
11.0
 40
11.0
 40
11.0
 40
12.0
 40
12.0
 40
12.0
 40
13.0
 40
13.0
 40
13.0
 40
14.0
 40
14.0
 40
14.0
 40
15.0
 40
15.0
 40
15.0
 40
16.0
 40
16.0
 40
16.0
 40
16.0
 10
71.83058537700764
 20
-89.61761336735255
 30
0.0
 10
71.83058537700764
 20
-89.69581703486772
 30
0.0
 10
71.81370440912991
 20
-89.79744735168259
 30
0.0
 10
71.75031465220131
 20
-89.89907766849745
 30
0.0
 10
71.64041610622185
 20
-90.07236597140552
 30
0.0
 10
71.50915796823382
 20
-90.09372556341407
 30
0.0
 10
71.4013264795455
 20
-90.11267358858295
 30
0.0
 10
71.4013264795455
 20
-90.11267358858295
 30
0.0
 10
71.4013264795455
 20
-89.89046492978433
 30
0.0
 10
71.4013264795455
 20
-89.89046492978433
 30
0.0
 10
71.60010848904442
 20
-89.83568791156885
 30
0.0
 10
71.62973631021757
 20
-89.70856388816314
 30
0.0
 10
71.62973631021757
 20
-89.61554631006139
 30
0.0
 10
71.62973631021757
 20
-89.47601994290878
 30
0.0
 10
71.53017305069385
 20
-89.32374672246074
 30
0.0
 10
71.29762910543948
 20
-89.32374672246074
 30
0.0
 10
71.04165851088543
 20
-89.32374672246074
 30
0.0
 10
70.97172307253486
 20
-89.50358070679077
 30
0.0
 10
70.97172307253486
 20
-89.62415904877452
 30
0.0
 10
70.97172307253486
 20
-89.65585392723882
 30
0.0
 10
70.97172307253486
 20
-89.79744735168259
 30
0.0
 10
71.10091415323171
 20
-89.88633081520203
 30
0.0
 10
71.10091415323171
 20
-89.88633081520203
 30
0.0
 10
71.08196612806285
 20
-90.06203068494978
 30
0.0
 10
71.08196612806285
 20
-90.06203068494978
 30
0.0
 10
71.08196612806285
 20
-90.06203068494978
 30
0.0
 10
70.23550616733696
 20
-89.94145234296603
 30
0.0
 10
70.23550616733696
 20
-89.94145234296603
 30
0.0
 10
70.23550616733696
 20
-89.94145234296603
 30
0.0
 10
70.23550616733696
 20
-89.16286076329956
 30
0.0
 10
70.23550616733696
 20
-89.16286076329956
 30
0.0
 10
70.23550616733696
 20
-89.16286076329956
 30
0.0
 10
70.43015406225358
 20
-89.16286076329956
 30
0.0
 10
70.43015406225358
 20
-89.16286076329956
 30
0.0
 10
70.43015406225358
 20
-89.16286076329956
 30
0.0
 10
70.43015406225358
 20
-89.77849932651371
 30
0.0
 10
70.43015406225358
 20
-89.77849932651371
 30
0.0
 10
70.43015406225358
 20
-89.77849932651371
 30
0.0
 10
70.85321178784226
 20
-89.84395614073345
 30
0.0
 10
70.85321178784226
 20
-89.84395614073345
 30
0.0
 10
70.8194498520868
 20
-89.78263344109601
 30
0.0
 10
70.77914223490939
 20
-89.70029565899854
 30
0.0
 10
70.77914223490939
 20
-89.58178437430594
 30
0.0
 10
70.77914223490939
 20
-89.32788083704304
 30
0.0
 10
70.9655219006614
 20
-89.09085826765785
 30
0.0
 10
71.27868108027062
 20
-89.09085826765785
 30
0.0
 10
71.59597437446212
 20
-89.09085826765785
 30
0.0
 10
71.83058537700764
 20
-89.31513398374761
 30
0.0
 10
71.83058537700764
 20
-89.61761336735255
 30
0.0
  0
HATCH
  5
D8
330
C8
100
AcDbEntity
  8
_U+30EC_U+30A4_U+30E4_U+30FC 1
 62
     7
420
 16777215
100
AcDbHatch
 10
0.0
 20
0.0
 30
0.0
210
0.0
220
0.0
230
1.0
  2
SOLID
 70
     1
 71
     0
 91
        1
 92
        1
 93
        1
 72
     4
 94
        3
 73
     0
 74
     1
 95
       53
 96
       49
 40
0.0
 40
0.0
 40
0.0
 40
0.0
 40
1.0
 40
1.0
 40
1.0
 40
2.0
 40
2.0
 40
2.0
 40
3.0
 40
3.0
 40
3.0
 40
4.0
 40
4.0
 40
4.0
 40
5.0
 40
5.0
 40
5.0
 40
6.0
 40
6.0
 40
6.0
 40
7.0
 40
7.0
 40
7.0
 40
8.0
 40
8.0
 40
8.0
 40
9.0
 40
9.0
 40
9.0
 40
10.0
 40
10.0
 40
10.0
 40
11.0
 40
11.0
 40
11.0
 40
12.0
 40
12.0
 40
12.0
 40
13.0
 40
13.0
 40
13.0
 40
14.0
 40
14.0
 40
14.0
 40
15.0
 40
15.0
 40
15.0
 40
16.0
 40
16.0
 40
16.0
 40
16.0
 10
71.83058537700764
 20
-89.61761336735255
 10
71.83058537700764
 20
-89.69581703486772
 10
71.81370440912991
 20
-89.79744735168259
 10
71.75031465220131
 20
-89.89907766849745
 10
71.64041610622185
 20
-90.07236597140552
 10
71.50915796823382
 20
-90.09372556341407
 10
71.4013264795455
 20
-90.11267358858295
 10
71.4013264795455
 20
-90.11267358858295
 10
71.4013264795455
 20
-89.89046492978433
 10
71.4013264795455
 20
-89.89046492978433
 10
71.60010848904442
 20
-89.83568791156885
 10
71.62973631021757
 20
-89.70856388816314
 10
71.62973631021757
 20
-89.61554631006139
 10
71.62973631021757
 20
-89.47601994290878
 10
71.53017305069385
 20
-89.32374672246074
 10
71.29762910543948
 20
-89.32374672246074
 10
71.04165851088543
 20
-89.32374672246074
 10
70.97172307253486
 20
-89.50358070679077
 10
70.97172307253486
 20
-89.62415904877452
 10
70.97172307253486
 20
-89.65585392723882
 10
70.97172307253486
 20
-89.79744735168259
 10
71.10091415323171
 20
-89.88633081520203
 10
71.10091415323171
 20
-89.88633081520203
 10
71.08196612806285
 20
-90.06203068494978
 10
71.08196612806285
 20
-90.06203068494978
 10
71.08196612806285
 20
-90.06203068494978
 10
70.23550616733696
 20
-89.94145234296603
 10
70.23550616733696
 20
-89.94145234296603
 10
70.23550616733696
 20
-89.94145234296603
 10
70.23550616733696
 20
-89.16286076329956
 10
70.23550616733696
 20
-89.16286076329956
 10
70.23550616733696
 20
-89.16286076329956
 10
70.43015406225358
 20
-89.16286076329956
 10
70.43015406225358
 20
-89.16286076329956
 10
70.43015406225358
 20
-89.16286076329956
 10
70.43015406225358
 20
-89.77849932651371
 10
70.43015406225358
 20
-89.77849932651371
 10
70.43015406225358
 20
-89.77849932651371
 10
70.85321178784226
 20
-89.84395614073345
 10
70.85321178784226
 20
-89.84395614073345
 10
70.8194498520868
 20
-89.78263344109601
 10
70.77914223490939
 20
-89.70029565899854
 10
70.77914223490939
 20
-89.58178437430594
 10
70.77914223490939
 20
-89.32788083704304
 10
70.9655219006614
 20
-89.09085826765785
 10
71.27868108027062
 20
-89.09085826765785
 10
71.59597437446212
 20
-89.09085826765785
 10
71.83058537700764
 20
-89.31513398374761
 10
71.83058537700764
 20
-89.61761336735255
 97
        0
 97
        0
 75
     2
 76
     1
 98
        0
  0
ENDBLK
  5
CB
330
C8
100
AcDbEntity
  8
0
100
AcDbBlockEnd
  0
ENDSEC
  0
SECTION
  2
ENTITIES
  0
POLYLINE
  5
41
330
1F
100
AcDbEntity
  8
_U+30EC_U+30A4_U+30E4_U+30FC 1
 62
     7
420
 16777215
370
    25
100
AcDb2dPolyline
 66
     1
 10
0.0
 20
0.0
 30
0.0
  0
VERTEX
  5
42
330
41
100
AcDbEntity
  8
_U+30EC_U+30A4_U+30E4_U+30FC 1
 62
     7
420
 16777215
370
    25
100
AcDbVertex
100
AcDb2dVertex
 10
58.13167323915968
 20
-95.71093942051668
 30
0.0
  0
VERTEX
  5
43
330
41
100
AcDbEntity
  8
_U+30EC_U+30A4_U+30E4_U+30FC 1
 62
     7
420
 16777215
370
    25
100
AcDbVertex
100
AcDb2dVertex
 10
58.13167323915968
 20
-93.71107747657199
 30
0.0
  0
VERTEX
  5
44
330
41
100
AcDbEntity
  8
_U+30EC_U+30A4_U+30E4_U+30FC 1
 62
     7
420
 16777215
370
    25
100
AcDbVertex
100
AcDb2dVertex
 10
57.33171437067944
 20
-93.71107747657199
 30
0.0
  0
VERTEX
  5
45
330
41
100
AcDbEntity
  8
_U+30EC_U+30A4_U+30E4_U+30FC 1
 62
     7
420
 16777215
370
    25
100
AcDbVertex
100
AcDb2dVertex
 10
57.33171437067944
 20
-94.91101580960557
 30
0.0
  0
VERTEX
  5
46
330
41
100
AcDbEntity
  8
_U+30EC_U+30A4_U+30E4_U+30FC 1
 62
     7
420
 16777215
370
    25
100
AcDbVertex
100
AcDb2dVertex
 10
54.93187304301561
 20
-94.91101580960557
 30
0.0
  0
VERTEX
  5
47
330
41
100
AcDbEntity
  8
_U+30EC_U+30A4_U+30E4_U+30FC 1
 62
     7
420
 16777215
370
    25
100
AcDbVertex
100
AcDb2dVertex
 10
54.93187304301561
 20
-87.21068831153072
 30
0.0
  0
VERTEX
  5
48
330
41
100
AcDbEntity
  8
_U+30EC_U+30A4_U+30E4_U+30FC 1
 62
     7
420
 16777215
370
    25
100
AcDbVertex
100
AcDb2dVertex
 10
69.13170740296988
 20
-87.21068831153072
 30
0.0
  0
VERTEX
  5
49
330
41
100
AcDbEntity
  8
_U+30EC_U+30A4_U+30E4_U+30FC 1
 62
     7
420
 16777215
370
    25
100
AcDbVertex
100
AcDb2dVertex
 10
69.13170740296988
 20
-86.41072942284177
 30
0.0
  0
VERTEX
  5
4A
330
41
100
AcDbEntity
  8
_U+30EC_U+30A4_U+30E4_U+30FC 1
 62
     7
420
 16777215
370
    25
100
AcDbVertex
100
AcDb2dVertex
 10
54.13156139676659
 20
-86.41072942284177
 30
0.0
  0
VERTEX
  5
4B
330
41
100
AcDbEntity
  8
_U+30EC_U+30A4_U+30E4_U+30FC 1
 62
     7
420
 16777215
370
    25
100
AcDbVertex
100
AcDb2dVertex
 10
54.13156139676659
 20
-95.71093942051668
 30
0.0
  0
VERTEX
  5
4C
330
41
100
AcDbEntity
  8
_U+30EC_U+30A4_U+30E4_U+30FC 1
 62
     7
420
 16777215
370
    25
100
AcDbVertex
100
AcDb2dVertex
 10
58.13167323915968
 20
-95.71093942051668
 30
0.0
  0
SEQEND
  5
4D
330
41
100
AcDbEntity
  8
_U+30EC_U+30A4_U+30E4_U+30FC 1
 62
     7
420
 16777215
370
    25
  0
SPLINE
  5
4E
330
1F
100
AcDbEntity
  8
_U+30EC_U+30A4_U+30E4_U+30FC 1
 62
     7
420
 16777215
370
     9
100
AcDbSpline
210
0.0
220
0.0
230
1.0
 70
    11
 71
     3
 72
    17
 73
    13
 74
     0
 42
0.0000000001
 43
0.0000000001
 12
1.0
 22
0.0
 32
0.0
 13
1.0
 23
0.0
 33
0.0
 40
0.0
 40
0.0
 40
0.0
 40
0.0
 40
1.0
 40
1.0
 40
1.0
 40
2.0
 40
2.0
 40
2.0
 40
3.0
 40
3.0
 40
3.0
 40
4.0
 40
4.0
 40
4.0
 40
4.0
 10
73.23169063170393
 20
-86.41072942284177
 30
0.0
 10
73.23169063170393
 20
-86.35562553396653
 30
0.0
 10
73.18692498170354
 20
-86.31082275620014
 30
0.0
 10
73.13178396758609
 20
-86.31082275620014
 30
0.0
 10
73.07668008010302
 20
-86.31082275620014
 30
0.0
 10
73.03187730346825
 20
-86.35562553396653
 30
0.0
 10
73.03187730346825
 20
-86.41072942284177
 30
0.0
 10
73.03187730346825
 20
-86.46657414505005
 30
0.0
 10
73.07668008010302
 20
-86.51067136726125
 30
0.0
 10
73.13178396758609
 20
-86.51067136726125
 30
0.0
 10
73.18692498170354
 20
-86.51067136726125
 30
0.0
 10
73.23169063170393
 20
-86.46657414505005
 30
0.0
 10
73.23169063170393
 20
-86.41072942284177
 30
0.0
  0
SPLINE
  5
4F
330
1F
100
AcDbEntity
  8
_U+30EC_U+30A4_U+30E4_U+30FC 1
 62
     7
420
 16777215
370
     9
100
AcDbSpline
210
0.0
220
0.0
230
1.0
 70
    11
 71
     3
 72
    17
 73
    13
 74
     0
 42
0.0000000001
 43
0.0000000001
 12
1.0
 22
0.0
 32
0.0
 13
1.0
 23
0.0
 33
0.0
 40
0.0
 40
0.0
 40
0.0
 40
0.0
 40
1.0
 40
1.0
 40
1.0
 40
2.0
 40
2.0
 40
2.0
 40
3.0
 40
3.0
 40
3.0
 40
4.0
 40
4.0
 40
4.0
 40
4.0
 10
73.23169063170393
 20
-87.21068831153072
 30
0.0
 10
73.23169063170393
 20
-87.15558442265548
 30
0.0
 10
73.18692498170354
 20
-87.11078164488907
 30
0.0
 10
73.13178396758609
 20
-87.11078164488907
 30
0.0
 10
73.07668008010302
 20
-87.11078164488907
 30
0.0
 10
73.03187730346825
 20
-87.15558442265548
 30
0.0
 10
73.03187730346825
 20
-87.21068831153072
 30
0.0
 10
73.03187730346825
 20
-87.26649775596115
 30
0.0
 10
73.07668008010302
 20
-87.31130053372787
 30
0.0
 10
73.13178396758609
 20
-87.31130053372787
 30
0.0
 10
73.18692498170354
 20
-87.31130053372787
 30
0.0
 10
73.23169063170393
 20
-87.26649775596115
 30
0.0
 10
73.23169063170393
 20
-87.21068831153072
 30
0.0
  0
SPLINE
  5
50
330
1F
100
AcDbEntity
  8
_U+30EC_U+30A4_U+30E4_U+30FC 1
 62
     7
420
 16777215
370
     9
100
AcDbSpline
210
0.0
220
0.0
230
1.0
 70
    11
 71
     3
 72
    17
 73
    13
 74
     0
 42
0.0000000001
 43
0.0000000001
 12
1.0
 22
0.0
 32
0.0
 13
1.0
 23
0.0
 33
0.0
 40
0.0
 40
0.0
 40
0.0
 40
0.0
 40
1.0
 40
1.0
 40
1.0
 40
2.0
 40
2.0
 40
2.0
 40
3.0
 40
3.0
 40
3.0
 40
4.0
 40
4.0
 40
4.0
 40
4.0
 10
69.2319333160252
 20
-82.41100553495272
 30
0.0
 10
69.2319333160252
 20
-82.35586636829997
 30
0.0
 10
69.18716406822172
 20
-82.31109886831109
 30
0.0
 10
69.13170740296988
 20
-82.31109886831109
 30
0.0
 10
69.07656823770992
 20
-82.31109886831109
 30
0.0
 10
69.03180073885204
 20
-82.35586636829997
 30
0.0
 10
69.03180073885204
 20
-82.41100553495272
 30
0.0
 10
69.03180073885204
 20
-82.46610942382796
 30
0.0
 10
69.07656823770992
 20
-82.51091220159437
 30
0.0
 10
69.13170740296988
 20
-82.51091220159437
 30
0.0
 10
69.18716406822172
 20
-82.51091220159437
 30
0.0
 10
69.2319333160252
 20
-82.46610942382796
 30
0.0
 10
69.2319333160252
 20
-82.41100553495272
 30
0.0
  0
SPLINE
  5
51
330
1F
100
AcDbEntity
  8
_U+30EC_U+30A4_U+30E4_U+30FC 1
 62
     7
420
 16777215
370
     9
100
AcDbSpline
210
0.0
220
0.0
230
1.0
 70
    11
 71
     3
 72
    17
 73
    13
 74
     0
 42
0.0000000001
 43
0.0000000001
 12
1.0
 22
0.0
 32
0.0
 13
1.0
 23
0.0
 33
0.0
 40
0.0
 40
0.0
 40
0.0
 40
0.0
 40
1.0
 40
1.0
 40
1.0
 40
2.0
 40
2.0
 40
2.0
 40
3.0
 40
3.0
 40
3.0
 40
4.0
 40
4.0
 40
4.0
 40
4.0
 10
58.2319326810463
 20
-99.71069858618355
 30
0.0
 10
58.2319326810463
 20
-99.65559469730864
 30
0.0
 10
58.18712990441153
 20
-99.61079191954192
 30
0.0
 10
58.13167323915968
 20
-99.61079191954192
 30
0.0
 10
58.07656935167661
 20
-99.61079191954192
 30
0.0
 10
58.03176657504185
 20
-99.65559469730864
 30
0.0
 10
58.03176657504185
 20
-99.71069858618355
 30
0.0
 10
58.03176657504185
 20
-99.76583775283663
 30
0.0
 10
58.07656935167661
 20
-99.8106052528252
 30
0.0
 10
58.13167323915968
 20
-99.8106052528252
 30
0.0
 10
58.18712990441153
 20
-99.8106052528252
 30
0.0
 10
58.2319326810463
 20
-99.76583775283663
 30
0.0
 10
58.2319326810463
 20
-99.71069858618355
 30
0.0
  0
SPLINE
  5
52
330
1F
100
AcDbEntity
  8
_U+30EC_U+30A4_U+30E4_U+30FC 1
 62
     7
420
 16777215
370
     9
100
AcDbSpline
210
0.0
220
0.0
230
1.0
 70
    11
 71
     3
 72
    17
 73
    13
 74
     0
 42
0.0000000001
 43
0.0000000001
 12
1.0
 22
0.0
 32
0.0
 13
1.0
 23
0.0
 33
0.0
 40
0.0
 40
0.0
 40
0.0
 40
0.0
 40
1.0
 40
1.0
 40
1.0
 40
2.0
 40
2.0
 40
2.0
 40
3.0
 40
3.0
 40
3.0
 40
4.0
 40
4.0
 40
4.0
 40
4.0
 10
73.23169063170393
 20
-95.71093942051668
 30
0.0
 10
73.23169063170393
 20
-95.65583553164176
 30
0.0
 10
73.18692498170354
 20
-95.61103275387504
 30
0.0
 10
73.13178396758609
 20
-95.61103275387504
 30
0.0
 10
73.07668008010302
 20
-95.61103275387504
 30
0.0
 10
73.03187730346825
 20
-95.65583553164176
 30
0.0
 10
73.03187730346825
 20
-95.71093942051668
 30
0.0
 10
73.03187730346825
 20
-95.76607858716976
 30
0.0
 10
73.07668008010302
 20
-95.81084608715831
 30
0.0
 10
73.13178396758609
 20
-95.81084608715831
 30
0.0
 10
73.18692498170354
 20
-95.81084608715831
 30
0.0
 10
73.23169063170393
 20
-95.76607858716976
 30
0.0
 10
73.23169063170393
 20
-95.71093942051668
 30
0.0
  0
SPLINE
  5
53
330
1F
100
AcDbEntity
  8
_U+30EC_U+30A4_U+30E4_U+30FC 1
 62
     7
420
 16777215
370
     9
100
AcDbSpline
210
0.0
220
0.0
230
1.0
 70
    11
 71
     3
 72
    17
 73
    13
 74
     0
 42
0.0000000001
 43
0.0000000001
 12
1.0
 22
0.0
 32
0.0
 13
1.0
 23
0.0
 33
0.0
 40
0.0
 40
0.0
 40
0.0
 40
0.0
 40
1.0
 40
1.0
 40
1.0
 40
2.0
 40
2.0
 40
2.0
 40
3.0
 40
3.0
 40
3.0
 40
4.0
 40
4.0
 40
4.0
 40
4.0
 10
73.23169063170393
 20
-93.71107747657199
 30
0.0
 10
73.23169063170393
 20
-93.65593830991956
 30
0.0
 10
73.18692498170354
 20
-93.61117080993036
 30
0.0
 10
73.13178396758609
 20
-93.61117080993036
 30
0.0
 10
73.07668008010302
 20
-93.61117080993036
 30
0.0
 10
73.03187730346825
 20
-93.65593830991956
 30
0.0
 10
73.03187730346825
 20
-93.71107747657199
 30
0.0
 10
73.03187730346825
 20
-93.76618136544755
 30
0.0
 10
73.07668008010302
 20
-93.81098414321363
 30
0.0
 10
73.13178396758609
 20
-93.81098414321363
 30
0.0
 10
73.18692498170354
 20
-93.81098414321363
 30
0.0
 10
73.23169063170393
 20
-93.76618136544755
 30
0.0
 10
73.23169063170393
 20
-93.71107747657199
 30
0.0
  0
SPLINE
  5
54
330
1F
100
AcDbEntity
  8
_U+30EC_U+30A4_U+30E4_U+30FC 1
 62
     7
420
 16777215
370
     9
100
AcDbSpline
210
0.0
220
0.0
230
1.0
 70
    11
 71
     3
 72
    17
 73
    13
 74
     0
 42
0.0000000001
 43
0.0000000001
 12
1.0
 22
0.0
 32
0.0
 13
1.0
 23
0.0
 33
0.0
 40
0.0
 40
0.0
 40
0.0
 40
0.0
 40
1.0
 40
1.0
 40
1.0
 40
2.0
 40
2.0
 40
2.0
 40
3.0
 40
3.0
 40
3.0
 40
4.0
 40
4.0
 40
4.0
 40
4.0
 10
54.23182220866429
 20
-82.41100553495272
 30
0.0
 10
54.23182220866429
 20
-82.35586636829997
 30
0.0
 10
54.18705333979532
 20
-82.31109886831109
 30
0.0
 10
54.13156139676659
 20
-82.31109886831109
 30
0.0
 10
54.07645750928352
 20
-82.31109886831109
 30
0.0
 10
54.03165473264876
 20
-82.35586636829997
 30
0.0
 10
54.03165473264876
 20
-82.41100553495272
 30
0.0
 10
54.03165473264876
 20
-82.46610942382796
 30
0.0
 10
54.07645750928352
 20
-82.51091220159437
 30
0.0
 10
54.13156139676659
 20
-82.51091220159437
 30
0.0
 10
54.18705333979532
 20
-82.51091220159437
 30
0.0
 10
54.23182220866429
 20
-82.46610942382796
 30
0.0
 10
54.23182220866429
 20
-82.41100553495272
 30
0.0
  0
SPLINE
  5
55
330
1F
100
AcDbEntity
  8
_U+30EC_U+30A4_U+30E4_U+30FC 1
 62
     7
420
 16777215
370
     9
100
AcDbSpline
210
0.0
220
0.0
230
1.0
 70
    11
 71
     3
 72
    17
 73
    13
 74
     0
 42
0.0000000001
 43
0.0000000001
 12
1.0
 22
0.0
 32
0.0
 13
1.0
 23
0.0
 33
0.0
 40
0.0
 40
0.0
 40
0.0
 40
0.0
 40
1.0
 40
1.0
 40
1.0
 40
2.0
 40
2.0
 40
2.0
 40
3.0
 40
3.0
 40
3.0
 40
4.0
 40
4.0
 40
4.0
 40
4.0
 10
54.23182220866429
 20
-99.71069858618355
 30
0.0
 10
54.23182220866429
 20
-99.65559469730864
 30
0.0
 10
54.18705333979532
 20
-99.61079191954192
 30
0.0
 10
54.13156139676659
 20
-99.61079191954192
 30
0.0
 10
54.07645750928352
 20
-99.61079191954192
 30
0.0
 10
54.03165473264876
 20
-99.65559469730864
 30
0.0
 10
54.03165473264876
 20
-99.71069858618355
 30
0.0
 10
54.03165473264876
 20
-99.76583775283663
 30
0.0
 10
54.07645750928352
 20
-99.8106052528252
 30
0.0
 10
54.13156139676659
 20
-99.8106052528252
 30
0.0
 10
54.18705333979532
 20
-99.8106052528252
 30
0.0
 10
54.23182220866429
 20
-99.76583775283663
 30
0.0
 10
54.23182220866429
 20
-99.71069858618355
 30
0.0
  0
POLYLINE
  5
56
330
1F
100
AcDbEntity
  8
_U+30EC_U+30A4_U+30E4_U+30FC 1
 62
     7
420
 16777215
370
     9
100
AcDb2dPolyline
 66
     1
 10
0.0
 20
0.0
 30
0.0
  0
VERTEX
  5
57
330
56
100
AcDbEntity
  8
_U+30EC_U+30A4_U+30E4_U+30FC 1
 62
     7
420
 16777215
370
     9
100
AcDbVertex
100
AcDb2dVertex
 10
73.13178396758609
 20
-86.41072942284177
 30
0.0
  0
VERTEX
  5
58
330
56
100
AcDbEntity
  8
_U+30EC_U+30A4_U+30E4_U+30FC 1
 62
     7
420
 16777215
370
     9
100
AcDbVertex
100
AcDb2dVertex
 10
73.13178396758609
 20
-81.1528588686007
 30
0.0
  0
SEQEND
  5
59
330
56
100
AcDbEntity
  8
_U+30EC_U+30A4_U+30E4_U+30FC 1
 62
     7
420
 16777215
370
     9
  0
POLYLINE
  5
5A
330
1F
100
AcDbEntity
  8
_U+30EC_U+30A4_U+30E4_U+30FC 1
 62
     7
420
 16777215
370
     9
100
AcDb2dPolyline
 66
     1
 10
0.0
 20
0.0
 30
0.0
  0
VERTEX
  5
5B
330
5A
100
AcDbEntity
  8
_U+30EC_U+30A4_U+30E4_U+30FC 1
 62
     7
420
 16777215
370
     9
100
AcDbVertex
100
AcDb2dVertex
 10
73.13178396758609
 20
-86.41072942284177
 30
0.0
  0
VERTEX
  5
5C
330
5A
100
AcDbEntity
  8
_U+30EC_U+30A4_U+30E4_U+30FC 1
 62
     7
420
 16777215
370
     9
100
AcDbVertex
100
AcDb2dVertex
 10
73.13178396758609
 20
-87.21068831153072
 30
0.0
  0
SEQEND
  5
5D
330
5A
100
AcDbEntity
  8
_U+30EC_U+30A4_U+30E4_U+30FC 1
 62
     7
420
 16777215
370
     9
  0
POLYLINE
  5
5E
330
1F
100
AcDbEntity
  8
_U+30EC_U+30A4_U+30E4_U+30FC 1
 62
     7
420
 16777215
370
     9
100
AcDb2dPolyline
 66
     1
 10
0.0
 20
0.0
 30
0.0
  0
VERTEX
  5
5F
330
5E
100
AcDbEntity
  8
_U+30EC_U+30A4_U+30E4_U+30FC 1
 62
     7
420
 16777215
370
     9
100
AcDbVertex
100
AcDb2dVertex
 10
71.67177789372283
 20
-86.41072942284177
 30
0.0
  0
VERTEX
  5
60
330
5E
100
AcDbEntity
  8
_U+30EC_U+30A4_U+30E4_U+30FC 1
 62
     7
420
 16777215
370
     9
100
AcDbVertex
100
AcDb2dVertex
 10
74.13226171983955
 20
-86.41072942284177
 30
0.0
  0
SEQEND
  5
61
330
5E
100
AcDbEntity
  8
_U+30EC_U+30A4_U+30E4_U+30FC 1
 62
     7
420
 16777215
370
     9
  0
POLYLINE
  5
62
330
1F
100
AcDbEntity
  8
_U+30EC_U+30A4_U+30E4_U+30FC 1
 62
     7
420
 16777215
370
     9
100
AcDb2dPolyline
 66
     1
 10
0.0
 20
0.0
 30
0.0
  0
VERTEX
  5
63
330
62
100
AcDbEntity
  8
_U+30EC_U+30A4_U+30E4_U+30FC 1
 62
     7
420
 16777215
370
     9
100
AcDbVertex
100
AcDb2dVertex
 10
71.67177789372283
 20
-87.21068831153072
 30
0.0
  0
VERTEX
  5
64
330
62
100
AcDbEntity
  8
_U+30EC_U+30A4_U+30E4_U+30FC 1
 62
     7
420
 16777215
370
     9
100
AcDbVertex
100
AcDb2dVertex
 10
74.13226171983955
 20
-87.21068831153072
 30
0.0
  0
SEQEND
  5
65
330
62
100
AcDbEntity
  8
_U+30EC_U+30A4_U+30E4_U+30FC 1
 62
     7
420
 16777215
370
     9
  0
POLYLINE
  5
66
330
1F
100
AcDbEntity
  8
_U+30EC_U+30A4_U+30E4_U+30FC 1
 62
     7
420
 16777215
370
     9
100
AcDb2dPolyline
 66
     1
 10
0.0
 20
0.0
 30
0.0
  0
VERTEX
  5
67
330
66
100
AcDbEntity
  8
_U+30EC_U+30A4_U+30E4_U+30FC 1
 62
     7
420
 16777215
370
     9
100
AcDbVertex
100
AcDb2dVertex
 10
73.13178396758609
 20
-92.71095247682233
 30
0.0
  0
VERTEX
  5
68
330
66
100
AcDbEntity
  8
_U+30EC_U+30A4_U+30E4_U+30FC 1
 62
     7
420
 16777215
370
     9
100
AcDbVertex
100
AcDb2dVertex
 10
73.13178396758609
 20
-95.71093942051668
 30
0.0
  0
SEQEND
  5
69
330
66
100
AcDbEntity
  8
_U+30EC_U+30A4_U+30E4_U+30FC 1
 62
     7
420
 16777215
370
     9
  0
POLYLINE
  5
6A
330
1F
100
AcDbEntity
  8
_U+30EC_U+30A4_U+30E4_U+30FC 1
 62
     7
420
 16777215
370
     9
100
AcDb2dPolyline
 66
     1
 10
0.0
 20
0.0
 30
0.0
  0
VERTEX
  5
6B
330
6A
100
AcDbEntity
  8
_U+30EC_U+30A4_U+30E4_U+30FC 1
 62
     7
420
 16777215
370
     9
100
AcDbVertex
100
AcDb2dVertex
 10
60.67174372991264
 20
-95.71093942051668
 30
0.0
  0
VERTEX
  5
6C
330
6A
100
AcDbEntity
  8
_U+30EC_U+30A4_U+30E4_U+30FC 1
 62
     7
420
 16777215
370
     9
100
AcDbVertex
100
AcDb2dVertex
 10
74.13226171983955
 20
-95.71093942051668
 30
0.0
  0
SEQEND
  5
6D
330
6A
100
AcDbEntity
  8
_U+30EC_U+30A4_U+30E4_U+30FC 1
 62
     7
420
 16777215
370
     9
  0
POLYLINE
  5
6E
330
1F
100
AcDbEntity
  8
_U+30EC_U+30A4_U+30E4_U+30FC 1
 62
     7
420
 16777215
370
     9
100
AcDb2dPolyline
 66
     1
 10
0.0
 20
0.0
 30
0.0
  0
VERTEX
  5
6F
330
6E
100
AcDbEntity
  8
_U+30EC_U+30A4_U+30E4_U+30FC 1
 62
     7
420
 16777215
370
     9
100
AcDbVertex
100
AcDb2dVertex
 10
54.13156139676659
 20
-99.71069858618355
 30
0.0
  0
VERTEX
  5
70
330
6E
100
AcDbEntity
  8
_U+30EC_U+30A4_U+30E4_U+30FC 1
 62
     7
420
 16777215
370
     9
100
AcDbVertex
100
AcDb2dVertex
 10
58.13167323915968
 20
-99.71069858618355
 30
0.0
  0
SEQEND
  5
71
330
6E
100
AcDbEntity
  8
_U+30EC_U+30A4_U+30E4_U+30FC 1
 62
     7
420
 16777215
370
     9
  0
POLYLINE
  5
72
330
1F
100
AcDbEntity
  8
_U+30EC_U+30A4_U+30E4_U+30FC 1
 62
     7
420
 16777215
370
     9
100
AcDb2dPolyline
 66
     1
 10
0.0
 20
0.0
 30
0.0
  0
VERTEX
  5
73
330
72
100
AcDbEntity
  8
_U+30EC_U+30A4_U+30E4_U+30FC 1
 62
     7
420
 16777215
370
     9
100
AcDbVertex
100
AcDb2dVertex
 10
54.13156139676659
 20
-98.25069247543738
 30
0.0
  0
VERTEX
  5
74
330
72
100
AcDbEntity
  8
_U+30EC_U+30A4_U+30E4_U+30FC 1
 62
     7
420
 16777215
370
     9
100
AcDbVertex
100
AcDb2dVertex
 10
54.13156139676659
 20
-100.7104708081555
 30
0.0
  0
SEQEND
  5
75
330
72
100
AcDbEntity
  8
_U+30EC_U+30A4_U+30E4_U+30FC 1
 62
     7
420
 16777215
370
     9
  0
POLYLINE
  5
76
330
1F
100
AcDbEntity
  8
_U+30EC_U+30A4_U+30E4_U+30FC 1
 62
     7
420
 16777215
370
     9
100
AcDb2dPolyline
 66
     1
 10
0.0
 20
0.0
 30
0.0
  0
VERTEX
  5
77
330
76
100
AcDbEntity
  8
_U+30EC_U+30A4_U+30E4_U+30FC 1
 62
     7
420
 16777215
370
     9
100
AcDbVertex
100
AcDb2dVertex
 10
58.13167323915968
 20
-98.25069247543738
 30
0.0
  0
VERTEX
  5
78
330
76
100
AcDbEntity
  8
_U+30EC_U+30A4_U+30E4_U+30FC 1
 62
     7
420
 16777215
370
     9
100
AcDbVertex
100
AcDb2dVertex
 10
58.13167323915968
 20
-100.7104708081555
 30
0.0
  0
SEQEND
  5
79
330
76
100
AcDbEntity
  8
_U+30EC_U+30A4_U+30E4_U+30FC 1
 62
     7
420
 16777215
370
     9
  0
POLYLINE
  5
7A
330
1F
100
AcDbEntity
  8
_U+30EC_U+30A4_U+30E4_U+30FC 1
 62
     7
420
 16777215
370
     9
100
AcDb2dPolyline
 66
     1
 10
0.0
 20
0.0
 30
0.0
  0
VERTEX
  5
7B
330
7A
100
AcDbEntity
  8
_U+30EC_U+30A4_U+30E4_U+30FC 1
 62
     7
420
 16777215
370
     9
100
AcDbVertex
100
AcDb2dVertex
 10
54.13156139676659
 20
-82.41100553495272
 30
0.0
  0
VERTEX
  5
7C
330
7A
100
AcDbEntity
  8
_U+30EC_U+30A4_U+30E4_U+30FC 1
 62
     7
420
 16777215
370
     9
100
AcDbVertex
100
AcDb2dVertex
 10
69.13170740296988
 20
-82.41100553495272
 30
0.0
  0
SEQEND
  5
7D
330
7A
100
AcDbEntity
  8
_U+30EC_U+30A4_U+30E4_U+30FC 1
 62
     7
420
 16777215
370
     9
  0
POLYLINE
  5
7E
330
1F
100
AcDbEntity
  8
_U+30EC_U+30A4_U+30E4_U+30FC 1
 62
     7
420
 16777215
370
     9
100
AcDb2dPolyline
 66
     1
 10
0.0
 20
0.0
 30
0.0
  0
VERTEX
  5
7F
330
7E
100
AcDbEntity
  8
_U+30EC_U+30A4_U+30E4_U+30FC 1
 62
     7
420
 16777215
370
     9
100
AcDbVertex
100
AcDb2dVertex
 10
54.13156139676659
 20
-83.87101164569891
 30
0.0
  0
VERTEX
  5
80
330
7E
100
AcDbEntity
  8
_U+30EC_U+30A4_U+30E4_U+30FC 1
 62
     7
420
 16777215
370
     9
100
AcDbVertex
100
AcDb2dVertex
 10
54.13156139676659
 20
-81.4105277574253
 30
0.0
  0
SEQEND
  5
81
330
7E
100
AcDbEntity
  8
_U+30EC_U+30A4_U+30E4_U+30FC 1
 62
     7
420
 16777215
370
     9
  0
POLYLINE
  5
82
330
1F
100
AcDbEntity
  8
_U+30EC_U+30A4_U+30E4_U+30FC 1
 62
     7
420
 16777215
370
     9
100
AcDb2dPolyline
 66
     1
 10
0.0
 20
0.0
 30
0.0
  0
VERTEX
  5
83
330
82
100
AcDbEntity
  8
_U+30EC_U+30A4_U+30E4_U+30FC 1
 62
     7
420
 16777215
370
     9
100
AcDbVertex
100
AcDb2dVertex
 10
69.13170740296988
 20
-83.87101164569891
 30
0.0
  0
VERTEX
  5
84
330
82
100
AcDbEntity
  8
_U+30EC_U+30A4_U+30E4_U+30FC 1
 62
     7
420
 16777215
370
     9
100
AcDbVertex
100
AcDb2dVertex
 10
69.13170740296988
 20
-81.4105277574253
 30
0.0
  0
SEQEND
  5
85
330
82
100
AcDbEntity
  8
_U+30EC_U+30A4_U+30E4_U+30FC 1
 62
     7
420
 16777215
370
     9
  0
POLYLINE
  5
86
330
1F
100
AcDbEntity
  8
_U+30EC_U+30A4_U+30E4_U+30FC 1
 62
     7
420
 16777215
370
     9
100
AcDb2dPolyline
 66
     1
 10
0.0
 20
0.0
 30
0.0
  0
VERTEX
  5
87
330
86
100
AcDbEntity
  8
_U+30EC_U+30A4_U+30E4_U+30FC 1
 62
     7
420
 16777215
370
     9
100
AcDbVertex
100
AcDb2dVertex
 10
73.13178396758609
 20
-92.71095247682233
 30
0.0
  0
VERTEX
  5
88
330
86
100
AcDbEntity
  8
_U+30EC_U+30A4_U+30E4_U+30FC 1
 62
     7
420
 16777215
370
     9
100
AcDbVertex
100
AcDb2dVertex
 10
73.13178396758609
 20
-87.21068831153072
 30
0.0
  0
SEQEND
  5
89
330
86
100
AcDbEntity
  8
_U+30EC_U+30A4_U+30E4_U+30FC 1
 62
     7
420
 16777215
370
     9
  0
POLYLINE
  5
8A
330
1F
100
AcDbEntity
  8
_U+30EC_U+30A4_U+30E4_U+30FC 1
 62
     7
420
 16777215
370
     9
100
AcDb2dPolyline
 66
     1
 10
0.0
 20
0.0
 30
0.0
  0
VERTEX
  5
8B
330
8A
100
AcDbEntity
  8
_U+30EC_U+30A4_U+30E4_U+30FC 1
 62
     7
420
 16777215
370
     9
100
AcDbVertex
100
AcDb2dVertex
 10
60.67174372991264
 20
-93.71107747657199
 30
0.0
  0
VERTEX
  5
8C
330
8A
100
AcDbEntity
  8
_U+30EC_U+30A4_U+30E4_U+30FC 1
 62
     7
420
 16777215
370
     9
100
AcDbVertex
100
AcDb2dVertex
 10
74.13226171983955
 20
-93.71107747657199
 30
0.0
  0
SEQEND
  5
8D
330
8A
100
AcDbEntity
  8
_U+30EC_U+30A4_U+30E4_U+30FC 1
 62
     7
420
 16777215
370
     9
  0
INSERT
  5
8F
330
1F
100
AcDbEntity
  8
_U+30EC_U+30A4_U+30E4_U+30FC 1
100
AcDbBlockReference
  2
block 2
 10
0.0
 20
0.0
 30
0.0
  0
INSERT
  5
A2
330
1F
100
AcDbEntity
  8
_U+30EC_U+30A4_U+30E4_U+30FC 1
100
AcDbBlockReference
  2
block 3
 10
0.0
 20
0.0
 30
0.0
  0
INSERT
  5
A8
330
1F
100
AcDbEntity
  8
_U+30EC_U+30A4_U+30E4_U+30FC 1
100
AcDbBlockReference
  2
block 4
 10
0.0
 20
0.0
 30
0.0
  0
INSERT
  5
C1
330
1F
100
AcDbEntity
  8
_U+30EC_U+30A4_U+30E4_U+30FC 1
100
AcDbBlockReference
  2
block 5
 10
0.0
 20
0.0
 30
0.0
  0
INSERT
  5
C9
330
1F
100
AcDbEntity
  8
_U+30EC_U+30A4_U+30E4_U+30FC 1
100
AcDbBlockReference
  2
block 6
 10
0.0
 20
0.0
 30
0.0
  0
ENDSEC
  0
SECTION
  2
OBJECTS
  0
DICTIONARY
  5
C
330
0
100
AcDbDictionary
281
     1
  3
ACAD_GROUP
350
D
  3
ACAD_LAYOUT
350
1A
  3
ACAD_MATERIAL
350
3B
  3
ACAD_MLEADERSTYLE
350
DA
  3
ACAD_MLINESTYLE
350
17
  3
ACAD_PLOTSETTINGS
350
19
  3
ACAD_PLOTSTYLENAME
350
E
  3
ACAD_TABLESTYLE
350
D9
  3
ACAD_VISUALSTYLE
350
2A
  0
SUN
  5
3F
330
29
100
AcDbSun
 90
        1
290
     0
 63
     7
421
 16777215
 40
1.0
291
     1
 91
  2455826
 92
 54000000
292
     0
 70
     2
 71
   256
280
     1
  0
DICTIONARY
  5
D
102
{ACAD_REACTORS
330
C
102
}
330
C
100
AcDbDictionary
281
     1
  0
DICTIONARY
  5
1A
102
{ACAD_REACTORS
330
C
102
}
330
C
100
AcDbDictionary
281
     1
  3
Layout1
350
1E
  3
Layout2
350
26
  3
Model
350
22
  0
DICTIONARY
  5
3B
102
{ACAD_REACTORS
330
C
102
}
330
C
100
AcDbDictionary
281
     1
  3
ByBlock
350
3D
  3
ByLayer
350
3C
  3
Global
350
3E
  0
DICTIONARY
  5
DA
102
{ACAD_REACTORS
330
C
102
}
330
C
100
AcDbDictionary
281
     1
  0
DICTIONARY
  5
17
102
{ACAD_REACTORS
330
C
102
}
330
C
100
AcDbDictionary
281
     1
  3
Standard
350
18
  0
DICTIONARY
  5
19
102
{ACAD_REACTORS
330
C
102
}
330
C
100
AcDbDictionary
281
     1
  0
ACDBDICTIONARYWDFLT
  5
E
102
{ACAD_REACTORS
330
C
102
}
330
C
100
AcDbDictionary
281
     1
  3
Normal
350
F
100
AcDbDictionaryWithDefault
340
F
  0
DICTIONARY
  5
D9
102
{ACAD_REACTORS
330
C
102
}
330
C
100
AcDbDictionary
281
     1
  0
DICTIONARY
  5
2A
102
{ACAD_REACTORS
330
C
102
}
330
C
100
AcDbDictionary
281
     1
  3
2dWireframe
350
2F
  3
3D Hidden
350
31
  3
3dWireframe
350
30
  3
Basic
350
32
  3
Brighten
350
36
  3
ColorChange
350
3A
  3
Conceptual
350
34
  3
Dim
350
35
  3
Facepattern
350
39
  3
Flat
350
2B
  3
FlatWithEdges
350
2C
  3
Gouraud
350
2D
  3
GouraudWithEdges
350
2E
  3
Linepattern
350
38
  3
Realistic
350
33
  3
Thicken
350
37
  0
LAYOUT
  5
1E
102
{ACAD_REACTORS
330
1A
102
}
330
1A
100
AcDbPlotSettings
  1

  2
none_device
  4

  6

 40
0.0
 41
0.0
 42
0.0
 43
0.0
 44
0.0
 45
0.0
 46
0.0
 47
0.0
 48
0.0
 49
0.0
140
0.0
141
0.0
142
1.0
143
1.0
 70
   688
 72
     0
 73
     0
 74
     5
  7

 75
    16
 76
     0
 77
     2
 78
   300
147
1.0
148
0.0
149
0.0
100
AcDbLayout
  1
Layout1
 70
     1
 71
     1
 10
0.0
 20
0.0
 11
12.0
 21
9.0
 12
0.0
 22
0.0
 32
0.0
 14
1.000000000000000E+20
 24
1.000000000000000E+20
 34
1.000000000000000E+20
 15
-1.000000000000000E+20
 25
-1.000000000000000E+20
 35
-1.000000000000000E+20
146
0.0
 13
0.0
 23
0.0
 33
0.0
 16
1.0
 26
0.0
 36
0.0
 17
0.0
 27
1.0
 37
0.0
 76
     0
330
1B
  0
LAYOUT
  5
26
102
{ACAD_REACTORS
330
1A
102
}
330
1A
100
AcDbPlotSettings
  1

  2
none_device
  4

  6

 40
0.0
 41
0.0
 42
0.0
 43
0.0
 44
0.0
 45
0.0
 46
0.0
 47
0.0
 48
0.0
 49
0.0
140
0.0
141
0.0
142
1.0
143
1.0
 70
   688
 72
     0
 73
     0
 74
     5
  7

 75
    16
 76
     0
 77
     2
 78
   300
147
1.0
148
0.0
149
0.0
100
AcDbLayout
  1
Layout2
 70
     1
 71
     2
 10
0.0
 20
0.0
 11
0.0
 21
0.0
 12
0.0
 22
0.0
 32
0.0
 14
0.0
 24
0.0
 34
0.0
 15
0.0
 25
0.0
 35
0.0
146
0.0
 13
0.0
 23
0.0
 33
0.0
 16
1.0
 26
0.0
 36
0.0
 17
0.0
 27
1.0
 37
0.0
 76
     0
330
23
  0
LAYOUT
  5
22
102
{ACAD_REACTORS
330
1A
102
}
330
1A
100
AcDbPlotSettings
  1

  2
none_device
  4

  6

 40
0.0
 41
0.0
 42
0.0
 43
0.0
 44
0.0
 45
0.0
 46
0.0
 47
0.0
 48
0.0
 49
0.0
140
0.0
141
0.0
142
1.0
143
1.0
 70
  1712
 72
     0
 73
     0
 74
     0
  7

 75
     0
 76
     0
 77
     2
 78
   300
147
1.0
148
0.0
149
0.0
100
AcDbLayout
  1
Model
 70
     1
 71
     0
 10
0.0
 20
0.0
 11
12.0
 21
9.0
 12
0.0
 22
0.0
 32
0.0
 14
1.000000000000000E+20
 24
1.000000000000000E+20
 34
1.000000000000000E+20
 15
-1.000000000000000E+20
 25
-1.000000000000000E+20
 35
-1.000000000000000E+20
146
0.0
 13
0.0
 23
0.0
 33
0.0
 16
1.0
 26
0.0
 36
0.0
 17
0.0
 27
1.0
 37
0.0
 76
     0
330
1F
331
29
  0
MATERIAL
  5
3D
102
{ACAD_REACTORS
330
3B
102
}
330
3B
100
AcDbMaterial
  1
ByBlock
 72
     1
 94
      127
  0
MATERIAL
  5
3C
102
{ACAD_REACTORS
330
3B
102
}
330
3B
100
AcDbMaterial
  1
ByLayer
 72
     1
 94
      127
  0
MATERIAL
  5
3E
102
{ACAD_REACTORS
330
3B
102
}
330
3B
100
AcDbMaterial
  1
Global
 72
     1
 94
      127
  0
MLINESTYLE
  5
18
102
{ACAD_REACTORS
330
17
102
}
330
17
100
AcDbMlineStyle
  2
Standard
 70
     0
  3

 62
   256
 51
90.0
 52
90.0
 71
     2
 49
0.5
 62
   256
  6
BYLAYER
 49
-0.5
 62
   256
  6
BYLAYER
  0
ACDBPLACEHOLDER
  5
F
102
{ACAD_REACTORS
330
E
102
}
330
E
  0
VISUALSTYLE
  5
2F
102
{ACAD_REACTORS
330
2A
102
}
330
2A
100
AcDbVisualStyle
  2
2dWireframe
 70
     4
177
     2
291
     0
 71
     0
176
     1
 72
     2
176
     1
 73
     0
176
     1
 90
        0
176
     1
 40
-0.6
176
     1
 41
-30.0
176
     1
 62
     5
 63
     7
421
 16777215
176
     1
 74
     1
176
     1
 91
        4
176
     1
 64
     7
176
     1
 65
   257
176
     1
 75
     1
176
     1
175
     1
176
     1
 42
1.0
176
     1
 92
        0
176
     1
 66
   257
176
     1
 43
1.0
176
     1
 76
     1
176
     1
 77
     6
176
     1
 78
     2
176
     1
 67
     7
176
     1
 79
     5
176
     1
170
     0
176
     1
171
     0
176
     1
290
     0
176
     1
 93
        1
176
     1
 44
0.0
176
     1
173
     0
176
     1
  0
VISUALSTYLE
  5
31
102
{ACAD_REACTORS
330
2A
102
}
330
2A
100
AcDbVisualStyle
  2
3D Hidden
 70
     6
177
     2
291
     0
 71
     1
176
     1
 72
     2
176
     1
 73
     2
176
     1
 90
        0
176
     1
 40
-0.6
176
     1
 41
-30.0
176
     1
 62
     5
 63
     7
421
 16777215
176
     1
 74
     2
176
     1
 91
        2
176
     1
 64
     7
176
     1
 65
   257
176
     1
 75
     2
176
     1
175
     1
176
     1
 42
40.0
176
     1
 92
        0
176
     1
 66
   257
176
     1
 43
1.0
176
     1
 76
     1
176
     1
 77
     6
176
     1
 78
     2
176
     1
 67
     7
176
     1
 79
     3
176
     1
170
     0
176
     1
171
     0
176
     1
290
     0
176
     1
 93
        1
176
     1
 44
0.0
176
     1
173
     0
176
     1
  0
VISUALSTYLE
  5
30
102
{ACAD_REACTORS
330
2A
102
}
330
2A
100
AcDbVisualStyle
  2
3dWireframe
 70
     5
177
     2
291
     0
 71
     0
176
     1
 72
     2
176
     1
 73
     0
176
     1
 90
        0
176
     1
 40
-0.6
176
     1
 41
-30.0
176
     1
 62
     5
 63
     7
421
 16777215
176
     1
 74
     1
176
     1
 91
        4
176
     1
 64
     7
176
     1
 65
   257
176
     1
 75
     1
176
     1
175
     1
176
     1
 42
1.0
176
     1
 92
        0
176
     1
 66
   257
176
     1
 43
1.0
176
     1
 76
     1
176
     1
 77
     6
176
     1
 78
     2
176
     1
 67
     7
176
     1
 79
     5
176
     1
170
     0
176
     1
171
     0
176
     1
290
     0
176
     1
 93
        1
176
     1
 44
0.0
176
     1
173
     0
176
     1
  0
VISUALSTYLE
  5
32
102
{ACAD_REACTORS
330
2A
102
}
330
2A
100
AcDbVisualStyle
  2
Basic
 70
     7
177
     2
291
     1
 71
     1
176
     1
 72
     0
176
     1
 73
     1
176
     1
 90
        0
176
     1
 40
-0.6
176
     1
 41
-30.0
176
     1
 62
     5
 63
     7
421
 16777215
176
     1
 74
     0
176
     1
 91
        4
176
     1
 64
     7
176
     1
 65
   257
176
     1
 75
     1
176
     1
175
     1
176
     1
 42
1.0
176
     1
 92
        8
176
     1
 66
     7
176
     1
 43
1.0
176
     1
 76
     1
176
     1
 77
     6
176
     1
 78
     2
176
     1
 67
     7
176
     1
 79
     5
176
     1
170
     0
176
     1
171
     0
176
     1
290
     0
176
     1
 93
        1
176
     1
 44
0.0
176
     1
173
     0
176
     1
  0
VISUALSTYLE
  5
36
102
{ACAD_REACTORS
330
2A
102
}
330
2A
100
AcDbVisualStyle
  2
Brighten
 70
    12
177
     2
291
     1
 71
     2
176
     1
 72
     2
176
     1
 73
     0
176
     1
 90
        0
176
     1
 40
-0.6
176
     1
 41
-30.0
176
     1
 62
     5
 63
     7
421
 16777215
176
     1
 74
     1
176
     1
 91
        4
176
     1
 64
     7
176
     1
 65
   257
176
     1
 75
     1
176
     1
175
     1
176
     1
 42
1.0
176
     1
 92
        8
176
     1
 66
     7
176
     1
 43
1.0
176
     1
 76
     1
176
     1
 77
     6
176
     1
 78
     2
176
     1
 67
     7
176
     1
 79
     5
176
     1
170
     0
176
     1
171
     0
176
     1
290
     0
176
     1
 93
        1
176
     1
 44
50.0
176
     1
173
     0
176
     1
  0
VISUALSTYLE
  5
3A
102
{ACAD_REACTORS
330
2A
102
}
330
2A
100
AcDbVisualStyle
  2
ColorChange
 70
    16
177
     2
291
     1
 71
     2
176
     1
 72
     2
176
     1
 73
     3
176
     1
 90
        0
176
     1
 40
-0.6
176
     1
 41
-30.0
176
     1
 62
     5
 63
     8
421
  8421504
176
     1
 74
     1
176
     1
 91
        4
176
     1
 64
     7
176
     1
 65
   257
176
     1
 75
     1
176
     1
175
     1
176
     1
 42
1.0
176
     1
 92
        8
176
     1
 66
     8
424
  8421504
176
     1
 43
1.0
176
     1
 76
     1
176
     1
 77
     6
176
     1
 78
     2
176
     1
 67
     7
176
     1
 79
     5
176
     1
170
     0
176
     1
171
     0
176
     1
290
     0
176
     1
 93
        1
176
     1
 44
0.0
176
     1
173
     0
176
     1
  0
VISUALSTYLE
  5
34
102
{ACAD_REACTORS
330
2A
102
}
330
2A
100
AcDbVisualStyle
  2
Conceptual
 70
     9
177
     2
291
     0
 71
     3
176
     1
 72
     2
176
     1
 73
     0
176
     1
 90
        0
176
     1
 40
-0.6
176
     1
 41
-30.0
176
     1
 62
     5
 63
     7
421
 16777215
176
     1
 74
     2
176
     1
 91
        2
176
     1
 64
     7
176
     1
 65
   257
176
     1
 75
     1
176
     1
175
     1
176
     1
 42
40.0
176
     1
 92
        8
176
     1
 66
     7
176
     1
 43
1.0
176
     1
 76
     1
176
     1
 77
     6
176
     1
 78
     2
176
     1
 67
     7
176
     1
 79
     3
176
     1
170
     0
176
     1
171
     0
176
     1
290
     0
176
     1
 93
        1
176
     1
 44
0.0
176
     1
173
     0
176
     1
  0
VISUALSTYLE
  5
35
102
{ACAD_REACTORS
330
2A
102
}
330
2A
100
AcDbVisualStyle
  2
Dim
 70
    11
177
     2
291
     1
 71
     2
176
     1
 72
     2
176
     1
 73
     0
176
     1
 90
        0
176
     1
 40
-0.6
176
     1
 41
-30.0
176
     1
 62
     5
 63
     7
421
 16777215
176
     1
 74
     1
176
     1
 91
        4
176
     1
 64
     7
176
     1
 65
   257
176
     1
 75
     1
176
     1
175
     1
176
     1
 42
1.0
176
     1
 92
        8
176
     1
 66
     7
176
     1
 43
1.0
176
     1
 76
     1
176
     1
 77
     6
176
     1
 78
     2
176
     1
 67
     7
176
     1
 79
     5
176
     1
170
     0
176
     1
171
     0
176
     1
290
     0
176
     1
 93
        1
176
     1
 44
-50.0
176
     1
173
     0
176
     1
  0
VISUALSTYLE
  5
39
102
{ACAD_REACTORS
330
2A
102
}
330
2A
100
AcDbVisualStyle
  2
Facepattern
 70
    15
177
     2
291
     1
 71
     2
176
     1
 72
     2
176
     1
 73
     0
176
     1
 90
        0
176
     1
 40
-0.6
176
     1
 41
-30.0
176
     1
 62
     5
 63
     7
421
 16777215
176
     1
 74
     1
176
     1
 91
        4
176
     1
 64
     7
176
     1
 65
   257
176
     1
 75
     1
176
     1
175
     1
176
     1
 42
1.0
176
     1
 92
        8
176
     1
 66
     7
176
     1
 43
1.0
176
     1
 76
     1
176
     1
 77
     6
176
     1
 78
     2
176
     1
 67
     7
176
     1
 79
     5
176
     1
170
     0
176
     1
171
     0
176
     1
290
     0
176
     1
 93
        1
176
     1
 44
0.0
176
     1
173
     0
176
     1
  0
VISUALSTYLE
  5
2B
102
{ACAD_REACTORS
330
2A
102
}
330
2A
100
AcDbVisualStyle
  2
Flat
 70
     0
177
     2
291
     1
 71
     2
176
     1
 72
     1
176
     1
 73
     1
176
     1
 90
        2
176
     1
 40
-0.6
176
     1
 41
30.0
176
     1
 62
     5
 63
     7
421
 16777215
176
     1
 74
     0
176
     1
 91
        4
176
     1
 64
     7
176
     1
 65
   257
176
     1
 75
     1
176
     1
175
     1
176
     1
 42
1.0
176
     1
 92
        8
176
     1
 66
     7
176
     1
 43
1.0
176
     1
 76
     1
176
     1
 77
     6
176
     1
 78
     2
176
     1
 67
     7
176
     1
 79
     5
176
     1
170
     0
176
     1
171
     0
176
     1
290
     0
176
     1
 93
       13
176
     1
 44
0.0
176
     1
173
     0
176
     1
  0
VISUALSTYLE
  5
2C
102
{ACAD_REACTORS
330
2A
102
}
330
2A
100
AcDbVisualStyle
  2
FlatWithEdges
 70
     1
177
     2
291
     1
 71
     2
176
     1
 72
     1
176
     1
 73
     1
176
     1
 90
        2
176
     1
 40
-0.6
176
     1
 41
30.0
176
     1
 62
     5
 63
     7
421
 16777215
176
     1
 74
     1
176
     1
 91
        4
176
     1
 64
     7
176
     1
 65
   257
176
     1
 75
     1
176
     1
175
     1
176
     1
 42
1.0
176
     1
 92
        0
176
     1
 66
   257
176
     1
 43
1.0
176
     1
 76
     1
176
     1
 77
     6
176
     1
 78
     2
176
     1
 67
     7
176
     1
 79
     5
176
     1
170
     0
176
     1
171
     0
176
     1
290
     0
176
     1
 93
       13
176
     1
 44
0.0
176
     1
173
     0
176
     1
  0
VISUALSTYLE
  5
2D
102
{ACAD_REACTORS
330
2A
102
}
330
2A
100
AcDbVisualStyle
  2
Gouraud
 70
     2
177
     2
291
     1
 71
     2
176
     1
 72
     2
176
     1
 73
     1
176
     1
 90
        2
176
     1
 40
-0.6
176
     1
 41
30.0
176
     1
 62
     5
 63
     7
421
 16777215
176
     1
 74
     0
176
     1
 91
        4
176
     1
 64
     7
176
     1
 65
   257
176
     1
 75
     1
176
     1
175
     1
176
     1
 42
1.0
176
     1
 92
        0
176
     1
 66
     7
176
     1
 43
1.0
176
     1
 76
     1
176
     1
 77
     6
176
     1
 78
     2
176
     1
 67
     7
176
     1
 79
     5
176
     1
170
     0
176
     1
171
     0
176
     1
290
     0
176
     1
 93
       13
176
     1
 44
0.0
176
     1
173
     0
176
     1
  0
VISUALSTYLE
  5
2E
102
{ACAD_REACTORS
330
2A
102
}
330
2A
100
AcDbVisualStyle
  2
GouraudWithEdges
 70
     3
177
     2
291
     1
 71
     2
176
     1
 72
     2
176
     1
 73
     1
176
     1
 90
        2
176
     1
 40
-0.6
176
     1
 41
30.0
176
     1
 62
     5
 63
     7
421
 16777215
176
     1
 74
     1
176
     1
 91
        4
176
     1
 64
     7
176
     1
 65
   257
176
     1
 75
     1
176
     1
175
     1
176
     1
 42
1.0
176
     1
 92
        0
176
     1
 66
   257
176
     1
 43
1.0
176
     1
 76
     1
176
     1
 77
     6
176
     1
 78
     2
176
     1
 67
     7
176
     1
 79
     5
176
     1
170
     0
176
     1
171
     0
176
     1
290
     0
176
     1
 93
       13
176
     1
 44
0.0
176
     1
173
     0
176
     1
  0
VISUALSTYLE
  5
38
102
{ACAD_REACTORS
330
2A
102
}
330
2A
100
AcDbVisualStyle
  2
Linepattern
 70
    14
177
     2
291
     1
 71
     2
176
     1
 72
     2
176
     1
 73
     0
176
     1
 90
        0
176
     1
 40
-0.6
176
     1
 41
-30.0
176
     1
 62
     5
 63
     7
421
 16777215
176
     1
 74
     1
176
     1
 91
        4
176
     1
 64
     7
176
     1
 65
   257
176
     1
 75
     7
176
     1
175
     7
176
     1
 42
1.0
176
     1
 92
        8
176
     1
 66
     7
176
     1
 43
1.0
176
     1
 76
     1
176
     1
 77
     6
176
     1
 78
     2
176
     1
 67
     7
176
     1
 79
     5
176
     1
170
     0
176
     1
171
     0
176
     1
290
     0
176
     1
 93
        1
176
     1
 44
0.0
176
     1
173
     0
176
     1
  0
VISUALSTYLE
  5
33
102
{ACAD_REACTORS
330
2A
102
}
330
2A
100
AcDbVisualStyle
  2
Realistic
 70
     8
177
     2
291
     0
 71
     2
176
     1
 72
     2
176
     1
 73
     0
176
     1
 90
        0
176
     1
 40
-0.6
176
     1
 41
-30.0
176
     1
 62
     5
 63
     7
421
 16777215
176
     1
 74
     1
176
     1
 91
        0
176
     1
 64
     7
176
     1
 65
   257
176
     1
 75
     1
176
     1
175
     1
176
     1
 42
1.0
176
     1
 92
        8
176
     1
 66
     8
424
  7895160
176
     1
 43
1.0
176
     1
 76
     1
176
     1
 77
     6
176
     1
 78
     2
176
     1
 67
     7
176
     1
 79
     5
176
     1
170
     0
176
     1
171
     0
176
     1
290
     0
176
     1
 93
       13
176
     1
 44
0.0
176
     1
173
     0
176
     1
  0
VISUALSTYLE
  5
37
102
{ACAD_REACTORS
330
2A
102
}
330
2A
100
AcDbVisualStyle
  2
Thicken
 70
    13
177
     2
291
     1
 71
     2
176
     1
 72
     2
176
     1
 73
     0
176
     1
 90
        0
176
     1
 40
-0.6
176
     1
 41
-30.0
176
     1
 62
     5
 63
     7
421
 16777215
176
     1
 74
     1
176
     1
 91
        4
176
     1
 64
     7
176
     1
 65
   257
176
     1
 75
     1
176
     1
175
     1
176
     1
 42
1.0
176
     1
 92
       12
176
     1
 66
     7
176
     1
 43
1.0
176
     1
 76
     1
176
     1
 77
     6
176
     1
 78
     2
176
     1
 67
     7
176
     1
 79
     5
176
     1
170
     0
176
     1
171
     0
176
     1
290
     0
176
     1
 93
        1
176
     1
 44
0.0
176
     1
173
     0
176
     1
  0
ENDSEC
  0
EOF
