  0
SECTION
  2
HEADER
  9
$ACADVER
  1
AC1024
  9
$ACADMAINTVER
 70
     6
  9
$DWGCODEPAGE
  3
UNDEFINED
  9
$INSBASE
 10
0.0
 20
0.0
 30
0.0
  9
$EXTMIN
 10
1.000000000000000E+20
 20
1.000000000000000E+20
 30
1.000000000000000E+20
  9
$EXTMAX
 10
-1.000000000000000E+20
 20
-1.000000000000000E+20
 30
-1.000000000000000E+20
  9
$LIMMIN
 10
0.0
 20
0.0
  9
$LIMMAX
 10
12.0
 20
9.0
  9
$ORTHOMODE
 70
     0
  9
$REGENMODE
 70
     1
  9
$FILLMODE
 70
     1
  9
$QTEXTMODE
 70
     0
  9
$MIRRTEXT
 70
     1
  9
$LTSCALE
 40
1.0
  9
$ATTMODE
 70
     1
  9
$TEXTSIZE
 40
0.2
  9
$TRACEWID
 40
0.05
  9
$TEXTSTYLE
  7
Standard
  9
$CLAYER
  8
0
  9
$CELTYPE
  6
ByLayer
  9
$CECOLOR
 62
   256
  9
$CELTSCALE
 40
1.0
  9
$DISPSILH
 70
     0
  9
$DIMSCALE
 40
1.0
  9
$DIMASZ
 40
0.18
  9
$DIMEXO
 40
0.0625
  9
$DIMDLI
 40
0.38
  9
$DIMRND
 40
0.0
  9
$DIMDLE
 40
0.0
  9
$DIMEXE
 40
0.18
  9
$DIMTP
 40
0.0
  9
$DIMTM
 40
0.0
  9
$DIMTXT
 40
0.18
  9
$DIMCEN
 40
0.09
  9
$DIMTSZ
 40
0.0
  9
$DIMTOL
 70
     0
  9
$DIMLIM
 70
     0
  9
$DIMTIH
 70
     1
  9
$DIMTOH
 70
     1
  9
$DIMSE1
 70
     0
  9
$DIMSE2
 70
     0
  9
$DIMTAD
 70
     0
  9
$DIMZIN
 70
     0
  9
$DIMBLK
  1

  9
$DIMASO
 70
     1
  9
$DIMSHO
 70
     1
  9
$DIMPOST
  1

  9
$DIMAPOST
  1

  9
$DIMALT
 70
     0
  9
$DIMALTD
 70
     2
  9
$DIMALTF
 40
25.4
  9
$DIMLFAC
 40
1.0
  9
$DIMTOFL
 70
     0
  9
$DIMTVP
 40
0.0
  9
$DIMTIX
 70
     0
  9
$DIMSOXD
 70
     0
  9
$DIMSAH
 70
     0
  9
$DIMBLK1
  1

  9
$DIMBLK2
  1

  9
$DIMSTYLE
  2
Standard
  9
$DIMCLRD
 70
     0
  9
$DIMCLRE
 70
     0
  9
$DIMCLRT
 70
     0
  9
$DIMTFAC
 40
1.0
  9
$DIMGAP
 40
0.09
  9
$DIMJUST
 70
     0
  9
$DIMSD1
 70
     0
  9
$DIMSD2
 70
     0
  9
$DIMTOLJ
 70
     1
  9
$DIMTZIN
 70
     0
  9
$DIMALTZ
 70
     0
  9
$DIMALTTZ
 70
     0
  9
$DIMUPT
 70
     0
  9
$DIMDEC
 70
     4
  9
$DIMTDEC
 70
     4
  9
$DIMALTU
 70
     2
  9
$DIMALTTD
 70
     2
  9
$DIMTXSTY
  7
Standard
  9
$DIMAUNIT
 70
     0
  9
$DIMADEC
 70
     0
  9
$DIMALTRND
 40
0.0
  9
$DIMAZIN
 70
     0
  9
$DIMDSEP
 70
    46
  9
$DIMATFIT
 70
     3
  9
$DIMFRAC
 70
     0
  9
$DIMLDRBLK
  1

  9
$DIMLUNIT
 70
     2
  9
$DIMLWD
 70
    -2
  9
$DIMLWE
 70
    -2
  9
$DIMTMOVE
 70
     0
  9
$DIMFXL
 40
1.0
  9
$DIMFXLON
 70
     0
  9
$DIMJOGANG
 40
0.7853981633974483
  9
$DIMTFILL
 70
     0
  9
$DIMTFILLCLR
 70
     0
  9
$DIMARCSYM
 70
     0
  9
$DIMLTYPE
  6

  9
$DIMLTEX1
  6

  9
$DIMLTEX2
  6

  9
$DIMTXTDIRECTION
 70
     0
  9
$LUNITS
 70
     2
  9
$LUPREC
 70
     4
  9
$SKETCHINC
 40
0.1
  9
$FILLETRAD
 40
0.5
  9
$AUNITS
 70
     0
  9
$AUPREC
 70
     0
  9
$MENU
  1
.
  9
$ELEVATION
 40
0.0
  9
$PELEVATION
 40
0.0
  9
$THICKNESS
 40
0.0
  9
$LIMCHECK
 70
     0
  9
$CHAMFERA
 40
0.5
  9
$CHAMFERB
 40
0.5
  9
$CHAMFERC
 40
1.0
  9
$CHAMFERD
 40
0.0
  9
$SKPOLY
 70
     0
  9
$TDCREATE
 40
2457917.588842593
  9
$TDUCREATE
 40
2457917.213842593
  9
$TDUPDATE
 40
2457917.588842593
  9
$TDUUPDATE
 40
2457917.213842593
  9
$TDINDWG
 40
0.0000000116
  9
$TDUSRTIMER
 40
0.0000000116
  9
$USRTIMER
 70
     1
  9
$ANGBASE
 50
0.0
  9
$ANGDIR
 70
     0
  9
$PDMODE
 70
     0
  9
$PDSIZE
 40
0.0
  9
$PLINEWID
 40
0.0
  9
$SPLFRAME
 70
     0
  9
$SPLINETYPE
 70
     6
  9
$SPLINESEGS
 70
     8
  9
$HANDSEED
  5
C8
  9
$SURFTAB1
 70
     6
  9
$SURFTAB2
 70
     6
  9
$SURFTYPE
 70
     6
  9
$SURFU
 70
     6
  9
$SURFV
 70
     6
  9
$UCSBASE
  2

  9
$UCSNAME
  2

  9
$UCSORG
 10
0.0
 20
0.0
 30
0.0
  9
$UCSXDIR
 10
1.0
 20
0.0
 30
0.0
  9
$UCSYDIR
 10
0.0
 20
1.0
 30
0.0
  9
$UCSORTHOREF
  2

  9
$UCSORTHOVIEW
 70
     0
  9
$UCSORGTOP
 10
0.0
 20
0.0
 30
0.0
  9
$UCSORGBOTTOM
 10
0.0
 20
0.0
 30
0.0
  9
$UCSORGLEFT
 10
0.0
 20
0.0
 30
0.0
  9
$UCSORGRIGHT
 10
0.0
 20
0.0
 30
0.0
  9
$UCSORGFRONT
 10
0.0
 20
0.0
 30
0.0
  9
$UCSORGBACK
 10
0.0
 20
0.0
 30
0.0
  9
$PUCSBASE
  2

  9
$PUCSNAME
  2

  9
$PUCSORG
 10
0.0
 20
0.0
 30
0.0
  9
$PUCSXDIR
 10
1.0
 20
0.0
 30
0.0
  9
$PUCSYDIR
 10
0.0
 20
1.0
 30
0.0
  9
$PUCSORTHOREF
  2

  9
$PUCSORTHOVIEW
 70
     0
  9
$PUCSORGTOP
 10
0.0
 20
0.0
 30
0.0
  9
$PUCSORGBOTTOM
 10
0.0
 20
0.0
 30
0.0
  9
$PUCSORGLEFT
 10
0.0
 20
0.0
 30
0.0
  9
$PUCSORGRIGHT
 10
0.0
 20
0.0
 30
0.0
  9
$PUCSORGFRONT
 10
0.0
 20
0.0
 30
0.0
  9
$PUCSORGBACK
 10
0.0
 20
0.0
 30
0.0
  9
$USERI1
 70
     0
  9
$USERI2
 70
     0
  9
$USERI3
 70
     0
  9
$USERI4
 70
     0
  9
$USERI5
 70
     0
  9
$USERR1
 40
0.0
  9
$USERR2
 40
0.0
  9
$USERR3
 40
0.0
  9
$USERR4
 40
0.0
  9
$USERR5
 40
0.0
  9
$WORLDVIEW
 70
     1
  9
$SHADEDGE
 70
     3
  9
$SHADEDIF
 70
    70
  9
$TILEMODE
 70
     1
  9
$MAXACTVP
 70
    64
  9
$PINSBASE
 10
0.0
 20
0.0
 30
0.0
  9
$PLIMCHECK
 70
     0
  9
$PEXTMIN
 10
1.000000000000000E+20
 20
1.000000000000000E+20
 30
1.000000000000000E+20
  9
$PEXTMAX
 10
-1.000000000000000E+20
 20
-1.000000000000000E+20
 30
-1.000000000000000E+20
  9
$PLIMMIN
 10
0.0
 20
0.0
  9
$PLIMMAX
 10
12.0
 20
9.0
  9
$UNITMODE
 70
     0
  9
$VISRETAIN
 70
     1
  9
$PLINEGEN
 70
     0
  9
$PSLTSCALE
 70
     1
  9
$TREEDEPTH
 70
  3020
  9
$CMLSTYLE
  2
Standard
  9
$CMLJUST
 70
     0
  9
$CMLSCALE
 40
1.0
  9
$PROXYGRAPHICS
 70
     1
  9
$MEASUREMENT
 70
     0
  9
$CELWEIGHT
370
    -1
  9
$ENDCAPS
280
     0
  9
$JOINSTYLE
280
     0
  9
$LWDISPLAY
290
     1
  9
$INSUNITS
 70
     1
  9
$HYPERLINKBASE
  1

  9
$STYLESHEET
  1

  9
$XEDIT
290
     1
  9
$CEPSNTYPE
380
     0
  9
$PSTYLEMODE
290
     1
  9
$FINGERPRINTGUID
  2
{688E955D-0866-0C27-9225-6F61056D700B}
  9
$VERSIONGUID
  2
{FAEB1C32-E019-11D5-929B-00C0DF256EC4}
  9
$EXTNAMES
290
     1
  9
$PSVPSCALE
 40
0.0
  9
$OLESTARTUP
290
     0
  9
$SORTENTS
280
   127
  9
$INDEXCTL
280
     0
  9
$HIDETEXT
280
     1
  9
$XCLIPFRAME
280
     2
  9
$HALOGAP
280
     0
  9
$OBSCOLOR
 70
   257
  9
$OBSLTYPE
280
     0
  9
$INTERSECTIONDISPLAY
280
     0
  9
$INTERSECTIONCOLOR
 70
   257
  9
$DIMASSOC
280
     2
  9
$PROJECTNAME
  1

  9
$CAMERADISPLAY
290
     0
  9
$LENSLENGTH
 40
50.0
  9
$CAMERAHEIGHT
 40
0.0
  9
$STEPSPERSEC
 40
2.0
  9
$STEPSIZE
 40
6.0
  9
$3DDWFPREC
 40
2.0
  9
$PSOLWIDTH
 40
0.25
  9
$PSOLHEIGHT
 40
4.0
  9
$LOFTANG1
 40
1.570796326794897
  9
$LOFTANG2
 40
1.570796326794897
  9
$LOFTMAG1
 40
0.0
  9
$LOFTMAG2
 40
0.0
  9
$LOFTPARAM
 70
     7
  9
$LOFTNORMALS
280
     1
  9
$LATITUDE
 40
37.795
  9
$LONGITUDE
 40
-122.394
  9
$NORTHDIRECTION
 40
0.0
  9
$TIMEZONE
 70
 -8000
  9
$LIGHTGLYPHDISPLAY
280
     1
  9
$TILEMODELIGHTSYNCH
280
     1
  9
$CMATERIAL
347
3C
  9
$SOLIDHIST
280
     1
  9
$SHOWHIST
280
     1
  9
$DWFFRAME
280
     2
  9
$DGNFRAME
280
     2
  9
$REALWORLDSCALE
290
     1
  9
$INTERFERECOLOR
 62
   256
  9
$CSHADOW
280
     0
  9
$SHADOWPLANELOCATION
 40
0.0
  0
ENDSEC
  0
SECTION
  2
CLASSES
  0
CLASS
  1
ACDBDICTIONARYWDFLT
  2
AcDbDictionaryWithDefault
  3
ObjectDBX Classes
 90
        0
 91
        4
280
     0
281
     0
  0
CLASS
  1
VISUALSTYLE
  2
AcDbVisualStyle
  3
ObjectDBX Classes
 90
     4095
 91
        4
280
     0
281
     0
  0
CLASS
  1
MATERIAL
  2
AcDbMaterial
  3
ObjectDBX Classes
 90
     1153
 91
        4
280
     0
281
     0
  0
CLASS
  1
SUN
  2
AcDbSun
  3
SCENEOE
 90
     1024
 91
        4
280
     0
281
     0
  0
ENDSEC
  0
SECTION
  2
TABLES
  0
TABLE
  2
VPORT
  5
8
330
0
100
AcDbSymbolTable
 70
     1
  0
VPORT
  5
29
330
8
100
AcDbSymbolTableRecord
100
AcDbViewportTableRecord
  2
*Active
 70
     0
 10
0.0
 20
0.0
 11
1.0
 21
1.0
 12
0.0
 22
0.0
 13
0.0
 23
0.0
 14
0.5
 24
0.5
 15
0.5
 25
0.5
 16
0.0
 26
0.0
 36
1.0
 17
63.499999984125
 27
-89.00059456108309
 37
0.0
 40
178.0011891221662
 41
0.7134783795241226
 42
50.0
 43
0.0
 44
0.0
 50
0.0
 51
0.0
 71
     0
 72
   100
 73
     1
 74
     3
 75
     0
 76
     0
 77
     0
 78
     0
281
     0
 65
     1
110
0.0
120
0.0
130
0.0
111
1.0
121
0.0
131
0.0
112
0.0
122
1.0
132
0.0
 79
     0
146
0.0
 60
     3
 61
     5
292
     1
282
     1
141
0.0
142
0.0
 63
   250
361
3F
  0
ENDTAB
  0
TABLE
  2
LTYPE
  5
5
330
0
100
AcDbSymbolTable
 70
     1
  0
LTYPE
  5
14
330
5
100
AcDbSymbolTableRecord
100
AcDbLinetypeTableRecord
  2
ByBlock
 70
     0
  3

 72
    65
 73
     0
 40
0.0
  0
LTYPE
  5
15
330
5
100
AcDbSymbolTableRecord
100
AcDbLinetypeTableRecord
  2
ByLayer
 70
     0
  3

 72
    65
 73
     0
 40
0.0
  0
LTYPE
  5
16
330
5
100
AcDbSymbolTableRecord
100
AcDbLinetypeTableRecord
  2
Continuous
 70
     0
  3
Solid line
 72
    65
 73
     0
 40
0.0
  0
ENDTAB
  0
TABLE
  2
LAYER
  5
2
330
0
100
AcDbSymbolTable
 70
     2
  0
LAYER
  5
10
330
2
100
AcDbSymbolTableRecord
100
AcDbLayerTableRecord
  2
0
 70
     0
 62
     7
  6
Continuous
370
    -3
390
F
347
3E
  0
LAYER
  5
40
330
2
100
AcDbSymbolTableRecord
100
AcDbLayerTableRecord
  2
_U+30EC_U+30A4_U+30E4_U+30FC 1
 70
     0
 62
     7
  6
Continuous
370
    -3
390
F
347
3E
  0
ENDTAB
  0
TABLE
  2
STYLE
  5
3
330
0
100
AcDbSymbolTable
 70
     1
  0
STYLE
  5
11
330
3
100
AcDbSymbolTableRecord
100
AcDbTextStyleTableRecord
  2
Standard
 70
     0
 40
0.0
 41
1.0
 50
0.0
 71
     0
 42
0.2
  3
txt
  4

  0
ENDTAB
  0
TABLE
  2
VIEW
  5
6
330
0
100
AcDbSymbolTable
 70
     0
  0
ENDTAB
  0
TABLE
  2
UCS
  5
7
330
0
100
AcDbSymbolTable
 70
     0
  0
ENDTAB
  0
TABLE
  2
APPID
  5
9
330
0
100
AcDbSymbolTable
 70
     1
  0
APPID
  5
12
330
9
100
AcDbSymbolTableRecord
100
AcDbRegAppTableRecord
  2
ACAD
 70
     0
  0
ENDTAB
  0
TABLE
  2
DIMSTYLE
  5
A
330
0
100
AcDbSymbolTable
 70
     1
100
AcDbDimStyleTable
  0
DIMSTYLE
105
27
330
A
100
AcDbSymbolTableRecord
100
AcDbDimStyleTableRecord
  2
Standard
 70
     0
178
     0
340
11
  0
ENDTAB
  0
TABLE
  2
BLOCK_RECORD
  5
1
330
0
100
AcDbSymbolTable
 70
     7
  0
BLOCK_RECORD
  5
1F
330
1
100
AcDbSymbolTableRecord
100
AcDbBlockTableRecord
  2
*Model_Space
340
22
 70
     0
280
     1
281
     0
  0
BLOCK_RECORD
  5
1B
330
1
100
AcDbSymbolTableRecord
100
AcDbBlockTableRecord
  2
*Paper_Space
340
1E
 70
     0
280
     1
281
     0
  0
BLOCK_RECORD
  5
23
330
1
100
AcDbSymbolTableRecord
100
AcDbBlockTableRecord
  2
*Paper_Space0
340
26
 70
     0
280
     1
281
     0
  0
BLOCK_RECORD
  5
41
330
1
100
AcDbSymbolTableRecord
100
AcDbBlockTableRecord
  2
block 2
340
0
102
{BLKREFS
331
42
102
}
 70
     0
280
     1
281
     0
  0
BLOCK_RECORD
  5
6C
330
1
100
AcDbSymbolTableRecord
100
AcDbBlockTableRecord
  2
block 3
340
0
102
{BLKREFS
331
6D
102
}
 70
     0
280
     1
281
     0
  0
BLOCK_RECORD
  5
87
330
1
100
AcDbSymbolTableRecord
100
AcDbBlockTableRecord
  2
block 4
340
0
102
{BLKREFS
331
88
102
}
 70
     0
280
     1
281
     0
  0
BLOCK_RECORD
  5
99
330
1
100
AcDbSymbolTableRecord
100
AcDbBlockTableRecord
  2
block 5
340
0
102
{BLKREFS
331
9A
102
}
 70
     0
280
     1
281
     0
  0
BLOCK_RECORD
  5
AE
330
1
100
AcDbSymbolTableRecord
100
AcDbBlockTableRecord
  2
block 6
340
0
102
{BLKREFS
331
AF
102
}
 70
     0
280
     1
281
     0
  0
BLOCK_RECORD
  5
BE
330
1
100
AcDbSymbolTableRecord
100
AcDbBlockTableRecord
  2
block 7
340
0
102
{BLKREFS
331
BF
102
}
 70
     0
280
     1
281
     0
  0
ENDTAB
  0
ENDSEC
  0
SECTION
  2
BLOCKS
  0
BLOCK
  5
20
330
1F
100
AcDbEntity
  8
0
100
AcDbBlockBegin
  2
*Model_Space
 70
     0
 10
0.0
 20
0.0
 30
0.0
  3
*Model_Space
  1

  0
ENDBLK
  5
21
330
1F
100
AcDbEntity
  8
0
100
AcDbBlockEnd
  0
BLOCK
  5
1C
330
1B
100
AcDbEntity
 67
     1
  8
0
100
AcDbBlockBegin
  2
*Paper_Space
 70
     0
 10
0.0
 20
0.0
 30
0.0
  3
*Paper_Space
  1

  0
ENDBLK
  5
1D
330
1B
100
AcDbEntity
 67
     1
  8
0
100
AcDbBlockEnd
  0
BLOCK
  5
24
330
23
100
AcDbEntity
  8
0
100
AcDbBlockBegin
  2
*Paper_Space0
 70
     0
 10
0.0
 20
0.0
 30
0.0
  3
*Paper_Space0
  1

  0
ENDBLK
  5
25
330
23
100
AcDbEntity
  8
0
100
AcDbBlockEnd
  0
BLOCK
  5
43
330
41
100
AcDbEntity
  8
0
100
AcDbBlockBegin
  2
block 2
 70
     0
 10
0.0
 20
0.0
 30
0.0
  3
block 2
  1

  0
POLYLINE
  5
45
330
41
100
AcDbEntity
  8
_U+30EC_U+30A4_U+30E4_U+30FC 1
 62
     7
420
 16777215
370
    25
100
AcDb2dPolyline
 66
     1
 10
0.0
 20
0.0
 30
0.0
  0
VERTEX
  5
46
330
45
100
AcDbEntity
  8
_U+30EC_U+30A4_U+30E4_U+30FC 1
 62
     7
420
 16777215
370
    25
100
AcDbVertex
100
AcDb2dVertex
 10
49.57561290188741
 20
-77.4302419250868
 30
0.0
  0
VERTEX
  5
47
330
45
100
AcDbEntity
  8
_U+30EC_U+30A4_U+30E4_U+30FC 1
 62
     7
420
 16777215
370
    25
100
AcDbVertex
100
AcDb2dVertex
 10
72.57577092621561
 20
-77.4302419250868
 30
0.0
  0
VERTEX
  5
48
330
45
100
AcDbEntity
  8
_U+30EC_U+30A4_U+30E4_U+30FC 1
 62
     7
420
 16777215
370
    25
100
AcDbVertex
100
AcDb2dVertex
 10
72.57577092621561
 20
-78.23020081377575
 30
0.0
  0
VERTEX
  5
49
330
45
100
AcDbEntity
  8
_U+30EC_U+30A4_U+30E4_U+30FC 1
 62
     7
420
 16777215
370
    25
100
AcDbVertex
100
AcDb2dVertex
 10
50.37592454813642
 20
-78.23020081377575
 30
0.0
  0
VERTEX
  5
4A
330
45
100
AcDbEntity
  8
_U+30EC_U+30A4_U+30E4_U+30FC 1
 62
     7
420
 16777215
370
    25
100
AcDbVertex
100
AcDb2dVertex
 10
50.37592454813642
 20
-103.4300346963647
 30
0.0
  0
VERTEX
  5
4B
330
45
100
AcDbEntity
  8
_U+30EC_U+30A4_U+30E4_U+30FC 1
 62
     7
420
 16777215
370
    25
100
AcDbVertex
100
AcDb2dVertex
 10
58.77573961161707
 20
-103.4300346963647
 30
0.0
  0
VERTEX
  5
4C
330
45
100
AcDbEntity
  8
_U+30EC_U+30A4_U+30E4_U+30FC 1
 62
     7
420
 16777215
370
    25
100
AcDbVertex
100
AcDb2dVertex
 10
58.77573961161707
 20
-102.0299655300483
 30
0.0
  0
VERTEX
  5
4D
330
45
100
AcDbEntity
  8
_U+30EC_U+30A4_U+30E4_U+30FC 1
 62
     7
420
 16777215
370
    25
100
AcDbVertex
100
AcDb2dVertex
 10
55.57558663770422
 20
-102.0299655300483
 30
0.0
  0
VERTEX
  5
4E
330
45
100
AcDbEntity
  8
_U+30EC_U+30A4_U+30E4_U+30FC 1
 62
     7
420
 16777215
370
    25
100
AcDbVertex
100
AcDb2dVertex
 10
55.57558663770422
 20
-101.230006641359
 30
0.0
  0
VERTEX
  5
4F
330
45
100
AcDbEntity
  8
_U+30EC_U+30A4_U+30E4_U+30FC 1
 62
     7
420
 16777215
370
    25
100
AcDbVertex
100
AcDb2dVertex
 10
59.57569998510615
 20
-101.230006641359
 30
0.0
  0
VERTEX
  5
50
330
45
100
AcDbEntity
  8
_U+30EC_U+30A4_U+30E4_U+30FC 1
 62
     7
420
 16777215
370
    25
100
AcDbVertex
100
AcDb2dVertex
 10
59.57569998510615
 20
-104.2299935850533
 30
0.0
  0
VERTEX
  5
51
330
45
100
AcDbEntity
  8
_U+30EC_U+30A4_U+30E4_U+30FC 1
 62
     7
420
 16777215
370
    25
100
AcDbVertex
100
AcDb2dVertex
 10
49.57561290188741
 20
-104.2299935850533
 30
0.0
  0
VERTEX
  5
52
330
45
100
AcDbEntity
  8
_U+30EC_U+30A4_U+30E4_U+30FC 1
 62
     7
420
 16777215
370
    25
100
AcDbVertex
100
AcDb2dVertex
 10
49.57561290188741
 20
-77.4302419250868
 30
0.0
  0
SEQEND
  5
53
330
45
100
AcDbEntity
  8
_U+30EC_U+30A4_U+30E4_U+30FC 1
 62
     7
420
 16777215
370
    25
  0
SPLINE
  5
54
330
41
100
AcDbEntity
  8
_U+30EC_U+30A4_U+30E4_U+30FC 1
 62
     7
420
 16777215
370
     9
100
AcDbSpline
210
0.0
220
0.0
230
1.0
 70
    11
 71
     3
 72
    17
 73
    13
 74
     0
 42
0.0000000001
 43
0.0000000001
 12
1.0
 22
0.0
 32
0.0
 13
1.0
 23
0.0
 33
0.0
 40
0.0
 40
0.0
 40
0.0
 40
0.0
 40
1.0
 40
1.0
 40
1.0
 40
2.0
 40
2.0
 40
2.0
 40
3.0
 40
3.0
 40
3.0
 40
4.0
 40
4.0
 40
4.0
 40
4.0
 10
76.67543665495775
 20
-77.4302419250868
 30
0.0
 10
76.67543665495775
 20
-77.3751380362119
 30
0.0
 10
76.630633878323
 20
-77.33033525844517
 30
0.0
 10
76.57552999083991
 20
-77.33033525844517
 30
0.0
 10
76.52039082557997
 20
-77.33033525844517
 30
0.0
 10
76.47562332672209
 20
-77.3751380362119
 30
0.0
 10
76.47562332672209
 20
-77.4302419250868
 30
0.0
 10
76.47562332672209
 20
-77.48605136951726
 30
0.0
 10
76.52039082557997
 20
-77.53014859172845
 30
0.0
 10
76.57552999083991
 20
-77.53014859172845
 30
0.0
 10
76.630633878323
 20
-77.53014859172845
 30
0.0
 10
76.67543665495775
 20
-77.48605136951726
 30
0.0
 10
76.67543665495775
 20
-77.4302419250868
 30
0.0
  0
SPLINE
  5
55
330
41
100
AcDbEntity
  8
_U+30EC_U+30A4_U+30E4_U+30FC 1
 62
     7
420
 16777215
370
     9
100
AcDbSpline
210
0.0
220
0.0
230
1.0
 70
    11
 71
     3
 72
    17
 73
    13
 74
     0
 42
0.0000000001
 43
0.0000000001
 12
1.0
 22
0.0
 32
0.0
 13
1.0
 23
0.0
 33
0.0
 40
0.0
 40
0.0
 40
0.0
 40
0.0
 40
1.0
 40
1.0
 40
1.0
 40
2.0
 40
2.0
 40
2.0
 40
3.0
 40
3.0
 40
3.0
 40
4.0
 40
4.0
 40
4.0
 40
4.0
 10
76.67543665495775
 20
-78.23020081377575
 30
0.0
 10
76.67543665495775
 20
-78.175061647123
 30
0.0
 10
76.630633878323
 20
-78.13029414713412
 30
0.0
 10
76.57552999083991
 20
-78.13029414713412
 30
0.0
 10
76.52039082557997
 20
-78.13029414713412
 30
0.0
 10
76.47562332672209
 20
-78.175061647123
 30
0.0
 10
76.47562332672209
 20
-78.23020081377575
 30
0.0
 10
76.47562332672209
 20
-78.28601025820619
 30
0.0
 10
76.52039082557997
 20
-78.33077775819507
 30
0.0
 10
76.57552999083991
 20
-78.33077775819507
 30
0.0
 10
76.630633878323
 20
-78.33077775819507
 30
0.0
 10
76.67543665495775
 20
-78.28601025820619
 30
0.0
 10
76.67543665495775
 20
-78.23020081377575
 30
0.0
  0
SPLINE
  5
56
330
41
100
AcDbEntity
  8
_U+30EC_U+30A4_U+30E4_U+30FC 1
 62
     7
420
 16777215
370
     9
100
AcDbSpline
210
0.0
220
0.0
230
1.0
 70
    11
 71
     3
 72
    17
 73
    13
 74
     0
 42
0.0000000001
 43
0.0000000001
 12
1.0
 22
0.0
 32
0.0
 13
1.0
 23
0.0
 33
0.0
 40
0.0
 40
0.0
 40
0.0
 40
0.0
 40
1.0
 40
1.0
 40
1.0
 40
2.0
 40
2.0
 40
2.0
 40
3.0
 40
3.0
 40
3.0
 40
4.0
 40
4.0
 40
4.0
 40
4.0
 10
72.67567759033344
 20
-73.43048275942024
 30
0.0
 10
72.67567759033344
 20
-73.375378870545
 30
0.0
 10
72.63087481369868
 20
-73.33057609277861
 30
0.0
 10
72.57577092621561
 20
-73.33057609277861
 30
0.0
 10
72.52063176095565
 20
-73.33057609277861
 30
0.0
 10
72.47586426209777
 20
-73.375378870545
 30
0.0
 10
72.47586426209777
 20
-73.43048275942024
 30
0.0
 10
72.47586426209777
 20
-73.48562192607301
 30
0.0
 10
72.52063176095565
 20
-73.53038942606189
 30
0.0
 10
72.57577092621561
 20
-73.53038942606189
 30
0.0
 10
72.63087481369868
 20
-73.53038942606189
 30
0.0
 10
72.67567759033344
 20
-73.48562192607301
 30
0.0
 10
72.67567759033344
 20
-73.43048275942024
 30
0.0
  0
SPLINE
  5
57
330
41
100
AcDbEntity
  8
_U+30EC_U+30A4_U+30E4_U+30FC 1
 62
     7
420
 16777215
370
     9
100
AcDbSpline
210
0.0
220
0.0
230
1.0
 70
    11
 71
     3
 72
    17
 73
    13
 74
     0
 42
0.0000000001
 43
0.0000000001
 12
1.0
 22
0.0
 32
0.0
 13
1.0
 23
0.0
 33
0.0
 40
0.0
 40
0.0
 40
0.0
 40
0.0
 40
1.0
 40
1.0
 40
1.0
 40
2.0
 40
2.0
 40
2.0
 40
3.0
 40
3.0
 40
3.0
 40
4.0
 40
4.0
 40
4.0
 40
4.0
 10
59.67595792198392
 20
-108.2297527507202
 30
0.0
 10
59.67595792198392
 20
-108.1746135840671
 30
0.0
 10
59.63115514534915
 20
-108.1298460840786
 30
0.0
 10
59.57569998510615
 20
-108.1298460840786
 30
0.0
 10
59.52055931483736
 20
-108.1298460840786
 30
0.0
 10
59.47579181597947
 20
-108.1746135840671
 30
0.0
 10
59.47579181597947
 20
-108.2297527507202
 30
0.0
 10
59.47579181597947
 20
-108.2848566395951
 30
0.0
 10
59.52055931483736
 20
-108.3296594173619
 30
0.0
 10
59.57569998510615
 20
-108.3296594173619
 30
0.0
 10
59.63115514534915
 20
-108.3296594173619
 30
0.0
 10
59.67595792198392
 20
-108.2848566395951
 30
0.0
 10
59.67595792198392
 20
-108.2297527507202
 30
0.0
  0
SPLINE
  5
58
330
41
100
AcDbEntity
  8
_U+30EC_U+30A4_U+30E4_U+30FC 1
 62
     7
420
 16777215
370
     9
100
AcDbSpline
210
0.0
220
0.0
230
1.0
 70
    11
 71
     3
 72
    17
 73
    13
 74
     0
 42
0.0000000001
 43
0.0000000001
 12
1.0
 22
0.0
 32
0.0
 13
1.0
 23
0.0
 33
0.0
 40
0.0
 40
0.0
 40
0.0
 40
0.0
 40
1.0
 40
1.0
 40
1.0
 40
2.0
 40
2.0
 40
2.0
 40
3.0
 40
3.0
 40
3.0
 40
4.0
 40
4.0
 40
4.0
 40
4.0
 10
76.67543665495775
 20
-104.2299935850533
 30
0.0
 10
76.67543665495775
 20
-104.1748544184009
 30
0.0
 10
76.630633878323
 20
-104.1300869184117
 30
0.0
 10
76.57552999083991
 20
-104.1300869184117
 30
0.0
 10
76.52039082557997
 20
-104.1300869184117
 30
0.0
 10
76.47562332672209
 20
-104.1748544184009
 30
0.0
 10
76.47562332672209
 20
-104.2299935850533
 30
0.0
 10
76.47562332672209
 20
-104.2850974739289
 30
0.0
 10
76.52039082557997
 20
-104.3299002516956
 30
0.0
 10
76.57552999083991
 20
-104.3299002516956
 30
0.0
 10
76.630633878323
 20
-104.3299002516956
 30
0.0
 10
76.67543665495775
 20
-104.2850974739289
 30
0.0
 10
76.67543665495775
 20
-104.2299935850533
 30
0.0
  0
SPLINE
  5
59
330
41
100
AcDbEntity
  8
_U+30EC_U+30A4_U+30E4_U+30FC 1
 62
     7
420
 16777215
370
     9
100
AcDbSpline
210
0.0
220
0.0
230
1.0
 70
    11
 71
     3
 72
    17
 73
    13
 74
     0
 42
0.0000000001
 43
0.0000000001
 12
1.0
 22
0.0
 32
0.0
 13
1.0
 23
0.0
 33
0.0
 40
0.0
 40
0.0
 40
0.0
 40
0.0
 40
1.0
 40
1.0
 40
1.0
 40
2.0
 40
2.0
 40
2.0
 40
3.0
 40
3.0
 40
3.0
 40
4.0
 40
4.0
 40
4.0
 40
4.0
 10
76.67543665495775
 20
-101.230006641359
 30
0.0
 10
76.67543665495775
 20
-101.1748674747066
 30
0.0
 10
76.630633878323
 20
-101.1300999747174
 30
0.0
 10
76.57552999083991
 20
-101.1300999747174
 30
0.0
 10
76.52039082557997
 20
-101.1300999747174
 30
0.0
 10
76.47562332672209
 20
-101.1748674747066
 30
0.0
 10
76.47562332672209
 20
-101.230006641359
 30
0.0
 10
76.47562332672209
 20
-101.2851105302346
 30
0.0
 10
76.52039082557997
 20
-101.3299133080006
 30
0.0
 10
76.57552999083991
 20
-101.3299133080006
 30
0.0
 10
76.630633878323
 20
-101.3299133080006
 30
0.0
 10
76.67543665495775
 20
-101.2851105302346
 30
0.0
 10
76.67543665495775
 20
-101.230006641359
 30
0.0
  0
SPLINE
  5
5A
330
41
100
AcDbEntity
  8
_U+30EC_U+30A4_U+30E4_U+30FC 1
 62
     7
420
 16777215
370
     9
100
AcDbSpline
210
0.0
220
0.0
230
1.0
 70
    11
 71
     3
 72
    17
 73
    13
 74
     0
 42
0.0000000001
 43
0.0000000001
 12
1.0
 22
0.0
 32
0.0
 13
1.0
 23
0.0
 33
0.0
 40
0.0
 40
0.0
 40
0.0
 40
0.0
 40
1.0
 40
1.0
 40
1.0
 40
2.0
 40
2.0
 40
2.0
 40
3.0
 40
3.0
 40
3.0
 40
4.0
 40
4.0
 40
4.0
 40
4.0
 10
49.67587234377402
 20
-73.43048275942024
 30
0.0
 10
49.67587234377402
 20
-73.375378870545
 30
0.0
 10
49.63106956713926
 20
-73.33057609277861
 30
0.0
 10
49.57561290188741
 20
-73.33057609277861
 30
0.0
 10
49.52047498761974
 20
-73.33057609277861
 30
0.0
 10
49.47570623776958
 20
-73.375378870545
 30
0.0
 10
49.47570623776958
 20
-73.43048275942024
 30
0.0
 10
49.47570623776958
 20
-73.48562192607301
 30
0.0
 10
49.52047498761974
 20
-73.53038942606189
 30
0.0
 10
49.57561290188741
 20
-73.53038942606189
 30
0.0
 10
49.63106956713926
 20
-73.53038942606189
 30
0.0
 10
49.67587234377402
 20
-73.48562192607301
 30
0.0
 10
49.67587234377402
 20
-73.43048275942024
 30
0.0
  0
SPLINE
  5
5B
330
41
100
AcDbEntity
  8
_U+30EC_U+30A4_U+30E4_U+30FC 1
 62
     7
420
 16777215
370
     9
100
AcDbSpline
210
0.0
220
0.0
230
1.0
 70
    11
 71
     3
 72
    17
 73
    13
 74
     0
 42
0.0000000001
 43
0.0000000001
 12
1.0
 22
0.0
 32
0.0
 13
1.0
 23
0.0
 33
0.0
 40
0.0
 40
0.0
 40
0.0
 40
0.0
 40
1.0
 40
1.0
 40
1.0
 40
2.0
 40
2.0
 40
2.0
 40
3.0
 40
3.0
 40
3.0
 40
4.0
 40
4.0
 40
4.0
 40
4.0
 10
49.67587234377402
 20
-108.2297527507202
 30
0.0
 10
49.67587234377402
 20
-108.1746135840671
 30
0.0
 10
49.63106956713926
 20
-108.1298460840786
 30
0.0
 10
49.57561290188741
 20
-108.1298460840786
 30
0.0
 10
49.52047498761974
 20
-108.1298460840786
 30
0.0
 10
49.47570623776958
 20
-108.1746135840671
 30
0.0
 10
49.47570623776958
 20
-108.2297527507202
 30
0.0
 10
49.47570623776958
 20
-108.2848566395951
 30
0.0
 10
49.52047498761974
 20
-108.3296594173619
 30
0.0
 10
49.57561290188741
 20
-108.3296594173619
 30
0.0
 10
49.63106956713926
 20
-108.3296594173619
 30
0.0
 10
49.67587234377402
 20
-108.2848566395951
 30
0.0
 10
49.67587234377402
 20
-108.2297527507202
 30
0.0
  0
POLYLINE
  5
5C
330
41
100
AcDbEntity
  8
_U+30EC_U+30A4_U+30E4_U+30FC 1
 62
     7
420
 16777215
370
     9
100
AcDb2dPolyline
 66
     1
 10
0.0
 20
0.0
 30
0.0
  0
VERTEX
  5
5D
330
5C
100
AcDbEntity
  8
_U+30EC_U+30A4_U+30E4_U+30FC 1
 62
     7
420
 16777215
370
     9
100
AcDbVertex
100
AcDb2dVertex
 10
76.57552999083991
 20
-77.4302419250868
 30
0.0
  0
VERTEX
  5
5E
330
5C
100
AcDbEntity
  8
_U+30EC_U+30A4_U+30E4_U+30FC 1
 62
     7
420
 16777215
370
     9
100
AcDbVertex
100
AcDb2dVertex
 10
76.57552999083991
 20
-72.1723360930679
 30
0.0
  0
SEQEND
  5
5F
330
5C
100
AcDbEntity
  8
_U+30EC_U+30A4_U+30E4_U+30FC 1
 62
     7
420
 16777215
370
     9
  0
POLYLINE
  5
60
330
41
100
AcDbEntity
  8
_U+30EC_U+30A4_U+30E4_U+30FC 1
 62
     7
420
 16777215
370
     9
100
AcDb2dPolyline
 66
     1
 10
0.0
 20
0.0
 30
0.0
  0
VERTEX
  5
61
330
60
100
AcDbEntity
  8
_U+30EC_U+30A4_U+30E4_U+30FC 1
 62
     7
420
 16777215
370
     9
100
AcDbVertex
100
AcDb2dVertex
 10
76.57552999083991
 20
-77.4302419250868
 30
0.0
  0
VERTEX
  5
62
330
60
100
AcDbEntity
  8
_U+30EC_U+30A4_U+30E4_U+30FC 1
 62
     7
420
 16777215
370
     9
100
AcDbVertex
100
AcDb2dVertex
 10
76.57552999083991
 20
-78.23020081377575
 30
0.0
  0
SEQEND
  5
63
330
60
100
AcDbEntity
  8
_U+30EC_U+30A4_U+30E4_U+30FC 1
 62
     7
420
 16777215
370
     9
  0
POLYLINE
  5
64
330
41
100
AcDbEntity
  8
_U+30EC_U+30A4_U+30E4_U+30FC 1
 62
     7
420
 16777215
370
     9
100
AcDb2dPolyline
 66
     1
 10
0.0
 20
0.0
 30
0.0
  0
VERTEX
  5
65
330
64
100
AcDbEntity
  8
_U+30EC_U+30A4_U+30E4_U+30FC 1
 62
     7
420
 16777215
370
     9
100
AcDbVertex
100
AcDb2dVertex
 10
75.11548863919978
 20
-77.4302419250868
 30
0.0
  0
VERTEX
  5
66
330
64
100
AcDbEntity
  8
_U+30EC_U+30A4_U+30E4_U+30FC 1
 62
     7
420
 16777215
370
     9
100
AcDbVertex
100
AcDb2dVertex
 10
77.57597246531651
 20
-77.4302419250868
 30
0.0
  0
SEQEND
  5
67
330
64
100
AcDbEntity
  8
_U+30EC_U+30A4_U+30E4_U+30FC 1
 62
     7
420
 16777215
370
     9
  0
POLYLINE
  5
68
330
41
100
AcDbEntity
  8
_U+30EC_U+30A4_U+30E4_U+30FC 1
 62
     7
420
 16777215
370
     9
100
AcDb2dPolyline
 66
     1
 10
0.0
 20
0.0
 30
0.0
  0
VERTEX
  5
69
330
68
100
AcDbEntity
  8
_U+30EC_U+30A4_U+30E4_U+30FC 1
 62
     7
420
 16777215
370
     9
100
AcDbVertex
100
AcDb2dVertex
 10
75.11548863919978
 20
-78.23020081377575
 30
0.0
  0
VERTEX
  5
6A
330
68
100
AcDbEntity
  8
_U+30EC_U+30A4_U+30E4_U+30FC 1
 62
     7
420
 16777215
370
     9
100
AcDbVertex
100
AcDb2dVertex
 10
77.57597246531651
 20
-78.23020081377575
 30
0.0
  0
SEQEND
  5
6B
330
68
100
AcDbEntity
  8
_U+30EC_U+30A4_U+30E4_U+30FC 1
 62
     7
420
 16777215
370
     9
  0
INSERT
  5
6D
330
41
100
AcDbEntity
  8
_U+30EC_U+30A4_U+30E4_U+30FC 1
100
AcDbBlockReference
  2
block 3
 10
0.0
 20
0.0
 30
0.0
  0
POLYLINE
  5
7F
330
41
100
AcDbEntity
  8
_U+30EC_U+30A4_U+30E4_U+30FC 1
 62
     7
420
 16777215
370
     9
100
AcDb2dPolyline
 66
     1
 10
0.0
 20
0.0
 30
0.0
  0
VERTEX
  5
80
330
7F
100
AcDbEntity
  8
_U+30EC_U+30A4_U+30E4_U+30FC 1
 62
     7
420
 16777215
370
     9
100
AcDbVertex
100
AcDb2dVertex
 10
76.57552999083991
 20
-101.230006641359
 30
0.0
  0
VERTEX
  5
81
330
7F
100
AcDbEntity
  8
_U+30EC_U+30A4_U+30E4_U+30FC 1
 62
     7
420
 16777215
370
     9
100
AcDbVertex
100
AcDb2dVertex
 10
76.57552999083991
 20
-104.2299935850533
 30
0.0
  0
SEQEND
  5
82
330
7F
100
AcDbEntity
  8
_U+30EC_U+30A4_U+30E4_U+30FC 1
 62
     7
420
 16777215
370
     9
  0
POLYLINE
  5
83
330
41
100
AcDbEntity
  8
_U+30EC_U+30A4_U+30E4_U+30FC 1
 62
     7
420
 16777215
370
     9
100
AcDb2dPolyline
 66
     1
 10
0.0
 20
0.0
 30
0.0
  0
VERTEX
  5
84
330
83
100
AcDbEntity
  8
_U+30EC_U+30A4_U+30E4_U+30FC 1
 62
     7
420
 16777215
370
     9
100
AcDbVertex
100
AcDb2dVertex
 10
62.11576897085027
 20
-104.2299935850533
 30
0.0
  0
VERTEX
  5
85
330
83
100
AcDbEntity
  8
_U+30EC_U+30A4_U+30E4_U+30FC 1
 62
     7
420
 16777215
370
     9
100
AcDbVertex
100
AcDb2dVertex
 10
77.57597246531651
 20
-104.2299935850533
 30
0.0
  0
SEQEND
  5
86
330
83
100
AcDbEntity
  8
_U+30EC_U+30A4_U+30E4_U+30FC 1
 62
     7
420
 16777215
370
     9
  0
INSERT
  5
88
330
41
100
AcDbEntity
  8
_U+30EC_U+30A4_U+30E4_U+30FC 1
100
AcDbBlockReference
  2
block 4
 10
0.0
 20
0.0
 30
0.0
  0
POLYLINE
  5
8D
330
41
100
AcDbEntity
  8
_U+30EC_U+30A4_U+30E4_U+30FC 1
 62
     7
420
 16777215
370
     9
100
AcDb2dPolyline
 66
     1
 10
0.0
 20
0.0
 30
0.0
  0
VERTEX
  5
8E
330
8D
100
AcDbEntity
  8
_U+30EC_U+30A4_U+30E4_U+30FC 1
 62
     7
420
 16777215
370
     9
100
AcDbVertex
100
AcDb2dVertex
 10
49.57561290188741
 20
-108.2297527507202
 30
0.0
  0
VERTEX
  5
8F
330
8D
100
AcDbEntity
  8
_U+30EC_U+30A4_U+30E4_U+30FC 1
 62
     7
420
 16777215
370
     9
100
AcDbVertex
100
AcDb2dVertex
 10
59.57569998510615
 20
-108.2297527507202
 30
0.0
  0
SEQEND
  5
90
330
8D
100
AcDbEntity
  8
_U+30EC_U+30A4_U+30E4_U+30FC 1
 62
     7
420
 16777215
370
     9
  0
POLYLINE
  5
91
330
41
100
AcDbEntity
  8
_U+30EC_U+30A4_U+30E4_U+30FC 1
 62
     7
420
 16777215
370
     9
100
AcDb2dPolyline
 66
     1
 10
0.0
 20
0.0
 30
0.0
  0
VERTEX
  5
92
330
91
100
AcDbEntity
  8
_U+30EC_U+30A4_U+30E4_U+30FC 1
 62
     7
420
 16777215
370
     9
100
AcDbVertex
100
AcDb2dVertex
 10
49.57561290188741
 20
-106.7697113621965
 30
0.0
  0
VERTEX
  5
93
330
91
100
AcDbEntity
  8
_U+30EC_U+30A4_U+30E4_U+30FC 1
 62
     7
420
 16777215
370
     9
100
AcDbVertex
100
AcDb2dVertex
 10
49.57561290188741
 20
-109.2295249726928
 30
0.0
  0
SEQEND
  5
94
330
91
100
AcDbEntity
  8
_U+30EC_U+30A4_U+30E4_U+30FC 1
 62
     7
420
 16777215
370
     9
  0
POLYLINE
  5
95
330
41
100
AcDbEntity
  8
_U+30EC_U+30A4_U+30E4_U+30FC 1
 62
     7
420
 16777215
370
     9
100
AcDb2dPolyline
 66
     1
 10
0.0
 20
0.0
 30
0.0
  0
VERTEX
  5
96
330
95
100
AcDbEntity
  8
_U+30EC_U+30A4_U+30E4_U+30FC 1
 62
     7
420
 16777215
370
     9
100
AcDbVertex
100
AcDb2dVertex
 10
59.57569998510615
 20
-106.7697113621965
 30
0.0
  0
VERTEX
  5
97
330
95
100
AcDbEntity
  8
_U+30EC_U+30A4_U+30E4_U+30FC 1
 62
     7
420
 16777215
370
     9
100
AcDbVertex
100
AcDb2dVertex
 10
59.57569998510615
 20
-109.2295249726928
 30
0.0
  0
SEQEND
  5
98
330
95
100
AcDbEntity
  8
_U+30EC_U+30A4_U+30E4_U+30FC 1
 62
     7
420
 16777215
370
     9
  0
INSERT
  5
9A
330
41
100
AcDbEntity
  8
_U+30EC_U+30A4_U+30E4_U+30FC 1
100
AcDbBlockReference
  2
block 5
 10
0.0
 20
0.0
 30
0.0
  0
POLYLINE
  5
A2
330
41
100
AcDbEntity
  8
_U+30EC_U+30A4_U+30E4_U+30FC 1
 62
     7
420
 16777215
370
     9
100
AcDb2dPolyline
 66
     1
 10
0.0
 20
0.0
 30
0.0
  0
VERTEX
  5
A3
330
A2
100
AcDbEntity
  8
_U+30EC_U+30A4_U+30E4_U+30FC 1
 62
     7
420
 16777215
370
     9
100
AcDbVertex
100
AcDb2dVertex
 10
49.57561290188741
 20
-73.43048275942024
 30
0.0
  0
VERTEX
  5
A4
330
A2
100
AcDbEntity
  8
_U+30EC_U+30A4_U+30E4_U+30FC 1
 62
     7
420
 16777215
370
     9
100
AcDbVertex
100
AcDb2dVertex
 10
72.57577092621561
 20
-73.43048275942024
 30
0.0
  0
SEQEND
  5
A5
330
A2
100
AcDbEntity
  8
_U+30EC_U+30A4_U+30E4_U+30FC 1
 62
     7
420
 16777215
370
     9
  0
POLYLINE
  5
A6
330
41
100
AcDbEntity
  8
_U+30EC_U+30A4_U+30E4_U+30FC 1
 62
     7
420
 16777215
370
     9
100
AcDb2dPolyline
 66
     1
 10
0.0
 20
0.0
 30
0.0
  0
VERTEX
  5
A7
330
A6
100
AcDbEntity
  8
_U+30EC_U+30A4_U+30E4_U+30FC 1
 62
     7
420
 16777215
370
     9
100
AcDbVertex
100
AcDb2dVertex
 10
49.57561290188741
 20
-74.89052414794395
 30
0.0
  0
VERTEX
  5
A8
330
A6
100
AcDbEntity
  8
_U+30EC_U+30A4_U+30E4_U+30FC 1
 62
     7
420
 16777215
370
     9
100
AcDbVertex
100
AcDb2dVertex
 10
49.57561290188741
 20
-72.43004025967035
 30
0.0
  0
SEQEND
  5
A9
330
A6
100
AcDbEntity
  8
_U+30EC_U+30A4_U+30E4_U+30FC 1
 62
     7
420
 16777215
370
     9
  0
POLYLINE
  5
AA
330
41
100
AcDbEntity
  8
_U+30EC_U+30A4_U+30E4_U+30FC 1
 62
     7
420
 16777215
370
     9
100
AcDb2dPolyline
 66
     1
 10
0.0
 20
0.0
 30
0.0
  0
VERTEX
  5
AB
330
AA
100
AcDbEntity
  8
_U+30EC_U+30A4_U+30E4_U+30FC 1
 62
     7
420
 16777215
370
     9
100
AcDbVertex
100
AcDb2dVertex
 10
72.57577092621561
 20
-74.89052414794395
 30
0.0
  0
VERTEX
  5
AC
330
AA
100
AcDbEntity
  8
_U+30EC_U+30A4_U+30E4_U+30FC 1
 62
     7
420
 16777215
370
     9
100
AcDbVertex
100
AcDb2dVertex
 10
72.57577092621561
 20
-72.43004025967035
 30
0.0
  0
SEQEND
  5
AD
330
AA
100
AcDbEntity
  8
_U+30EC_U+30A4_U+30E4_U+30FC 1
 62
     7
420
 16777215
370
     9
  0
INSERT
  5
AF
330
41
100
AcDbEntity
  8
_U+30EC_U+30A4_U+30E4_U+30FC 1
100
AcDbBlockReference
  2
block 6
 10
0.0
 20
0.0
 30
0.0
  0
POLYLINE
  5
B6
330
41
100
AcDbEntity
  8
_U+30EC_U+30A4_U+30E4_U+30FC 1
 62
     7
420
 16777215
370
     9
100
AcDb2dPolyline
 66
     1
 10
0.0
 20
0.0
 30
0.0
  0
VERTEX
  5
B7
330
B6
100
AcDbEntity
  8
_U+30EC_U+30A4_U+30E4_U+30FC 1
 62
     7
420
 16777215
370
     9
100
AcDbVertex
100
AcDb2dVertex
 10
76.57552999083991
 20
-101.230006641359
 30
0.0
  0
VERTEX
  5
B8
330
B6
100
AcDbEntity
  8
_U+30EC_U+30A4_U+30E4_U+30FC 1
 62
     7
420
 16777215
370
     9
100
AcDbVertex
100
AcDb2dVertex
 10
76.57552999083991
 20
-78.23020081377575
 30
0.0
  0
SEQEND
  5
B9
330
B6
100
AcDbEntity
  8
_U+30EC_U+30A4_U+30E4_U+30FC 1
 62
     7
420
 16777215
370
     9
  0
POLYLINE
  5
BA
330
41
100
AcDbEntity
  8
_U+30EC_U+30A4_U+30E4_U+30FC 1
 62
     7
420
 16777215
370
     9
100
AcDb2dPolyline
 66
     1
 10
0.0
 20
0.0
 30
0.0
  0
VERTEX
  5
BB
330
BA
100
AcDbEntity
  8
_U+30EC_U+30A4_U+30E4_U+30FC 1
 62
     7
420
 16777215
370
     9
100
AcDbVertex
100
AcDb2dVertex
 10
62.11576897085027
 20
-101.230006641359
 30
0.0
  0
VERTEX
  5
BC
330
BA
100
AcDbEntity
  8
_U+30EC_U+30A4_U+30E4_U+30FC 1
 62
     7
420
 16777215
370
     9
100
AcDbVertex
100
AcDb2dVertex
 10
77.57597246531651
 20
-101.230006641359
 30
0.0
  0
SEQEND
  5
BD
330
BA
100
AcDbEntity
  8
_U+30EC_U+30A4_U+30E4_U+30FC 1
 62
     7
420
 16777215
370
     9
  0
INSERT
  5
BF
330
41
100
AcDbEntity
  8
_U+30EC_U+30A4_U+30E4_U+30FC 1
100
AcDbBlockReference
  2
block 7
 10
0.0
 20
0.0
 30
0.0
  0
ENDBLK
  5
44
330
41
100
AcDbEntity
  8
0
100
AcDbBlockEnd
  0
BLOCK
  5
6E
330
6C
100
AcDbEntity
  8
0
100
AcDbBlockBegin
  2
block 3
 70
     0
 10
0.0
 20
0.0
 30
0.0
  3
block 3
  1

  0
SPLINE
  5
70
330
6C
100
AcDbEntity
  8
_U+30EC_U+30A4_U+30E4_U+30FC 1
370
     0
100
AcDbSpline
210
0.0
220
0.0
230
1.0
 70
    11
 71
     3
 72
    29
 73
    25
 74
     0
 42
0.0000000001
 43
0.0000000001
 12
1.0
 22
0.0
 32
0.0
 13
1.0
 23
0.0
 33
0.0
 40
0.0
 40
0.0
 40
0.0
 40
0.0
 40
1.0
 40
1.0
 40
1.0
 40
2.0
 40
2.0
 40
2.0
 40
3.0
 40
3.0
 40
3.0
 40
4.0
 40
4.0
 40
4.0
 40
5.0
 40
5.0
 40
5.0
 40
6.0
 40
6.0
 40
6.0
 40
7.0
 40
7.0
 40
7.0
 40
8.0
 40
8.0
 40
8.0
 40
8.0
 10
75.04623750293983
 20
-74.89637584933146
 30
0.0
 10
75.25569930844303
 20
-75.00455184756831
 30
0.0
 10
75.2746473336119
 20
-75.17784015047637
 30
0.0
 10
75.2746473336119
 20
-75.29428437787782
 30
0.0
 10
75.2746473336119
 20
-75.455170337039
 30
0.0
 10
75.22813854456102
 20
-75.59676376148276
 30
0.0
 10
75.04623750293983
 20
-75.69184839687566
 30
0.0
 10
74.85158960802322
 20
-75.79554577098168
 30
0.0
 10
74.61456703863803
 20
-75.81483830569907
 30
0.0
 10
74.45195853173423
 20
-75.81483830569907
 30
0.0
 10
74.3079535404508
 20
-75.81483830569907
 30
0.0
 10
74.05611706047902
 20
-75.79761282827282
 30
0.0
 10
73.85733505098011
 20
-75.69184839687566
 30
0.0
 10
73.6544189268989
 20
-75.58401690818734
 30
0.0
 10
73.6309922775992
 20
-75.42313094902616
 30
0.0
 10
73.6309922775992
 20
-75.29428437787782
 30
0.0
 10
73.6309922775992
 20
-75.13546547600781
 30
0.0
 10
73.67543400935892
 20
-74.99180499427288
 30
0.0
 10
73.85733505098011
 20
-74.89637584933146
 30
0.0
 10
74.04991588860558
 20
-74.79715709935627
 30
0.0
 10
74.27832571927765
 20
-74.77373045005658
 30
0.0
 10
74.45195853173423
 20
-74.77373045005658
 30
0.0
 10
74.62317977735115
 20
-74.77373045005658
 30
0.0
 10
74.85365666531436
 20
-74.79509004206513
 30
0.0
 10
75.04623750293983
 20
-74.89637584933146
 30
0.0
  0
SPLINE
  5
71
330
6C
100
AcDbEntity
  8
_U+30EC_U+30A4_U+30E4_U+30FC 1
370
     0
100
AcDbSpline
210
0.0
220
0.0
230
1.0
 70
    11
 71
     3
 72
    17
 73
    13
 74
     0
 42
0.0000000001
 43
0.0000000001
 12
1.0
 22
0.0
 32
0.0
 13
1.0
 23
0.0
 33
0.0
 40
0.0
 40
0.0
 40
0.0
 40
0.0
 40
1.0
 40
1.0
 40
1.0
 40
2.0
 40
2.0
 40
2.0
 40
3.0
 40
3.0
 40
3.0
 40
4.0
 40
4.0
 40
4.0
 40
4.0
 10
73.82357311522466
 20
-75.29428437787782
 30
0.0
 10
73.82357311522466
 20
-75.54405380055843
 30
0.0
 10
74.10710447366073
 20
-75.5905625896093
 30
0.0
 10
74.45195853173423
 20
-75.5905625896093
 30
0.0
 10
74.77131888321689
 20
-75.5905625896093
 30
0.0
 10
75.07999943869528
 20
-75.55438908701419
 30
0.0
 10
75.07999943869528
 20
-75.29428437787782
 30
0.0
 10
75.07999943869528
 20
-75.04658201248836
 30
0.0
 10
74.7988796470989
 20
-74.99800616614634
 30
0.0
 10
74.45195853173423
 20
-74.99800616614634
 30
0.0
 10
74.13225367070305
 20
-74.99800616614634
 30
0.0
 10
73.82357311522466
 20
-75.0362467260326
 30
0.0
 10
73.82357311522466
 20
-75.29428437787782
 30
0.0
  0
HATCH
  5
72
330
6C
100
AcDbEntity
  8
_U+30EC_U+30A4_U+30E4_U+30FC 1
 62
     7
420
 16777215
100
AcDbHatch
 10
0.0
 20
0.0
 30
0.0
210
0.0
220
0.0
230
1.0
  2
SOLID
 70
     1
 71
     0
 91
        2
 92
        1
 93
        1
 72
     4
 94
        3
 73
     0
 74
     1
 95
       29
 96
       25
 40
0.0
 40
0.0
 40
0.0
 40
0.0
 40
1.0
 40
1.0
 40
1.0
 40
2.0
 40
2.0
 40
2.0
 40
3.0
 40
3.0
 40
3.0
 40
4.0
 40
4.0
 40
4.0
 40
5.0
 40
5.0
 40
5.0
 40
6.0
 40
6.0
 40
6.0
 40
7.0
 40
7.0
 40
7.0
 40
8.0
 40
8.0
 40
8.0
 40
8.0
 10
75.04623750293983
 20
-74.89637584933146
 10
75.25569930844303
 20
-75.00455184756831
 10
75.2746473336119
 20
-75.17784015047637
 10
75.2746473336119
 20
-75.29428437787782
 10
75.2746473336119
 20
-75.455170337039
 10
75.22813854456102
 20
-75.59676376148276
 10
75.04623750293983
 20
-75.69184839687566
 10
74.85158960802322
 20
-75.79554577098168
 10
74.61456703863803
 20
-75.81483830569907
 10
74.45195853173423
 20
-75.81483830569907
 10
74.3079535404508
 20
-75.81483830569907
 10
74.05611706047902
 20
-75.79761282827282
 10
73.85733505098011
 20
-75.69184839687566
 10
73.6544189268989
 20
-75.58401690818734
 10
73.6309922775992
 20
-75.42313094902616
 10
73.6309922775992
 20
-75.29428437787782
 10
73.6309922775992
 20
-75.13546547600781
 10
73.67543400935892
 20
-74.99180499427288
 10
73.85733505098011
 20
-74.89637584933146
 10
74.04991588860558
 20
-74.79715709935627
 10
74.27832571927765
 20
-74.77373045005658
 10
74.45195853173423
 20
-74.77373045005658
 10
74.62317977735115
 20
-74.77373045005658
 10
74.85365666531436
 20
-74.79509004206513
 10
75.04623750293983
 20
-74.89637584933146
 97
        0
 97
        0
 92
        1
 93
        1
 72
     4
 94
        3
 73
     0
 74
     1
 95
       17
 96
       13
 40
0.0
 40
0.0
 40
0.0
 40
0.0
 40
1.0
 40
1.0
 40
1.0
 40
2.0
 40
2.0
 40
2.0
 40
3.0
 40
3.0
 40
3.0
 40
4.0
 40
4.0
 40
4.0
 40
4.0
 10
73.82357311522466
 20
-75.29428437787782
 10
73.82357311522466
 20
-75.54405380055843
 10
74.10710447366073
 20
-75.5905625896093
 10
74.45195853173423
 20
-75.5905625896093
 10
74.77131888321689
 20
-75.5905625896093
 10
75.07999943869528
 20
-75.55438908701419
 10
75.07999943869528
 20
-75.29428437787782
 10
75.07999943869528
 20
-75.04658201248836
 10
74.7988796470989
 20
-74.99800616614634
 10
74.45195853173423
 20
-74.99800616614634
 10
74.13225367070305
 20
-74.99800616614634
 10
73.82357311522466
 20
-75.0362467260326
 10
73.82357311522466
 20
-75.29428437787782
 97
        0
 97
        0
 75
     2
 76
     1
 98
        0
  0
POLYLINE
  5
73
330
6C
100
AcDbEntity
  8
_U+30EC_U+30A4_U+30E4_U+30FC 1
370
     0
100
AcDb2dPolyline
 66
     1
 10
0.0
 20
0.0
 30
0.0
  0
VERTEX
  5
74
330
73
100
AcDbEntity
  8
_U+30EC_U+30A4_U+30E4_U+30FC 1
370
     0
100
AcDbVertex
100
AcDb2dVertex
 10
75.22400442997872
 20
-74.55737845358288
 30
0.0
  0
VERTEX
  5
75
330
73
100
AcDbEntity
  8
_U+30EC_U+30A4_U+30E4_U+30FC 1
370
     0
100
AcDbVertex
100
AcDb2dVertex
 10
74.97216795000696
 20
-74.55737845358288
 30
0.0
  0
VERTEX
  5
76
330
73
100
AcDbEntity
  8
_U+30EC_U+30A4_U+30E4_U+30FC 1
370
     0
100
AcDbVertex
100
AcDb2dVertex
 10
74.97216795000696
 20
-74.30554197361111
 30
0.0
  0
VERTEX
  5
77
330
73
100
AcDbEntity
  8
_U+30EC_U+30A4_U+30E4_U+30FC 1
370
     0
100
AcDbVertex
100
AcDb2dVertex
 10
75.22400442997872
 20
-74.30554197361111
 30
0.0
  0
VERTEX
  5
78
330
73
100
AcDbEntity
  8
_U+30EC_U+30A4_U+30E4_U+30FC 1
370
     0
100
AcDbVertex
100
AcDb2dVertex
 10
75.22400442997872
 20
-74.55737845358288
 30
0.0
  0
SEQEND
  5
79
330
73
100
AcDbEntity
  8
_U+30EC_U+30A4_U+30E4_U+30FC 1
370
     0
  0
HATCH
  5
7A
330
6C
100
AcDbEntity
  8
_U+30EC_U+30A4_U+30E4_U+30FC 1
 62
     7
420
 16777215
100
AcDbHatch
 10
0.0
 20
0.0
 30
0.0
210
0.0
220
0.0
230
1.0
  2
SOLID
 70
     1
 71
     0
 91
        1
 92
        1
 93
        4
 72
     1
 10
75.22400442997872
 20
-74.55737845358288
 11
74.97216795000696
 21
-74.55737845358288
 72
     1
 10
74.97216795000696
 20
-74.55737845358288
 11
74.97216795000696
 21
-74.30554197361111
 72
     1
 10
74.97216795000696
 20
-74.30554197361111
 11
75.22400442997872
 21
-74.30554197361111
 72
     1
 10
75.22400442997872
 20
-74.30554197361111
 11
75.22400442997872
 21
-74.55737845358288
 97
        0
 75
     2
 76
     1
 98
        0
  0
SPLINE
  5
7B
330
6C
100
AcDbEntity
  8
_U+30EC_U+30A4_U+30E4_U+30FC 1
370
     0
100
AcDbSpline
210
0.0
220
0.0
230
1.0
 70
    11
 71
     3
 72
    29
 73
    25
 74
     0
 42
0.0000000001
 43
0.0000000001
 12
1.0
 22
0.0
 32
0.0
 13
1.0
 23
0.0
 33
0.0
 40
0.0
 40
0.0
 40
0.0
 40
0.0
 40
1.0
 40
1.0
 40
1.0
 40
2.0
 40
2.0
 40
2.0
 40
3.0
 40
3.0
 40
3.0
 40
4.0
 40
4.0
 40
4.0
 40
5.0
 40
5.0
 40
5.0
 40
6.0
 40
6.0
 40
6.0
 40
7.0
 40
7.0
 40
7.0
 40
8.0
 40
8.0
 40
8.0
 40
8.0
 10
75.2746473336119
 20
-73.56932506841322
 30
0.0
 10
75.2746473336119
 20
-73.83597545897156
 30
0.0
 10
75.13718802375043
 20
-74.08953448668595
 30
0.0
 10
74.78819985109462
 20
-74.08953448668595
 30
0.0
 10
74.53222925654056
 20
-74.08953448668595
 30
0.0
 10
74.43714462114767
 20
-73.94794106224218
 30
0.0
 10
74.37582192151021
 20
-73.84217663084502
 30
0.0
 10
74.31656627916392
 20
-73.96688908741106
 30
0.0
 10
74.20218910905362
 20
-74.04302569763507
 30
0.0
 10
74.04130314989246
 20
-74.04302569763507
 30
0.0
 10
73.76638453016952
 20
-74.04302569763507
 30
0.0
 10
73.6309922775992
 20
-73.84424368813616
 30
0.0
 10
73.6309922775992
 20
-73.56932506841322
 30
0.0
 10
73.6309922775992
 20
-73.28579370997717
 30
0.0
 10
73.77499726888264
 20
-73.09527992964286
 30
0.0
 10
74.04130314989246
 20
-73.09527992964286
 30
0.0
 10
74.20218910905362
 20
-73.09527992964286
 30
0.0
 10
74.31656627916392
 20
-73.17382810670655
 30
0.0
 10
74.37582192151021
 20
-73.2985405632726
 30
0.0
 10
74.42646482514338
 20
-73.20965709975314
 30
0.0
 10
74.52154946053628
 20
-73.05083819788312
 30
0.0
 10
74.78406573651232
 20
-73.05083819788312
 30
0.0
 10
75.15854761575898
 20
-73.05083819788312
 30
0.0
 10
75.2746473336119
 20
-73.33023544173689
 30
0.0
 10
75.2746473336119
 20
-73.56932506841322
 30
0.0
  0
SPLINE
  5
7C
330
6C
100
AcDbEntity
  8
_U+30EC_U+30A4_U+30E4_U+30FC 1
370
     0
100
AcDbSpline
210
0.0
220
0.0
230
1.0
 70
    11
 71
     3
 72
    17
 73
    13
 74
     0
 42
0.0000000001
 43
0.0000000001
 12
1.0
 22
0.0
 32
0.0
 13
1.0
 23
0.0
 33
0.0
 40
0.0
 40
0.0
 40
0.0
 40
0.0
 40
1.0
 40
1.0
 40
1.0
 40
2.0
 40
2.0
 40
2.0
 40
3.0
 40
3.0
 40
3.0
 40
4.0
 40
4.0
 40
4.0
 40
4.0
 10
73.82357311522466
 20
-73.56932506841322
 30
0.0
 10
73.82357311522466
 20
-73.7343451421567
 30
0.0
 10
73.91865775061756
 20
-73.81874998154531
 30
0.0
 10
74.05405000318788
 20
-73.81874998154531
 30
0.0
 10
74.17669540246277
 20
-73.81874998154531
 30
0.0
 10
74.29520668715537
 20
-73.74709199545212
 30
0.0
 10
74.29520668715537
 20
-73.56932506841322
 30
0.0
 10
74.29520668715537
 20
-73.39155814137433
 30
0.0
 10
74.17669540246277
 20
-73.31955564573262
 30
0.0
 10
74.05405000318788
 20
-73.31955564573262
 30
0.0
 10
73.91865775061756
 20
-73.31955564573262
 30
0.0
 10
73.82357311522466
 20
-73.40637205196091
 30
0.0
 10
73.82357311522466
 20
-73.56932506841322
 30
0.0
  0
SPLINE
  5
7D
330
6C
100
AcDbEntity
  8
_U+30EC_U+30A4_U+30E4_U+30FC 1
370
     0
100
AcDbSpline
210
0.0
220
0.0
230
1.0
 70
    11
 71
     3
 72
    17
 73
    13
 74
     0
 42
0.0000000001
 43
0.0000000001
 12
1.0
 22
0.0
 32
0.0
 13
1.0
 23
0.0
 33
0.0
 40
0.0
 40
0.0
 40
0.0
 40
0.0
 40
1.0
 40
1.0
 40
1.0
 40
2.0
 40
2.0
 40
2.0
 40
3.0
 40
3.0
 40
3.0
 40
4.0
 40
4.0
 40
4.0
 40
4.0
 10
74.48365341019853
 20
-73.56932506841322
 30
0.0
 10
74.48365341019853
 20
-73.71298555014815
 30
0.0
 10
74.57046981642684
 20
-73.86560328014471
 30
0.0
 10
74.77338594050805
 20
-73.86560328014471
 30
0.0
 10
74.97871363142893
 20
-73.86560328014471
 30
0.0
 10
75.07999943869528
 20
-73.738479256739
 30
0.0
 10
75.07999943869528
 20
-73.56932506841322
 30
0.0
 10
75.07999943869528
 20
-73.38328991220973
 30
0.0
 10
74.95735403942038
 20
-73.27304685668174
 30
0.0
 10
74.77958711238149
 20
-73.27304685668174
 30
0.0
 10
74.55772296313141
 20
-73.27304685668174
 30
0.0
 10
74.48365341019853
 20
-73.43599987313407
 30
0.0
 10
74.48365341019853
 20
-73.56932506841322
 30
0.0
  0
HATCH
  5
7E
330
6C
100
AcDbEntity
  8
_U+30EC_U+30A4_U+30E4_U+30FC 1
 62
     7
420
 16777215
100
AcDbHatch
 10
0.0
 20
0.0
 30
0.0
210
0.0
220
0.0
230
1.0
  2
SOLID
 70
     1
 71
     0
 91
        3
 92
        1
 93
        1
 72
     4
 94
        3
 73
     0
 74
     1
 95
       29
 96
       25
 40
0.0
 40
0.0
 40
0.0
 40
0.0
 40
1.0
 40
1.0
 40
1.0
 40
2.0
 40
2.0
 40
2.0
 40
3.0
 40
3.0
 40
3.0
 40
4.0
 40
4.0
 40
4.0
 40
5.0
 40
5.0
 40
5.0
 40
6.0
 40
6.0
 40
6.0
 40
7.0
 40
7.0
 40
7.0
 40
8.0
 40
8.0
 40
8.0
 40
8.0
 10
75.2746473336119
 20
-73.56932506841322
 10
75.2746473336119
 20
-73.83597545897156
 10
75.13718802375043
 20
-74.08953448668595
 10
74.78819985109462
 20
-74.08953448668595
 10
74.53222925654056
 20
-74.08953448668595
 10
74.43714462114767
 20
-73.94794106224218
 10
74.37582192151021
 20
-73.84217663084502
 10
74.31656627916392
 20
-73.96688908741106
 10
74.20218910905362
 20
-74.04302569763507
 10
74.04130314989246
 20
-74.04302569763507
 10
73.76638453016952
 20
-74.04302569763507
 10
73.6309922775992
 20
-73.84424368813616
 10
73.6309922775992
 20
-73.56932506841322
 10
73.6309922775992
 20
-73.28579370997717
 10
73.77499726888264
 20
-73.09527992964286
 10
74.04130314989246
 20
-73.09527992964286
 10
74.20218910905362
 20
-73.09527992964286
 10
74.31656627916392
 20
-73.17382810670655
 10
74.37582192151021
 20
-73.2985405632726
 10
74.42646482514338
 20
-73.20965709975314
 10
74.52154946053628
 20
-73.05083819788312
 10
74.78406573651232
 20
-73.05083819788312
 10
75.15854761575898
 20
-73.05083819788312
 10
75.2746473336119
 20
-73.33023544173689
 10
75.2746473336119
 20
-73.56932506841322
 97
        0
 97
        0
 92
        1
 93
        1
 72
     4
 94
        3
 73
     0
 74
     1
 95
       17
 96
       13
 40
0.0
 40
0.0
 40
0.0
 40
0.0
 40
1.0
 40
1.0
 40
1.0
 40
2.0
 40
2.0
 40
2.0
 40
3.0
 40
3.0
 40
3.0
 40
4.0
 40
4.0
 40
4.0
 40
4.0
 10
73.82357311522466
 20
-73.56932506841322
 10
73.82357311522466
 20
-73.7343451421567
 10
73.91865775061756
 20
-73.81874998154531
 10
74.05405000318788
 20
-73.81874998154531
 10
74.17669540246277
 20
-73.81874998154531
 10
74.29520668715537
 20
-73.74709199545212
 10
74.29520668715537
 20
-73.56932506841322
 10
74.29520668715537
 20
-73.39155814137433
 10
74.17669540246277
 20
-73.31955564573262
 10
74.05405000318788
 20
-73.31955564573262
 10
73.91865775061756
 20
-73.31955564573262
 10
73.82357311522466
 20
-73.40637205196091
 10
73.82357311522466
 20
-73.56932506841322
 97
        0
 97
        0
 92
        1
 93
        1
 72
     4
 94
        3
 73
     0
 74
     1
 95
       17
 96
       13
 40
0.0
 40
0.0
 40
0.0
 40
0.0
 40
1.0
 40
1.0
 40
1.0
 40
2.0
 40
2.0
 40
2.0
 40
3.0
 40
3.0
 40
3.0
 40
4.0
 40
4.0
 40
4.0
 40
4.0
 10
74.48365341019853
 20
-73.56932506841322
 10
74.48365341019853
 20
-73.71298555014815
 10
74.57046981642684
 20
-73.86560328014471
 10
74.77338594050805
 20
-73.86560328014471
 10
74.97871363142893
 20
-73.86560328014471
 10
75.07999943869528
 20
-73.738479256739
 10
75.07999943869528
 20
-73.56932506841322
 10
75.07999943869528
 20
-73.38328991220973
 10
74.95735403942038
 20
-73.27304685668174
 10
74.77958711238149
 20
-73.27304685668174
 10
74.55772296313141
 20
-73.27304685668174
 10
74.48365341019853
 20
-73.43599987313407
 10
74.48365341019853
 20
-73.56932506841322
 97
        0
 97
        0
 75
     2
 76
     1
 98
        0
  0
ENDBLK
  5
6F
330
6C
100
AcDbEntity
  8
0
100
AcDbBlockEnd
  0
BLOCK
  5
89
330
87
100
AcDbEntity
  8
0
100
AcDbBlockBegin
  2
block 4
 70
     0
 10
0.0
 20
0.0
 30
0.0
  3
block 4
  1

  0
SPLINE
  5
8B
330
87
100
AcDbEntity
  8
_U+30EC_U+30A4_U+30E4_U+30FC 1
370
     0
100
AcDbSpline
210
0.0
220
0.0
230
1.0
 70
    11
 71
     3
 72
    62
 73
    58
 74
     0
 42
0.0000000001
 43
0.0000000001
 12
1.0
 22
0.0
 32
0.0
 13
1.0
 23
0.0
 33
0.0
 40
0.0
 40
0.0
 40
0.0
 40
0.0
 40
1.0
 40
1.0
 40
1.0
 40
2.0
 40
2.0
 40
2.0
 40
3.0
 40
3.0
 40
3.0
 40
4.0
 40
4.0
 40
4.0
 40
5.0
 40
5.0
 40
5.0
 40
6.0
 40
6.0
 40
6.0
 40
7.0
 40
7.0
 40
7.0
 40
8.0
 40
8.0
 40
8.0
 40
9.0
 40
9.0
 40
9.0
 40
10.0
 40
10.0
 40
10.0
 40
11.0
 40
11.0
 40
11.0
 40
12.0
 40
12.0
 40
12.0
 40
13.0
 40
13.0
 40
13.0
 40
14.0
 40
14.0
 40
14.0
 40
15.0
 40
15.0
 40
15.0
 40
16.0
 40
16.0
 40
16.0
 40
17.0
 40
17.0
 40
17.0
 40
18.0
 40
18.0
 40
18.0
 40
19.0
 40
19.0
 40
19.0
 40
19.0
 10
75.2746473336119
 20
-102.7386040324751
 30
0.0
 10
75.2746473336119
 20
-102.8340331774165
 30
0.0
 10
75.25363225115187
 20
-103.0517632120843
 30
0.0
 10
75.06759709494838
 20
-103.1768201781989
 30
0.0
 10
74.95528698212924
 20
-103.2508897311317
 30
0.0
 10
74.85606823215404
 20
-103.255023845714
 30
0.0
 10
74.77131888321689
 20
-103.2591579602963
 30
0.0
 10
74.77131888321689
 20
-103.2591579602963
 30
0.0
 10
74.77131888321689
 20
-103.0390163587889
 30
0.0
 10
74.77131888321689
 20
-103.0390163587889
 30
0.0
 10
74.84538843614976
 20
-103.0369493014977
 30
0.0
 10
75.07999943869528
 20
-103.026614015042
 30
0.0
 10
75.07999943869528
 20
-102.7430826566059
 30
0.0
 10
75.07999943869528
 20
-102.6056233467444
 30
0.0
 10
75.01040850989324
 20
-102.4530056167479
 30
0.0
 10
74.78199867922118
 20
-102.4530056167479
 30
0.0
 10
74.66555445181973
 20
-102.4530056167479
 30
0.0
 10
74.6169786054777
 20
-102.4912461766341
 30
0.0
 10
74.5852837270134
 20
-102.5229410550984
 30
0.0
 10
74.51121417408054
 20
-102.5970106080313
 30
0.0
 10
74.49846732078511
 20
-102.7134548354328
 30
0.0
 10
74.49846732078511
 20
-102.7682318536482
 30
0.0
 10
74.49846732078511
 20
-102.7875243883656
 30
0.0
 10
74.50053437807625
 20
-102.8233533814122
 30
0.0
 10
74.50466849265855
 20
-102.8509141452942
 30
0.0
 10
74.50466849265855
 20
-102.8509141452942
 30
0.0
 10
74.31002059774194
 20
-102.8509141452942
 30
0.0
 10
74.31002059774194
 20
-102.8509141452942
 30
0.0
 10
74.31656627916392
 20
-102.8126735854079
 30
0.0
 10
74.31863333645506
 20
-102.7706434204879
 30
0.0
 10
74.31863333645506
 20
-102.7640977390659
 30
0.0
 10
74.31863333645506
 20
-102.6986409248462
 30
0.0
 10
74.29727374444651
 20
-102.4998589153473
 30
0.0
 10
74.06059568460985
 20
-102.4998589153473
 30
0.0
 10
73.88282875757096
 20
-102.4998589153473
 30
0.0
 10
73.82770722980696
 20
-102.6307725437868
 30
0.0
 10
73.82770722980696
 20
-102.7410155993147
 30
0.0
 10
73.82770722980696
 20
-103.0052544230334
 30
0.0
 10
74.06059568460985
 20
-103.0138671617465
 30
0.0
 10
74.13225367070305
 20
-103.0180012763288
 30
0.0
 10
74.13225367070305
 20
-103.0180012763288
 30
0.0
 10
74.13225367070305
 20
-103.2212619099586
 30
0.0
 10
74.13225367070305
 20
-103.2212619099586
 30
0.0
 10
74.007541214137
 20
-103.2126491712455
 30
0.0
 10
73.6309922775992
 20
-103.1850884073635
 30
0.0
 10
73.6309922775992
 20
-102.7282687460193
 30
0.0
 10
73.6309922775992
 20
-102.5039930299296
 30
0.0
 10
73.75811630100492
 20
-102.2628363459621
 30
0.0
 10
74.05405000318788
 20
-102.2628363459621
 30
0.0
 10
74.2404296689399
 20
-102.2628363459621
 30
0.0
 10
74.32276745103736
 20
-102.357920981355
 30
0.0
 10
74.38409015067481
 20
-102.4574842408787
 30
0.0
 10
74.41165091455682
 20
-102.3961615412412
 30
0.0
 10
74.49192163936313
 20
-102.2142604996201
 30
0.0
 10
74.76925182592575
 20
-102.2142604996201
 30
0.0
 10
75.10756020257728
 20
-102.2142604996201
 30
0.0
 10
75.2746473336119
 20
-102.461618355461
 30
0.0
 10
75.2746473336119
 20
-102.7386040324751
 30
0.0
  0
HATCH
  5
8C
330
87
100
AcDbEntity
  8
_U+30EC_U+30A4_U+30E4_U+30FC 1
 62
     7
420
 16777215
100
AcDbHatch
 10
0.0
 20
0.0
 30
0.0
210
0.0
220
0.0
230
1.0
  2
SOLID
 70
     1
 71
     0
 91
        1
 92
        1
 93
        1
 72
     4
 94
        3
 73
     0
 74
     1
 95
       62
 96
       58
 40
0.0
 40
0.0
 40
0.0
 40
0.0
 40
1.0
 40
1.0
 40
1.0
 40
2.0
 40
2.0
 40
2.0
 40
3.0
 40
3.0
 40
3.0
 40
4.0
 40
4.0
 40
4.0
 40
5.0
 40
5.0
 40
5.0
 40
6.0
 40
6.0
 40
6.0
 40
7.0
 40
7.0
 40
7.0
 40
8.0
 40
8.0
 40
8.0
 40
9.0
 40
9.0
 40
9.0
 40
10.0
 40
10.0
 40
10.0
 40
11.0
 40
11.0
 40
11.0
 40
12.0
 40
12.0
 40
12.0
 40
13.0
 40
13.0
 40
13.0
 40
14.0
 40
14.0
 40
14.0
 40
15.0
 40
15.0
 40
15.0
 40
16.0
 40
16.0
 40
16.0
 40
17.0
 40
17.0
 40
17.0
 40
18.0
 40
18.0
 40
18.0
 40
19.0
 40
19.0
 40
19.0
 40
19.0
 10
75.2746473336119
 20
-102.7386040324751
 10
75.2746473336119
 20
-102.8340331774165
 10
75.25363225115187
 20
-103.0517632120843
 10
75.06759709494838
 20
-103.1768201781989
 10
74.95528698212924
 20
-103.2508897311317
 10
74.85606823215404
 20
-103.255023845714
 10
74.77131888321689
 20
-103.2591579602963
 10
74.77131888321689
 20
-103.2591579602963
 10
74.77131888321689
 20
-103.0390163587889
 10
74.77131888321689
 20
-103.0390163587889
 10
74.84538843614976
 20
-103.0369493014977
 10
75.07999943869528
 20
-103.026614015042
 10
75.07999943869528
 20
-102.7430826566059
 10
75.07999943869528
 20
-102.6056233467444
 10
75.01040850989324
 20
-102.4530056167479
 10
74.78199867922118
 20
-102.4530056167479
 10
74.66555445181973
 20
-102.4530056167479
 10
74.6169786054777
 20
-102.4912461766341
 10
74.5852837270134
 20
-102.5229410550984
 10
74.51121417408054
 20
-102.5970106080313
 10
74.49846732078511
 20
-102.7134548354328
 10
74.49846732078511
 20
-102.7682318536482
 10
74.49846732078511
 20
-102.7875243883656
 10
74.50053437807625
 20
-102.8233533814122
 10
74.50466849265855
 20
-102.8509141452942
 10
74.50466849265855
 20
-102.8509141452942
 10
74.31002059774194
 20
-102.8509141452942
 10
74.31002059774194
 20
-102.8509141452942
 10
74.31656627916392
 20
-102.8126735854079
 10
74.31863333645506
 20
-102.7706434204879
 10
74.31863333645506
 20
-102.7640977390659
 10
74.31863333645506
 20
-102.6986409248462
 10
74.29727374444651
 20
-102.4998589153473
 10
74.06059568460985
 20
-102.4998589153473
 10
73.88282875757096
 20
-102.4998589153473
 10
73.82770722980696
 20
-102.6307725437868
 10
73.82770722980696
 20
-102.7410155993147
 10
73.82770722980696
 20
-103.0052544230334
 10
74.06059568460985
 20
-103.0138671617465
 10
74.13225367070305
 20
-103.0180012763288
 10
74.13225367070305
 20
-103.0180012763288
 10
74.13225367070305
 20
-103.2212619099586
 10
74.13225367070305
 20
-103.2212619099586
 10
74.007541214137
 20
-103.2126491712455
 10
73.6309922775992
 20
-103.1850884073635
 10
73.6309922775992
 20
-102.7282687460193
 10
73.6309922775992
 20
-102.5039930299296
 10
73.75811630100492
 20
-102.2628363459621
 10
74.05405000318788
 20
-102.2628363459621
 10
74.2404296689399
 20
-102.2628363459621
 10
74.32276745103736
 20
-102.357920981355
 10
74.38409015067481
 20
-102.4574842408787
 10
74.41165091455682
 20
-102.3961615412412
 10
74.49192163936313
 20
-102.2142604996201
 10
74.76925182592575
 20
-102.2142604996201
 10
75.10756020257728
 20
-102.2142604996201
 10
75.2746473336119
 20
-102.461618355461
 10
75.2746473336119
 20
-102.7386040324751
 97
        0
 97
        0
 75
     2
 76
     1
 98
        0
  0
ENDBLK
  5
8A
330
87
100
AcDbEntity
  8
0
100
AcDbBlockEnd
  0
BLOCK
  5
9B
330
99
100
AcDbEntity
  8
0
100
AcDbBlockBegin
  2
block 5
 70
     0
 10
0.0
 20
0.0
 30
0.0
  3
block 5
  1

  0
SPLINE
  5
9D
330
99
100
AcDbEntity
  8
_U+30EC_U+30A4_U+30E4_U+30FC 1
370
     0
100
AcDbSpline
210
0.0
220
0.0
230
1.0
 70
    11
 71
     3
 72
    26
 73
    22
 74
     0
 42
0.0000000001
 43
0.0000000001
 12
1.0
 22
0.0
 32
0.0
 13
1.0
 23
0.0
 33
0.0
 40
0.0
 40
0.0
 40
0.0
 40
0.0
 40
1.0
 40
1.0
 40
1.0
 40
2.0
 40
2.0
 40
2.0
 40
3.0
 40
3.0
 40
3.0
 40
4.0
 40
4.0
 40
4.0
 40
5.0
 40
5.0
 40
5.0
 40
6.0
 40
6.0
 40
6.0
 40
7.0
 40
7.0
 40
7.0
 40
7.0
 10
53.9384819743626
 20
-106.8778862580028
 30
0.0
 10
53.9384819743626
 20
-106.8778862580028
 30
0.0
 10
53.9384819743626
 20
-105.7737331549802
 30
0.0
 10
53.9384819743626
 20
-105.7737331549802
 30
0.0
 10
53.9384819743626
 20
-105.7737331549802
 30
0.0
 10
53.60844182687567
 20
-105.7737331549802
 30
0.0
 10
53.60844182687567
 20
-105.7737331549802
 30
0.0
 10
53.60844182687567
 20
-105.7737331549802
 30
0.0
 10
53.60844182687567
 20
-105.6255940491144
 30
0.0
 10
53.60844182687567
 20
-105.6255940491144
 30
0.0
 10
53.94054903165375
 20
-105.6107801385279
 30
0.0
 10
53.98705782070463
 20
-105.4478271220756
 30
0.0
 10
54.01668564187778
 20
-105.3334499519652
 30
0.0
 10
54.01668564187778
 20
-105.3334499519652
 30
0.0
 10
54.16275769045237
 20
-105.3334499519652
 30
0.0
 10
54.16275769045237
 20
-105.3334499519652
 30
0.0
 10
54.16275769045237
 20
-105.3334499519652
 30
0.0
 10
54.16275769045237
 20
-106.8778862580028
 30
0.0
 10
54.16275769045237
 20
-106.8778862580028
 30
0.0
 10
54.16275769045237
 20
-106.8778862580028
 30
0.0
 10
53.9384819743626
 20
-106.8778862580028
 30
0.0
 10
53.9384819743626
 20
-106.8778862580028
 30
0.0
  0
HATCH
  5
9E
330
99
100
AcDbEntity
  8
_U+30EC_U+30A4_U+30E4_U+30FC 1
 62
     7
420
 16777215
100
AcDbHatch
 10
0.0
 20
0.0
 30
0.0
210
0.0
220
0.0
230
1.0
  2
SOLID
 70
     1
 71
     0
 91
        1
 92
        1
 93
        1
 72
     4
 94
        3
 73
     0
 74
     1
 95
       26
 96
       22
 40
0.0
 40
0.0
 40
0.0
 40
0.0
 40
1.0
 40
1.0
 40
1.0
 40
2.0
 40
2.0
 40
2.0
 40
3.0
 40
3.0
 40
3.0
 40
4.0
 40
4.0
 40
4.0
 40
5.0
 40
5.0
 40
5.0
 40
6.0
 40
6.0
 40
6.0
 40
7.0
 40
7.0
 40
7.0
 40
7.0
 10
53.9384819743626
 20
-106.8778862580028
 10
53.9384819743626
 20
-106.8778862580028
 10
53.9384819743626
 20
-105.7737331549802
 10
53.9384819743626
 20
-105.7737331549802
 10
53.9384819743626
 20
-105.7737331549802
 10
53.60844182687567
 20
-105.7737331549802
 10
53.60844182687567
 20
-105.7737331549802
 10
53.60844182687567
 20
-105.7737331549802
 10
53.60844182687567
 20
-105.6255940491144
 10
53.60844182687567
 20
-105.6255940491144
 10
53.94054903165375
 20
-105.6107801385279
 10
53.98705782070463
 20
-105.4478271220756
 10
54.01668564187778
 20
-105.3334499519652
 10
54.01668564187778
 20
-105.3334499519652
 10
54.16275769045237
 20
-105.3334499519652
 10
54.16275769045237
 20
-105.3334499519652
 10
54.16275769045237
 20
-105.3334499519652
 10
54.16275769045237
 20
-106.8778862580028
 10
54.16275769045237
 20
-106.8778862580028
 10
54.16275769045237
 20
-106.8778862580028
 10
53.9384819743626
 20
-106.8778862580028
 10
53.9384819743626
 20
-106.8778862580028
 97
        0
 97
        0
 75
     2
 76
     1
 98
        0
  0
SPLINE
  5
9F
330
99
100
AcDbEntity
  8
_U+30EC_U+30A4_U+30E4_U+30FC 1
370
     0
100
AcDbSpline
210
0.0
220
0.0
230
1.0
 70
    11
 71
     3
 72
    29
 73
    25
 74
     0
 42
0.0000000001
 43
0.0000000001
 12
1.0
 22
0.0
 32
0.0
 13
1.0
 23
0.0
 33
0.0
 40
0.0
 40
0.0
 40
0.0
 40
0.0
 40
1.0
 40
1.0
 40
1.0
 40
2.0
 40
2.0
 40
2.0
 40
3.0
 40
3.0
 40
3.0
 40
4.0
 40
4.0
 40
4.0
 40
5.0
 40
5.0
 40
5.0
 40
6.0
 40
6.0
 40
6.0
 40
7.0
 40
7.0
 40
7.0
 40
8.0
 40
8.0
 40
8.0
 40
8.0
 10
55.56163871223806
 20
-106.7001193309639
 30
0.0
 10
55.45380722354975
 20
-106.9095811364671
 30
0.0
 10
55.28034666586741
 20
-106.9285291616359
 30
0.0
 10
55.16390243846597
 20
-106.9285291616359
 30
0.0
 10
55.00318873407907
 20
-106.9285291616359
 30
0.0
 10
54.86142305486104
 20
-106.8820203725851
 30
0.0
 10
54.76616616469388
 20
-106.7001193309639
 30
0.0
 10
54.66264104536212
 20
-106.5054714360472
 30
0.0
 10
54.64352076541898
 20
-106.2684488666621
 30
0.0
 10
54.64352076541898
 20
-106.1058403597583
 30
0.0
 10
54.64352076541898
 20
-105.9618353684748
 30
0.0
 10
54.66040173329671
 20
-105.7099988885031
 30
0.0
 10
54.76616616469388
 20
-105.5112168790041
 30
0.0
 10
54.87416990815646
 20
-105.3083007549229
 30
0.0
 10
55.03488361254337
 20
-105.2848741056232
 30
0.0
 10
55.16390243846597
 20
-105.2848741056232
 30
0.0
 10
55.32254908556173
 20
-105.2848741056232
 30
0.0
 10
55.46638182207091
 20
-105.3293158373829
 30
0.0
 10
55.56163871223806
 20
-105.5112168790041
 30
0.0
 10
55.66102971698752
 20
-105.7037977166296
 30
0.0
 10
55.68428411151296
 20
-105.9322075473017
 30
0.0
 10
55.68428411151296
 20
-106.1058403597583
 30
0.0
 10
55.68428411151296
 20
-106.2770616053752
 30
0.0
 10
55.66326902905293
 20
-106.5075384933384
 30
0.0
 10
55.56163871223806
 20
-106.7001193309639
 30
0.0
  0
SPLINE
  5
A0
330
99
100
AcDbEntity
  8
_U+30EC_U+30A4_U+30E4_U+30FC 1
370
     0
100
AcDbSpline
210
0.0
220
0.0
230
1.0
 70
    11
 71
     3
 72
    17
 73
    13
 74
     0
 42
0.0000000001
 43
0.0000000001
 12
1.0
 22
0.0
 32
0.0
 13
1.0
 23
0.0
 33
0.0
 40
0.0
 40
0.0
 40
0.0
 40
0.0
 40
1.0
 40
1.0
 40
1.0
 40
2.0
 40
2.0
 40
2.0
 40
3.0
 40
3.0
 40
3.0
 40
4.0
 40
4.0
 40
4.0
 40
4.0
 10
55.16390243846597
 20
-105.4774549432487
 30
0.0
 10
54.91430527055962
 20
-105.4774549432487
 30
0.0
 10
54.86779648150875
 20
-105.7609863016848
 30
0.0
 10
54.86779648150875
 20
-106.1058403597583
 30
0.0
 10
54.86779648150875
 20
-106.4252007112409
 30
0.0
 10
54.90379772932961
 20
-106.7338812667193
 30
0.0
 10
55.16390243846597
 20
-106.7338812667193
 30
0.0
 10
55.41143254908117
 20
-106.7338812667193
 30
0.0
 10
55.46018065019746
 20
-106.4527614751229
 30
0.0
 10
55.46018065019746
 20
-106.1058403597583
 30
0.0
 10
55.46018065019746
 20
-105.7861354987271
 30
0.0
 10
55.42194009031118
 20
-105.4774549432487
 30
0.0
 10
55.16390243846597
 20
-105.4774549432487
 30
0.0
  0
HATCH
  5
A1
330
99
100
AcDbEntity
  8
_U+30EC_U+30A4_U+30E4_U+30FC 1
 62
     7
420
 16777215
100
AcDbHatch
 10
0.0
 20
0.0
 30
0.0
210
0.0
220
0.0
230
1.0
  2
SOLID
 70
     1
 71
     0
 91
        2
 92
        1
 93
        1
 72
     4
 94
        3
 73
     0
 74
     1
 95
       29
 96
       25
 40
0.0
 40
0.0
 40
0.0
 40
0.0
 40
1.0
 40
1.0
 40
1.0
 40
2.0
 40
2.0
 40
2.0
 40
3.0
 40
3.0
 40
3.0
 40
4.0
 40
4.0
 40
4.0
 40
5.0
 40
5.0
 40
5.0
 40
6.0
 40
6.0
 40
6.0
 40
7.0
 40
7.0
 40
7.0
 40
8.0
 40
8.0
 40
8.0
 40
8.0
 10
55.56163871223806
 20
-106.7001193309639
 10
55.45380722354975
 20
-106.9095811364671
 10
55.28034666586741
 20
-106.9285291616359
 10
55.16390243846597
 20
-106.9285291616359
 10
55.00318873407907
 20
-106.9285291616359
 10
54.86142305486104
 20
-106.8820203725851
 10
54.76616616469388
 20
-106.7001193309639
 10
54.66264104536212
 20
-106.5054714360472
 10
54.64352076541898
 20
-106.2684488666621
 10
54.64352076541898
 20
-106.1058403597583
 10
54.64352076541898
 20
-105.9618353684748
 10
54.66040173329671
 20
-105.7099988885031
 10
54.76616616469388
 20
-105.5112168790041
 10
54.87416990815646
 20
-105.3083007549229
 10
55.03488361254337
 20
-105.2848741056232
 10
55.16390243846597
 20
-105.2848741056232
 10
55.32254908556173
 20
-105.2848741056232
 10
55.46638182207091
 20
-105.3293158373829
 10
55.56163871223806
 20
-105.5112168790041
 10
55.66102971698752
 20
-105.7037977166296
 10
55.68428411151296
 20
-105.9322075473017
 10
55.68428411151296
 20
-106.1058403597583
 10
55.68428411151296
 20
-106.2770616053752
 10
55.66326902905293
 20
-106.5075384933384
 10
55.56163871223806
 20
-106.7001193309639
 97
        0
 97
        0
 92
        1
 93
        1
 72
     4
 94
        3
 73
     0
 74
     1
 95
       17
 96
       13
 40
0.0
 40
0.0
 40
0.0
 40
0.0
 40
1.0
 40
1.0
 40
1.0
 40
2.0
 40
2.0
 40
2.0
 40
3.0
 40
3.0
 40
3.0
 40
4.0
 40
4.0
 40
4.0
 40
4.0
 10
55.16390243846597
 20
-105.4774549432487
 10
54.91430527055962
 20
-105.4774549432487
 10
54.86779648150875
 20
-105.7609863016848
 10
54.86779648150875
 20
-106.1058403597583
 10
54.86779648150875
 20
-106.4252007112409
 10
54.90379772932961
 20
-106.7338812667193
 10
55.16390243846597
 20
-106.7338812667193
 10
55.41143254908117
 20
-106.7338812667193
 10
55.46018065019746
 20
-106.4527614751229
 10
55.46018065019746
 20
-106.1058403597583
 10
55.46018065019746
 20
-105.7861354987271
 10
55.42194009031118
 20
-105.4774549432487
 10
55.16390243846597
 20
-105.4774549432487
 97
        0
 97
        0
 75
     2
 76
     1
 98
        0
  0
ENDBLK
  5
9C
330
99
100
AcDbEntity
  8
0
100
AcDbBlockEnd
  0
BLOCK
  5
B0
330
AE
100
AcDbEntity
  8
0
100
AcDbBlockBegin
  2
block 6
 70
     0
 10
0.0
 20
0.0
 30
0.0
  3
block 6
  1

  0
SPLINE
  5
B2
330
AE
100
AcDbEntity
  8
_U+30EC_U+30A4_U+30E4_U+30FC 1
370
     0
100
AcDbSpline
210
0.0
220
0.0
230
1.0
 70
    11
 71
     3
 72
    44
 73
    40
 74
     0
 42
0.0000000001
 43
0.0000000001
 12
1.0
 22
0.0
 32
0.0
 13
1.0
 23
0.0
 33
0.0
 40
0.0
 40
0.0
 40
0.0
 40
0.0
 40
1.0
 40
1.0
 40
1.0
 40
2.0
 40
2.0
 40
2.0
 40
3.0
 40
3.0
 40
3.0
 40
4.0
 40
4.0
 40
4.0
 40
5.0
 40
5.0
 40
5.0
 40
6.0
 40
6.0
 40
6.0
 40
7.0
 40
7.0
 40
7.0
 40
8.0
 40
8.0
 40
8.0
 40
9.0
 40
9.0
 40
9.0
 40
10.0
 40
10.0
 40
10.0
 40
11.0
 40
11.0
 40
11.0
 40
12.0
 40
12.0
 40
12.0
 40
13.0
 40
13.0
 40
13.0
 40
13.0
 10
60.57993705082724
 20
-71.49727238880972
 30
0.0
 10
60.36220701615945
 20
-71.65591903590547
 30
0.0
 10
60.26918943805771
 20
-71.72998858883834
 30
0.0
 10
60.22026908216716
 20
-71.87382132534752
 30
0.0
 10
60.22026908216716
 20
-71.87382132534752
 30
0.0
 10
60.99886066183362
 20
-71.87382132534752
 30
0.0
 10
60.99886066183362
 20
-71.87382132534752
 30
0.0
 10
60.99886066183362
 20
-71.87382132534752
 30
0.0
 10
60.99886066183362
 20
-72.07897676149415
 30
0.0
 10
60.99886066183362
 20
-72.07897676149415
 30
0.0
 10
60.99886066183362
 20
-72.07897676149415
 30
0.0
 10
59.97084416903507
 20
-72.07897676149415
 30
0.0
 10
59.97084416903507
 20
-72.07897676149415
 30
0.0
 10
60.00253904749937
 20
-71.72137585012521
 30
0.0
 10
60.06799586171911
 20
-71.64317218261004
 30
0.0
 10
60.45315753697005
 20
-71.34482691358741
 30
0.0
 10
60.70912813152411
 20
-71.1460449040885
 30
0.0
 10
60.77458494574385
 20
-71.07834877780333
 30
0.0
 10
60.77458494574385
 20
-70.94088946794186
 30
0.0
 10
60.77458494574385
 20
-70.82237818324927
 30
0.0
 10
60.70258245010213
 20
-70.69129230003551
 30
0.0
 10
60.50586749789437
 20
-70.69129230003551
 30
0.0
 10
60.24576278875801
 20
-70.69129230003551
 30
0.0
 10
60.23715005004488
 20
-70.92176918799873
 30
0.0
 10
60.23301593546258
 20
-71.03821341540018
 30
0.0
 10
60.23301593546258
 20
-71.03821341540018
 30
0.0
 10
60.00874021937282
 20
-71.03821341540018
 30
0.0
 10
60.00874021937282
 20
-71.03821341540018
 30
0.0
 10
60.01735295808594
 20
-70.91126164676872
 30
0.0
 10
60.02803275409022
 20
-70.79912378872383
 30
0.0
 10
60.10830347889654
 20
-70.68061250403125
 30
0.0
 10
60.21820202487601
 20
-70.51989879964434
 30
0.0
 10
60.40458169062802
 20
-70.48596460911462
 30
0.0
 10
60.52068140848095
 20
-70.48596460911462
 30
0.0
 10
60.79801159504355
 20
-70.48596460911462
 30
0.0
 10
61.00540634325559
 20
-70.67010496280123
 30
0.0
 10
61.00540634325559
 20
-70.94295652523301
 30
0.0
 10
61.00540634325559
 20
-71.17136635590508
 30
0.0
 10
60.88896211585415
 20
-71.2709296154288
 30
0.0
 10
60.57993705082724
 20
-71.49727238880972
 30
0.0
  0
HATCH
  5
B3
330
AE
100
AcDbEntity
  8
_U+30EC_U+30A4_U+30E4_U+30FC 1
 62
     7
420
 16777215
100
AcDbHatch
 10
0.0
 20
0.0
 30
0.0
210
0.0
220
0.0
230
1.0
  2
SOLID
 70
     1
 71
     0
 91
        1
 92
        1
 93
        1
 72
     4
 94
        3
 73
     0
 74
     1
 95
       44
 96
       40
 40
0.0
 40
0.0
 40
0.0
 40
0.0
 40
1.0
 40
1.0
 40
1.0
 40
2.0
 40
2.0
 40
2.0
 40
3.0
 40
3.0
 40
3.0
 40
4.0
 40
4.0
 40
4.0
 40
5.0
 40
5.0
 40
5.0
 40
6.0
 40
6.0
 40
6.0
 40
7.0
 40
7.0
 40
7.0
 40
8.0
 40
8.0
 40
8.0
 40
9.0
 40
9.0
 40
9.0
 40
10.0
 40
10.0
 40
10.0
 40
11.0
 40
11.0
 40
11.0
 40
12.0
 40
12.0
 40
12.0
 40
13.0
 40
13.0
 40
13.0
 40
13.0
 10
60.57993705082724
 20
-71.49727238880972
 10
60.36220701615945
 20
-71.65591903590547
 10
60.26918943805771
 20
-71.72998858883834
 10
60.22026908216716
 20
-71.87382132534752
 10
60.22026908216716
 20
-71.87382132534752
 10
60.99886066183362
 20
-71.87382132534752
 10
60.99886066183362
 20
-71.87382132534752
 10
60.99886066183362
 20
-71.87382132534752
 10
60.99886066183362
 20
-72.07897676149415
 10
60.99886066183362
 20
-72.07897676149415
 10
60.99886066183362
 20
-72.07897676149415
 10
59.97084416903507
 20
-72.07897676149415
 10
59.97084416903507
 20
-72.07897676149415
 10
60.00253904749937
 20
-71.72137585012521
 10
60.06799586171911
 20
-71.64317218261004
 10
60.45315753697005
 20
-71.34482691358741
 10
60.70912813152411
 20
-71.1460449040885
 10
60.77458494574385
 20
-71.07834877780333
 10
60.77458494574385
 20
-70.94088946794186
 10
60.77458494574385
 20
-70.82237818324927
 10
60.70258245010213
 20
-70.69129230003551
 10
60.50586749789437
 20
-70.69129230003551
 10
60.24576278875801
 20
-70.69129230003551
 10
60.23715005004488
 20
-70.92176918799873
 10
60.23301593546258
 20
-71.03821341540018
 10
60.23301593546258
 20
-71.03821341540018
 10
60.00874021937282
 20
-71.03821341540018
 10
60.00874021937282
 20
-71.03821341540018
 10
60.01735295808594
 20
-70.91126164676872
 10
60.02803275409022
 20
-70.79912378872383
 10
60.10830347889654
 20
-70.68061250403125
 10
60.21820202487601
 20
-70.51989879964434
 10
60.40458169062802
 20
-70.48596460911462
 10
60.52068140848095
 20
-70.48596460911462
 10
60.79801159504355
 20
-70.48596460911462
 10
61.00540634325559
 20
-70.67010496280123
 10
61.00540634325559
 20
-70.94295652523301
 10
61.00540634325559
 20
-71.17136635590508
 10
60.88896211585415
 20
-71.2709296154288
 10
60.57993705082724
 20
-71.49727238880972
 97
        0
 97
        0
 75
     2
 76
     1
 98
        0
  0
SPLINE
  5
B4
330
AE
100
AcDbEntity
  8
_U+30EC_U+30A4_U+30E4_U+30FC 1
370
     0
100
AcDbSpline
210
0.0
220
0.0
230
1.0
 70
    11
 71
     3
 72
    62
 73
    58
 74
     0
 42
0.0000000001
 43
0.0000000001
 12
1.0
 22
0.0
 32
0.0
 13
1.0
 23
0.0
 33
0.0
 40
0.0
 40
0.0
 40
0.0
 40
0.0
 40
1.0
 40
1.0
 40
1.0
 40
2.0
 40
2.0
 40
2.0
 40
3.0
 40
3.0
 40
3.0
 40
4.0
 40
4.0
 40
4.0
 40
5.0
 40
5.0
 40
5.0
 40
6.0
 40
6.0
 40
6.0
 40
7.0
 40
7.0
 40
7.0
 40
8.0
 40
8.0
 40
8.0
 40
9.0
 40
9.0
 40
9.0
 40
10.0
 40
10.0
 40
10.0
 40
11.0
 40
11.0
 40
11.0
 40
12.0
 40
12.0
 40
12.0
 40
13.0
 40
13.0
 40
13.0
 40
14.0
 40
14.0
 40
14.0
 40
15.0
 40
15.0
 40
15.0
 40
16.0
 40
16.0
 40
16.0
 40
17.0
 40
17.0
 40
17.0
 40
18.0
 40
18.0
 40
18.0
 40
19.0
 40
19.0
 40
19.0
 40
19.0
 10
61.65549586132224
 20
-72.12979191990158
 30
0.0
 10
61.56006671638082
 20
-72.12979191990158
 30
0.0
 10
61.34233668171303
 20
-72.1086045826673
 30
0.0
 10
61.21727971559846
 20
-71.92239717168954
 30
0.0
 10
61.14321016266559
 20
-71.81025931364466
 30
0.0
 10
61.13907604808329
 20
-71.7108683088952
 30
0.0
 10
61.13494193350099
 20
-71.62629121473232
 30
0.0
 10
61.13494193350099
 20
-71.62629121473232
 30
0.0
 10
61.35508353500845
 20
-71.62629121473232
 30
0.0
 10
61.35508353500845
 20
-71.62629121473232
 30
0.0
 10
61.3571505922996
 20
-71.70036076766519
 30
0.0
 10
61.36748587875535
 20
-71.93514402498496
 30
0.0
 10
61.65101723719142
 20
-71.93514402498496
 30
0.0
 10
61.78847654705288
 20
-71.93514402498496
 30
0.0
 10
61.94109427704945
 20
-71.86538084140865
 30
0.0
 10
61.94109427704945
 20
-71.63679875596233
 30
0.0
 10
61.94109427704945
 20
-71.52052678333514
 30
0.0
 10
61.90285371716318
 20
-71.47177868221887
 30
0.0
 10
61.87115883869888
 20
-71.44008380375456
 30
0.0
 10
61.79708928576601
 20
-71.36601425082169
 30
0.0
 10
61.68064505836456
 20
-71.35343965230054
 30
0.0
 10
61.62586804014909
 20
-71.35343965230054
 30
0.0
 10
61.60657550543169
 20
-71.35343965230054
 30
0.0
 10
61.57074651238509
 20
-71.35550670959168
 30
0.0
 10
61.54318574850309
 20
-71.35964082417398
 30
0.0
 10
61.54318574850309
 20
-71.35964082417398
 30
0.0
 10
61.54318574850309
 20
-71.16499292925737
 30
0.0
 10
61.54318574850309
 20
-71.16499292925737
 30
0.0
 10
61.58142630838937
 20
-71.17136635590508
 30
0.0
 10
61.62345647330942
 20
-71.17360566797049
 30
0.0
 10
61.63000215473139
 20
-71.17360566797049
 30
0.0
 10
61.69545896895114
 20
-71.17360566797049
 30
0.0
 10
61.89424097845006
 20
-71.15241833073621
 30
0.0
 10
61.89424097845006
 20
-70.91539576135102
 30
0.0
 10
61.89424097845006
 20
-70.73780108908639
 30
0.0
 10
61.76332735001056
 20
-70.68267956132239
 30
0.0
 10
61.65308429448257
 20
-70.68267956132239
 30
0.0
 10
61.3888454707639
 20
-70.68267956132239
 30
0.0
 10
61.38023273205078
 20
-70.91539576135102
 30
0.0
 10
61.37609861746848
 20
-70.98739825699273
 30
0.0
 10
61.37609861746848
 20
-70.98739825699273
 30
0.0
 10
61.17283798383874
 20
-70.98739825699273
 30
0.0
 10
61.17283798383874
 20
-70.98739825699273
 30
0.0
 10
61.18145072255187
 20
-70.86251354565243
 30
0.0
 10
61.20901148643386
 20
-70.48596460911462
 30
0.0
 10
61.66583114777799
 20
-70.48596460911462
 30
0.0
 10
61.89010686386776
 20
-70.48596460911462
 30
0.0
 10
62.13126354783524
 20
-70.61291637774607
 30
0.0
 10
62.13126354783524
 20
-70.90902233470331
 30
0.0
 10
62.13126354783524
 20
-71.09522974568105
 30
0.0
 10
62.03617891244235
 20
-71.17773978255279
 30
0.0
 10
61.93661565291863
 20
-71.23906248219023
 30
0.0
 10
61.99793835255608
 20
-71.26662324607224
 30
0.0
 10
62.17983939417726
 20
-71.34706622565282
 30
0.0
 10
62.17983939417726
 20
-71.62422415744118
 30
0.0
 10
62.17983939417726
 20
-71.96270478886697
 30
0.0
 10
61.93248153833633
 20
-72.12979191990158
 30
0.0
 10
61.65549586132224
 20
-72.12979191990158
 30
0.0
  0
HATCH
  5
B5
330
AE
100
AcDbEntity
  8
_U+30EC_U+30A4_U+30E4_U+30FC 1
 62
     7
420
 16777215
100
AcDbHatch
 10
0.0
 20
0.0
 30
0.0
210
0.0
220
0.0
230
1.0
  2
SOLID
 70
     1
 71
     0
 91
        1
 92
        1
 93
        1
 72
     4
 94
        3
 73
     0
 74
     1
 95
       62
 96
       58
 40
0.0
 40
0.0
 40
0.0
 40
0.0
 40
1.0
 40
1.0
 40
1.0
 40
2.0
 40
2.0
 40
2.0
 40
3.0
 40
3.0
 40
3.0
 40
4.0
 40
4.0
 40
4.0
 40
5.0
 40
5.0
 40
5.0
 40
6.0
 40
6.0
 40
6.0
 40
7.0
 40
7.0
 40
7.0
 40
8.0
 40
8.0
 40
8.0
 40
9.0
 40
9.0
 40
9.0
 40
10.0
 40
10.0
 40
10.0
 40
11.0
 40
11.0
 40
11.0
 40
12.0
 40
12.0
 40
12.0
 40
13.0
 40
13.0
 40
13.0
 40
14.0
 40
14.0
 40
14.0
 40
15.0
 40
15.0
 40
15.0
 40
16.0
 40
16.0
 40
16.0
 40
17.0
 40
17.0
 40
17.0
 40
18.0
 40
18.0
 40
18.0
 40
19.0
 40
19.0
 40
19.0
 40
19.0
 10
61.65549586132224
 20
-72.12979191990158
 10
61.56006671638082
 20
-72.12979191990158
 10
61.34233668171303
 20
-72.1086045826673
 10
61.21727971559846
 20
-71.92239717168954
 10
61.14321016266559
 20
-71.81025931364466
 10
61.13907604808329
 20
-71.7108683088952
 10
61.13494193350099
 20
-71.62629121473232
 10
61.13494193350099
 20
-71.62629121473232
 10
61.35508353500845
 20
-71.62629121473232
 10
61.35508353500845
 20
-71.62629121473232
 10
61.3571505922996
 20
-71.70036076766519
 10
61.36748587875535
 20
-71.93514402498496
 10
61.65101723719142
 20
-71.93514402498496
 10
61.78847654705288
 20
-71.93514402498496
 10
61.94109427704945
 20
-71.86538084140865
 10
61.94109427704945
 20
-71.63679875596233
 10
61.94109427704945
 20
-71.52052678333514
 10
61.90285371716318
 20
-71.47177868221887
 10
61.87115883869888
 20
-71.44008380375456
 10
61.79708928576601
 20
-71.36601425082169
 10
61.68064505836456
 20
-71.35343965230054
 10
61.62586804014909
 20
-71.35343965230054
 10
61.60657550543169
 20
-71.35343965230054
 10
61.57074651238509
 20
-71.35550670959168
 10
61.54318574850309
 20
-71.35964082417398
 10
61.54318574850309
 20
-71.35964082417398
 10
61.54318574850309
 20
-71.16499292925737
 10
61.54318574850309
 20
-71.16499292925737
 10
61.58142630838937
 20
-71.17136635590508
 10
61.62345647330942
 20
-71.17360566797049
 10
61.63000215473139
 20
-71.17360566797049
 10
61.69545896895114
 20
-71.17360566797049
 10
61.89424097845006
 20
-71.15241833073621
 10
61.89424097845006
 20
-70.91539576135102
 10
61.89424097845006
 20
-70.73780108908639
 10
61.76332735001056
 20
-70.68267956132239
 10
61.65308429448257
 20
-70.68267956132239
 10
61.3888454707639
 20
-70.68267956132239
 10
61.38023273205078
 20
-70.91539576135102
 10
61.37609861746848
 20
-70.98739825699273
 10
61.37609861746848
 20
-70.98739825699273
 10
61.17283798383874
 20
-70.98739825699273
 10
61.17283798383874
 20
-70.98739825699273
 10
61.18145072255187
 20
-70.86251354565243
 10
61.20901148643386
 20
-70.48596460911462
 10
61.66583114777799
 20
-70.48596460911462
 10
61.89010686386776
 20
-70.48596460911462
 10
62.13126354783524
 20
-70.61291637774607
 10
62.13126354783524
 20
-70.90902233470331
 10
62.13126354783524
 20
-71.09522974568105
 10
62.03617891244235
 20
-71.17773978255279
 10
61.93661565291863
 20
-71.23906248219023
 10
61.99793835255608
 20
-71.26662324607224
 10
62.17983939417726
 20
-71.34706622565282
 10
62.17983939417726
 20
-71.62422415744118
 10
62.17983939417726
 20
-71.96270478886697
 10
61.93248153833633
 20
-72.12979191990158
 10
61.65549586132224
 20
-72.12979191990158
 97
        0
 97
        0
 75
     2
 76
     1
 98
        0
  0
ENDBLK
  5
B1
330
AE
100
AcDbEntity
  8
0
100
AcDbBlockEnd
  0
BLOCK
  5
C0
330
BE
100
AcDbEntity
  8
0
100
AcDbBlockBegin
  2
block 7
 70
     0
 10
0.0
 20
0.0
 30
0.0
  3
block 7
  1

  0
SPLINE
  5
C2
330
BE
100
AcDbEntity
  8
_U+30EC_U+30A4_U+30E4_U+30FC 1
370
     0
100
AcDbSpline
210
0.0
220
0.0
230
1.0
 70
    11
 71
     3
 72
    44
 73
    40
 74
     0
 42
0.0000000001
 43
0.0000000001
 12
1.0
 22
0.0
 32
0.0
 13
1.0
 23
0.0
 33
0.0
 40
0.0
 40
0.0
 40
0.0
 40
0.0
 40
1.0
 40
1.0
 40
1.0
 40
2.0
 40
2.0
 40
2.0
 40
3.0
 40
3.0
 40
3.0
 40
4.0
 40
4.0
 40
4.0
 40
5.0
 40
5.0
 40
5.0
 40
6.0
 40
6.0
 40
6.0
 40
7.0
 40
7.0
 40
7.0
 40
8.0
 40
8.0
 40
8.0
 40
9.0
 40
9.0
 40
9.0
 40
10.0
 40
10.0
 40
10.0
 40
11.0
 40
11.0
 40
11.0
 40
12.0
 40
12.0
 40
12.0
 40
13.0
 40
13.0
 40
13.0
 40
13.0
 10
74.64212780252002
 20
-89.72647838468644
 30
0.0
 10
74.80094670439004
 20
-89.94420841935423
 30
0.0
 10
74.87501625732291
 20
-90.03722599745598
 30
0.0
 10
75.01867673905784
 20
-90.08614635334652
 30
0.0
 10
75.01867673905784
 20
-90.08614635334652
 30
0.0
 10
75.01867673905784
 20
-89.30755477368005
 30
0.0
 10
75.01867673905784
 20
-89.30755477368005
 30
0.0
 10
75.01867673905784
 20
-89.30755477368005
 30
0.0
 10
75.22400442997872
 20
-89.30755477368005
 30
0.0
 10
75.22400442997872
 20
-89.30755477368005
 30
0.0
 10
75.22400442997872
 20
-89.30755477368005
 30
0.0
 10
75.22400442997872
 20
-90.33557126647861
 30
0.0
 10
75.22400442997872
 20
-90.33557126647861
 30
0.0
 10
74.86640351860979
 20
-90.30387638801432
 30
0.0
 10
74.78819985109462
 20
-90.23841957379456
 30
0.0
 10
74.48985458207198
 20
-89.85325789854363
 30
0.0
 10
74.29107257257307
 20
-89.59728730398957
 30
0.0
 10
74.22320419151364
 20
-89.53183048976983
 30
0.0
 10
74.08574488165218
 20
-89.53183048976983
 30
0.0
 10
73.96723359695959
 20
-89.53183048976983
 30
0.0
 10
73.83631996852009
 20
-89.60383298541154
 30
0.0
 10
73.83631996852009
 20
-89.80054793761931
 30
0.0
 10
73.83631996852009
 20
-90.06065264675567
 30
0.0
 10
74.06679685648331
 20
-90.0692653854688
 30
0.0
 10
74.18324108388475
 20
-90.0733995000511
 30
0.0
 10
74.18324108388475
 20
-90.0733995000511
 30
0.0
 10
74.18324108388475
 20
-90.29767521614086
 30
0.0
 10
74.18324108388475
 20
-90.29767521614086
 30
0.0
 10
74.05611706047902
 20
-90.28906247742773
 30
0.0
 10
73.9441514572084
 20
-90.27838268142347
 30
0.0
 10
73.82564017251582
 20
-90.19811195661714
 30
0.0
 10
73.66475421335466
 20
-90.08821341063768
 30
0.0
 10
73.6309922775992
 20
-89.90183374488565
 30
0.0
 10
73.6309922775992
 20
-89.78573402703273
 30
0.0
 10
73.6309922775992
 20
-89.50840384047012
 30
0.0
 10
73.81496037651154
 20
-89.30100909225808
 30
0.0
 10
74.08781193894333
 20
-89.30100909225808
 30
0.0
 10
74.31656627916392
 20
-89.30100909225808
 30
0.0
 10
74.41578502913912
 20
-89.41745331965953
 30
0.0
 10
74.64212780252002
 20
-89.72647838468644
 30
0.0
  0
HATCH
  5
C3
330
BE
100
AcDbEntity
  8
_U+30EC_U+30A4_U+30E4_U+30FC 1
 62
     7
420
 16777215
100
AcDbHatch
 10
0.0
 20
0.0
 30
0.0
210
0.0
220
0.0
230
1.0
  2
SOLID
 70
     1
 71
     0
 91
        1
 92
        1
 93
        1
 72
     4
 94
        3
 73
     0
 74
     1
 95
       44
 96
       40
 40
0.0
 40
0.0
 40
0.0
 40
0.0
 40
1.0
 40
1.0
 40
1.0
 40
2.0
 40
2.0
 40
2.0
 40
3.0
 40
3.0
 40
3.0
 40
4.0
 40
4.0
 40
4.0
 40
5.0
 40
5.0
 40
5.0
 40
6.0
 40
6.0
 40
6.0
 40
7.0
 40
7.0
 40
7.0
 40
8.0
 40
8.0
 40
8.0
 40
9.0
 40
9.0
 40
9.0
 40
10.0
 40
10.0
 40
10.0
 40
11.0
 40
11.0
 40
11.0
 40
12.0
 40
12.0
 40
12.0
 40
13.0
 40
13.0
 40
13.0
 40
13.0
 10
74.64212780252002
 20
-89.72647838468644
 10
74.80094670439004
 20
-89.94420841935423
 10
74.87501625732291
 20
-90.03722599745598
 10
75.01867673905784
 20
-90.08614635334652
 10
75.01867673905784
 20
-90.08614635334652
 10
75.01867673905784
 20
-89.30755477368005
 10
75.01867673905784
 20
-89.30755477368005
 10
75.01867673905784
 20
-89.30755477368005
 10
75.22400442997872
 20
-89.30755477368005
 10
75.22400442997872
 20
-89.30755477368005
 10
75.22400442997872
 20
-89.30755477368005
 10
75.22400442997872
 20
-90.33557126647861
 10
75.22400442997872
 20
-90.33557126647861
 10
74.86640351860979
 20
-90.30387638801432
 10
74.78819985109462
 20
-90.23841957379456
 10
74.48985458207198
 20
-89.85325789854363
 10
74.29107257257307
 20
-89.59728730398957
 10
74.22320419151364
 20
-89.53183048976983
 10
74.08574488165218
 20
-89.53183048976983
 10
73.96723359695959
 20
-89.53183048976983
 10
73.83631996852009
 20
-89.60383298541154
 10
73.83631996852009
 20
-89.80054793761931
 10
73.83631996852009
 20
-90.06065264675567
 10
74.06679685648331
 20
-90.0692653854688
 10
74.18324108388475
 20
-90.0733995000511
 10
74.18324108388475
 20
-90.0733995000511
 10
74.18324108388475
 20
-90.29767521614086
 10
74.18324108388475
 20
-90.29767521614086
 10
74.05611706047902
 20
-90.28906247742773
 10
73.9441514572084
 20
-90.27838268142347
 10
73.82564017251582
 20
-90.19811195661714
 10
73.66475421335466
 20
-90.08821341063768
 10
73.6309922775992
 20
-89.90183374488565
 10
73.6309922775992
 20
-89.78573402703273
 10
73.6309922775992
 20
-89.50840384047012
 10
73.81496037651154
 20
-89.30100909225808
 10
74.08781193894333
 20
-89.30100909225808
 10
74.31656627916392
 20
-89.30100909225808
 10
74.41578502913912
 20
-89.41745331965953
 10
74.64212780252002
 20
-89.72647838468644
 97
        0
 97
        0
 75
     2
 76
     1
 98
        0
  0
SPLINE
  5
C4
330
BE
100
AcDbEntity
  8
_U+30EC_U+30A4_U+30E4_U+30FC 1
370
     0
100
AcDbSpline
210
0.0
220
0.0
230
1.0
 70
    11
 71
     3
 72
    62
 73
    58
 74
     0
 42
0.0000000001
 43
0.0000000001
 12
1.0
 22
0.0
 32
0.0
 13
1.0
 23
0.0
 33
0.0
 40
0.0
 40
0.0
 40
0.0
 40
0.0
 40
1.0
 40
1.0
 40
1.0
 40
2.0
 40
2.0
 40
2.0
 40
3.0
 40
3.0
 40
3.0
 40
4.0
 40
4.0
 40
4.0
 40
5.0
 40
5.0
 40
5.0
 40
6.0
 40
6.0
 40
6.0
 40
7.0
 40
7.0
 40
7.0
 40
8.0
 40
8.0
 40
8.0
 40
9.0
 40
9.0
 40
9.0
 40
10.0
 40
10.0
 40
10.0
 40
11.0
 40
11.0
 40
11.0
 40
12.0
 40
12.0
 40
12.0
 40
13.0
 40
13.0
 40
13.0
 40
14.0
 40
14.0
 40
14.0
 40
15.0
 40
15.0
 40
15.0
 40
16.0
 40
16.0
 40
16.0
 40
17.0
 40
17.0
 40
17.0
 40
18.0
 40
18.0
 40
18.0
 40
19.0
 40
19.0
 40
19.0
 40
19.0
 10
75.2746473336119
 20
-88.65091957419143
 30
0.0
 10
75.2746473336119
 20
-88.74634871913287
 30
0.0
 10
75.25363225115187
 20
-88.96407875380065
 30
0.0
 10
75.06759709494838
 20
-89.08913571991522
 30
0.0
 10
74.95528698212924
 20
-89.16320527284809
 30
0.0
 10
74.85606823215404
 20
-89.16733938743039
 30
0.0
 10
74.77131888321689
 20
-89.17147350201269
 30
0.0
 10
74.77131888321689
 20
-89.17147350201269
 30
0.0
 10
74.77131888321689
 20
-88.95133190050522
 30
0.0
 10
74.77131888321689
 20
-88.95133190050522
 30
0.0
 10
74.84538843614976
 20
-88.94926484321408
 30
0.0
 10
75.07999943869528
 20
-88.93892955675832
 30
0.0
 10
75.07999943869528
 20
-88.65539819832226
 30
0.0
 10
75.07999943869528
 20
-88.51793888846079
 30
0.0
 10
75.01040850989324
 20
-88.36532115846423
 30
0.0
 10
74.78199867922118
 20
-88.36532115846423
 30
0.0
 10
74.66555445181973
 20
-88.36532115846423
 30
0.0
 10
74.6169786054777
 20
-88.4035617183505
 30
0.0
 10
74.5852837270134
 20
-88.4352565968148
 30
0.0
 10
74.51121417408054
 20
-88.50932614974768
 30
0.0
 10
74.49846732078511
 20
-88.62577037714912
 30
0.0
 10
74.49846732078511
 20
-88.68054739536458
 30
0.0
 10
74.49846732078511
 20
-88.69983993008199
 30
0.0
 10
74.50053437807625
 20
-88.73566892312859
 30
0.0
 10
74.50466849265855
 20
-88.76322968701058
 30
0.0
 10
74.50466849265855
 20
-88.76322968701058
 30
0.0
 10
74.31002059774194
 20
-88.76322968701058
 30
0.0
 10
74.31002059774194
 20
-88.76322968701058
 30
0.0
 10
74.31656627916392
 20
-88.72498912712432
 30
0.0
 10
74.31863333645506
 20
-88.68295896220427
 30
0.0
 10
74.31863333645506
 20
-88.67641328078228
 30
0.0
 10
74.31863333645506
 20
-88.61095646656254
 30
0.0
 10
74.29727374444651
 20
-88.41217445706363
 30
0.0
 10
74.06059568460985
 20
-88.41217445706363
 30
0.0
 10
73.88282875757096
 20
-88.41217445706363
 30
0.0
 10
73.82770722980696
 20
-88.54308808550311
 30
0.0
 10
73.82770722980696
 20
-88.65333114103112
 30
0.0
 10
73.82770722980696
 20
-88.91756996474977
 30
0.0
 10
74.06059568460985
 20
-88.9261827034629
 30
0.0
 10
74.13225367070305
 20
-88.9303168180452
 30
0.0
 10
74.13225367070305
 20
-88.9303168180452
 30
0.0
 10
74.13225367070305
 20
-89.13357745167494
 30
0.0
 10
74.13225367070305
 20
-89.13357745167494
 30
0.0
 10
74.007541214137
 20
-89.12496471296181
 30
0.0
 10
73.6309922775992
 20
-89.09740394907982
 30
0.0
 10
73.6309922775992
 20
-88.64058428773569
 30
0.0
 10
73.6309922775992
 20
-88.41630857164593
 30
0.0
 10
73.75811630100492
 20
-88.17515188767844
 30
0.0
 10
74.05405000318788
 20
-88.17515188767844
 30
0.0
 10
74.2404296689399
 20
-88.17515188767844
 30
0.0
 10
74.32276745103736
 20
-88.27023652307133
 30
0.0
 10
74.38409015067481
 20
-88.36979978259505
 30
0.0
 10
74.41165091455682
 20
-88.30847708295761
 30
0.0
 10
74.49192163936313
 20
-88.12657604133642
 30
0.0
 10
74.76925182592575
 20
-88.12657604133642
 30
0.0
 10
75.10756020257728
 20
-88.12657604133642
 30
0.0
 10
75.2746473336119
 20
-88.37393389717735
 30
0.0
 10
75.2746473336119
 20
-88.65091957419143
 30
0.0
  0
HATCH
  5
C5
330
BE
100
AcDbEntity
  8
_U+30EC_U+30A4_U+30E4_U+30FC 1
 62
     7
420
 16777215
100
AcDbHatch
 10
0.0
 20
0.0
 30
0.0
210
0.0
220
0.0
230
1.0
  2
SOLID
 70
     1
 71
     0
 91
        1
 92
        1
 93
        1
 72
     4
 94
        3
 73
     0
 74
     1
 95
       62
 96
       58
 40
0.0
 40
0.0
 40
0.0
 40
0.0
 40
1.0
 40
1.0
 40
1.0
 40
2.0
 40
2.0
 40
2.0
 40
3.0
 40
3.0
 40
3.0
 40
4.0
 40
4.0
 40
4.0
 40
5.0
 40
5.0
 40
5.0
 40
6.0
 40
6.0
 40
6.0
 40
7.0
 40
7.0
 40
7.0
 40
8.0
 40
8.0
 40
8.0
 40
9.0
 40
9.0
 40
9.0
 40
10.0
 40
10.0
 40
10.0
 40
11.0
 40
11.0
 40
11.0
 40
12.0
 40
12.0
 40
12.0
 40
13.0
 40
13.0
 40
13.0
 40
14.0
 40
14.0
 40
14.0
 40
15.0
 40
15.0
 40
15.0
 40
16.0
 40
16.0
 40
16.0
 40
17.0
 40
17.0
 40
17.0
 40
18.0
 40
18.0
 40
18.0
 40
19.0
 40
19.0
 40
19.0
 40
19.0
 10
75.2746473336119
 20
-88.65091957419143
 10
75.2746473336119
 20
-88.74634871913287
 10
75.25363225115187
 20
-88.96407875380065
 10
75.06759709494838
 20
-89.08913571991522
 10
74.95528698212924
 20
-89.16320527284809
 10
74.85606823215404
 20
-89.16733938743039
 10
74.77131888321689
 20
-89.17147350201269
 10
74.77131888321689
 20
-89.17147350201269
 10
74.77131888321689
 20
-88.95133190050522
 10
74.77131888321689
 20
-88.95133190050522
 10
74.84538843614976
 20
-88.94926484321408
 10
75.07999943869528
 20
-88.93892955675832
 10
75.07999943869528
 20
-88.65539819832226
 10
75.07999943869528
 20
-88.51793888846079
 10
75.01040850989324
 20
-88.36532115846423
 10
74.78199867922118
 20
-88.36532115846423
 10
74.66555445181973
 20
-88.36532115846423
 10
74.6169786054777
 20
-88.4035617183505
 10
74.5852837270134
 20
-88.4352565968148
 10
74.51121417408054
 20
-88.50932614974768
 10
74.49846732078511
 20
-88.62577037714912
 10
74.49846732078511
 20
-88.68054739536458
 10
74.49846732078511
 20
-88.69983993008199
 10
74.50053437807625
 20
-88.73566892312859
 10
74.50466849265855
 20
-88.76322968701058
 10
74.50466849265855
 20
-88.76322968701058
 10
74.31002059774194
 20
-88.76322968701058
 10
74.31002059774194
 20
-88.76322968701058
 10
74.31656627916392
 20
-88.72498912712432
 10
74.31863333645506
 20
-88.68295896220427
 10
74.31863333645506
 20
-88.67641328078228
 10
74.31863333645506
 20
-88.61095646656254
 10
74.29727374444651
 20
-88.41217445706363
 10
74.06059568460985
 20
-88.41217445706363
 10
73.88282875757096
 20
-88.41217445706363
 10
73.82770722980696
 20
-88.54308808550311
 10
73.82770722980696
 20
-88.65333114103112
 10
73.82770722980696
 20
-88.91756996474977
 10
74.06059568460985
 20
-88.9261827034629
 10
74.13225367070305
 20
-88.9303168180452
 10
74.13225367070305
 20
-88.9303168180452
 10
74.13225367070305
 20
-89.13357745167494
 10
74.13225367070305
 20
-89.13357745167494
 10
74.007541214137
 20
-89.12496471296181
 10
73.6309922775992
 20
-89.09740394907982
 10
73.6309922775992
 20
-88.64058428773569
 10
73.6309922775992
 20
-88.41630857164593
 10
73.75811630100492
 20
-88.17515188767844
 10
74.05405000318788
 20
-88.17515188767844
 10
74.2404296689399
 20
-88.17515188767844
 10
74.32276745103736
 20
-88.27023652307133
 10
74.38409015067481
 20
-88.36979978259505
 10
74.41165091455682
 20
-88.30847708295761
 10
74.49192163936313
 20
-88.12657604133642
 10
74.76925182592575
 20
-88.12657604133642
 10
75.10756020257728
 20
-88.12657604133642
 10
75.2746473336119
 20
-88.37393389717735
 10
75.2746473336119
 20
-88.65091957419143
 97
        0
 97
        0
 75
     2
 76
     1
 98
        0
  0
ENDBLK
  5
C1
330
BE
100
AcDbEntity
  8
0
100
AcDbBlockEnd
  0
ENDSEC
  0
SECTION
  2
ENTITIES
  0
INSERT
  5
42
330
1F
100
AcDbEntity
  8
_U+30EC_U+30A4_U+30E4_U+30FC 1
100
AcDbBlockReference
  2
block 2
 10
0.0
 20
0.0
 30
0.0
  0
ENDSEC
  0
SECTION
  2
OBJECTS
  0
DICTIONARY
  5
C
330
0
100
AcDbDictionary
281
     1
  3
ACAD_GROUP
350
D
  3
ACAD_LAYOUT
350
1A
  3
ACAD_MATERIAL
350
3B
  3
ACAD_MLEADERSTYLE
350
C7
  3
ACAD_MLINESTYLE
350
17
  3
ACAD_PLOTSETTINGS
350
19
  3
ACAD_PLOTSTYLENAME
350
E
  3
ACAD_TABLESTYLE
350
C6
  3
ACAD_VISUALSTYLE
350
2A
  0
SUN
  5
3F
330
29
100
AcDbSun
 90
        1
290
     0
 63
     7
421
 16777215
 40
1.0
291
     1
 91
  2455826
 92
 54000000
292
     0
 70
     2
 71
   256
280
     1
  0
DICTIONARY
  5
D
102
{ACAD_REACTORS
330
C
102
}
330
C
100
AcDbDictionary
281
     1
  0
DICTIONARY
  5
1A
102
{ACAD_REACTORS
330
C
102
}
330
C
100
AcDbDictionary
281
     1
  3
Layout1
350
1E
  3
Layout2
350
26
  3
Model
350
22
  0
DICTIONARY
  5
3B
102
{ACAD_REACTORS
330
C
102
}
330
C
100
AcDbDictionary
281
     1
  3
ByBlock
350
3D
  3
ByLayer
350
3C
  3
Global
350
3E
  0
DICTIONARY
  5
C7
102
{ACAD_REACTORS
330
C
102
}
330
C
100
AcDbDictionary
281
     1
  0
DICTIONARY
  5
17
102
{ACAD_REACTORS
330
C
102
}
330
C
100
AcDbDictionary
281
     1
  3
Standard
350
18
  0
DICTIONARY
  5
19
102
{ACAD_REACTORS
330
C
102
}
330
C
100
AcDbDictionary
281
     1
  0
ACDBDICTIONARYWDFLT
  5
E
102
{ACAD_REACTORS
330
C
102
}
330
C
100
AcDbDictionary
281
     1
  3
Normal
350
F
100
AcDbDictionaryWithDefault
340
F
  0
DICTIONARY
  5
C6
102
{ACAD_REACTORS
330
C
102
}
330
C
100
AcDbDictionary
281
     1
  0
DICTIONARY
  5
2A
102
{ACAD_REACTORS
330
C
102
}
330
C
100
AcDbDictionary
281
     1
  3
2dWireframe
350
2F
  3
3D Hidden
350
31
  3
3dWireframe
350
30
  3
Basic
350
32
  3
Brighten
350
36
  3
ColorChange
350
3A
  3
Conceptual
350
34
  3
Dim
350
35
  3
Facepattern
350
39
  3
Flat
350
2B
  3
FlatWithEdges
350
2C
  3
Gouraud
350
2D
  3
GouraudWithEdges
350
2E
  3
Linepattern
350
38
  3
Realistic
350
33
  3
Thicken
350
37
  0
LAYOUT
  5
1E
102
{ACAD_REACTORS
330
1A
102
}
330
1A
100
AcDbPlotSettings
  1

  2
none_device
  4

  6

 40
0.0
 41
0.0
 42
0.0
 43
0.0
 44
0.0
 45
0.0
 46
0.0
 47
0.0
 48
0.0
 49
0.0
140
0.0
141
0.0
142
1.0
143
1.0
 70
   688
 72
     0
 73
     0
 74
     5
  7

 75
    16
 76
     0
 77
     2
 78
   300
147
1.0
148
0.0
149
0.0
100
AcDbLayout
  1
Layout1
 70
     1
 71
     1
 10
0.0
 20
0.0
 11
12.0
 21
9.0
 12
0.0
 22
0.0
 32
0.0
 14
1.000000000000000E+20
 24
1.000000000000000E+20
 34
1.000000000000000E+20
 15
-1.000000000000000E+20
 25
-1.000000000000000E+20
 35
-1.000000000000000E+20
146
0.0
 13
0.0
 23
0.0
 33
0.0
 16
1.0
 26
0.0
 36
0.0
 17
0.0
 27
1.0
 37
0.0
 76
     0
330
1B
  0
LAYOUT
  5
26
102
{ACAD_REACTORS
330
1A
102
}
330
1A
100
AcDbPlotSettings
  1

  2
none_device
  4

  6

 40
0.0
 41
0.0
 42
0.0
 43
0.0
 44
0.0
 45
0.0
 46
0.0
 47
0.0
 48
0.0
 49
0.0
140
0.0
141
0.0
142
1.0
143
1.0
 70
   688
 72
     0
 73
     0
 74
     5
  7

 75
    16
 76
     0
 77
     2
 78
   300
147
1.0
148
0.0
149
0.0
100
AcDbLayout
  1
Layout2
 70
     1
 71
     2
 10
0.0
 20
0.0
 11
0.0
 21
0.0
 12
0.0
 22
0.0
 32
0.0
 14
0.0
 24
0.0
 34
0.0
 15
0.0
 25
0.0
 35
0.0
146
0.0
 13
0.0
 23
0.0
 33
0.0
 16
1.0
 26
0.0
 36
0.0
 17
0.0
 27
1.0
 37
0.0
 76
     0
330
23
  0
LAYOUT
  5
22
102
{ACAD_REACTORS
330
1A
102
}
330
1A
100
AcDbPlotSettings
  1

  2
none_device
  4

  6

 40
0.0
 41
0.0
 42
0.0
 43
0.0
 44
0.0
 45
0.0
 46
0.0
 47
0.0
 48
0.0
 49
0.0
140
0.0
141
0.0
142
1.0
143
1.0
 70
  1712
 72
     0
 73
     0
 74
     0
  7

 75
     0
 76
     0
 77
     2
 78
   300
147
1.0
148
0.0
149
0.0
100
AcDbLayout
  1
Model
 70
     1
 71
     0
 10
0.0
 20
0.0
 11
12.0
 21
9.0
 12
0.0
 22
0.0
 32
0.0
 14
1.000000000000000E+20
 24
1.000000000000000E+20
 34
1.000000000000000E+20
 15
-1.000000000000000E+20
 25
-1.000000000000000E+20
 35
-1.000000000000000E+20
146
0.0
 13
0.0
 23
0.0
 33
0.0
 16
1.0
 26
0.0
 36
0.0
 17
0.0
 27
1.0
 37
0.0
 76
     0
330
1F
331
29
  0
MATERIAL
  5
3D
102
{ACAD_REACTORS
330
3B
102
}
330
3B
100
AcDbMaterial
  1
ByBlock
 72
     1
 94
      127
  0
MATERIAL
  5
3C
102
{ACAD_REACTORS
330
3B
102
}
330
3B
100
AcDbMaterial
  1
ByLayer
 72
     1
 94
      127
  0
MATERIAL
  5
3E
102
{ACAD_REACTORS
330
3B
102
}
330
3B
100
AcDbMaterial
  1
Global
 72
     1
 94
      127
  0
MLINESTYLE
  5
18
102
{ACAD_REACTORS
330
17
102
}
330
17
100
AcDbMlineStyle
  2
Standard
 70
     0
  3

 62
   256
 51
90.0
 52
90.0
 71
     2
 49
0.5
 62
   256
  6
BYLAYER
 49
-0.5
 62
   256
  6
BYLAYER
  0
ACDBPLACEHOLDER
  5
F
102
{ACAD_REACTORS
330
E
102
}
330
E
  0
VISUALSTYLE
  5
2F
102
{ACAD_REACTORS
330
2A
102
}
330
2A
100
AcDbVisualStyle
  2
2dWireframe
 70
     4
177
     2
291
     0
 71
     0
176
     1
 72
     2
176
     1
 73
     0
176
     1
 90
        0
176
     1
 40
-0.6
176
     1
 41
-30.0
176
     1
 62
     5
 63
     7
421
 16777215
176
     1
 74
     1
176
     1
 91
        4
176
     1
 64
     7
176
     1
 65
   257
176
     1
 75
     1
176
     1
175
     1
176
     1
 42
1.0
176
     1
 92
        0
176
     1
 66
   257
176
     1
 43
1.0
176
     1
 76
     1
176
     1
 77
     6
176
     1
 78
     2
176
     1
 67
     7
176
     1
 79
     5
176
     1
170
     0
176
     1
171
     0
176
     1
290
     0
176
     1
 93
        1
176
     1
 44
0.0
176
     1
173
     0
176
     1
  0
VISUALSTYLE
  5
31
102
{ACAD_REACTORS
330
2A
102
}
330
2A
100
AcDbVisualStyle
  2
3D Hidden
 70
     6
177
     2
291
     0
 71
     1
176
     1
 72
     2
176
     1
 73
     2
176
     1
 90
        0
176
     1
 40
-0.6
176
     1
 41
-30.0
176
     1
 62
     5
 63
     7
421
 16777215
176
     1
 74
     2
176
     1
 91
        2
176
     1
 64
     7
176
     1
 65
   257
176
     1
 75
     2
176
     1
175
     1
176
     1
 42
40.0
176
     1
 92
        0
176
     1
 66
   257
176
     1
 43
1.0
176
     1
 76
     1
176
     1
 77
     6
176
     1
 78
     2
176
     1
 67
     7
176
     1
 79
     3
176
     1
170
     0
176
     1
171
     0
176
     1
290
     0
176
     1
 93
        1
176
     1
 44
0.0
176
     1
173
     0
176
     1
  0
VISUALSTYLE
  5
30
102
{ACAD_REACTORS
330
2A
102
}
330
2A
100
AcDbVisualStyle
  2
3dWireframe
 70
     5
177
     2
291
     0
 71
     0
176
     1
 72
     2
176
     1
 73
     0
176
     1
 90
        0
176
     1
 40
-0.6
176
     1
 41
-30.0
176
     1
 62
     5
 63
     7
421
 16777215
176
     1
 74
     1
176
     1
 91
        4
176
     1
 64
     7
176
     1
 65
   257
176
     1
 75
     1
176
     1
175
     1
176
     1
 42
1.0
176
     1
 92
        0
176
     1
 66
   257
176
     1
 43
1.0
176
     1
 76
     1
176
     1
 77
     6
176
     1
 78
     2
176
     1
 67
     7
176
     1
 79
     5
176
     1
170
     0
176
     1
171
     0
176
     1
290
     0
176
     1
 93
        1
176
     1
 44
0.0
176
     1
173
     0
176
     1
  0
VISUALSTYLE
  5
32
102
{ACAD_REACTORS
330
2A
102
}
330
2A
100
AcDbVisualStyle
  2
Basic
 70
     7
177
     2
291
     1
 71
     1
176
     1
 72
     0
176
     1
 73
     1
176
     1
 90
        0
176
     1
 40
-0.6
176
     1
 41
-30.0
176
     1
 62
     5
 63
     7
421
 16777215
176
     1
 74
     0
176
     1
 91
        4
176
     1
 64
     7
176
     1
 65
   257
176
     1
 75
     1
176
     1
175
     1
176
     1
 42
1.0
176
     1
 92
        8
176
     1
 66
     7
176
     1
 43
1.0
176
     1
 76
     1
176
     1
 77
     6
176
     1
 78
     2
176
     1
 67
     7
176
     1
 79
     5
176
     1
170
     0
176
     1
171
     0
176
     1
290
     0
176
     1
 93
        1
176
     1
 44
0.0
176
     1
173
     0
176
     1
  0
VISUALSTYLE
  5
36
102
{ACAD_REACTORS
330
2A
102
}
330
2A
100
AcDbVisualStyle
  2
Brighten
 70
    12
177
     2
291
     1
 71
     2
176
     1
 72
     2
176
     1
 73
     0
176
     1
 90
        0
176
     1
 40
-0.6
176
     1
 41
-30.0
176
     1
 62
     5
 63
     7
421
 16777215
176
     1
 74
     1
176
     1
 91
        4
176
     1
 64
     7
176
     1
 65
   257
176
     1
 75
     1
176
     1
175
     1
176
     1
 42
1.0
176
     1
 92
        8
176
     1
 66
     7
176
     1
 43
1.0
176
     1
 76
     1
176
     1
 77
     6
176
     1
 78
     2
176
     1
 67
     7
176
     1
 79
     5
176
     1
170
     0
176
     1
171
     0
176
     1
290
     0
176
     1
 93
        1
176
     1
 44
50.0
176
     1
173
     0
176
     1
  0
VISUALSTYLE
  5
3A
102
{ACAD_REACTORS
330
2A
102
}
330
2A
100
AcDbVisualStyle
  2
ColorChange
 70
    16
177
     2
291
     1
 71
     2
176
     1
 72
     2
176
     1
 73
     3
176
     1
 90
        0
176
     1
 40
-0.6
176
     1
 41
-30.0
176
     1
 62
     5
 63
     8
421
  8421504
176
     1
 74
     1
176
     1
 91
        4
176
     1
 64
     7
176
     1
 65
   257
176
     1
 75
     1
176
     1
175
     1
176
     1
 42
1.0
176
     1
 92
        8
176
     1
 66
     8
424
  8421504
176
     1
 43
1.0
176
     1
 76
     1
176
     1
 77
     6
176
     1
 78
     2
176
     1
 67
     7
176
     1
 79
     5
176
     1
170
     0
176
     1
171
     0
176
     1
290
     0
176
     1
 93
        1
176
     1
 44
0.0
176
     1
173
     0
176
     1
  0
VISUALSTYLE
  5
34
102
{ACAD_REACTORS
330
2A
102
}
330
2A
100
AcDbVisualStyle
  2
Conceptual
 70
     9
177
     2
291
     0
 71
     3
176
     1
 72
     2
176
     1
 73
     0
176
     1
 90
        0
176
     1
 40
-0.6
176
     1
 41
-30.0
176
     1
 62
     5
 63
     7
421
 16777215
176
     1
 74
     2
176
     1
 91
        2
176
     1
 64
     7
176
     1
 65
   257
176
     1
 75
     1
176
     1
175
     1
176
     1
 42
40.0
176
     1
 92
        8
176
     1
 66
     7
176
     1
 43
1.0
176
     1
 76
     1
176
     1
 77
     6
176
     1
 78
     2
176
     1
 67
     7
176
     1
 79
     3
176
     1
170
     0
176
     1
171
     0
176
     1
290
     0
176
     1
 93
        1
176
     1
 44
0.0
176
     1
173
     0
176
     1
  0
VISUALSTYLE
  5
35
102
{ACAD_REACTORS
330
2A
102
}
330
2A
100
AcDbVisualStyle
  2
Dim
 70
    11
177
     2
291
     1
 71
     2
176
     1
 72
     2
176
     1
 73
     0
176
     1
 90
        0
176
     1
 40
-0.6
176
     1
 41
-30.0
176
     1
 62
     5
 63
     7
421
 16777215
176
     1
 74
     1
176
     1
 91
        4
176
     1
 64
     7
176
     1
 65
   257
176
     1
 75
     1
176
     1
175
     1
176
     1
 42
1.0
176
     1
 92
        8
176
     1
 66
     7
176
     1
 43
1.0
176
     1
 76
     1
176
     1
 77
     6
176
     1
 78
     2
176
     1
 67
     7
176
     1
 79
     5
176
     1
170
     0
176
     1
171
     0
176
     1
290
     0
176
     1
 93
        1
176
     1
 44
-50.0
176
     1
173
     0
176
     1
  0
VISUALSTYLE
  5
39
102
{ACAD_REACTORS
330
2A
102
}
330
2A
100
AcDbVisualStyle
  2
Facepattern
 70
    15
177
     2
291
     1
 71
     2
176
     1
 72
     2
176
     1
 73
     0
176
     1
 90
        0
176
     1
 40
-0.6
176
     1
 41
-30.0
176
     1
 62
     5
 63
     7
421
 16777215
176
     1
 74
     1
176
     1
 91
        4
176
     1
 64
     7
176
     1
 65
   257
176
     1
 75
     1
176
     1
175
     1
176
     1
 42
1.0
176
     1
 92
        8
176
     1
 66
     7
176
     1
 43
1.0
176
     1
 76
     1
176
     1
 77
     6
176
     1
 78
     2
176
     1
 67
     7
176
     1
 79
     5
176
     1
170
     0
176
     1
171
     0
176
     1
290
     0
176
     1
 93
        1
176
     1
 44
0.0
176
     1
173
     0
176
     1
  0
VISUALSTYLE
  5
2B
102
{ACAD_REACTORS
330
2A
102
}
330
2A
100
AcDbVisualStyle
  2
Flat
 70
     0
177
     2
291
     1
 71
     2
176
     1
 72
     1
176
     1
 73
     1
176
     1
 90
        2
176
     1
 40
-0.6
176
     1
 41
30.0
176
     1
 62
     5
 63
     7
421
 16777215
176
     1
 74
     0
176
     1
 91
        4
176
     1
 64
     7
176
     1
 65
   257
176
     1
 75
     1
176
     1
175
     1
176
     1
 42
1.0
176
     1
 92
        8
176
     1
 66
     7
176
     1
 43
1.0
176
     1
 76
     1
176
     1
 77
     6
176
     1
 78
     2
176
     1
 67
     7
176
     1
 79
     5
176
     1
170
     0
176
     1
171
     0
176
     1
290
     0
176
     1
 93
       13
176
     1
 44
0.0
176
     1
173
     0
176
     1
  0
VISUALSTYLE
  5
2C
102
{ACAD_REACTORS
330
2A
102
}
330
2A
100
AcDbVisualStyle
  2
FlatWithEdges
 70
     1
177
     2
291
     1
 71
     2
176
     1
 72
     1
176
     1
 73
     1
176
     1
 90
        2
176
     1
 40
-0.6
176
     1
 41
30.0
176
     1
 62
     5
 63
     7
421
 16777215
176
     1
 74
     1
176
     1
 91
        4
176
     1
 64
     7
176
     1
 65
   257
176
     1
 75
     1
176
     1
175
     1
176
     1
 42
1.0
176
     1
 92
        0
176
     1
 66
   257
176
     1
 43
1.0
176
     1
 76
     1
176
     1
 77
     6
176
     1
 78
     2
176
     1
 67
     7
176
     1
 79
     5
176
     1
170
     0
176
     1
171
     0
176
     1
290
     0
176
     1
 93
       13
176
     1
 44
0.0
176
     1
173
     0
176
     1
  0
VISUALSTYLE
  5
2D
102
{ACAD_REACTORS
330
2A
102
}
330
2A
100
AcDbVisualStyle
  2
Gouraud
 70
     2
177
     2
291
     1
 71
     2
176
     1
 72
     2
176
     1
 73
     1
176
     1
 90
        2
176
     1
 40
-0.6
176
     1
 41
30.0
176
     1
 62
     5
 63
     7
421
 16777215
176
     1
 74
     0
176
     1
 91
        4
176
     1
 64
     7
176
     1
 65
   257
176
     1
 75
     1
176
     1
175
     1
176
     1
 42
1.0
176
     1
 92
        0
176
     1
 66
     7
176
     1
 43
1.0
176
     1
 76
     1
176
     1
 77
     6
176
     1
 78
     2
176
     1
 67
     7
176
     1
 79
     5
176
     1
170
     0
176
     1
171
     0
176
     1
290
     0
176
     1
 93
       13
176
     1
 44
0.0
176
     1
173
     0
176
     1
  0
VISUALSTYLE
  5
2E
102
{ACAD_REACTORS
330
2A
102
}
330
2A
100
AcDbVisualStyle
  2
GouraudWithEdges
 70
     3
177
     2
291
     1
 71
     2
176
     1
 72
     2
176
     1
 73
     1
176
     1
 90
        2
176
     1
 40
-0.6
176
     1
 41
30.0
176
     1
 62
     5
 63
     7
421
 16777215
176
     1
 74
     1
176
     1
 91
        4
176
     1
 64
     7
176
     1
 65
   257
176
     1
 75
     1
176
     1
175
     1
176
     1
 42
1.0
176
     1
 92
        0
176
     1
 66
   257
176
     1
 43
1.0
176
     1
 76
     1
176
     1
 77
     6
176
     1
 78
     2
176
     1
 67
     7
176
     1
 79
     5
176
     1
170
     0
176
     1
171
     0
176
     1
290
     0
176
     1
 93
       13
176
     1
 44
0.0
176
     1
173
     0
176
     1
  0
VISUALSTYLE
  5
38
102
{ACAD_REACTORS
330
2A
102
}
330
2A
100
AcDbVisualStyle
  2
Linepattern
 70
    14
177
     2
291
     1
 71
     2
176
     1
 72
     2
176
     1
 73
     0
176
     1
 90
        0
176
     1
 40
-0.6
176
     1
 41
-30.0
176
     1
 62
     5
 63
     7
421
 16777215
176
     1
 74
     1
176
     1
 91
        4
176
     1
 64
     7
176
     1
 65
   257
176
     1
 75
     7
176
     1
175
     7
176
     1
 42
1.0
176
     1
 92
        8
176
     1
 66
     7
176
     1
 43
1.0
176
     1
 76
     1
176
     1
 77
     6
176
     1
 78
     2
176
     1
 67
     7
176
     1
 79
     5
176
     1
170
     0
176
     1
171
     0
176
     1
290
     0
176
     1
 93
        1
176
     1
 44
0.0
176
     1
173
     0
176
     1
  0
VISUALSTYLE
  5
33
102
{ACAD_REACTORS
330
2A
102
}
330
2A
100
AcDbVisualStyle
  2
Realistic
 70
     8
177
     2
291
     0
 71
     2
176
     1
 72
     2
176
     1
 73
     0
176
     1
 90
        0
176
     1
 40
-0.6
176
     1
 41
-30.0
176
     1
 62
     5
 63
     7
421
 16777215
176
     1
 74
     1
176
     1
 91
        0
176
     1
 64
     7
176
     1
 65
   257
176
     1
 75
     1
176
     1
175
     1
176
     1
 42
1.0
176
     1
 92
        8
176
     1
 66
     8
424
  7895160
176
     1
 43
1.0
176
     1
 76
     1
176
     1
 77
     6
176
     1
 78
     2
176
     1
 67
     7
176
     1
 79
     5
176
     1
170
     0
176
     1
171
     0
176
     1
290
     0
176
     1
 93
       13
176
     1
 44
0.0
176
     1
173
     0
176
     1
  0
VISUALSTYLE
  5
37
102
{ACAD_REACTORS
330
2A
102
}
330
2A
100
AcDbVisualStyle
  2
Thicken
 70
    13
177
     2
291
     1
 71
     2
176
     1
 72
     2
176
     1
 73
     0
176
     1
 90
        0
176
     1
 40
-0.6
176
     1
 41
-30.0
176
     1
 62
     5
 63
     7
421
 16777215
176
     1
 74
     1
176
     1
 91
        4
176
     1
 64
     7
176
     1
 65
   257
176
     1
 75
     1
176
     1
175
     1
176
     1
 42
1.0
176
     1
 92
       12
176
     1
 66
     7
176
     1
 43
1.0
176
     1
 76
     1
176
     1
 77
     6
176
     1
 78
     2
176
     1
 67
     7
176
     1
 79
     5
176
     1
170
     0
176
     1
171
     0
176
     1
290
     0
176
     1
 93
        1
176
     1
 44
0.0
176
     1
173
     0
176
     1
  0
ENDSEC
  0
EOF
