  0
SECTION
  2
HEADER
  9
$ACADVER
  1
AC1024
  9
$ACADMAINTVER
 70
     6
  9
$DWGCODEPAGE
  3
UNDEFINED
  9
$INSBASE
 10
0.0
 20
0.0
 30
0.0
  9
$EXTMIN
 10
1.000000000000000E+20
 20
1.000000000000000E+20
 30
1.000000000000000E+20
  9
$EXTMAX
 10
-1.000000000000000E+20
 20
-1.000000000000000E+20
 30
-1.000000000000000E+20
  9
$LIMMIN
 10
0.0
 20
0.0
  9
$LIMMAX
 10
12.0
 20
9.0
  9
$ORTHOMODE
 70
     0
  9
$REGENMODE
 70
     1
  9
$FILLMODE
 70
     1
  9
$QTEXTMODE
 70
     0
  9
$MIRRTEXT
 70
     1
  9
$LTSCALE
 40
1.0
  9
$ATTMODE
 70
     1
  9
$TEXTSIZE
 40
0.2
  9
$TRACEWID
 40
0.05
  9
$TEXTSTYLE
  7
Standard
  9
$CLAYER
  8
0
  9
$CELTYPE
  6
ByLayer
  9
$CECOLOR
 62
   256
  9
$CELTSCALE
 40
1.0
  9
$DISPSILH
 70
     0
  9
$DIMSCALE
 40
1.0
  9
$DIMASZ
 40
0.18
  9
$DIMEXO
 40
0.0625
  9
$DIMDLI
 40
0.38
  9
$DIMRND
 40
0.0
  9
$DIMDLE
 40
0.0
  9
$DIMEXE
 40
0.18
  9
$DIMTP
 40
0.0
  9
$DIMTM
 40
0.0
  9
$DIMTXT
 40
0.18
  9
$DIMCEN
 40
0.09
  9
$DIMTSZ
 40
0.0
  9
$DIMTOL
 70
     0
  9
$DIMLIM
 70
     0
  9
$DIMTIH
 70
     1
  9
$DIMTOH
 70
     1
  9
$DIMSE1
 70
     0
  9
$DIMSE2
 70
     0
  9
$DIMTAD
 70
     0
  9
$DIMZIN
 70
     0
  9
$DIMBLK
  1

  9
$DIMASO
 70
     1
  9
$DIMSHO
 70
     1
  9
$DIMPOST
  1

  9
$DIMAPOST
  1

  9
$DIMALT
 70
     0
  9
$DIMALTD
 70
     2
  9
$DIMALTF
 40
25.4
  9
$DIMLFAC
 40
1.0
  9
$DIMTOFL
 70
     0
  9
$DIMTVP
 40
0.0
  9
$DIMTIX
 70
     0
  9
$DIMSOXD
 70
     0
  9
$DIMSAH
 70
     0
  9
$DIMBLK1
  1

  9
$DIMBLK2
  1

  9
$DIMSTYLE
  2
Standard
  9
$DIMCLRD
 70
     0
  9
$DIMCLRE
 70
     0
  9
$DIMCLRT
 70
     0
  9
$DIMTFAC
 40
1.0
  9
$DIMGAP
 40
0.09
  9
$DIMJUST
 70
     0
  9
$DIMSD1
 70
     0
  9
$DIMSD2
 70
     0
  9
$DIMTOLJ
 70
     1
  9
$DIMTZIN
 70
     0
  9
$DIMALTZ
 70
     0
  9
$DIMALTTZ
 70
     0
  9
$DIMUPT
 70
     0
  9
$DIMDEC
 70
     4
  9
$DIMTDEC
 70
     4
  9
$DIMALTU
 70
     2
  9
$DIMALTTD
 70
     2
  9
$DIMTXSTY
  7
Standard
  9
$DIMAUNIT
 70
     0
  9
$DIMADEC
 70
     0
  9
$DIMALTRND
 40
0.0
  9
$DIMAZIN
 70
     0
  9
$DIMDSEP
 70
    46
  9
$DIMATFIT
 70
     3
  9
$DIMFRAC
 70
     0
  9
$DIMLDRBLK
  1

  9
$DIMLUNIT
 70
     2
  9
$DIMLWD
 70
    -2
  9
$DIMLWE
 70
    -2
  9
$DIMTMOVE
 70
     0
  9
$DIMFXL
 40
1.0
  9
$DIMFXLON
 70
     0
  9
$DIMJOGANG
 40
0.7853981633974483
  9
$DIMTFILL
 70
     0
  9
$DIMTFILLCLR
 70
     0
  9
$DIMARCSYM
 70
     0
  9
$DIMLTYPE
  6

  9
$DIMLTEX1
  6

  9
$DIMLTEX2
  6

  9
$DIMTXTDIRECTION
 70
     0
  9
$LUNITS
 70
     2
  9
$LUPREC
 70
     4
  9
$SKETCHINC
 40
0.1
  9
$FILLETRAD
 40
0.5
  9
$AUNITS
 70
     0
  9
$AUPREC
 70
     0
  9
$MENU
  1
.
  9
$ELEVATION
 40
0.0
  9
$PELEVATION
 40
0.0
  9
$THICKNESS
 40
0.0
  9
$LIMCHECK
 70
     0
  9
$CHAMFERA
 40
0.5
  9
$CHAMFERB
 40
0.5
  9
$CHAMFERC
 40
1.0
  9
$CHAMFERD
 40
0.0
  9
$SKPOLY
 70
     0
  9
$TDCREATE
 40
2457917.589456019
  9
$TDUCREATE
 40
2457917.214456019
  9
$TDUPDATE
 40
2457917.589456019
  9
$TDUUPDATE
 40
2457917.214456019
  9
$TDINDWG
 40
0.0000000116
  9
$TDUSRTIMER
 40
0.0000000116
  9
$USRTIMER
 70
     1
  9
$ANGBASE
 50
0.0
  9
$ANGDIR
 70
     0
  9
$PDMODE
 70
     0
  9
$PDSIZE
 40
0.0
  9
$PLINEWID
 40
0.0
  9
$SPLFRAME
 70
     0
  9
$SPLINETYPE
 70
     6
  9
$SPLINESEGS
 70
     8
  9
$HANDSEED
  5
F1
  9
$SURFTAB1
 70
     6
  9
$SURFTAB2
 70
     6
  9
$SURFTYPE
 70
     6
  9
$SURFU
 70
     6
  9
$SURFV
 70
     6
  9
$UCSBASE
  2

  9
$UCSNAME
  2

  9
$UCSORG
 10
0.0
 20
0.0
 30
0.0
  9
$UCSXDIR
 10
1.0
 20
0.0
 30
0.0
  9
$UCSYDIR
 10
0.0
 20
1.0
 30
0.0
  9
$UCSORTHOREF
  2

  9
$UCSORTHOVIEW
 70
     0
  9
$UCSORGTOP
 10
0.0
 20
0.0
 30
0.0
  9
$UCSORGBOTTOM
 10
0.0
 20
0.0
 30
0.0
  9
$UCSORGLEFT
 10
0.0
 20
0.0
 30
0.0
  9
$UCSORGRIGHT
 10
0.0
 20
0.0
 30
0.0
  9
$UCSORGFRONT
 10
0.0
 20
0.0
 30
0.0
  9
$UCSORGBACK
 10
0.0
 20
0.0
 30
0.0
  9
$PUCSBASE
  2

  9
$PUCSNAME
  2

  9
$PUCSORG
 10
0.0
 20
0.0
 30
0.0
  9
$PUCSXDIR
 10
1.0
 20
0.0
 30
0.0
  9
$PUCSYDIR
 10
0.0
 20
1.0
 30
0.0
  9
$PUCSORTHOREF
  2

  9
$PUCSORTHOVIEW
 70
     0
  9
$PUCSORGTOP
 10
0.0
 20
0.0
 30
0.0
  9
$PUCSORGBOTTOM
 10
0.0
 20
0.0
 30
0.0
  9
$PUCSORGLEFT
 10
0.0
 20
0.0
 30
0.0
  9
$PUCSORGRIGHT
 10
0.0
 20
0.0
 30
0.0
  9
$PUCSORGFRONT
 10
0.0
 20
0.0
 30
0.0
  9
$PUCSORGBACK
 10
0.0
 20
0.0
 30
0.0
  9
$USERI1
 70
     0
  9
$USERI2
 70
     0
  9
$USERI3
 70
     0
  9
$USERI4
 70
     0
  9
$USERI5
 70
     0
  9
$USERR1
 40
0.0
  9
$USERR2
 40
0.0
  9
$USERR3
 40
0.0
  9
$USERR4
 40
0.0
  9
$USERR5
 40
0.0
  9
$WORLDVIEW
 70
     1
  9
$SHADEDGE
 70
     3
  9
$SHADEDIF
 70
    70
  9
$TILEMODE
 70
     1
  9
$MAXACTVP
 70
    64
  9
$PINSBASE
 10
0.0
 20
0.0
 30
0.0
  9
$PLIMCHECK
 70
     0
  9
$PEXTMIN
 10
1.000000000000000E+20
 20
1.000000000000000E+20
 30
1.000000000000000E+20
  9
$PEXTMAX
 10
-1.000000000000000E+20
 20
-1.000000000000000E+20
 30
-1.000000000000000E+20
  9
$PLIMMIN
 10
0.0
 20
0.0
  9
$PLIMMAX
 10
12.0
 20
9.0
  9
$UNITMODE
 70
     0
  9
$VISRETAIN
 70
     1
  9
$PLINEGEN
 70
     0
  9
$PSLTSCALE
 70
     1
  9
$TREEDEPTH
 70
  3020
  9
$CMLSTYLE
  2
Standard
  9
$CMLJUST
 70
     0
  9
$CMLSCALE
 40
1.0
  9
$PROXYGRAPHICS
 70
     1
  9
$MEASUREMENT
 70
     0
  9
$CELWEIGHT
370
    -1
  9
$ENDCAPS
280
     0
  9
$JOINSTYLE
280
     0
  9
$LWDISPLAY
290
     1
  9
$INSUNITS
 70
     1
  9
$HYPERLINKBASE
  1

  9
$STYLESHEET
  1

  9
$XEDIT
290
     1
  9
$CEPSNTYPE
380
     0
  9
$PSTYLEMODE
290
     1
  9
$FINGERPRINTGUID
  2
{68F55A7F-0AF1-1363-6D1E-4F872CA9B507}
  9
$VERSIONGUID
  2
{FAEB1C32-E019-11D5-929B-00C0DF256EC4}
  9
$EXTNAMES
290
     1
  9
$PSVPSCALE
 40
0.0
  9
$OLESTARTUP
290
     0
  9
$SORTENTS
280
   127
  9
$INDEXCTL
280
     0
  9
$HIDETEXT
280
     1
  9
$XCLIPFRAME
280
     2
  9
$HALOGAP
280
     0
  9
$OBSCOLOR
 70
   257
  9
$OBSLTYPE
280
     0
  9
$INTERSECTIONDISPLAY
280
     0
  9
$INTERSECTIONCOLOR
 70
   257
  9
$DIMASSOC
280
     2
  9
$PROJECTNAME
  1

  9
$CAMERADISPLAY
290
     0
  9
$LENSLENGTH
 40
50.0
  9
$CAMERAHEIGHT
 40
0.0
  9
$STEPSPERSEC
 40
2.0
  9
$STEPSIZE
 40
6.0
  9
$3DDWFPREC
 40
2.0
  9
$PSOLWIDTH
 40
0.25
  9
$PSOLHEIGHT
 40
4.0
  9
$LOFTANG1
 40
1.570796326794897
  9
$LOFTANG2
 40
1.570796326794897
  9
$LOFTMAG1
 40
0.0
  9
$LOFTMAG2
 40
0.0
  9
$LOFTPARAM
 70
     7
  9
$LOFTNORMALS
280
     1
  9
$LATITUDE
 40
37.795
  9
$LONGITUDE
 40
-122.394
  9
$NORTHDIRECTION
 40
0.0
  9
$TIMEZONE
 70
 -8000
  9
$LIGHTGLYPHDISPLAY
280
     1
  9
$TILEMODELIGHTSYNCH
280
     1
  9
$CMATERIAL
347
3C
  9
$SOLIDHIST
280
     1
  9
$SHOWHIST
280
     1
  9
$DWFFRAME
280
     2
  9
$DGNFRAME
280
     2
  9
$REALWORLDSCALE
290
     1
  9
$INTERFERECOLOR
 62
   256
  9
$CSHADOW
280
     0
  9
$SHADOWPLANELOCATION
 40
0.0
  0
ENDSEC
  0
SECTION
  2
CLASSES
  0
CLASS
  1
ACDBDICTIONARYWDFLT
  2
AcDbDictionaryWithDefault
  3
ObjectDBX Classes
 90
        0
 91
        4
280
     0
281
     0
  0
CLASS
  1
VISUALSTYLE
  2
AcDbVisualStyle
  3
ObjectDBX Classes
 90
     4095
 91
        4
280
     0
281
     0
  0
CLASS
  1
MATERIAL
  2
AcDbMaterial
  3
ObjectDBX Classes
 90
     1153
 91
        4
280
     0
281
     0
  0
CLASS
  1
SUN
  2
AcDbSun
  3
SCENEOE
 90
     1024
 91
        4
280
     0
281
     0
  0
ENDSEC
  0
SECTION
  2
TABLES
  0
TABLE
  2
VPORT
  5
8
330
0
100
AcDbSymbolTable
 70
     1
  0
VPORT
  5
29
330
8
100
AcDbSymbolTableRecord
100
AcDbViewportTableRecord
  2
*Active
 70
     0
 10
0.0
 20
0.0
 11
1.0
 21
1.0
 12
0.0
 22
0.0
 13
0.0
 23
0.0
 14
0.5
 24
0.5
 15
0.5
 25
0.5
 16
0.0
 26
0.0
 36
1.0
 17
63.499999984125
 27
-89.00059456108309
 37
0.0
 40
178.0011891221662
 41
0.7134783795241226
 42
50.0
 43
0.0
 44
0.0
 50
0.0
 51
0.0
 71
     0
 72
   100
 73
     1
 74
     3
 75
     0
 76
     0
 77
     0
 78
     0
281
     0
 65
     1
110
0.0
120
0.0
130
0.0
111
1.0
121
0.0
131
0.0
112
0.0
122
1.0
132
0.0
 79
     0
146
0.0
 60
     3
 61
     5
292
     1
282
     1
141
0.0
142
0.0
 63
   250
361
3F
  0
ENDTAB
  0
TABLE
  2
LTYPE
  5
5
330
0
100
AcDbSymbolTable
 70
     1
  0
LTYPE
  5
14
330
5
100
AcDbSymbolTableRecord
100
AcDbLinetypeTableRecord
  2
ByBlock
 70
     0
  3

 72
    65
 73
     0
 40
0.0
  0
LTYPE
  5
15
330
5
100
AcDbSymbolTableRecord
100
AcDbLinetypeTableRecord
  2
ByLayer
 70
     0
  3

 72
    65
 73
     0
 40
0.0
  0
LTYPE
  5
16
330
5
100
AcDbSymbolTableRecord
100
AcDbLinetypeTableRecord
  2
Continuous
 70
     0
  3
Solid line
 72
    65
 73
     0
 40
0.0
  0
ENDTAB
  0
TABLE
  2
LAYER
  5
2
330
0
100
AcDbSymbolTable
 70
     2
  0
LAYER
  5
10
330
2
100
AcDbSymbolTableRecord
100
AcDbLayerTableRecord
  2
0
 70
     0
 62
     7
  6
Continuous
370
    -3
390
F
347
3E
  0
LAYER
  5
40
330
2
100
AcDbSymbolTableRecord
100
AcDbLayerTableRecord
  2
_U+30EC_U+30A4_U+30E4_U+30FC 1
 70
     0
 62
     7
  6
Continuous
370
    -3
390
F
347
3E
  0
ENDTAB
  0
TABLE
  2
STYLE
  5
3
330
0
100
AcDbSymbolTable
 70
     1
  0
STYLE
  5
11
330
3
100
AcDbSymbolTableRecord
100
AcDbTextStyleTableRecord
  2
Standard
 70
     0
 40
0.0
 41
1.0
 50
0.0
 71
     0
 42
0.2
  3
txt
  4

  0
ENDTAB
  0
TABLE
  2
VIEW
  5
6
330
0
100
AcDbSymbolTable
 70
     0
  0
ENDTAB
  0
TABLE
  2
UCS
  5
7
330
0
100
AcDbSymbolTable
 70
     0
  0
ENDTAB
  0
TABLE
  2
APPID
  5
9
330
0
100
AcDbSymbolTable
 70
     1
  0
APPID
  5
12
330
9
100
AcDbSymbolTableRecord
100
AcDbRegAppTableRecord
  2
ACAD
 70
     0
  0
ENDTAB
  0
TABLE
  2
DIMSTYLE
  5
A
330
0
100
AcDbSymbolTable
 70
     1
100
AcDbDimStyleTable
  0
DIMSTYLE
105
27
330
A
100
AcDbSymbolTableRecord
100
AcDbDimStyleTableRecord
  2
Standard
 70
     0
178
     0
340
11
  0
ENDTAB
  0
TABLE
  2
BLOCK_RECORD
  5
1
330
0
100
AcDbSymbolTable
 70
     6
  0
BLOCK_RECORD
  5
1F
330
1
100
AcDbSymbolTableRecord
100
AcDbBlockTableRecord
  2
*Model_Space
340
22
 70
     0
280
     1
281
     0
  0
BLOCK_RECORD
  5
1B
330
1
100
AcDbSymbolTableRecord
100
AcDbBlockTableRecord
  2
*Paper_Space
340
1E
 70
     0
280
     1
281
     0
  0
BLOCK_RECORD
  5
23
330
1
100
AcDbSymbolTableRecord
100
AcDbBlockTableRecord
  2
*Paper_Space0
340
26
 70
     0
280
     1
281
     0
  0
BLOCK_RECORD
  5
8D
330
1
100
AcDbSymbolTableRecord
100
AcDbBlockTableRecord
  2
block 2
340
0
102
{BLKREFS
331
8E
102
}
 70
     0
280
     1
281
     0
  0
BLOCK_RECORD
  5
A1
330
1
100
AcDbSymbolTableRecord
100
AcDbBlockTableRecord
  2
block 3
340
0
102
{BLKREFS
331
A2
102
}
 70
     0
280
     1
281
     0
  0
BLOCK_RECORD
  5
BA
330
1
100
AcDbSymbolTableRecord
100
AcDbBlockTableRecord
  2
block 4
340
0
102
{BLKREFS
331
BB
102
}
 70
     0
280
     1
281
     0
  0
BLOCK_RECORD
  5
D5
330
1
100
AcDbSymbolTableRecord
100
AcDbBlockTableRecord
  2
block 5
340
0
102
{BLKREFS
331
D6
102
}
 70
     0
280
     1
281
     0
  0
BLOCK_RECORD
  5
E7
330
1
100
AcDbSymbolTableRecord
100
AcDbBlockTableRecord
  2
block 6
340
0
102
{BLKREFS
331
E8
102
}
 70
     0
280
     1
281
     0
  0
ENDTAB
  0
ENDSEC
  0
SECTION
  2
BLOCKS
  0
BLOCK
  5
20
330
1F
100
AcDbEntity
  8
0
100
AcDbBlockBegin
  2
*Model_Space
 70
     0
 10
0.0
 20
0.0
 30
0.0
  3
*Model_Space
  1

  0
ENDBLK
  5
21
330
1F
100
AcDbEntity
  8
0
100
AcDbBlockEnd
  0
BLOCK
  5
1C
330
1B
100
AcDbEntity
 67
     1
  8
0
100
AcDbBlockBegin
  2
*Paper_Space
 70
     0
 10
0.0
 20
0.0
 30
0.0
  3
*Paper_Space
  1

  0
ENDBLK
  5
1D
330
1B
100
AcDbEntity
 67
     1
  8
0
100
AcDbBlockEnd
  0
BLOCK
  5
24
330
23
100
AcDbEntity
  8
0
100
AcDbBlockBegin
  2
*Paper_Space0
 70
     0
 10
0.0
 20
0.0
 30
0.0
  3
*Paper_Space0
  1

  0
ENDBLK
  5
25
330
23
100
AcDbEntity
  8
0
100
AcDbBlockEnd
  0
BLOCK
  5
8F
330
8D
100
AcDbEntity
  8
0
100
AcDbBlockBegin
  2
block 2
 70
     0
 10
0.0
 20
0.0
 30
0.0
  3
block 2
  1

  0
SPLINE
  5
91
330
8D
100
AcDbEntity
  8
_U+30EC_U+30A4_U+30E4_U+30FC 1
370
     0
100
AcDbSpline
210
0.0
220
0.0
230
1.0
 70
    11
 71
     3
 72
    44
 73
    40
 74
     0
 42
0.0000000001
 43
0.0000000001
 12
1.0
 22
0.0
 32
0.0
 13
1.0
 23
0.0
 33
0.0
 40
0.0
 40
0.0
 40
0.0
 40
0.0
 40
1.0
 40
1.0
 40
1.0
 40
2.0
 40
2.0
 40
2.0
 40
3.0
 40
3.0
 40
3.0
 40
4.0
 40
4.0
 40
4.0
 40
5.0
 40
5.0
 40
5.0
 40
6.0
 40
6.0
 40
6.0
 40
7.0
 40
7.0
 40
7.0
 40
8.0
 40
8.0
 40
8.0
 40
9.0
 40
9.0
 40
9.0
 40
10.0
 40
10.0
 40
10.0
 40
11.0
 40
11.0
 40
11.0
 40
12.0
 40
12.0
 40
12.0
 40
13.0
 40
13.0
 40
13.0
 40
13.0
 10
61.02831622823251
 20
-76.58636743962077
 30
0.0
 10
60.79542777342962
 20
-76.74501408671652
 30
0.0
 10
60.69603676868016
 20
-76.8190836396494
 30
0.0
 10
60.64401582685289
 20
-76.96291637615857
 30
0.0
 10
60.64401582685289
 20
-76.96291637615857
 30
0.0
 10
61.47600638654072
 20
-76.96291637615857
 30
0.0
 10
61.47600638654072
 20
-76.96291637615857
 30
0.0
 10
61.47600638654072
 20
-76.96291637615857
 30
0.0
 10
61.47600638654072
 20
-77.16807181230521
 30
0.0
 10
61.47600638654072
 20
-77.16807181230521
 30
0.0
 10
61.47600638654072
 20
-77.16807181230521
 30
0.0
 10
60.37719318152029
 20
-77.16807181230521
 30
0.0
 10
60.37719318152029
 20
-77.16807181230521
 30
0.0
 10
60.41112737205
 20
-76.81047090093628
 30
0.0
 10
60.48123506517484
 20
-76.7322672334211
 30
0.0
 10
60.89275172088793
 20
-76.43392196439846
 30
0.0
 10
61.16629230241676
 20
-76.23513995489955
 30
0.0
 10
61.2363999955416
 20
-76.1674438286144
 30
0.0
 10
61.2363999955416
 20
-76.02998451875293
 30
0.0
 10
61.2363999955416
 20
-75.91147323406032
 30
0.0
 10
61.15957436622053
 20
-75.78038735084657
 30
0.0
 10
60.94925128684602
 20
-75.78038735084657
 30
0.0
 10
60.6710598264121
 20
-75.78038735084657
 30
0.0
 10
60.66210257815045
 20
-76.01086423880979
 30
0.0
 10
60.65762395401963
 20
-76.12730846621123
 30
0.0
 10
60.65762395401963
 20
-76.12730846621123
 30
0.0
 10
60.41784530824624
 20
-76.12730846621123
 30
0.0
 10
60.41784530824624
 20
-76.12730846621123
 30
0.0
 10
60.42697481128215
 20
-76.00035669757978
 30
0.0
 10
60.43834362638347
 20
-75.88821883953489
 30
0.0
 10
60.52412650396619
 20
-75.7697075548423
 30
0.0
 10
60.64177651478747
 20
-75.60899385045539
 30
0.0
 10
60.84073077906066
 20
-75.57505965992569
 30
0.0
 10
60.96509872607817
 20
-75.57505965992569
 30
0.0
 10
61.26120468303539
 20
-75.57505965992569
 30
0.0
 10
61.48272432273696
 20
-75.75920001361229
 30
0.0
 10
61.48272432273696
 20
-76.03205157604407
 30
0.0
 10
61.48272432273696
 20
-76.26046140671613
 30
0.0
 10
61.35835637571944
 20
-76.36002466623985
 30
0.0
 10
61.02831622823251
 20
-76.58636743962077
 30
0.0
  0
HATCH
  5
92
330
8D
100
AcDbEntity
  8
_U+30EC_U+30A4_U+30E4_U+30FC 1
 62
   179
420
  2234388
100
AcDbHatch
 10
0.0
 20
0.0
 30
0.0
210
0.0
220
0.0
230
1.0
  2
SOLID
 70
     1
 71
     0
 91
        1
 92
        1
 93
        1
 72
     4
 94
        3
 73
     0
 74
     1
 95
       44
 96
       40
 40
0.0
 40
0.0
 40
0.0
 40
0.0
 40
1.0
 40
1.0
 40
1.0
 40
2.0
 40
2.0
 40
2.0
 40
3.0
 40
3.0
 40
3.0
 40
4.0
 40
4.0
 40
4.0
 40
5.0
 40
5.0
 40
5.0
 40
6.0
 40
6.0
 40
6.0
 40
7.0
 40
7.0
 40
7.0
 40
8.0
 40
8.0
 40
8.0
 40
9.0
 40
9.0
 40
9.0
 40
10.0
 40
10.0
 40
10.0
 40
11.0
 40
11.0
 40
11.0
 40
12.0
 40
12.0
 40
12.0
 40
13.0
 40
13.0
 40
13.0
 40
13.0
 10
61.02831622823251
 20
-76.58636743962077
 10
60.79542777342962
 20
-76.74501408671652
 10
60.69603676868016
 20
-76.8190836396494
 10
60.64401582685289
 20
-76.96291637615857
 10
60.64401582685289
 20
-76.96291637615857
 10
61.47600638654072
 20
-76.96291637615857
 10
61.47600638654072
 20
-76.96291637615857
 10
61.47600638654072
 20
-76.96291637615857
 10
61.47600638654072
 20
-77.16807181230521
 10
61.47600638654072
 20
-77.16807181230521
 10
61.47600638654072
 20
-77.16807181230521
 10
60.37719318152029
 20
-77.16807181230521
 10
60.37719318152029
 20
-77.16807181230521
 10
60.41112737205
 20
-76.81047090093628
 10
60.48123506517484
 20
-76.7322672334211
 10
60.89275172088793
 20
-76.43392196439846
 10
61.16629230241676
 20
-76.23513995489955
 10
61.2363999955416
 20
-76.1674438286144
 10
61.2363999955416
 20
-76.02998451875293
 10
61.2363999955416
 20
-75.91147323406032
 10
61.15957436622053
 20
-75.78038735084657
 10
60.94925128684602
 20
-75.78038735084657
 10
60.6710598264121
 20
-75.78038735084657
 10
60.66210257815045
 20
-76.01086423880979
 10
60.65762395401963
 20
-76.12730846621123
 10
60.65762395401963
 20
-76.12730846621123
 10
60.41784530824624
 20
-76.12730846621123
 10
60.41784530824624
 20
-76.12730846621123
 10
60.42697481128215
 20
-76.00035669757978
 10
60.43834362638347
 20
-75.88821883953489
 10
60.52412650396619
 20
-75.7697075548423
 10
60.64177651478747
 20
-75.60899385045539
 10
60.84073077906066
 20
-75.57505965992569
 10
60.96509872607817
 20
-75.57505965992569
 10
61.26120468303539
 20
-75.57505965992569
 10
61.48272432273696
 20
-75.75920001361229
 10
61.48272432273696
 20
-76.03205157604407
 10
61.48272432273696
 20
-76.26046140671613
 10
61.35835637571944
 20
-76.36002466623985
 10
61.02831622823251
 20
-76.58636743962077
 97
        0
 97
        0
 75
     2
 76
     1
 98
        0
  0
SPLINE
  5
93
330
8D
100
AcDbEntity
  8
_U+30EC_U+30A4_U+30E4_U+30FC 1
370
     0
100
AcDbSpline
210
0.0
220
0.0
230
1.0
 70
    11
 71
     3
 72
    62
 73
    58
 74
     0
 42
0.0000000001
 43
0.0000000001
 12
1.0
 22
0.0
 32
0.0
 13
1.0
 23
0.0
 33
0.0
 40
0.0
 40
0.0
 40
0.0
 40
0.0
 40
1.0
 40
1.0
 40
1.0
 40
2.0
 40
2.0
 40
2.0
 40
3.0
 40
3.0
 40
3.0
 40
4.0
 40
4.0
 40
4.0
 40
5.0
 40
5.0
 40
5.0
 40
6.0
 40
6.0
 40
6.0
 40
7.0
 40
7.0
 40
7.0
 40
8.0
 40
8.0
 40
8.0
 40
9.0
 40
9.0
 40
9.0
 40
10.0
 40
10.0
 40
10.0
 40
11.0
 40
11.0
 40
11.0
 40
12.0
 40
12.0
 40
12.0
 40
13.0
 40
13.0
 40
13.0
 40
14.0
 40
14.0
 40
14.0
 40
15.0
 40
15.0
 40
15.0
 40
16.0
 40
16.0
 40
16.0
 40
17.0
 40
17.0
 40
17.0
 40
18.0
 40
18.0
 40
18.0
 40
19.0
 40
19.0
 40
19.0
 40
19.0
 10
62.17760008211185
 20
-77.21888697071265
 30
0.0
 10
62.07596976529698
 20
-77.21888697071265
 30
0.0
 10
61.84308131049409
 20
-77.19769963347835
 30
0.0
 10
61.70975611521492
 20
-77.0114922225006
 30
0.0
 10
61.63051891905418
 20
-76.89935436445572
 30
0.0
 10
61.62604029492336
 20
-76.79996335970627
 30
0.0
 10
61.62156167079253
 20
-76.71538626554337
 30
0.0
 10
61.62156167079253
 20
-76.71538626554337
 30
0.0
 10
61.85651718288657
 20
-76.71538626554337
 30
0.0
 10
61.85651718288657
 20
-76.71538626554337
 30
0.0
 10
61.85892874972625
 20
-76.78945581847626
 30
0.0
 10
61.87029756482757
 20
-77.02423907579603
 30
0.0
 10
62.17312145798103
 20
-77.02423907579603
 30
0.0
 10
62.3202270352012
 20
-77.02423907579603
 30
0.0
 10
62.48283554210499
 20
-76.95447589221972
 30
0.0
 10
62.48283554210499
 20
-76.72589380677339
 30
0.0
 10
62.48283554210499
 20
-76.60962183414621
 30
0.0
 10
62.44218341537904
 20
-76.56087373302992
 30
0.0
 10
62.40807697007507
 20
-76.52917885456563
 30
0.0
 10
62.32918428346284
 20
-76.45510930163276
 30
0.0
 10
62.20481633644533
 20
-76.44253470311159
 30
0.0
 10
62.14590520364755
 20
-76.44253470311159
 30
0.0
 10
62.12557914028458
 20
-76.44253470311159
 30
0.0
 10
62.08733858039831
 20
-76.44460176040275
 30
0.0
 10
62.05771075922516
 20
-76.44873587498505
 30
0.0
 10
62.05771075922516
 20
-76.44873587498505
 30
0.0
 10
62.05771075922516
 20
-76.25408798006842
 30
0.0
 10
62.05771075922516
 20
-76.25408798006842
 30
0.0
 10
62.0983628859511
 20
-76.26046140671613
 30
0.0
 10
62.1438381463564
 20
-76.26270071878155
 30
0.0
 10
62.15038382777838
 20
-76.26270071878155
 30
0.0
 10
62.22066377567747
 20
-76.26270071878155
 30
0.0
 10
62.43322616711739
 20
-76.24151338154726
 30
0.0
 10
62.43322616711739
 20
-76.00449081216208
 30
0.0
 10
62.43322616711739
 20
-75.82689613989744
 30
0.0
 10
62.29301078086772
 20
-75.77177461213346
 30
0.0
 10
62.1755330248207
 20
-75.77177461213346
 30
0.0
 10
61.89269068548169
 20
-75.77177461213346
 30
0.0
 10
61.88373343722004
 20
-76.00449081216208
 30
0.0
 10
61.87925481308922
 20
-76.0764933078038
 30
0.0
 10
61.87925481308922
 20
-76.0764933078038
 30
0.0
 10
61.66221379751848
 20
-76.0764933078038
 30
0.0
 10
61.66221379751848
 20
-76.0764933078038
 30
0.0
 10
61.67117104578013
 20
-75.95160859646349
 30
0.0
 10
61.70045435740475
 20
-75.57505965992569
 30
0.0
 10
62.18896889721318
 20
-75.57505965992569
 30
0.0
 10
62.42874754298656
 20
-75.57505965992569
 30
0.0
 10
62.68644068528325
 20
-75.70201142855714
 30
0.0
 10
62.68644068528325
 20
-75.99811738551436
 30
0.0
 10
62.68644068528325
 20
-76.18432479649212
 30
0.0
 10
62.58446585891986
 20
-76.26683483336384
 30
0.0
 10
62.47835691797416
 20
-76.3281575330013
 30
0.0
 10
62.54381373219391
 20
-76.3557182968833
 30
0.0
 10
62.73846162711052
 20
-76.43616127646388
 30
0.0
 10
62.73846162711052
 20
-76.71331920825223
 30
0.0
 10
62.73846162711052
 20
-77.05179983967803
 30
0.0
 10
62.47387829384334
 20
-77.21888697071265
 30
0.0
 10
62.17760008211185
 20
-77.21888697071265
 30
0.0
  0
HATCH
  5
94
330
8D
100
AcDbEntity
  8
_U+30EC_U+30A4_U+30E4_U+30FC 1
 62
   179
420
  2234388
100
AcDbHatch
 10
0.0
 20
0.0
 30
0.0
210
0.0
220
0.0
230
1.0
  2
SOLID
 70
     1
 71
     0
 91
        1
 92
        1
 93
        1
 72
     4
 94
        3
 73
     0
 74
     1
 95
       62
 96
       58
 40
0.0
 40
0.0
 40
0.0
 40
0.0
 40
1.0
 40
1.0
 40
1.0
 40
2.0
 40
2.0
 40
2.0
 40
3.0
 40
3.0
 40
3.0
 40
4.0
 40
4.0
 40
4.0
 40
5.0
 40
5.0
 40
5.0
 40
6.0
 40
6.0
 40
6.0
 40
7.0
 40
7.0
 40
7.0
 40
8.0
 40
8.0
 40
8.0
 40
9.0
 40
9.0
 40
9.0
 40
10.0
 40
10.0
 40
10.0
 40
11.0
 40
11.0
 40
11.0
 40
12.0
 40
12.0
 40
12.0
 40
13.0
 40
13.0
 40
13.0
 40
14.0
 40
14.0
 40
14.0
 40
15.0
 40
15.0
 40
15.0
 40
16.0
 40
16.0
 40
16.0
 40
17.0
 40
17.0
 40
17.0
 40
18.0
 40
18.0
 40
18.0
 40
19.0
 40
19.0
 40
19.0
 40
19.0
 10
62.17760008211185
 20
-77.21888697071265
 10
62.07596976529698
 20
-77.21888697071265
 10
61.84308131049409
 20
-77.19769963347835
 10
61.70975611521492
 20
-77.0114922225006
 10
61.63051891905418
 20
-76.89935436445572
 10
61.62604029492336
 20
-76.79996335970627
 10
61.62156167079253
 20
-76.71538626554337
 10
61.62156167079253
 20
-76.71538626554337
 10
61.85651718288657
 20
-76.71538626554337
 10
61.85651718288657
 20
-76.71538626554337
 10
61.85892874972625
 20
-76.78945581847626
 10
61.87029756482757
 20
-77.02423907579603
 10
62.17312145798103
 20
-77.02423907579603
 10
62.3202270352012
 20
-77.02423907579603
 10
62.48283554210499
 20
-76.95447589221972
 10
62.48283554210499
 20
-76.72589380677339
 10
62.48283554210499
 20
-76.60962183414621
 10
62.44218341537904
 20
-76.56087373302992
 10
62.40807697007507
 20
-76.52917885456563
 10
62.32918428346284
 20
-76.45510930163276
 10
62.20481633644533
 20
-76.44253470311159
 10
62.14590520364755
 20
-76.44253470311159
 10
62.12557914028458
 20
-76.44253470311159
 10
62.08733858039831
 20
-76.44460176040275
 10
62.05771075922516
 20
-76.44873587498505
 10
62.05771075922516
 20
-76.44873587498505
 10
62.05771075922516
 20
-76.25408798006842
 10
62.05771075922516
 20
-76.25408798006842
 10
62.0983628859511
 20
-76.26046140671613
 10
62.1438381463564
 20
-76.26270071878155
 10
62.15038382777838
 20
-76.26270071878155
 10
62.22066377567747
 20
-76.26270071878155
 10
62.43322616711739
 20
-76.24151338154726
 10
62.43322616711739
 20
-76.00449081216208
 10
62.43322616711739
 20
-75.82689613989744
 10
62.29301078086772
 20
-75.77177461213346
 10
62.1755330248207
 20
-75.77177461213346
 10
61.89269068548169
 20
-75.77177461213346
 10
61.88373343722004
 20
-76.00449081216208
 10
61.87925481308922
 20
-76.0764933078038
 10
61.87925481308922
 20
-76.0764933078038
 10
61.66221379751848
 20
-76.0764933078038
 10
61.66221379751848
 20
-76.0764933078038
 10
61.67117104578013
 20
-75.95160859646349
 10
61.70045435740475
 20
-75.57505965992569
 10
62.18896889721318
 20
-75.57505965992569
 10
62.42874754298656
 20
-75.57505965992569
 10
62.68644068528325
 20
-75.70201142855714
 10
62.68644068528325
 20
-75.99811738551436
 10
62.68644068528325
 20
-76.18432479649212
 10
62.58446585891986
 20
-76.26683483336384
 10
62.47835691797416
 20
-76.3281575330013
 10
62.54381373219391
 20
-76.3557182968833
 10
62.73846162711052
 20
-76.43616127646388
 10
62.73846162711052
 20
-76.71331920825223
 10
62.73846162711052
 20
-77.05179983967803
 10
62.47387829384334
 20
-77.21888697071265
 10
62.17760008211185
 20
-77.21888697071265
 97
        0
 97
        0
 75
     2
 76
     1
 98
        0
  0
ENDBLK
  5
90
330
8D
100
AcDbEntity
  8
0
100
AcDbBlockEnd
  0
BLOCK
  5
A3
330
A1
100
AcDbEntity
  8
0
100
AcDbBlockBegin
  2
block 3
 70
     0
 10
0.0
 20
0.0
 30
0.0
  3
block 3
  1

  0
SPLINE
  5
A5
330
A1
100
AcDbEntity
  8
_U+30EC_U+30A4_U+30E4_U+30FC 1
370
     0
100
AcDbSpline
210
0.0
220
0.0
230
1.0
 70
    11
 71
     3
 72
    26
 73
    22
 74
     0
 42
0.0000000001
 43
0.0000000001
 12
1.0
 22
0.0
 32
0.0
 13
1.0
 23
0.0
 33
0.0
 40
0.0
 40
0.0
 40
0.0
 40
0.0
 40
1.0
 40
1.0
 40
1.0
 40
2.0
 40
2.0
 40
2.0
 40
3.0
 40
3.0
 40
3.0
 40
4.0
 40
4.0
 40
4.0
 40
5.0
 40
5.0
 40
5.0
 40
6.0
 40
6.0
 40
6.0
 40
7.0
 40
7.0
 40
7.0
 40
7.0
 10
53.37693141026688
 20
-101.9682806819732
 30
0.0
 10
53.37693141026688
 20
-101.9682806819732
 30
0.0
 10
53.37693141026688
 20
-100.8641275789506
 30
0.0
 10
53.37693141026688
 20
-100.8641275789506
 30
0.0
 10
53.37693141026688
 20
-100.8641275789506
 30
0.0
 10
53.0241536325773
 20
-100.8641275789506
 30
0.0
 10
53.0241536325773
 20
-100.8641275789506
 30
0.0
 10
53.0241536325773
 20
-100.8641275789506
 30
0.0
 10
53.0241536325773
 20
-100.7159884730849
 30
0.0
 10
53.0241536325773
 20
-100.7159884730849
 30
0.0
 10
53.37917072233229
 20
-100.7011745624983
 30
0.0
 10
53.42895235209415
 20
-100.538221546046
 30
0.0
 10
53.46047497578419
 20
-100.4238443759357
 30
0.0
 10
53.46047497578419
 20
-100.4238443759357
 30
0.0
 10
53.61653780126601
 20
-100.4238443759357
 30
0.0
 10
53.61653780126601
 20
-100.4238443759357
 30
0.0
 10
53.61653780126601
 20
-100.4238443759357
 30
0.0
 10
53.61653780126601
 20
-101.9682806819732
 30
0.0
 10
53.61653780126601
 20
-101.9682806819732
 30
0.0
 10
53.61653780126601
 20
-101.9682806819732
 30
0.0
 10
53.37693141026688
 20
-101.9682806819732
 30
0.0
 10
53.37693141026688
 20
-101.9682806819732
 30
0.0
  0
HATCH
  5
A6
330
A1
100
AcDbEntity
  8
_U+30EC_U+30A4_U+30E4_U+30FC 1
 62
   179
420
  2234388
100
AcDbHatch
 10
0.0
 20
0.0
 30
0.0
210
0.0
220
0.0
230
1.0
  2
SOLID
 70
     1
 71
     0
 91
        1
 92
        1
 93
        1
 72
     4
 94
        3
 73
     0
 74
     1
 95
       26
 96
       22
 40
0.0
 40
0.0
 40
0.0
 40
0.0
 40
1.0
 40
1.0
 40
1.0
 40
2.0
 40
2.0
 40
2.0
 40
3.0
 40
3.0
 40
3.0
 40
4.0
 40
4.0
 40
4.0
 40
5.0
 40
5.0
 40
5.0
 40
6.0
 40
6.0
 40
6.0
 40
7.0
 40
7.0
 40
7.0
 40
7.0
 10
53.37693141026688
 20
-101.9682806819732
 10
53.37693141026688
 20
-101.9682806819732
 10
53.37693141026688
 20
-100.8641275789506
 10
53.37693141026688
 20
-100.8641275789506
 10
53.37693141026688
 20
-100.8641275789506
 10
53.0241536325773
 20
-100.8641275789506
 10
53.0241536325773
 20
-100.8641275789506
 10
53.0241536325773
 20
-100.8641275789506
 10
53.0241536325773
 20
-100.7159884730849
 10
53.0241536325773
 20
-100.7159884730849
 10
53.37917072233229
 20
-100.7011745624983
 10
53.42895235209415
 20
-100.538221546046
 10
53.46047497578419
 20
-100.4238443759357
 10
53.46047497578419
 20
-100.4238443759357
 10
53.61653780126601
 20
-100.4238443759357
 10
53.61653780126601
 20
-100.4238443759357
 10
53.61653780126601
 20
-100.4238443759357
 10
53.61653780126601
 20
-101.9682806819732
 10
53.61653780126601
 20
-101.9682806819732
 10
53.61653780126601
 20
-101.9682806819732
 10
53.37693141026688
 20
-101.9682806819732
 10
53.37693141026688
 20
-101.9682806819732
 97
        0
 97
        0
 75
     2
 76
     1
 98
        0
  0
SPLINE
  5
A7
330
A1
100
AcDbEntity
  8
_U+30EC_U+30A4_U+30E4_U+30FC 1
370
     0
100
AcDbSpline
210
0.0
220
0.0
230
1.0
 70
    11
 71
     3
 72
    29
 73
    25
 74
     0
 42
0.0000000001
 43
0.0000000001
 12
1.0
 22
0.0
 32
0.0
 13
1.0
 23
0.0
 33
0.0
 40
0.0
 40
0.0
 40
0.0
 40
0.0
 40
1.0
 40
1.0
 40
1.0
 40
2.0
 40
2.0
 40
2.0
 40
3.0
 40
3.0
 40
3.0
 40
4.0
 40
4.0
 40
4.0
 40
5.0
 40
5.0
 40
5.0
 40
6.0
 40
6.0
 40
6.0
 40
7.0
 40
7.0
 40
7.0
 40
8.0
 40
8.0
 40
8.0
 40
8.0
 10
55.11170924186444
 20
-101.7905137549343
 30
0.0
 10
54.99647079788283
 20
-101.9999755604375
 30
0.0
 10
54.81112466077639
 20
-102.0189235856064
 30
0.0
 10
54.68675671375887
 20
-102.0189235856064
 30
0.0
 10
54.5148464490449
 20
-102.0189235856064
 30
0.0
 10
54.36343450246817
 20
-101.9724147965555
 30
0.0
 10
54.26163193087904
 20
-101.7905137549343
 30
0.0
 10
54.15087211102826
 20
-101.5958658600177
 30
0.0
 10
54.13054604766528
 20
-101.3588432906325
 30
0.0
 10
54.13054604766528
 20
-101.1962347837287
 30
0.0
 10
54.13054604766528
 20
-101.0522297924453
 30
0.0
 10
54.14863279896284
 20
-100.8003933124735
 30
0.0
 10
54.26163193087904
 20
-100.6016113029746
 30
0.0
 10
54.37704262963491
 20
-100.3986951788934
 30
0.0
 10
54.54878063957462
 20
-100.3752685295937
 30
0.0
 10
54.68675671375887
 20
-100.3752685295937
 30
0.0
 10
54.85625541163316
 20
-100.3752685295937
 30
0.0
 10
55.01007892504957
 20
-100.4197102613534
 30
0.0
 10
55.11170924186444
 20
-100.6016113029746
 30
0.0
 10
55.21799043758439
 20
-100.7941921406001
 30
0.0
 10
55.24296737985245
 20
-101.0226019712721
 30
0.0
 10
55.24296737985245
 20
-101.1962347837287
 30
0.0
 10
55.24296737985245
 20
-101.3674560293456
 30
0.0
 10
55.2202297496498
 20
-101.5979329173089
 30
0.0
 10
55.11170924186444
 20
-101.7905137549343
 30
0.0
  0
SPLINE
  5
A8
330
A1
100
AcDbEntity
  8
_U+30EC_U+30A4_U+30E4_U+30FC 1
370
     0
100
AcDbSpline
210
0.0
220
0.0
230
1.0
 70
    11
 71
     3
 72
    17
 73
    13
 74
     0
 42
0.0000000001
 43
0.0000000001
 12
1.0
 22
0.0
 32
0.0
 13
1.0
 23
0.0
 33
0.0
 40
0.0
 40
0.0
 40
0.0
 40
0.0
 40
1.0
 40
1.0
 40
1.0
 40
2.0
 40
2.0
 40
2.0
 40
3.0
 40
3.0
 40
3.0
 40
4.0
 40
4.0
 40
4.0
 40
4.0
 10
54.68675671375887
 20
-100.5678493672192
 30
0.0
 10
54.41993406842627
 20
-100.5678493672192
 30
0.0
 10
54.37015243866441
 20
-100.8513807256552
 30
0.0
 10
54.37015243866441
 20
-101.1962347837287
 30
0.0
 10
54.37015243866441
 20
-101.5155951352114
 30
0.0
 10
54.40856525332494
 20
-101.8242756906898
 30
0.0
 10
54.68675671375887
 20
-101.8242756906898
 30
0.0
 10
54.95116779225179
 20
-101.8242756906898
 30
0.0
 10
55.00318873407907
 20
-101.5431558990934
 30
0.0
 10
55.00318873407907
 20
-101.1962347837287
 30
0.0
 10
55.00318873407907
 20
-100.8765299226975
 30
0.0
 10
54.96253660735312
 20
-100.5678493672192
 30
0.0
 10
54.68675671375887
 20
-100.5678493672192
 30
0.0
  0
HATCH
  5
A9
330
A1
100
AcDbEntity
  8
_U+30EC_U+30A4_U+30E4_U+30FC 1
 62
   179
420
  2234388
100
AcDbHatch
 10
0.0
 20
0.0
 30
0.0
210
0.0
220
0.0
230
1.0
  2
SOLID
 70
     1
 71
     0
 91
        2
 92
        1
 93
        1
 72
     4
 94
        3
 73
     0
 74
     1
 95
       29
 96
       25
 40
0.0
 40
0.0
 40
0.0
 40
0.0
 40
1.0
 40
1.0
 40
1.0
 40
2.0
 40
2.0
 40
2.0
 40
3.0
 40
3.0
 40
3.0
 40
4.0
 40
4.0
 40
4.0
 40
5.0
 40
5.0
 40
5.0
 40
6.0
 40
6.0
 40
6.0
 40
7.0
 40
7.0
 40
7.0
 40
8.0
 40
8.0
 40
8.0
 40
8.0
 10
55.11170924186444
 20
-101.7905137549343
 10
54.99647079788283
 20
-101.9999755604375
 10
54.81112466077639
 20
-102.0189235856064
 10
54.68675671375887
 20
-102.0189235856064
 10
54.5148464490449
 20
-102.0189235856064
 10
54.36343450246817
 20
-101.9724147965555
 10
54.26163193087904
 20
-101.7905137549343
 10
54.15087211102826
 20
-101.5958658600177
 10
54.13054604766528
 20
-101.3588432906325
 10
54.13054604766528
 20
-101.1962347837287
 10
54.13054604766528
 20
-101.0522297924453
 10
54.14863279896284
 20
-100.8003933124735
 10
54.26163193087904
 20
-100.6016113029746
 10
54.37704262963491
 20
-100.3986951788934
 10
54.54878063957462
 20
-100.3752685295937
 10
54.68675671375887
 20
-100.3752685295937
 10
54.85625541163316
 20
-100.3752685295937
 10
55.01007892504957
 20
-100.4197102613534
 10
55.11170924186444
 20
-100.6016113029746
 10
55.21799043758439
 20
-100.7941921406001
 10
55.24296737985245
 20
-101.0226019712721
 10
55.24296737985245
 20
-101.1962347837287
 10
55.24296737985245
 20
-101.3674560293456
 10
55.2202297496498
 20
-101.5979329173089
 10
55.11170924186444
 20
-101.7905137549343
 97
        0
 97
        0
 92
        1
 93
        1
 72
     4
 94
        3
 73
     0
 74
     1
 95
       17
 96
       13
 40
0.0
 40
0.0
 40
0.0
 40
0.0
 40
1.0
 40
1.0
 40
1.0
 40
2.0
 40
2.0
 40
2.0
 40
3.0
 40
3.0
 40
3.0
 40
4.0
 40
4.0
 40
4.0
 40
4.0
 10
54.68675671375887
 20
-100.5678493672192
 10
54.41993406842627
 20
-100.5678493672192
 10
54.37015243866441
 20
-100.8513807256552
 10
54.37015243866441
 20
-101.1962347837287
 10
54.37015243866441
 20
-101.5155951352114
 10
54.40856525332494
 20
-101.8242756906898
 10
54.68675671375887
 20
-101.8242756906898
 10
54.95116779225179
 20
-101.8242756906898
 10
55.00318873407907
 20
-101.5431558990934
 10
55.00318873407907
 20
-101.1962347837287
 10
55.00318873407907
 20
-100.8765299226975
 10
54.96253660735312
 20
-100.5678493672192
 10
54.68675671375887
 20
-100.5678493672192
 97
        0
 97
        0
 75
     2
 76
     1
 98
        0
  0
ENDBLK
  5
A4
330
A1
100
AcDbEntity
  8
0
100
AcDbBlockEnd
  0
BLOCK
  5
BC
330
BA
100
AcDbEntity
  8
0
100
AcDbBlockBegin
  2
block 4
 70
     0
 10
0.0
 20
0.0
 30
0.0
  3
block 4
  1

  0
SPLINE
  5
BE
330
BA
100
AcDbEntity
  8
_U+30EC_U+30A4_U+30E4_U+30FC 1
370
     0
100
AcDbSpline
210
0.0
220
0.0
230
1.0
 70
    11
 71
     3
 72
    29
 73
    25
 74
     0
 42
0.0000000001
 43
0.0000000001
 12
1.0
 22
0.0
 32
0.0
 13
1.0
 23
0.0
 33
0.0
 40
0.0
 40
0.0
 40
0.0
 40
0.0
 40
1.0
 40
1.0
 40
1.0
 40
2.0
 40
2.0
 40
2.0
 40
3.0
 40
3.0
 40
3.0
 40
4.0
 40
4.0
 40
4.0
 40
5.0
 40
5.0
 40
5.0
 40
6.0
 40
6.0
 40
6.0
 40
7.0
 40
7.0
 40
7.0
 40
8.0
 40
8.0
 40
8.0
 40
8.0
 10
75.52889538042334
 20
-80.01475421176715
 30
0.0
 10
75.73835718592653
 20
-80.13016491052302
 30
0.0
 10
75.7573052110954
 20
-80.31551104762946
 30
0.0
 10
75.7573052110954
 20
-80.43987899464697
 30
0.0
 10
75.7573052110954
 20
-80.61144474981242
 30
0.0
 10
75.71079642204452
 20
-80.7630289511634
 30
0.0
 10
75.52889538042334
 20
-80.86465926797828
 30
0.0
 10
75.33424748550672
 20
-80.97559134260332
 30
0.0
 10
75.09722491612153
 20
-80.9959174059663
 30
0.0
 10
74.93461640921774
 20
-80.9959174059663
 30
0.0
 10
74.7906114179343
 20
-80.9959174059663
 30
0.0
 10
74.53877493796253
 20
-80.97765839989448
 30
0.0
 10
74.33999292846362
 20
-80.86465926797828
 30
0.0
 10
74.1370768043824
 20
-80.74959307877094
 30
0.0
 10
74.1136501550827
 20
-80.57768281405697
 30
0.0
 10
74.1136501550827
 20
-80.43987899464697
 30
0.0
 10
74.1136501550827
 20
-80.27003578722416
 30
0.0
 10
74.15809188684243
 20
-80.11638452858202
 30
0.0
 10
74.33999292846362
 20
-80.01475421176715
 30
0.0
 10
74.53257376608909
 20
-79.90830076127293
 30
0.0
 10
74.76098359676115
 20
-79.88349607377913
 30
0.0
 10
74.93461640921774
 20
-79.88349607377913
 30
0.0
 10
75.10583765483466
 20
-79.88349607377913
 30
0.0
 10
75.33631454279787
 20
-79.90623370398178
 30
0.0
 10
75.52889538042334
 20
-80.01475421176715
 30
0.0
  0
SPLINE
  5
BF
330
BA
100
AcDbEntity
  8
_U+30EC_U+30A4_U+30E4_U+30FC 1
370
     0
100
AcDbSpline
210
0.0
220
0.0
230
1.0
 70
    11
 71
     3
 72
    17
 73
    13
 74
     0
 42
0.0000000001
 43
0.0000000001
 12
1.0
 22
0.0
 32
0.0
 13
1.0
 23
0.0
 33
0.0
 40
0.0
 40
0.0
 40
0.0
 40
0.0
 40
1.0
 40
1.0
 40
1.0
 40
2.0
 40
2.0
 40
2.0
 40
3.0
 40
3.0
 40
3.0
 40
4.0
 40
4.0
 40
4.0
 40
4.0
 10
74.30623099270817
 20
-80.43987899464697
 30
0.0
 10
74.30623099270817
 20
-80.70652938520531
 30
0.0
 10
74.58976235114423
 20
-80.75613876019291
 30
0.0
 10
74.93461640921774
 20
-80.75613876019291
 30
0.0
 10
75.2539767607004
 20
-80.75613876019291
 30
0.0
 10
75.56265731617879
 20
-80.71789820030664
 30
0.0
 10
75.56265731617879
 20
-80.43987899464697
 30
0.0
 10
75.56265731617879
 20
-80.17529566137979
 30
0.0
 10
75.28153752458239
 20
-80.12327471955251
 30
0.0
 10
74.93461640921774
 20
-80.12327471955251
 30
0.0
 10
74.61491154818656
 20
-80.12327471955251
 30
0.0
 10
74.30623099270817
 20
-80.16392684627847
 30
0.0
 10
74.30623099270817
 20
-80.43987899464697
 30
0.0
  0
HATCH
  5
C0
330
BA
100
AcDbEntity
  8
_U+30EC_U+30A4_U+30E4_U+30FC 1
 62
   179
420
  2234388
100
AcDbHatch
 10
0.0
 20
0.0
 30
0.0
210
0.0
220
0.0
230
1.0
  2
SOLID
 70
     1
 71
     0
 91
        2
 92
        1
 93
        1
 72
     4
 94
        3
 73
     0
 74
     1
 95
       29
 96
       25
 40
0.0
 40
0.0
 40
0.0
 40
0.0
 40
1.0
 40
1.0
 40
1.0
 40
2.0
 40
2.0
 40
2.0
 40
3.0
 40
3.0
 40
3.0
 40
4.0
 40
4.0
 40
4.0
 40
5.0
 40
5.0
 40
5.0
 40
6.0
 40
6.0
 40
6.0
 40
7.0
 40
7.0
 40
7.0
 40
8.0
 40
8.0
 40
8.0
 40
8.0
 10
75.52889538042334
 20
-80.01475421176715
 10
75.73835718592653
 20
-80.13016491052302
 10
75.7573052110954
 20
-80.31551104762946
 10
75.7573052110954
 20
-80.43987899464697
 10
75.7573052110954
 20
-80.61144474981242
 10
75.71079642204452
 20
-80.7630289511634
 10
75.52889538042334
 20
-80.86465926797828
 10
75.33424748550672
 20
-80.97559134260332
 10
75.09722491612153
 20
-80.9959174059663
 10
74.93461640921774
 20
-80.9959174059663
 10
74.7906114179343
 20
-80.9959174059663
 10
74.53877493796253
 20
-80.97765839989448
 10
74.33999292846362
 20
-80.86465926797828
 10
74.1370768043824
 20
-80.74959307877094
 10
74.1136501550827
 20
-80.57768281405697
 10
74.1136501550827
 20
-80.43987899464697
 10
74.1136501550827
 20
-80.27003578722416
 10
74.15809188684243
 20
-80.11638452858202
 10
74.33999292846362
 20
-80.01475421176715
 10
74.53257376608909
 20
-79.90830076127293
 10
74.76098359676115
 20
-79.88349607377913
 10
74.93461640921774
 20
-79.88349607377913
 10
75.10583765483466
 20
-79.88349607377913
 10
75.33631454279787
 20
-79.90623370398178
 10
75.52889538042334
 20
-80.01475421176715
 97
        0
 97
        0
 92
        1
 93
        1
 72
     4
 94
        3
 73
     0
 74
     1
 95
       17
 96
       13
 40
0.0
 40
0.0
 40
0.0
 40
0.0
 40
1.0
 40
1.0
 40
1.0
 40
2.0
 40
2.0
 40
2.0
 40
3.0
 40
3.0
 40
3.0
 40
4.0
 40
4.0
 40
4.0
 40
4.0
 10
74.30623099270817
 20
-80.43987899464697
 10
74.30623099270817
 20
-80.70652938520531
 10
74.58976235114423
 20
-80.75613876019291
 10
74.93461640921774
 20
-80.75613876019291
 10
75.2539767607004
 20
-80.75613876019291
 10
75.56265731617879
 20
-80.71789820030664
 10
75.56265731617879
 20
-80.43987899464697
 10
75.56265731617879
 20
-80.17529566137979
 10
75.28153752458239
 20
-80.12327471955251
 10
74.93461640921774
 20
-80.12327471955251
 10
74.61491154818656
 20
-80.12327471955251
 10
74.30623099270817
 20
-80.16392684627847
 10
74.30623099270817
 20
-80.43987899464697
 97
        0
 97
        0
 75
     2
 76
     1
 98
        0
  0
POLYLINE
  5
C1
330
BA
100
AcDbEntity
  8
_U+30EC_U+30A4_U+30E4_U+30FC 1
370
     0
100
AcDb2dPolyline
 66
     1
 10
0.0
 20
0.0
 30
0.0
  0
VERTEX
  5
C2
330
C1
100
AcDbEntity
  8
_U+30EC_U+30A4_U+30E4_U+30FC 1
370
     0
100
AcDbVertex
100
AcDb2dVertex
 10
75.70666230746222
 20
-79.65233016671887
 30
0.0
  0
VERTEX
  5
C3
330
C1
100
AcDbEntity
  8
_U+30EC_U+30A4_U+30E4_U+30FC 1
370
     0
100
AcDbVertex
100
AcDb2dVertex
 10
75.45482582749047
 20
-79.65233016671887
 30
0.0
  0
VERTEX
  5
C4
330
C1
100
AcDbEntity
  8
_U+30EC_U+30A4_U+30E4_U+30FC 1
370
     0
100
AcDbVertex
100
AcDb2dVertex
 10
75.45482582749047
 20
-79.38326820932085
 30
0.0
  0
VERTEX
  5
C5
330
C1
100
AcDbEntity
  8
_U+30EC_U+30A4_U+30E4_U+30FC 1
370
     0
100
AcDbVertex
100
AcDb2dVertex
 10
75.70666230746222
 20
-79.38326820932085
 30
0.0
  0
VERTEX
  5
C6
330
C1
100
AcDbEntity
  8
_U+30EC_U+30A4_U+30E4_U+30FC 1
370
     0
100
AcDbVertex
100
AcDb2dVertex
 10
75.70666230746222
 20
-79.65233016671887
 30
0.0
  0
SEQEND
  5
C7
330
C1
100
AcDbEntity
  8
_U+30EC_U+30A4_U+30E4_U+30FC 1
370
     0
  0
HATCH
  5
C8
330
BA
100
AcDbEntity
  8
_U+30EC_U+30A4_U+30E4_U+30FC 1
 62
   179
420
  2234388
100
AcDbHatch
 10
0.0
 20
0.0
 30
0.0
210
0.0
220
0.0
230
1.0
  2
SOLID
 70
     1
 71
     0
 91
        1
 92
        1
 93
        4
 72
     1
 10
75.70666230746222
 20
-79.65233016671887
 11
75.45482582749047
 21
-79.65233016671887
 72
     1
 10
75.45482582749047
 20
-79.65233016671887
 11
75.45482582749047
 21
-79.38326820932085
 72
     1
 10
75.45482582749047
 20
-79.38326820932085
 11
75.70666230746222
 21
-79.38326820932085
 72
     1
 10
75.70666230746222
 20
-79.38326820932085
 11
75.70666230746222
 21
-79.65233016671887
 97
        0
 75
     2
 76
     1
 98
        0
  0
SPLINE
  5
C9
330
BA
100
AcDbEntity
  8
_U+30EC_U+30A4_U+30E4_U+30FC 1
370
     0
100
AcDbSpline
210
0.0
220
0.0
230
1.0
 70
    11
 71
     3
 72
    29
 73
    25
 74
     0
 42
0.0000000001
 43
0.0000000001
 12
1.0
 22
0.0
 32
0.0
 13
1.0
 23
0.0
 33
0.0
 40
0.0
 40
0.0
 40
0.0
 40
0.0
 40
1.0
 40
1.0
 40
1.0
 40
2.0
 40
2.0
 40
2.0
 40
3.0
 40
3.0
 40
3.0
 40
4.0
 40
4.0
 40
4.0
 40
5.0
 40
5.0
 40
5.0
 40
6.0
 40
6.0
 40
6.0
 40
7.0
 40
7.0
 40
7.0
 40
8.0
 40
8.0
 40
8.0
 40
8.0
 10
75.7573052110954
 20
-78.59606389094127
 30
0.0
 10
75.7573052110954
 20
-78.88097328757142
 30
0.0
 10
75.61984590123393
 20
-79.15210230226059
 30
0.0
 10
75.27085772857812
 20
-79.15210230226059
 30
0.0
 10
75.01488713402406
 20
-79.15210230226059
 30
0.0
 10
74.91980249863117
 20
-79.0005181009096
 30
0.0
 10
74.85847979899371
 20
-78.8875189689934
 30
0.0
 10
74.79922415664743
 20
-79.02084416427257
 30
0.0
 10
74.68484698653712
 20
-79.10249292727299
 30
0.0
 10
74.52396102737596
 20
-79.10249292727299
 30
0.0
 10
74.24904240765302
 20
-79.10249292727299
 30
0.0
 10
74.1136501550827
 20
-78.88993053583307
 30
0.0
 10
74.1136501550827
 20
-78.59606389094127
 30
0.0
 10
74.1136501550827
 20
-78.29289548823928
 30
0.0
 10
74.25765514636615
 20
-78.08963485460954
 30
0.0
 10
74.52396102737596
 20
-78.08963485460954
 30
0.0
 10
74.68484698653712
 20
-78.08963485460954
 30
0.0
 10
74.79922415664743
 20
-78.17300616535259
 30
0.0
 10
74.85847979899371
 20
-78.30667587018029
 30
0.0
 10
74.90912270262689
 20
-78.21159123478738
 30
0.0
 10
75.00420733801978
 20
-78.04209253691309
 30
0.0
 10
75.26672361399582
 20
-78.04209253691309
 30
0.0
 10
75.64120549324248
 20
-78.04209253691309
 30
0.0
 10
75.7573052110954
 20
-78.34043780593572
 30
0.0
 10
75.7573052110954
 20
-78.59606389094127
 30
0.0
  0
SPLINE
  5
CA
330
BA
100
AcDbEntity
  8
_U+30EC_U+30A4_U+30E4_U+30FC 1
370
     0
100
AcDbSpline
210
0.0
220
0.0
230
1.0
 70
    11
 71
     3
 72
    17
 73
    13
 74
     0
 42
0.0000000001
 43
0.0000000001
 12
1.0
 22
0.0
 32
0.0
 13
1.0
 23
0.0
 33
0.0
 40
0.0
 40
0.0
 40
0.0
 40
0.0
 40
1.0
 40
1.0
 40
1.0
 40
2.0
 40
2.0
 40
2.0
 40
3.0
 40
3.0
 40
3.0
 40
4.0
 40
4.0
 40
4.0
 40
4.0
 10
74.30623099270817
 20
-78.59606389094127
 30
0.0
 10
74.30623099270817
 20
-78.77210827023754
 30
0.0
 10
74.40131562810106
 20
-78.8627142814996
 30
0.0
 10
74.53670788067139
 20
-78.8627142814996
 30
0.0
 10
74.65935327994627
 20
-78.8627142814996
 30
0.0
 10
74.77786456463888
 20
-78.78588865217853
 30
0.0
 10
74.77786456463888
 20
-78.59606389094127
 30
0.0
 10
74.77786456463888
 20
-78.40589462015548
 30
0.0
 10
74.65935327994627
 20
-78.3290689908344
 30
0.0
 10
74.53670788067139
 20
-78.3290689908344
 30
0.0
 10
74.40131562810106
 20
-78.3290689908344
 30
0.0
 10
74.30623099270817
 20
-78.42174205938763
 30
0.0
 10
74.30623099270817
 20
-78.59606389094127
 30
0.0
  0
SPLINE
  5
CB
330
BA
100
AcDbEntity
  8
_U+30EC_U+30A4_U+30E4_U+30FC 1
370
     0
100
AcDbSpline
210
0.0
220
0.0
230
1.0
 70
    11
 71
     3
 72
    17
 73
    13
 74
     0
 42
0.0000000001
 43
0.0000000001
 12
1.0
 22
0.0
 32
0.0
 13
1.0
 23
0.0
 33
0.0
 40
0.0
 40
0.0
 40
0.0
 40
0.0
 40
1.0
 40
1.0
 40
1.0
 40
2.0
 40
2.0
 40
2.0
 40
3.0
 40
3.0
 40
3.0
 40
4.0
 40
4.0
 40
4.0
 40
4.0
 10
74.96631128768203
 20
-78.59606389094127
 30
0.0
 10
74.96631128768203
 20
-78.74971514958341
 30
0.0
 10
75.05312769391033
 20
-78.9123236564872
 30
0.0
 10
75.25604381799155
 20
-78.9123236564872
 30
0.0
 10
75.46137150891244
 20
-78.9123236564872
 30
0.0
 10
75.56265731617879
 20
-78.77693140391688
 30
0.0
 10
75.56265731617879
 20
-78.59606389094127
 30
0.0
 10
75.56265731617879
 20
-78.39693737189383
 30
0.0
 10
75.44001191690388
 20
-78.2794596158468
 30
0.0
 10
75.262244989865
 20
-78.2794596158468
 30
0.0
 10
75.04038084061492
 20
-78.2794596158468
 30
0.0
 10
74.96631128768203
 20
-78.45343693785192
 30
0.0
 10
74.96631128768203
 20
-78.59606389094127
 30
0.0
  0
HATCH
  5
CC
330
BA
100
AcDbEntity
  8
_U+30EC_U+30A4_U+30E4_U+30FC 1
 62
   179
420
  2234388
100
AcDbHatch
 10
0.0
 20
0.0
 30
0.0
210
0.0
220
0.0
230
1.0
  2
SOLID
 70
     1
 71
     0
 91
        3
 92
        1
 93
        1
 72
     4
 94
        3
 73
     0
 74
     1
 95
       29
 96
       25
 40
0.0
 40
0.0
 40
0.0
 40
0.0
 40
1.0
 40
1.0
 40
1.0
 40
2.0
 40
2.0
 40
2.0
 40
3.0
 40
3.0
 40
3.0
 40
4.0
 40
4.0
 40
4.0
 40
5.0
 40
5.0
 40
5.0
 40
6.0
 40
6.0
 40
6.0
 40
7.0
 40
7.0
 40
7.0
 40
8.0
 40
8.0
 40
8.0
 40
8.0
 10
75.7573052110954
 20
-78.59606389094127
 10
75.7573052110954
 20
-78.88097328757142
 10
75.61984590123393
 20
-79.15210230226059
 10
75.27085772857812
 20
-79.15210230226059
 10
75.01488713402406
 20
-79.15210230226059
 10
74.91980249863117
 20
-79.0005181009096
 10
74.85847979899371
 20
-78.8875189689934
 10
74.79922415664743
 20
-79.02084416427257
 10
74.68484698653712
 20
-79.10249292727299
 10
74.52396102737596
 20
-79.10249292727299
 10
74.24904240765302
 20
-79.10249292727299
 10
74.1136501550827
 20
-78.88993053583307
 10
74.1136501550827
 20
-78.59606389094127
 10
74.1136501550827
 20
-78.29289548823928
 10
74.25765514636615
 20
-78.08963485460954
 10
74.52396102737596
 20
-78.08963485460954
 10
74.68484698653712
 20
-78.08963485460954
 10
74.79922415664743
 20
-78.17300616535259
 10
74.85847979899371
 20
-78.30667587018029
 10
74.90912270262689
 20
-78.21159123478738
 10
75.00420733801978
 20
-78.04209253691309
 10
75.26672361399582
 20
-78.04209253691309
 10
75.64120549324248
 20
-78.04209253691309
 10
75.7573052110954
 20
-78.34043780593572
 10
75.7573052110954
 20
-78.59606389094127
 97
        0
 97
        0
 92
        1
 93
        1
 72
     4
 94
        3
 73
     0
 74
     1
 95
       17
 96
       13
 40
0.0
 40
0.0
 40
0.0
 40
0.0
 40
1.0
 40
1.0
 40
1.0
 40
2.0
 40
2.0
 40
2.0
 40
3.0
 40
3.0
 40
3.0
 40
4.0
 40
4.0
 40
4.0
 40
4.0
 10
74.30623099270817
 20
-78.59606389094127
 10
74.30623099270817
 20
-78.77210827023754
 10
74.40131562810106
 20
-78.8627142814996
 10
74.53670788067139
 20
-78.8627142814996
 10
74.65935327994627
 20
-78.8627142814996
 10
74.77786456463888
 20
-78.78588865217853
 10
74.77786456463888
 20
-78.59606389094127
 10
74.77786456463888
 20
-78.40589462015548
 10
74.65935327994627
 20
-78.3290689908344
 10
74.53670788067139
 20
-78.3290689908344
 10
74.40131562810106
 20
-78.3290689908344
 10
74.30623099270817
 20
-78.42174205938763
 10
74.30623099270817
 20
-78.59606389094127
 97
        0
 97
        0
 92
        1
 93
        1
 72
     4
 94
        3
 73
     0
 74
     1
 95
       17
 96
       13
 40
0.0
 40
0.0
 40
0.0
 40
0.0
 40
1.0
 40
1.0
 40
1.0
 40
2.0
 40
2.0
 40
2.0
 40
3.0
 40
3.0
 40
3.0
 40
4.0
 40
4.0
 40
4.0
 40
4.0
 10
74.96631128768203
 20
-78.59606389094127
 10
74.96631128768203
 20
-78.74971514958341
 10
75.05312769391033
 20
-78.9123236564872
 10
75.25604381799155
 20
-78.9123236564872
 10
75.46137150891244
 20
-78.9123236564872
 10
75.56265731617879
 20
-78.77693140391688
 10
75.56265731617879
 20
-78.59606389094127
 10
75.56265731617879
 20
-78.39693737189383
 10
75.44001191690388
 20
-78.2794596158468
 10
75.262244989865
 20
-78.2794596158468
 10
75.04038084061492
 20
-78.2794596158468
 10
74.96631128768203
 20
-78.45343693785192
 10
74.96631128768203
 20
-78.59606389094127
 97
        0
 97
        0
 75
     2
 76
     1
 98
        0
  0
ENDBLK
  5
BD
330
BA
100
AcDbEntity
  8
0
100
AcDbBlockEnd
  0
BLOCK
  5
D7
330
D5
100
AcDbEntity
  8
0
100
AcDbBlockBegin
  2
block 5
 70
     0
 10
0.0
 20
0.0
 30
0.0
  3
block 5
  1

  0
SPLINE
  5
D9
330
D5
100
AcDbEntity
  8
_U+30EC_U+30A4_U+30E4_U+30FC 1
370
     0
100
AcDbSpline
210
0.0
220
0.0
230
1.0
 70
    11
 71
     3
 72
    62
 73
    58
 74
     0
 42
0.0000000001
 43
0.0000000001
 12
1.0
 22
0.0
 32
0.0
 13
1.0
 23
0.0
 33
0.0
 40
0.0
 40
0.0
 40
0.0
 40
0.0
 40
1.0
 40
1.0
 40
1.0
 40
2.0
 40
2.0
 40
2.0
 40
3.0
 40
3.0
 40
3.0
 40
4.0
 40
4.0
 40
4.0
 40
5.0
 40
5.0
 40
5.0
 40
6.0
 40
6.0
 40
6.0
 40
7.0
 40
7.0
 40
7.0
 40
8.0
 40
8.0
 40
8.0
 40
9.0
 40
9.0
 40
9.0
 40
10.0
 40
10.0
 40
10.0
 40
11.0
 40
11.0
 40
11.0
 40
12.0
 40
12.0
 40
12.0
 40
13.0
 40
13.0
 40
13.0
 40
14.0
 40
14.0
 40
14.0
 40
15.0
 40
15.0
 40
15.0
 40
16.0
 40
16.0
 40
16.0
 40
17.0
 40
17.0
 40
17.0
 40
18.0
 40
18.0
 40
18.0
 40
19.0
 40
19.0
 40
19.0
 40
19.0
 10
75.7573052110954
 20
-97.8272759087029
 30
0.0
 10
75.7573052110954
 20
-97.92890622551778
 30
0.0
 10
75.73629012863537
 20
-98.16179468032067
 30
0.0
 10
75.55025497243189
 20
-98.29511987559984
 30
0.0
 10
75.43794485961274
 20
-98.37435707176058
 30
0.0
 10
75.33872610963755
 20
-98.37883569589141
 30
0.0
 10
75.2539767607004
 20
-98.38331432002224
 30
0.0
 10
75.2539767607004
 20
-98.38331432002224
 30
0.0
 10
75.2539767607004
 20
-98.14835880792819
 30
0.0
 10
75.2539767607004
 20
-98.14835880792819
 30
0.0
 10
75.32804631363327
 20
-98.14594724108852
 30
0.0
 10
75.56265731617879
 20
-98.13457842598719
 30
0.0
 10
75.56265731617879
 20
-97.83175453283373
 30
0.0
 10
75.56265731617879
 20
-97.68464895561357
 30
0.0
 10
75.49306638737674
 20
-97.52204044870977
 30
0.0
 10
75.26465655670468
 20
-97.52204044870977
 30
0.0
 10
75.14821232930323
 20
-97.52204044870977
 30
0.0
 10
75.0996364829612
 20
-97.56269257543572
 30
0.0
 10
75.06794160449691
 20
-97.5967990207397
 30
0.0
 10
74.99387205156404
 20
-97.67569170735192
 30
0.0
 10
74.98112519826861
 20
-97.80005965436943
 30
0.0
 10
74.98112519826861
 20
-97.85897078716721
 30
0.0
 10
74.98112519826861
 20
-97.87929685053018
 30
0.0
 10
74.98319225555976
 20
-97.91753741041646
 30
0.0
 10
74.98732637014206
 20
-97.94716523158961
 30
0.0
 10
74.98732637014206
 20
-97.94716523158961
 30
0.0
 10
74.79267847522544
 20
-97.94716523158961
 30
0.0
 10
74.79267847522544
 20
-97.94716523158961
 30
0.0
 10
74.79922415664743
 20
-97.90651310486365
 30
0.0
 10
74.80129121393857
 20
-97.86103784445835
 30
0.0
 10
74.80129121393857
 20
-97.85449216303638
 30
0.0
 10
74.80129121393857
 20
-97.78421221513729
 30
0.0
 10
74.77993162193002
 20
-97.57164982369737
 30
0.0
 10
74.54325356209335
 20
-97.57164982369737
 30
0.0
 10
74.36548663505447
 20
-97.57164982369737
 30
0.0
 10
74.31036510729047
 20
-97.71186520994704
 30
0.0
 10
74.31036510729047
 20
-97.82934296599406
 30
0.0
 10
74.31036510729047
 20
-98.11218530533307
 30
0.0
 10
74.54325356209335
 20
-98.12114255359472
 30
0.0
 10
74.61491154818656
 20
-98.12562117772555
 30
0.0
 10
74.61491154818656
 20
-98.12562117772555
 30
0.0
 10
74.61491154818656
 20
-98.34266219329628
 30
0.0
 10
74.61491154818656
 20
-98.34266219329628
 30
0.0
 10
74.49019909162051
 20
-98.33370494503464
 30
0.0
 10
74.1136501550827
 20
-98.30442163341002
 30
0.0
 10
74.1136501550827
 20
-97.81590709360158
 30
0.0
 10
74.1136501550827
 20
-97.5761284478282
 30
0.0
 10
74.24077417848842
 20
-97.31843530553151
 30
0.0
 10
74.53670788067139
 20
-97.31843530553151
 30
0.0
 10
74.7230875464234
 20
-97.31843530553151
 30
0.0
 10
74.80542532852087
 20
-97.4204101318949
 30
0.0
 10
74.86674802815831
 20
-97.5265190728406
 30
0.0
 10
74.89430879204032
 20
-97.46106225862086
 30
0.0
 10
74.97457951684663
 20
-97.26641436370423
 30
0.0
 10
75.25190970340925
 20
-97.26641436370423
 30
0.0
 10
75.59021808006078
 20
-97.26641436370423
 30
0.0
 10
75.7573052110954
 20
-97.53099769697143
 30
0.0
 10
75.7573052110954
 20
-97.8272759087029
 30
0.0
  0
HATCH
  5
DA
330
D5
100
AcDbEntity
  8
_U+30EC_U+30A4_U+30E4_U+30FC 1
 62
   179
420
  2234388
100
AcDbHatch
 10
0.0
 20
0.0
 30
0.0
210
0.0
220
0.0
230
1.0
  2
SOLID
 70
     1
 71
     0
 91
        1
 92
        1
 93
        1
 72
     4
 94
        3
 73
     0
 74
     1
 95
       62
 96
       58
 40
0.0
 40
0.0
 40
0.0
 40
0.0
 40
1.0
 40
1.0
 40
1.0
 40
2.0
 40
2.0
 40
2.0
 40
3.0
 40
3.0
 40
3.0
 40
4.0
 40
4.0
 40
4.0
 40
5.0
 40
5.0
 40
5.0
 40
6.0
 40
6.0
 40
6.0
 40
7.0
 40
7.0
 40
7.0
 40
8.0
 40
8.0
 40
8.0
 40
9.0
 40
9.0
 40
9.0
 40
10.0
 40
10.0
 40
10.0
 40
11.0
 40
11.0
 40
11.0
 40
12.0
 40
12.0
 40
12.0
 40
13.0
 40
13.0
 40
13.0
 40
14.0
 40
14.0
 40
14.0
 40
15.0
 40
15.0
 40
15.0
 40
16.0
 40
16.0
 40
16.0
 40
17.0
 40
17.0
 40
17.0
 40
18.0
 40
18.0
 40
18.0
 40
19.0
 40
19.0
 40
19.0
 40
19.0
 10
75.7573052110954
 20
-97.8272759087029
 10
75.7573052110954
 20
-97.92890622551778
 10
75.73629012863537
 20
-98.16179468032067
 10
75.55025497243189
 20
-98.29511987559984
 10
75.43794485961274
 20
-98.37435707176058
 10
75.33872610963755
 20
-98.37883569589141
 10
75.2539767607004
 20
-98.38331432002224
 10
75.2539767607004
 20
-98.38331432002224
 10
75.2539767607004
 20
-98.14835880792819
 10
75.2539767607004
 20
-98.14835880792819
 10
75.32804631363327
 20
-98.14594724108852
 10
75.56265731617879
 20
-98.13457842598719
 10
75.56265731617879
 20
-97.83175453283373
 10
75.56265731617879
 20
-97.68464895561357
 10
75.49306638737674
 20
-97.52204044870977
 10
75.26465655670468
 20
-97.52204044870977
 10
75.14821232930323
 20
-97.52204044870977
 10
75.0996364829612
 20
-97.56269257543572
 10
75.06794160449691
 20
-97.5967990207397
 10
74.99387205156404
 20
-97.67569170735192
 10
74.98112519826861
 20
-97.80005965436943
 10
74.98112519826861
 20
-97.85897078716721
 10
74.98112519826861
 20
-97.87929685053018
 10
74.98319225555976
 20
-97.91753741041646
 10
74.98732637014206
 20
-97.94716523158961
 10
74.98732637014206
 20
-97.94716523158961
 10
74.79267847522544
 20
-97.94716523158961
 10
74.79267847522544
 20
-97.94716523158961
 10
74.79922415664743
 20
-97.90651310486365
 10
74.80129121393857
 20
-97.86103784445835
 10
74.80129121393857
 20
-97.85449216303638
 10
74.80129121393857
 20
-97.78421221513729
 10
74.77993162193002
 20
-97.57164982369737
 10
74.54325356209335
 20
-97.57164982369737
 10
74.36548663505447
 20
-97.57164982369737
 10
74.31036510729047
 20
-97.71186520994704
 10
74.31036510729047
 20
-97.82934296599406
 10
74.31036510729047
 20
-98.11218530533307
 10
74.54325356209335
 20
-98.12114255359472
 10
74.61491154818656
 20
-98.12562117772555
 10
74.61491154818656
 20
-98.12562117772555
 10
74.61491154818656
 20
-98.34266219329628
 10
74.61491154818656
 20
-98.34266219329628
 10
74.49019909162051
 20
-98.33370494503464
 10
74.1136501550827
 20
-98.30442163341002
 10
74.1136501550827
 20
-97.81590709360158
 10
74.1136501550827
 20
-97.5761284478282
 10
74.24077417848842
 20
-97.31843530553151
 10
74.53670788067139
 20
-97.31843530553151
 10
74.7230875464234
 20
-97.31843530553151
 10
74.80542532852087
 20
-97.4204101318949
 10
74.86674802815831
 20
-97.5265190728406
 10
74.89430879204032
 20
-97.46106225862086
 10
74.97457951684663
 20
-97.26641436370423
 10
75.25190970340925
 20
-97.26641436370423
 10
75.59021808006078
 20
-97.26641436370423
 10
75.7573052110954
 20
-97.53099769697143
 10
75.7573052110954
 20
-97.8272759087029
 97
        0
 97
        0
 75
     2
 76
     1
 98
        0
  0
ENDBLK
  5
D8
330
D5
100
AcDbEntity
  8
0
100
AcDbBlockEnd
  0
BLOCK
  5
E9
330
E7
100
AcDbEntity
  8
0
100
AcDbBlockBegin
  2
block 6
 70
     0
 10
0.0
 20
0.0
 30
0.0
  3
block 6
  1

  0
SPLINE
  5
EB
330
E7
100
AcDbEntity
  8
_U+30EC_U+30A4_U+30E4_U+30FC 1
370
     0
100
AcDbSpline
210
0.0
220
0.0
230
1.0
 70
    11
 71
     3
 72
    26
 73
    22
 74
     0
 42
0.0000000001
 43
0.0000000001
 12
1.0
 22
0.0
 32
0.0
 13
1.0
 23
0.0
 33
0.0
 40
0.0
 40
0.0
 40
0.0
 40
0.0
 40
1.0
 40
1.0
 40
1.0
 40
2.0
 40
2.0
 40
2.0
 40
3.0
 40
3.0
 40
3.0
 40
4.0
 40
4.0
 40
4.0
 40
5.0
 40
5.0
 40
5.0
 40
6.0
 40
6.0
 40
6.0
 40
7.0
 40
7.0
 40
7.0
 40
7.0
 10
75.70666230746222
 20
-90.49886879247946
 30
0.0
 10
75.70666230746222
 20
-90.49886879247946
 30
0.0
 10
74.60250920443966
 20
-90.49886879247946
 30
0.0
 10
74.60250920443966
 20
-90.49886879247946
 30
0.0
 10
74.60250920443966
 20
-90.49886879247946
 30
0.0
 10
74.60250920443966
 20
-90.85130206062051
 30
0.0
 10
74.60250920443966
 20
-90.85130206062051
 30
0.0
 10
74.60250920443966
 20
-90.85130206062051
 30
0.0
 10
74.45437009857392
 20
-90.85130206062051
 30
0.0
 10
74.45437009857392
 20
-90.85130206062051
 30
0.0
 10
74.43955618798734
 20
-90.49645722563977
 30
0.0
 10
74.27660317153502
 20
-90.44684785065218
 30
0.0
 10
74.16222600142473
 20
-90.41515297218788
 30
0.0
 10
74.16222600142473
 20
-90.41515297218788
 30
0.0
 10
74.16222600142473
 20
-90.25909014670607
 30
0.0
 10
74.16222600142473
 20
-90.25909014670607
 30
0.0
 10
74.16222600142473
 20
-90.25909014670607
 30
0.0
 10
75.70666230746222
 20
-90.25909014670607
 30
0.0
 10
75.70666230746222
 20
-90.25909014670607
 30
0.0
 10
75.70666230746222
 20
-90.25909014670607
 30
0.0
 10
75.70666230746222
 20
-90.49886879247946
 30
0.0
 10
75.70666230746222
 20
-90.49886879247946
 30
0.0
  0
HATCH
  5
EC
330
E7
100
AcDbEntity
  8
_U+30EC_U+30A4_U+30E4_U+30FC 1
 62
   179
420
  2234388
100
AcDbHatch
 10
0.0
 20
0.0
 30
0.0
210
0.0
220
0.0
230
1.0
  2
SOLID
 70
     1
 71
     0
 91
        1
 92
        1
 93
        1
 72
     4
 94
        3
 73
     0
 74
     1
 95
       26
 96
       22
 40
0.0
 40
0.0
 40
0.0
 40
0.0
 40
1.0
 40
1.0
 40
1.0
 40
2.0
 40
2.0
 40
2.0
 40
3.0
 40
3.0
 40
3.0
 40
4.0
 40
4.0
 40
4.0
 40
5.0
 40
5.0
 40
5.0
 40
6.0
 40
6.0
 40
6.0
 40
7.0
 40
7.0
 40
7.0
 40
7.0
 10
75.70666230746222
 20
-90.49886879247946
 10
75.70666230746222
 20
-90.49886879247946
 10
74.60250920443966
 20
-90.49886879247946
 10
74.60250920443966
 20
-90.49886879247946
 10
74.60250920443966
 20
-90.49886879247946
 10
74.60250920443966
 20
-90.85130206062051
 10
74.60250920443966
 20
-90.85130206062051
 10
74.60250920443966
 20
-90.85130206062051
 10
74.45437009857392
 20
-90.85130206062051
 10
74.45437009857392
 20
-90.85130206062051
 10
74.43955618798734
 20
-90.49645722563977
 10
74.27660317153502
 20
-90.44684785065218
 10
74.16222600142473
 20
-90.41515297218788
 10
74.16222600142473
 20
-90.41515297218788
 10
74.16222600142473
 20
-90.25909014670607
 10
74.16222600142473
 20
-90.25909014670607
 10
74.16222600142473
 20
-90.25909014670607
 10
75.70666230746222
 20
-90.25909014670607
 10
75.70666230746222
 20
-90.25909014670607
 10
75.70666230746222
 20
-90.25909014670607
 10
75.70666230746222
 20
-90.49886879247946
 10
75.70666230746222
 20
-90.49886879247946
 97
        0
 97
        0
 75
     2
 76
     1
 98
        0
  0
SPLINE
  5
ED
330
E7
100
AcDbEntity
  8
_U+30EC_U+30A4_U+30E4_U+30FC 1
370
     0
100
AcDbSpline
210
0.0
220
0.0
230
1.0
 70
    11
 71
     3
 72
    62
 73
    58
 74
     0
 42
0.0000000001
 43
0.0000000001
 12
1.0
 22
0.0
 32
0.0
 13
1.0
 23
0.0
 33
0.0
 40
0.0
 40
0.0
 40
0.0
 40
0.0
 40
1.0
 40
1.0
 40
1.0
 40
2.0
 40
2.0
 40
2.0
 40
3.0
 40
3.0
 40
3.0
 40
4.0
 40
4.0
 40
4.0
 40
5.0
 40
5.0
 40
5.0
 40
6.0
 40
6.0
 40
6.0
 40
7.0
 40
7.0
 40
7.0
 40
8.0
 40
8.0
 40
8.0
 40
9.0
 40
9.0
 40
9.0
 40
10.0
 40
10.0
 40
10.0
 40
11.0
 40
11.0
 40
11.0
 40
12.0
 40
12.0
 40
12.0
 40
13.0
 40
13.0
 40
13.0
 40
14.0
 40
14.0
 40
14.0
 40
15.0
 40
15.0
 40
15.0
 40
16.0
 40
16.0
 40
16.0
 40
17.0
 40
17.0
 40
17.0
 40
18.0
 40
18.0
 40
18.0
 40
19.0
 40
19.0
 40
19.0
 40
19.0
 10
75.7573052110954
 20
-89.19800073724912
 30
0.0
 10
75.7573052110954
 20
-89.29963105406398
 30
0.0
 10
75.73629012863537
 20
-89.53251950886687
 30
0.0
 10
75.55025497243189
 20
-89.66584470414604
 30
0.0
 10
75.43794485961274
 20
-89.74508190030679
 30
0.0
 10
75.33872610963755
 20
-89.74956052443761
 30
0.0
 10
75.2539767607004
 20
-89.75403914856844
 30
0.0
 10
75.2539767607004
 20
-89.75403914856844
 30
0.0
 10
75.2539767607004
 20
-89.5190836364744
 30
0.0
 10
75.2539767607004
 20
-89.5190836364744
 30
0.0
 10
75.32804631363327
 20
-89.51667206963472
 30
0.0
 10
75.56265731617879
 20
-89.5053032545334
 30
0.0
 10
75.56265731617879
 20
-89.20247936137994
 30
0.0
 10
75.56265731617879
 20
-89.05537378415977
 30
0.0
 10
75.49306638737674
 20
-88.89276527725598
 30
0.0
 10
75.26465655670468
 20
-88.89276527725598
 30
0.0
 10
75.14821232930323
 20
-88.89276527725598
 30
0.0
 10
75.0996364829612
 20
-88.93341740398193
 30
0.0
 10
75.06794160449691
 20
-88.9675238492859
 30
0.0
 10
74.99387205156404
 20
-89.04641653589812
 30
0.0
 10
74.98112519826861
 20
-89.17078448291564
 30
0.0
 10
74.98112519826861
 20
-89.22969561571341
 30
0.0
 10
74.98112519826861
 20
-89.25002167907638
 30
0.0
 10
74.98319225555976
 20
-89.28826223896266
 30
0.0
 10
74.98732637014206
 20
-89.31789006013581
 30
0.0
 10
74.98732637014206
 20
-89.31789006013581
 30
0.0
 10
74.79267847522544
 20
-89.31789006013581
 30
0.0
 10
74.79267847522544
 20
-89.31789006013581
 30
0.0
 10
74.79922415664743
 20
-89.27723793340986
 30
0.0
 10
74.80129121393857
 20
-89.23176267300457
 30
0.0
 10
74.80129121393857
 20
-89.22521699158258
 30
0.0
 10
74.80129121393857
 20
-89.15493704368349
 30
0.0
 10
74.77993162193002
 20
-88.94237465224357
 30
0.0
 10
74.54325356209335
 20
-88.94237465224357
 30
0.0
 10
74.36548663505447
 20
-88.94237465224357
 30
0.0
 10
74.31036510729047
 20
-89.08259003849325
 30
0.0
 10
74.31036510729047
 20
-89.20006779454026
 30
0.0
 10
74.31036510729047
 20
-89.48291013387927
 30
0.0
 10
74.54325356209335
 20
-89.49186738214092
 30
0.0
 10
74.61491154818656
 20
-89.49634600627175
 30
0.0
 10
74.61491154818656
 20
-89.49634600627175
 30
0.0
 10
74.61491154818656
 20
-89.7133870218425
 30
0.0
 10
74.61491154818656
 20
-89.7133870218425
 30
0.0
 10
74.49019909162051
 20
-89.70442977358084
 30
0.0
 10
74.1136501550827
 20
-89.67514646195622
 30
0.0
 10
74.1136501550827
 20
-89.1866319221478
 30
0.0
 10
74.1136501550827
 20
-88.9468532763744
 30
0.0
 10
74.24077417848842
 20
-88.68916013407771
 30
0.0
 10
74.53670788067139
 20
-88.68916013407771
 30
0.0
 10
74.7230875464234
 20
-88.68916013407771
 30
0.0
 10
74.80542532852087
 20
-88.79113496044111
 30
0.0
 10
74.86674802815831
 20
-88.8972439013868
 30
0.0
 10
74.89430879204032
 20
-88.83178708716706
 30
0.0
 10
74.97457951684663
 20
-88.63713919225044
 30
0.0
 10
75.25190970340925
 20
-88.63713919225044
 30
0.0
 10
75.59021808006078
 20
-88.63713919225044
 30
0.0
 10
75.7573052110954
 20
-88.90172252551763
 30
0.0
 10
75.7573052110954
 20
-89.19800073724912
 30
0.0
  0
HATCH
  5
EE
330
E7
100
AcDbEntity
  8
_U+30EC_U+30A4_U+30E4_U+30FC 1
 62
   179
420
  2234388
100
AcDbHatch
 10
0.0
 20
0.0
 30
0.0
210
0.0
220
0.0
230
1.0
  2
SOLID
 70
     1
 71
     0
 91
        1
 92
        1
 93
        1
 72
     4
 94
        3
 73
     0
 74
     1
 95
       62
 96
       58
 40
0.0
 40
0.0
 40
0.0
 40
0.0
 40
1.0
 40
1.0
 40
1.0
 40
2.0
 40
2.0
 40
2.0
 40
3.0
 40
3.0
 40
3.0
 40
4.0
 40
4.0
 40
4.0
 40
5.0
 40
5.0
 40
5.0
 40
6.0
 40
6.0
 40
6.0
 40
7.0
 40
7.0
 40
7.0
 40
8.0
 40
8.0
 40
8.0
 40
9.0
 40
9.0
 40
9.0
 40
10.0
 40
10.0
 40
10.0
 40
11.0
 40
11.0
 40
11.0
 40
12.0
 40
12.0
 40
12.0
 40
13.0
 40
13.0
 40
13.0
 40
14.0
 40
14.0
 40
14.0
 40
15.0
 40
15.0
 40
15.0
 40
16.0
 40
16.0
 40
16.0
 40
17.0
 40
17.0
 40
17.0
 40
18.0
 40
18.0
 40
18.0
 40
19.0
 40
19.0
 40
19.0
 40
19.0
 10
75.7573052110954
 20
-89.19800073724912
 10
75.7573052110954
 20
-89.29963105406398
 10
75.73629012863537
 20
-89.53251950886687
 10
75.55025497243189
 20
-89.66584470414604
 10
75.43794485961274
 20
-89.74508190030679
 10
75.33872610963755
 20
-89.74956052443761
 10
75.2539767607004
 20
-89.75403914856844
 10
75.2539767607004
 20
-89.75403914856844
 10
75.2539767607004
 20
-89.5190836364744
 10
75.2539767607004
 20
-89.5190836364744
 10
75.32804631363327
 20
-89.51667206963472
 10
75.56265731617879
 20
-89.5053032545334
 10
75.56265731617879
 20
-89.20247936137994
 10
75.56265731617879
 20
-89.05537378415977
 10
75.49306638737674
 20
-88.89276527725598
 10
75.26465655670468
 20
-88.89276527725598
 10
75.14821232930323
 20
-88.89276527725598
 10
75.0996364829612
 20
-88.93341740398193
 10
75.06794160449691
 20
-88.9675238492859
 10
74.99387205156404
 20
-89.04641653589812
 10
74.98112519826861
 20
-89.17078448291564
 10
74.98112519826861
 20
-89.22969561571341
 10
74.98112519826861
 20
-89.25002167907638
 10
74.98319225555976
 20
-89.28826223896266
 10
74.98732637014206
 20
-89.31789006013581
 10
74.98732637014206
 20
-89.31789006013581
 10
74.79267847522544
 20
-89.31789006013581
 10
74.79267847522544
 20
-89.31789006013581
 10
74.79922415664743
 20
-89.27723793340986
 10
74.80129121393857
 20
-89.23176267300457
 10
74.80129121393857
 20
-89.22521699158258
 10
74.80129121393857
 20
-89.15493704368349
 10
74.77993162193002
 20
-88.94237465224357
 10
74.54325356209335
 20
-88.94237465224357
 10
74.36548663505447
 20
-88.94237465224357
 10
74.31036510729047
 20
-89.08259003849325
 10
74.31036510729047
 20
-89.20006779454026
 10
74.31036510729047
 20
-89.48291013387927
 10
74.54325356209335
 20
-89.49186738214092
 10
74.61491154818656
 20
-89.49634600627175
 10
74.61491154818656
 20
-89.49634600627175
 10
74.61491154818656
 20
-89.7133870218425
 10
74.61491154818656
 20
-89.7133870218425
 10
74.49019909162051
 20
-89.70442977358084
 10
74.1136501550827
 20
-89.67514646195622
 10
74.1136501550827
 20
-89.1866319221478
 10
74.1136501550827
 20
-88.9468532763744
 10
74.24077417848842
 20
-88.68916013407771
 10
74.53670788067139
 20
-88.68916013407771
 10
74.7230875464234
 20
-88.68916013407771
 10
74.80542532852087
 20
-88.79113496044111
 10
74.86674802815831
 20
-88.8972439013868
 10
74.89430879204032
 20
-88.83178708716706
 10
74.97457951684663
 20
-88.63713919225044
 10
75.25190970340925
 20
-88.63713919225044
 10
75.59021808006078
 20
-88.63713919225044
 10
75.7573052110954
 20
-88.90172252551763
 10
75.7573052110954
 20
-89.19800073724912
 97
        0
 97
        0
 75
     2
 76
     1
 98
        0
  0
ENDBLK
  5
EA
330
E7
100
AcDbEntity
  8
0
100
AcDbBlockEnd
  0
ENDSEC
  0
SECTION
  2
ENTITIES
  0
POLYLINE
  5
41
330
1F
100
AcDbEntity
  8
_U+30EC_U+30A4_U+30E4_U+30FC 1
 62
   179
420
  2234388
370
    25
100
AcDb2dPolyline
 66
     1
 10
0.0
 20
0.0
 30
0.0
  0
VERTEX
  5
42
330
41
100
AcDbEntity
  8
_U+30EC_U+30A4_U+30E4_U+30FC 1
 62
   179
420
  2234388
370
    25
100
AcDbVertex
100
AcDb2dVertex
 10
50.05965927842725
 20
-82.52001386825887
 30
0.0
  0
VERTEX
  5
43
330
41
100
AcDbEntity
  8
_U+30EC_U+30A4_U+30E4_U+30FC 1
 62
   179
420
  2234388
370
    25
100
AcDbVertex
100
AcDb2dVertex
 10
73.05978202497856
 20
-82.52001386825887
 30
0.0
  0
SEQEND
  5
44
330
41
100
AcDbEntity
  8
_U+30EC_U+30A4_U+30E4_U+30FC 1
 62
   179
420
  2234388
370
    25
  0
POLYLINE
  5
45
330
1F
100
AcDbEntity
  8
_U+30EC_U+30A4_U+30E4_U+30FC 1
 62
   179
420
  2234388
370
    25
100
AcDb2dPolyline
 66
     1
 10
0.0
 20
0.0
 30
0.0
  0
VERTEX
  5
46
330
45
100
AcDbEntity
  8
_U+30EC_U+30A4_U+30E4_U+30FC 1
 62
   179
420
  2234388
370
    25
100
AcDbVertex
100
AcDb2dVertex
 10
73.05978202497856
 20
-82.52001386825887
 30
0.0
  0
VERTEX
  5
47
330
45
100
AcDbEntity
  8
_U+30EC_U+30A4_U+30E4_U+30FC 1
 62
   179
420
  2234388
370
    25
100
AcDbVertex
100
AcDb2dVertex
 10
73.05978202497856
 20
-83.31997275694782
 30
0.0
  0
SEQEND
  5
48
330
45
100
AcDbEntity
  8
_U+30EC_U+30A4_U+30E4_U+30FC 1
 62
   179
420
  2234388
370
    25
  0
POLYLINE
  5
49
330
1F
100
AcDbEntity
  8
_U+30EC_U+30A4_U+30E4_U+30FC 1
 62
   179
420
  2234388
370
    25
100
AcDb2dPolyline
 66
     1
 10
0.0
 20
0.0
 30
0.0
  0
VERTEX
  5
4A
330
49
100
AcDbEntity
  8
_U+30EC_U+30A4_U+30E4_U+30FC 1
 62
   179
420
  2234388
370
    25
100
AcDbVertex
100
AcDb2dVertex
 10
50.83478259198554
 20
-83.31997275694782
 30
0.0
  0
VERTEX
  5
4B
330
49
100
AcDbEntity
  8
_U+30EC_U+30A4_U+30E4_U+30FC 1
 62
   179
420
  2234388
370
    25
100
AcDbVertex
100
AcDb2dVertex
 10
73.05978202497856
 20
-83.31997275694782
 30
0.0
  0
SEQEND
  5
4C
330
49
100
AcDbEntity
  8
_U+30EC_U+30A4_U+30E4_U+30FC 1
 62
   179
420
  2234388
370
    25
  0
POLYLINE
  5
4D
330
1F
100
AcDbEntity
  8
_U+30EC_U+30A4_U+30E4_U+30FC 1
 62
   179
420
  2234388
370
    25
100
AcDb2dPolyline
 66
     1
 10
0.0
 20
0.0
 30
0.0
  0
VERTEX
  5
4E
330
4D
100
AcDbEntity
  8
_U+30EC_U+30A4_U+30E4_U+30FC 1
 62
   179
420
  2234388
370
    25
100
AcDbVertex
100
AcDb2dVertex
 10
55.05986081752815
 20
-96.3200455314755
 30
0.0
  0
VERTEX
  5
4F
330
4D
100
AcDbEntity
  8
_U+30EC_U+30A4_U+30E4_U+30FC 1
 62
   179
420
  2234388
370
    25
100
AcDbVertex
100
AcDb2dVertex
 10
59.05961988215246
 20
-96.3200455314755
 30
0.0
  0
SEQEND
  5
50
330
4D
100
AcDbEntity
  8
_U+30EC_U+30A4_U+30E4_U+30FC 1
 62
   179
420
  2234388
370
    25
  0
POLYLINE
  5
51
330
1F
100
AcDbEntity
  8
_U+30EC_U+30A4_U+30E4_U+30FC 1
 62
   179
420
  2234388
370
    25
100
AcDb2dPolyline
 66
     1
 10
0.0
 20
0.0
 30
0.0
  0
VERTEX
  5
52
330
51
100
AcDbEntity
  8
_U+30EC_U+30A4_U+30E4_U+30FC 1
 62
   179
420
  2234388
370
    25
100
AcDbVertex
100
AcDb2dVertex
 10
49.05988708171134
 20
-99.32003247516984
 30
0.0
  0
VERTEX
  5
53
330
51
100
AcDbEntity
  8
_U+30EC_U+30A4_U+30E4_U+30FC 1
 62
   179
420
  2234388
370
    25
100
AcDbVertex
100
AcDb2dVertex
 10
59.05961988215246
 20
-99.32003247516984
 30
0.0
  0
SEQEND
  5
54
330
51
100
AcDbEntity
  8
_U+30EC_U+30A4_U+30E4_U+30FC 1
 62
   179
420
  2234388
370
    25
  0
POLYLINE
  5
55
330
1F
100
AcDbEntity
  8
_U+30EC_U+30A4_U+30E4_U+30FC 1
 62
   179
420
  2234388
370
    25
100
AcDb2dPolyline
 66
     1
 10
0.0
 20
0.0
 30
0.0
  0
VERTEX
  5
56
330
55
100
AcDbEntity
  8
_U+30EC_U+30A4_U+30E4_U+30FC 1
 62
   179
420
  2234388
370
    25
100
AcDbVertex
100
AcDb2dVertex
 10
59.05961988215246
 20
-96.3200455314755
 30
0.0
  0
VERTEX
  5
57
330
55
100
AcDbEntity
  8
_U+30EC_U+30A4_U+30E4_U+30FC 1
 62
   179
420
  2234388
370
    25
100
AcDbVertex
100
AcDb2dVertex
 10
59.05961988215246
 20
-99.32003247516984
 30
0.0
  0
SEQEND
  5
58
330
55
100
AcDbEntity
  8
_U+30EC_U+30A4_U+30E4_U+30FC 1
 62
   179
420
  2234388
370
    25
  0
POLYLINE
  5
59
330
1F
100
AcDbEntity
  8
_U+30EC_U+30A4_U+30E4_U+30FC 1
 62
   179
420
  2234388
370
    25
100
AcDb2dPolyline
 66
     1
 10
0.0
 20
0.0
 30
0.0
  0
VERTEX
  5
5A
330
59
100
AcDbEntity
  8
_U+30EC_U+30A4_U+30E4_U+30FC 1
 62
   179
420
  2234388
370
    25
100
AcDbVertex
100
AcDb2dVertex
 10
55.05986081752815
 20
-96.3200455314755
 30
0.0
  0
VERTEX
  5
5B
330
59
100
AcDbEntity
  8
_U+30EC_U+30A4_U+30E4_U+30FC 1
 62
   179
420
  2234388
370
    25
100
AcDbVertex
100
AcDb2dVertex
 10
55.05986081752815
 20
-97.12000442016476
 30
0.0
  0
SEQEND
  5
5C
330
59
100
AcDbEntity
  8
_U+30EC_U+30A4_U+30E4_U+30FC 1
 62
   179
420
  2234388
370
    25
  0
POLYLINE
  5
5D
330
1F
100
AcDbEntity
  8
_U+30EC_U+30A4_U+30E4_U+30FC 1
 62
   179
420
  2234388
370
    25
100
AcDb2dPolyline
 66
     1
 10
0.0
 20
0.0
 30
0.0
  0
VERTEX
  5
5E
330
5D
100
AcDbEntity
  8
_U+30EC_U+30A4_U+30E4_U+30FC 1
 62
   179
420
  2234388
370
    25
100
AcDbVertex
100
AcDb2dVertex
 10
55.05986081752815
 20
-97.12000442016476
 30
0.0
  0
VERTEX
  5
5F
330
5D
100
AcDbEntity
  8
_U+30EC_U+30A4_U+30E4_U+30FC 1
 62
   179
420
  2234388
370
    25
100
AcDbVertex
100
AcDb2dVertex
 10
58.25966101367222
 20
-97.12000442016476
 30
0.0
  0
SEQEND
  5
60
330
5D
100
AcDbEntity
  8
_U+30EC_U+30A4_U+30E4_U+30FC 1
 62
   179
420
  2234388
370
    25
  0
POLYLINE
  5
61
330
1F
100
AcDbEntity
  8
_U+30EC_U+30A4_U+30E4_U+30FC 1
 62
   179
420
  2234388
370
    25
100
AcDb2dPolyline
 66
     1
 10
0.0
 20
0.0
 30
0.0
  0
VERTEX
  5
62
330
61
100
AcDbEntity
  8
_U+30EC_U+30A4_U+30E4_U+30FC 1
 62
   179
420
  2234388
370
    25
100
AcDbVertex
100
AcDb2dVertex
 10
49.05988708171134
 20
-98.52007358648122
 30
0.0
  0
VERTEX
  5
63
330
61
100
AcDbEntity
  8
_U+30EC_U+30A4_U+30E4_U+30FC 1
 62
   179
420
  2234388
370
    25
100
AcDbVertex
100
AcDb2dVertex
 10
49.55942040230052
 20
-98.52007358648122
 30
0.0
  0
SEQEND
  5
64
330
61
100
AcDbEntity
  8
_U+30EC_U+30A4_U+30E4_U+30FC 1
 62
   179
420
  2234388
370
    25
  0
POLYLINE
  5
65
330
1F
100
AcDbEntity
  8
_U+30EC_U+30A4_U+30E4_U+30FC 1
 62
   179
420
  2234388
370
    25
100
AcDb2dPolyline
 66
     1
 10
0.0
 20
0.0
 30
0.0
  0
VERTEX
  5
66
330
65
100
AcDbEntity
  8
_U+30EC_U+30A4_U+30E4_U+30FC 1
 62
   179
420
  2234388
370
    25
100
AcDbVertex
100
AcDb2dVertex
 10
58.25966101367222
 20
-97.12000442016476
 30
0.0
  0
VERTEX
  5
67
330
65
100
AcDbEntity
  8
_U+30EC_U+30A4_U+30E4_U+30FC 1
 62
   179
420
  2234388
370
    25
100
AcDbVertex
100
AcDb2dVertex
 10
58.25966101367222
 20
-98.52007358648122
 30
0.0
  0
SEQEND
  5
68
330
65
100
AcDbEntity
  8
_U+30EC_U+30A4_U+30E4_U+30FC 1
 62
   179
420
  2234388
370
    25
  0
POLYLINE
  5
69
330
1F
100
AcDbEntity
  8
_U+30EC_U+30A4_U+30E4_U+30FC 1
 62
   179
420
  2234388
370
    25
100
AcDb2dPolyline
 66
     1
 10
0.0
 20
0.0
 30
0.0
  0
VERTEX
  5
6A
330
69
100
AcDbEntity
  8
_U+30EC_U+30A4_U+30E4_U+30FC 1
 62
   179
420
  2234388
370
    25
100
AcDbVertex
100
AcDb2dVertex
 10
49.05988708171134
 20
-98.52007358648122
 30
0.0
  0
VERTEX
  5
6B
330
69
100
AcDbEntity
  8
_U+30EC_U+30A4_U+30E4_U+30FC 1
 62
   179
420
  2234388
370
    25
100
AcDbVertex
100
AcDb2dVertex
 10
49.05988708171134
 20
-99.32003247516984
 30
0.0
  0
SEQEND
  5
6C
330
69
100
AcDbEntity
  8
_U+30EC_U+30A4_U+30E4_U+30FC 1
 62
   179
420
  2234388
370
    25
  0
POLYLINE
  5
6D
330
1F
100
AcDbEntity
  8
_U+30EC_U+30A4_U+30E4_U+30FC 1
 62
   179
420
  2234388
370
    25
100
AcDb2dPolyline
 66
     1
 10
0.0
 20
0.0
 30
0.0
  0
VERTEX
  5
6E
330
6D
100
AcDbEntity
  8
_U+30EC_U+30A4_U+30E4_U+30FC 1
 62
   179
420
  2234388
370
    25
100
AcDbVertex
100
AcDb2dVertex
 10
50.36004954854143
 20
-98.52007358648122
 30
0.0
  0
VERTEX
  5
6F
330
6D
100
AcDbEntity
  8
_U+30EC_U+30A4_U+30E4_U+30FC 1
 62
   179
420
  2234388
370
    25
100
AcDbVertex
100
AcDb2dVertex
 10
58.25966101367222
 20
-98.52007358648122
 30
0.0
  0
SEQEND
  5
70
330
6D
100
AcDbEntity
  8
_U+30EC_U+30A4_U+30E4_U+30FC 1
 62
   179
420
  2234388
370
    25
  0
POLYLINE
  5
71
330
1F
100
AcDbEntity
  8
_U+30EC_U+30A4_U+30E4_U+30FC 1
 62
   179
420
  2234388
370
    25
100
AcDb2dPolyline
 66
     1
 10
0.0
 20
0.0
 30
0.0
  0
VERTEX
  5
72
330
71
100
AcDbEntity
  8
_U+30EC_U+30A4_U+30E4_U+30FC 1
 62
   179
420
  2234388
370
    25
100
AcDbVertex
100
AcDb2dVertex
 10
50.05965927842725
 20
-82.52001386825887
 30
0.0
  0
VERTEX
  5
73
330
71
100
AcDbEntity
  8
_U+30EC_U+30A4_U+30E4_U+30FC 1
 62
   179
420
  2234388
370
    25
100
AcDbVertex
100
AcDb2dVertex
 10
49.55942040230052
 20
-98.52007358648122
 30
0.0
  0
SEQEND
  5
74
330
71
100
AcDbEntity
  8
_U+30EC_U+30A4_U+30E4_U+30FC 1
 62
   179
420
  2234388
370
    25
  0
POLYLINE
  5
75
330
1F
100
AcDbEntity
  8
_U+30EC_U+30A4_U+30E4_U+30FC 1
 62
   179
420
  2234388
370
    25
100
AcDb2dPolyline
 66
     1
 10
0.0
 20
0.0
 30
0.0
  0
VERTEX
  5
76
330
75
100
AcDbEntity
  8
_U+30EC_U+30A4_U+30E4_U+30FC 1
 62
   179
420
  2234388
370
    25
100
AcDbVertex
100
AcDb2dVertex
 10
50.83478259198554
 20
-83.31997275694782
 30
0.0
  0
VERTEX
  5
77
330
75
100
AcDbEntity
  8
_U+30EC_U+30A4_U+30E4_U+30FC 1
 62
   179
420
  2234388
370
    25
100
AcDbVertex
100
AcDb2dVertex
 10
50.36004954854143
 20
-98.52007358648122
 30
0.0
  0
SEQEND
  5
78
330
75
100
AcDbEntity
  8
_U+30EC_U+30A4_U+30E4_U+30FC 1
 62
   179
420
  2234388
370
    25
  0
SPLINE
  5
79
330
1F
100
AcDbEntity
  8
_U+30EC_U+30A4_U+30E4_U+30FC 1
 62
   179
420
  2234388
370
     9
100
AcDbSpline
210
0.0
220
0.0
230
1.0
 70
    11
 71
     3
 72
    17
 73
    13
 74
     0
 42
0.0000000001
 43
0.0000000001
 12
1.0
 22
0.0
 32
0.0
 13
1.0
 23
0.0
 33
0.0
 40
0.0
 40
0.0
 40
0.0
 40
0.0
 40
1.0
 40
1.0
 40
1.0
 40
2.0
 40
2.0
 40
2.0
 40
3.0
 40
3.0
 40
3.0
 40
4.0
 40
4.0
 40
4.0
 40
4.0
 10
50.15956594254509
 20
-78.51993720259239
 30
0.0
 10
50.15956594254509
 20
-78.46479803593931
 30
0.0
 10
50.11476316591032
 20
-78.42003053595043
 30
0.0
 10
50.05965927842725
 20
-78.42003053595043
 30
0.0
 10
50.0045201131673
 20
-78.42003053595043
 30
0.0
 10
49.95975261430942
 20
-78.46479803593931
 30
0.0
 10
49.95975261430942
 20
-78.51993720259239
 30
0.0
 10
49.95975261430942
 20
-78.57504109146731
 30
0.0
 10
50.0045201131673
 20
-78.61984386923403
 30
0.0
 10
50.05965927842725
 20
-78.61984386923403
 30
0.0
 10
50.11476316591032
 20
-78.61984386923403
 30
0.0
 10
50.15956594254509
 20
-78.57504109146731
 30
0.0
 10
50.15956594254509
 20
-78.51993720259239
 30
0.0
  0
SPLINE
  5
7A
330
1F
100
AcDbEntity
  8
_U+30EC_U+30A4_U+30E4_U+30FC 1
 62
   179
420
  2234388
370
     9
100
AcDbSpline
210
0.0
220
0.0
230
1.0
 70
    11
 71
     3
 72
    17
 73
    13
 74
     0
 42
0.0000000001
 43
0.0000000001
 12
1.0
 22
0.0
 32
0.0
 13
1.0
 23
0.0
 33
0.0
 40
0.0
 40
0.0
 40
0.0
 40
0.0
 40
1.0
 40
1.0
 40
1.0
 40
2.0
 40
2.0
 40
2.0
 40
3.0
 40
3.0
 40
3.0
 40
4.0
 40
4.0
 40
4.0
 40
4.0
 10
73.1596886890964
 20
-78.51993720259239
 30
0.0
 10
73.1596886890964
 20
-78.46479803593931
 30
0.0
 10
73.11492119023852
 20
-78.42003053595043
 30
0.0
 10
73.05978202497856
 20
-78.42003053595043
 30
0.0
 10
73.00467813749549
 20
-78.42003053595043
 30
0.0
 10
72.95987536086074
 20
-78.46479803593931
 30
0.0
 10
72.95987536086074
 20
-78.51993720259239
 30
0.0
 10
72.95987536086074
 20
-78.57504109146731
 30
0.0
 10
73.00467813749549
 20
-78.61984386923403
 30
0.0
 10
73.05978202497856
 20
-78.61984386923403
 30
0.0
 10
73.11492119023852
 20
-78.61984386923403
 30
0.0
 10
73.1596886890964
 20
-78.57504109146731
 30
0.0
 10
73.1596886890964
 20
-78.51993720259239
 30
0.0
  0
SPLINE
  5
7B
330
1F
100
AcDbEntity
  8
_U+30EC_U+30A4_U+30E4_U+30FC 1
 62
   179
420
  2234388
370
     9
100
AcDbSpline
210
0.0
220
0.0
230
1.0
 70
    11
 71
     3
 72
    17
 73
    13
 74
     0
 42
0.0000000001
 43
0.0000000001
 12
1.0
 22
0.0
 32
0.0
 13
1.0
 23
0.0
 33
0.0
 40
0.0
 40
0.0
 40
0.0
 40
0.0
 40
1.0
 40
1.0
 40
1.0
 40
2.0
 40
2.0
 40
2.0
 40
3.0
 40
3.0
 40
3.0
 40
4.0
 40
4.0
 40
4.0
 40
4.0
 10
77.15944775372071
 20
-82.52001386825887
 30
0.0
 10
77.15944775372071
 20
-82.4645572016062
 30
0.0
 10
77.11468025486283
 20
-82.42010720161724
 30
0.0
 10
77.05954108960287
 20
-82.42010720161724
 30
0.0
 10
77.0044372021198
 20
-82.42010720161724
 30
0.0
 10
76.95963442548504
 20
-82.4645572016062
 30
0.0
 10
76.95963442548504
 20
-82.52001386825887
 30
0.0
 10
76.95963442548504
 20
-82.5755058126894
 30
0.0
 10
77.0044372021198
 20
-82.62027331267828
 30
0.0
 10
77.05954108960287
 20
-82.62027331267828
 30
0.0
 10
77.11468025486283
 20
-82.62027331267828
 30
0.0
 10
77.15944775372071
 20
-82.5755058126894
 30
0.0
 10
77.15944775372071
 20
-82.52001386825887
 30
0.0
  0
SPLINE
  5
7C
330
1F
100
AcDbEntity
  8
_U+30EC_U+30A4_U+30E4_U+30FC 1
 62
   179
420
  2234388
370
     9
100
AcDbSpline
210
0.0
220
0.0
230
1.0
 70
    11
 71
     3
 72
    17
 73
    13
 74
     0
 42
0.0000000001
 43
0.0000000001
 12
1.0
 22
0.0
 32
0.0
 13
1.0
 23
0.0
 33
0.0
 40
0.0
 40
0.0
 40
0.0
 40
0.0
 40
1.0
 40
1.0
 40
1.0
 40
2.0
 40
2.0
 40
2.0
 40
3.0
 40
3.0
 40
3.0
 40
4.0
 40
4.0
 40
4.0
 40
4.0
 10
77.15944775372071
 20
-83.31997275694782
 30
0.0
 10
77.15944775372071
 20
-83.26486886807258
 30
0.0
 10
77.11468025486283
 20
-83.22006609030619
 30
0.0
 10
77.05954108960287
 20
-83.22006609030619
 30
0.0
 10
77.0044372021198
 20
-83.22006609030619
 30
0.0
 10
76.95963442548504
 20
-83.26486886807258
 30
0.0
 10
76.95963442548504
 20
-83.31997275694782
 30
0.0
 10
76.95963442548504
 20
-83.3754294236005
 30
0.0
 10
77.0044372021198
 20
-83.42023220136723
 30
0.0
 10
77.05954108960287
 20
-83.42023220136723
 30
0.0
 10
77.11468025486283
 20
-83.42023220136723
 30
0.0
 10
77.15944775372071
 20
-83.3754294236005
 30
0.0
 10
77.15944775372071
 20
-83.31997275694782
 30
0.0
  0
SPLINE
  5
7D
330
1F
100
AcDbEntity
  8
_U+30EC_U+30A4_U+30E4_U+30FC 1
 62
   179
420
  2234388
370
     9
100
AcDbSpline
210
0.0
220
0.0
230
1.0
 70
    11
 71
     3
 72
    17
 73
    13
 74
     0
 42
0.0000000001
 43
0.0000000001
 12
1.0
 22
0.0
 32
0.0
 13
1.0
 23
0.0
 33
0.0
 40
0.0
 40
0.0
 40
0.0
 40
0.0
 40
1.0
 40
1.0
 40
1.0
 40
2.0
 40
2.0
 40
2.0
 40
3.0
 40
3.0
 40
3.0
 40
4.0
 40
4.0
 40
4.0
 40
4.0
 10
77.15944775372071
 20
-96.3200455314755
 30
0.0
 10
77.15944775372071
 20
-96.26494164260058
 30
0.0
 10
77.11468025486283
 20
-96.22013886483386
 30
0.0
 10
77.05954108960287
 20
-96.22013886483386
 30
0.0
 10
77.0044372021198
 20
-96.22013886483386
 30
0.0
 10
76.95963442548504
 20
-96.26494164260058
 30
0.0
 10
76.95963442548504
 20
-96.3200455314755
 30
0.0
 10
76.95963442548504
 20
-96.37518469812858
 30
0.0
 10
77.0044372021198
 20
-96.41995219811713
 30
0.0
 10
77.05954108960287
 20
-96.41995219811713
 30
0.0
 10
77.11468025486283
 20
-96.41995219811713
 30
0.0
 10
77.15944775372071
 20
-96.37518469812858
 30
0.0
 10
77.15944775372071
 20
-96.3200455314755
 30
0.0
  0
SPLINE
  5
7E
330
1F
100
AcDbEntity
  8
_U+30EC_U+30A4_U+30E4_U+30FC 1
 62
   179
420
  2234388
370
     9
100
AcDbSpline
210
0.0
220
0.0
230
1.0
 70
    11
 71
     3
 72
    17
 73
    13
 74
     0
 42
0.0000000001
 43
0.0000000001
 12
1.0
 22
0.0
 32
0.0
 13
1.0
 23
0.0
 33
0.0
 40
0.0
 40
0.0
 40
0.0
 40
0.0
 40
1.0
 40
1.0
 40
1.0
 40
2.0
 40
2.0
 40
2.0
 40
3.0
 40
3.0
 40
3.0
 40
4.0
 40
4.0
 40
4.0
 40
4.0
 10
77.15944775372071
 20
-99.32003247516984
 30
0.0
 10
77.15944775372071
 20
-99.26492858629493
 30
0.0
 10
77.11468025486283
 20
-99.2201258085282
 30
0.0
 10
77.05954108960287
 20
-99.2201258085282
 30
0.0
 10
77.0044372021198
 20
-99.2201258085282
 30
0.0
 10
76.95963442548504
 20
-99.26492858629493
 30
0.0
 10
76.95963442548504
 20
-99.32003247516984
 30
0.0
 10
76.95963442548504
 20
-99.37517164182292
 30
0.0
 10
77.0044372021198
 20
-99.41993914181148
 30
0.0
 10
77.05954108960287
 20
-99.41993914181148
 30
0.0
 10
77.11468025486283
 20
-99.41993914181148
 30
0.0
 10
77.15944775372071
 20
-99.37517164182292
 30
0.0
 10
77.15944775372071
 20
-99.32003247516984
 30
0.0
  0
SPLINE
  5
7F
330
1F
100
AcDbEntity
  8
_U+30EC_U+30A4_U+30E4_U+30FC 1
 62
   179
420
  2234388
370
     9
100
AcDbSpline
210
0.0
220
0.0
230
1.0
 70
    11
 71
     3
 72
    17
 73
    13
 74
     0
 42
0.0000000001
 43
0.0000000001
 12
1.0
 22
0.0
 32
0.0
 13
1.0
 23
0.0
 33
0.0
 40
0.0
 40
0.0
 40
0.0
 40
0.0
 40
1.0
 40
1.0
 40
1.0
 40
2.0
 40
2.0
 40
2.0
 40
3.0
 40
3.0
 40
3.0
 40
4.0
 40
4.0
 40
4.0
 40
4.0
 10
59.15952654627029
 20
-103.3201444186145
 30
0.0
 10
59.15952654627029
 20
-103.2646877519618
 30
0.0
 10
59.11472376963553
 20
-103.2198849741951
 30
0.0
 10
59.05961988215246
 20
-103.2198849741951
 30
0.0
 10
59.00448071689251
 20
-103.2198849741951
 30
0.0
 10
58.95971321803462
 20
-103.2646877519618
 30
0.0
 10
58.95971321803462
 20
-103.3201444186145
 30
0.0
 10
58.95971321803462
 20
-103.3752483074894
 30
0.0
 10
59.00448071689251
 20
-103.4200510852561
 30
0.0
 10
59.05961988215246
 20
-103.4200510852561
 30
0.0
 10
59.11472376963553
 20
-103.4200510852561
 30
0.0
 10
59.15952654627029
 20
-103.3752483074894
 30
0.0
 10
59.15952654627029
 20
-103.3201444186145
 30
0.0
  0
SPLINE
  5
80
330
1F
100
AcDbEntity
  8
_U+30EC_U+30A4_U+30E4_U+30FC 1
 62
   179
420
  2234388
370
     9
100
AcDbSpline
210
0.0
220
0.0
230
1.0
 70
    11
 71
     3
 72
    17
 73
    13
 74
     0
 42
0.0000000001
 43
0.0000000001
 12
1.0
 22
0.0
 32
0.0
 13
1.0
 23
0.0
 33
0.0
 40
0.0
 40
0.0
 40
0.0
 40
0.0
 40
1.0
 40
1.0
 40
1.0
 40
2.0
 40
2.0
 40
2.0
 40
3.0
 40
3.0
 40
3.0
 40
4.0
 40
4.0
 40
4.0
 40
4.0
 10
49.15979374582918
 20
-103.3201444186145
 30
0.0
 10
49.15979374582918
 20
-103.2646877519618
 30
0.0
 10
49.11499096919441
 20
-103.2198849741951
 30
0.0
 10
49.05988708171134
 20
-103.2198849741951
 30
0.0
 10
49.00474791645139
 20
-103.2198849741951
 30
0.0
 10
48.95998041759351
 20
-103.2646877519618
 30
0.0
 10
48.95998041759351
 20
-103.3201444186145
 30
0.0
 10
48.95998041759351
 20
-103.3752483074894
 30
0.0
 10
49.00474791645139
 20
-103.4200510852561
 30
0.0
 10
49.05988708171134
 20
-103.4200510852561
 30
0.0
 10
49.11499096919441
 20
-103.4200510852561
 30
0.0
 10
49.15979374582918
 20
-103.3752483074894
 30
0.0
 10
49.15979374582918
 20
-103.3201444186145
 30
0.0
  0
POLYLINE
  5
81
330
1F
100
AcDbEntity
  8
_U+30EC_U+30A4_U+30E4_U+30FC 1
 62
   179
420
  2234388
370
     9
100
AcDb2dPolyline
 66
     1
 10
0.0
 20
0.0
 30
0.0
  0
VERTEX
  5
82
330
81
100
AcDbEntity
  8
_U+30EC_U+30A4_U+30E4_U+30FC 1
 62
   179
420
  2234388
370
     9
100
AcDbVertex
100
AcDb2dVertex
 10
50.05965927842725
 20
-78.51993720259239
 30
0.0
  0
VERTEX
  5
83
330
81
100
AcDbEntity
  8
_U+30EC_U+30A4_U+30E4_U+30FC 1
 62
   179
420
  2234388
370
     9
100
AcDbVertex
100
AcDb2dVertex
 10
73.05978202497856
 20
-78.51993720259239
 30
0.0
  0
SEQEND
  5
84
330
81
100
AcDbEntity
  8
_U+30EC_U+30A4_U+30E4_U+30FC 1
 62
   179
420
  2234388
370
     9
  0
POLYLINE
  5
85
330
1F
100
AcDbEntity
  8
_U+30EC_U+30A4_U+30E4_U+30FC 1
 62
   179
420
  2234388
370
     9
100
AcDb2dPolyline
 66
     1
 10
0.0
 20
0.0
 30
0.0
  0
VERTEX
  5
86
330
85
100
AcDbEntity
  8
_U+30EC_U+30A4_U+30E4_U+30FC 1
 62
   179
420
  2234388
370
     9
100
AcDbVertex
100
AcDb2dVertex
 10
50.05965927842725
 20
-79.97994331333825
 30
0.0
  0
VERTEX
  5
87
330
85
100
AcDbEntity
  8
_U+30EC_U+30A4_U+30E4_U+30FC 1
 62
   179
420
  2234388
370
     9
100
AcDbVertex
100
AcDb2dVertex
 10
50.05965927842725
 20
-77.52016498061985
 30
0.0
  0
SEQEND
  5
88
330
85
100
AcDbEntity
  8
_U+30EC_U+30A4_U+30E4_U+30FC 1
 62
   179
420
  2234388
370
     9
  0
POLYLINE
  5
89
330
1F
100
AcDbEntity
  8
_U+30EC_U+30A4_U+30E4_U+30FC 1
 62
   179
420
  2234388
370
     9
100
AcDb2dPolyline
 66
     1
 10
0.0
 20
0.0
 30
0.0
  0
VERTEX
  5
8A
330
89
100
AcDbEntity
  8
_U+30EC_U+30A4_U+30E4_U+30FC 1
 62
   179
420
  2234388
370
     9
100
AcDbVertex
100
AcDb2dVertex
 10
73.05978202497856
 20
-79.97994331333825
 30
0.0
  0
VERTEX
  5
8B
330
89
100
AcDbEntity
  8
_U+30EC_U+30A4_U+30E4_U+30FC 1
 62
   179
420
  2234388
370
     9
100
AcDbVertex
100
AcDb2dVertex
 10
73.05978202497856
 20
-77.52016498061985
 30
0.0
  0
SEQEND
  5
8C
330
89
100
AcDbEntity
  8
_U+30EC_U+30A4_U+30E4_U+30FC 1
 62
   179
420
  2234388
370
     9
  0
INSERT
  5
8E
330
1F
100
AcDbEntity
  8
_U+30EC_U+30A4_U+30E4_U+30FC 1
100
AcDbBlockReference
  2
block 2
 10
0.0
 20
0.0
 30
0.0
  0
POLYLINE
  5
95
330
1F
100
AcDbEntity
  8
_U+30EC_U+30A4_U+30E4_U+30FC 1
 62
   179
420
  2234388
370
     9
100
AcDb2dPolyline
 66
     1
 10
0.0
 20
0.0
 30
0.0
  0
VERTEX
  5
96
330
95
100
AcDbEntity
  8
_U+30EC_U+30A4_U+30E4_U+30FC 1
 62
   179
420
  2234388
370
     9
100
AcDbVertex
100
AcDb2dVertex
 10
49.05988708171134
 20
-103.3201444186145
 30
0.0
  0
VERTEX
  5
97
330
95
100
AcDbEntity
  8
_U+30EC_U+30A4_U+30E4_U+30FC 1
 62
   179
420
  2234388
370
     9
100
AcDbVertex
100
AcDb2dVertex
 10
59.05961988215246
 20
-103.3201444186145
 30
0.0
  0
SEQEND
  5
98
330
95
100
AcDbEntity
  8
_U+30EC_U+30A4_U+30E4_U+30FC 1
 62
   179
420
  2234388
370
     9
  0
POLYLINE
  5
99
330
1F
100
AcDbEntity
  8
_U+30EC_U+30A4_U+30E4_U+30FC 1
 62
   179
420
  2234388
370
     9
100
AcDb2dPolyline
 66
     1
 10
0.0
 20
0.0
 30
0.0
  0
VERTEX
  5
9A
330
99
100
AcDbEntity
  8
_U+30EC_U+30A4_U+30E4_U+30FC 1
 62
   179
420
  2234388
370
     9
100
AcDbVertex
100
AcDb2dVertex
 10
49.05988708171134
 20
-101.8601030300908
 30
0.0
  0
VERTEX
  5
9B
330
99
100
AcDbEntity
  8
_U+30EC_U+30A4_U+30E4_U+30FC 1
 62
   179
420
  2234388
370
     9
100
AcDbVertex
100
AcDb2dVertex
 10
49.05988708171134
 20
-104.3199166405864
 30
0.0
  0
SEQEND
  5
9C
330
99
100
AcDbEntity
  8
_U+30EC_U+30A4_U+30E4_U+30FC 1
 62
   179
420
  2234388
370
     9
  0
POLYLINE
  5
9D
330
1F
100
AcDbEntity
  8
_U+30EC_U+30A4_U+30E4_U+30FC 1
 62
   179
420
  2234388
370
     9
100
AcDb2dPolyline
 66
     1
 10
0.0
 20
0.0
 30
0.0
  0
VERTEX
  5
9E
330
9D
100
AcDbEntity
  8
_U+30EC_U+30A4_U+30E4_U+30FC 1
 62
   179
420
  2234388
370
     9
100
AcDbVertex
100
AcDb2dVertex
 10
59.05961988215246
 20
-101.8601030300908
 30
0.0
  0
VERTEX
  5
9F
330
9D
100
AcDbEntity
  8
_U+30EC_U+30A4_U+30E4_U+30FC 1
 62
   179
420
  2234388
370
     9
100
AcDbVertex
100
AcDb2dVertex
 10
59.05961988215246
 20
-104.3199166405864
 30
0.0
  0
SEQEND
  5
A0
330
9D
100
AcDbEntity
  8
_U+30EC_U+30A4_U+30E4_U+30FC 1
 62
   179
420
  2234388
370
     9
  0
INSERT
  5
A2
330
1F
100
AcDbEntity
  8
_U+30EC_U+30A4_U+30E4_U+30FC 1
100
AcDbBlockReference
  2
block 3
 10
0.0
 20
0.0
 30
0.0
  0
POLYLINE
  5
AA
330
1F
100
AcDbEntity
  8
_U+30EC_U+30A4_U+30E4_U+30FC 1
 62
   179
420
  2234388
370
     9
100
AcDb2dPolyline
 66
     1
 10
0.0
 20
0.0
 30
0.0
  0
VERTEX
  5
AB
330
AA
100
AcDbEntity
  8
_U+30EC_U+30A4_U+30E4_U+30FC 1
 62
   179
420
  2234388
370
     9
100
AcDbVertex
100
AcDb2dVertex
 10
77.05954108960287
 20
-82.52001386825887
 30
0.0
  0
VERTEX
  5
AC
330
AA
100
AcDbEntity
  8
_U+30EC_U+30A4_U+30E4_U+30FC 1
 62
   179
420
  2234388
370
     9
100
AcDbVertex
100
AcDb2dVertex
 10
77.05954108960287
 20
-77.26246081401773
 30
0.0
  0
SEQEND
  5
AD
330
AA
100
AcDbEntity
  8
_U+30EC_U+30A4_U+30E4_U+30FC 1
 62
   179
420
  2234388
370
     9
  0
POLYLINE
  5
AE
330
1F
100
AcDbEntity
  8
_U+30EC_U+30A4_U+30E4_U+30FC 1
 62
   179
420
  2234388
370
     9
100
AcDb2dPolyline
 66
     1
 10
0.0
 20
0.0
 30
0.0
  0
VERTEX
  5
AF
330
AE
100
AcDbEntity
  8
_U+30EC_U+30A4_U+30E4_U+30FC 1
 62
   179
420
  2234388
370
     9
100
AcDbVertex
100
AcDb2dVertex
 10
77.05954108960287
 20
-82.52001386825887
 30
0.0
  0
VERTEX
  5
B0
330
AE
100
AcDbEntity
  8
_U+30EC_U+30A4_U+30E4_U+30FC 1
 62
   179
420
  2234388
370
     9
100
AcDbVertex
100
AcDb2dVertex
 10
77.05954108960287
 20
-83.31997275694782
 30
0.0
  0
SEQEND
  5
B1
330
AE
100
AcDbEntity
  8
_U+30EC_U+30A4_U+30E4_U+30FC 1
 62
   179
420
  2234388
370
     9
  0
POLYLINE
  5
B2
330
1F
100
AcDbEntity
  8
_U+30EC_U+30A4_U+30E4_U+30FC 1
 62
   179
420
  2234388
370
     9
100
AcDb2dPolyline
 66
     1
 10
0.0
 20
0.0
 30
0.0
  0
VERTEX
  5
B3
330
B2
100
AcDbEntity
  8
_U+30EC_U+30A4_U+30E4_U+30FC 1
 62
   179
420
  2234388
370
     9
100
AcDbVertex
100
AcDb2dVertex
 10
75.59953501573962
 20
-82.52001386825887
 30
0.0
  0
VERTEX
  5
B4
330
B2
100
AcDbEntity
  8
_U+30EC_U+30A4_U+30E4_U+30FC 1
 62
   179
420
  2234388
370
     9
100
AcDbVertex
100
AcDb2dVertex
 10
78.05931328631878
 20
-82.52001386825887
 30
0.0
  0
SEQEND
  5
B5
330
B2
100
AcDbEntity
  8
_U+30EC_U+30A4_U+30E4_U+30FC 1
 62
   179
420
  2234388
370
     9
  0
POLYLINE
  5
B6
330
1F
100
AcDbEntity
  8
_U+30EC_U+30A4_U+30E4_U+30FC 1
 62
   179
420
  2234388
370
     9
100
AcDb2dPolyline
 66
     1
 10
0.0
 20
0.0
 30
0.0
  0
VERTEX
  5
B7
330
B6
100
AcDbEntity
  8
_U+30EC_U+30A4_U+30E4_U+30FC 1
 62
   179
420
  2234388
370
     9
100
AcDbVertex
100
AcDb2dVertex
 10
75.59953501573962
 20
-83.31997275694782
 30
0.0
  0
VERTEX
  5
B8
330
B6
100
AcDbEntity
  8
_U+30EC_U+30A4_U+30E4_U+30FC 1
 62
   179
420
  2234388
370
     9
100
AcDbVertex
100
AcDb2dVertex
 10
78.05931328631878
 20
-83.31997275694782
 30
0.0
  0
SEQEND
  5
B9
330
B6
100
AcDbEntity
  8
_U+30EC_U+30A4_U+30E4_U+30FC 1
 62
   179
420
  2234388
370
     9
  0
INSERT
  5
BB
330
1F
100
AcDbEntity
  8
_U+30EC_U+30A4_U+30E4_U+30FC 1
100
AcDbBlockReference
  2
block 4
 10
0.0
 20
0.0
 30
0.0
  0
POLYLINE
  5
CD
330
1F
100
AcDbEntity
  8
_U+30EC_U+30A4_U+30E4_U+30FC 1
 62
   179
420
  2234388
370
     9
100
AcDb2dPolyline
 66
     1
 10
0.0
 20
0.0
 30
0.0
  0
VERTEX
  5
CE
330
CD
100
AcDbEntity
  8
_U+30EC_U+30A4_U+30E4_U+30FC 1
 62
   179
420
  2234388
370
     9
100
AcDbVertex
100
AcDb2dVertex
 10
77.05954108960287
 20
-96.3200455314755
 30
0.0
  0
VERTEX
  5
CF
330
CD
100
AcDbEntity
  8
_U+30EC_U+30A4_U+30E4_U+30FC 1
 62
   179
420
  2234388
370
     9
100
AcDbVertex
100
AcDb2dVertex
 10
77.05954108960287
 20
-99.32003247516984
 30
0.0
  0
SEQEND
  5
D0
330
CD
100
AcDbEntity
  8
_U+30EC_U+30A4_U+30E4_U+30FC 1
 62
   179
420
  2234388
370
     9
  0
POLYLINE
  5
D1
330
1F
100
AcDbEntity
  8
_U+30EC_U+30A4_U+30E4_U+30FC 1
 62
   179
420
  2234388
370
     9
100
AcDb2dPolyline
 66
     1
 10
0.0
 20
0.0
 30
0.0
  0
VERTEX
  5
D2
330
D1
100
AcDbEntity
  8
_U+30EC_U+30A4_U+30E4_U+30FC 1
 62
   179
420
  2234388
370
     9
100
AcDbVertex
100
AcDb2dVertex
 10
61.59933759513664
 20
-99.32003247516984
 30
0.0
  0
VERTEX
  5
D3
330
D1
100
AcDbEntity
  8
_U+30EC_U+30A4_U+30E4_U+30FC 1
 62
   179
420
  2234388
370
     9
100
AcDbVertex
100
AcDb2dVertex
 10
78.05931328631878
 20
-99.32003247516984
 30
0.0
  0
SEQEND
  5
D4
330
D1
100
AcDbEntity
  8
_U+30EC_U+30A4_U+30E4_U+30FC 1
 62
   179
420
  2234388
370
     9
  0
INSERT
  5
D6
330
1F
100
AcDbEntity
  8
_U+30EC_U+30A4_U+30E4_U+30FC 1
100
AcDbBlockReference
  2
block 5
 10
0.0
 20
0.0
 30
0.0
  0
POLYLINE
  5
DB
330
1F
100
AcDbEntity
  8
_U+30EC_U+30A4_U+30E4_U+30FC 1
 62
   179
420
  2234388
370
     9
100
AcDb2dPolyline
 66
     1
 10
0.0
 20
0.0
 30
0.0
  0
VERTEX
  5
DC
330
DB
100
AcDbEntity
  8
_U+30EC_U+30A4_U+30E4_U+30FC 1
 62
   179
420
  2234388
370
     9
100
AcDbVertex
100
AcDb2dVertex
 10
77.05954108960287
 20
-83.31997275694782
 30
0.0
  0
VERTEX
  5
DD
330
DB
100
AcDbEntity
  8
_U+30EC_U+30A4_U+30E4_U+30FC 1
 62
   179
420
  2234388
370
     9
100
AcDbVertex
100
AcDb2dVertex
 10
77.05954108960287
 20
-96.3200455314755
 30
0.0
  0
SEQEND
  5
DE
330
DB
100
AcDbEntity
  8
_U+30EC_U+30A4_U+30E4_U+30FC 1
 62
   179
420
  2234388
370
     9
  0
POLYLINE
  5
DF
330
1F
100
AcDbEntity
  8
_U+30EC_U+30A4_U+30E4_U+30FC 1
 62
   179
420
  2234388
370
     9
100
AcDb2dPolyline
 66
     1
 10
0.0
 20
0.0
 30
0.0
  0
VERTEX
  5
E0
330
DF
100
AcDbEntity
  8
_U+30EC_U+30A4_U+30E4_U+30FC 1
 62
   179
420
  2234388
370
     9
100
AcDbVertex
100
AcDb2dVertex
 10
75.59953501573962
 20
-83.31997275694782
 30
0.0
  0
VERTEX
  5
E1
330
DF
100
AcDbEntity
  8
_U+30EC_U+30A4_U+30E4_U+30FC 1
 62
   179
420
  2234388
370
     9
100
AcDbVertex
100
AcDb2dVertex
 10
78.05931328631878
 20
-83.31997275694782
 30
0.0
  0
SEQEND
  5
E2
330
DF
100
AcDbEntity
  8
_U+30EC_U+30A4_U+30E4_U+30FC 1
 62
   179
420
  2234388
370
     9
  0
POLYLINE
  5
E3
330
1F
100
AcDbEntity
  8
_U+30EC_U+30A4_U+30E4_U+30FC 1
 62
   179
420
  2234388
370
     9
100
AcDb2dPolyline
 66
     1
 10
0.0
 20
0.0
 30
0.0
  0
VERTEX
  5
E4
330
E3
100
AcDbEntity
  8
_U+30EC_U+30A4_U+30E4_U+30FC 1
 62
   179
420
  2234388
370
     9
100
AcDbVertex
100
AcDb2dVertex
 10
61.59933759513664
 20
-96.3200455314755
 30
0.0
  0
VERTEX
  5
E5
330
E3
100
AcDbEntity
  8
_U+30EC_U+30A4_U+30E4_U+30FC 1
 62
   179
420
  2234388
370
     9
100
AcDbVertex
100
AcDb2dVertex
 10
78.05931328631878
 20
-96.3200455314755
 30
0.0
  0
SEQEND
  5
E6
330
E3
100
AcDbEntity
  8
_U+30EC_U+30A4_U+30E4_U+30FC 1
 62
   179
420
  2234388
370
     9
  0
INSERT
  5
E8
330
1F
100
AcDbEntity
  8
_U+30EC_U+30A4_U+30E4_U+30FC 1
100
AcDbBlockReference
  2
block 6
 10
0.0
 20
0.0
 30
0.0
  0
ENDSEC
  0
SECTION
  2
OBJECTS
  0
DICTIONARY
  5
C
330
0
100
AcDbDictionary
281
     1
  3
ACAD_GROUP
350
D
  3
ACAD_LAYOUT
350
1A
  3
ACAD_MATERIAL
350
3B
  3
ACAD_MLEADERSTYLE
350
F0
  3
ACAD_MLINESTYLE
350
17
  3
ACAD_PLOTSETTINGS
350
19
  3
ACAD_PLOTSTYLENAME
350
E
  3
ACAD_TABLESTYLE
350
EF
  3
ACAD_VISUALSTYLE
350
2A
  0
SUN
  5
3F
330
29
100
AcDbSun
 90
        1
290
     0
 63
     7
421
 16777215
 40
1.0
291
     1
 91
  2455826
 92
 54000000
292
     0
 70
     2
 71
   256
280
     1
  0
DICTIONARY
  5
D
102
{ACAD_REACTORS
330
C
102
}
330
C
100
AcDbDictionary
281
     1
  0
DICTIONARY
  5
1A
102
{ACAD_REACTORS
330
C
102
}
330
C
100
AcDbDictionary
281
     1
  3
Layout1
350
1E
  3
Layout2
350
26
  3
Model
350
22
  0
DICTIONARY
  5
3B
102
{ACAD_REACTORS
330
C
102
}
330
C
100
AcDbDictionary
281
     1
  3
ByBlock
350
3D
  3
ByLayer
350
3C
  3
Global
350
3E
  0
DICTIONARY
  5
F0
102
{ACAD_REACTORS
330
C
102
}
330
C
100
AcDbDictionary
281
     1
  0
DICTIONARY
  5
17
102
{ACAD_REACTORS
330
C
102
}
330
C
100
AcDbDictionary
281
     1
  3
Standard
350
18
  0
DICTIONARY
  5
19
102
{ACAD_REACTORS
330
C
102
}
330
C
100
AcDbDictionary
281
     1
  0
ACDBDICTIONARYWDFLT
  5
E
102
{ACAD_REACTORS
330
C
102
}
330
C
100
AcDbDictionary
281
     1
  3
Normal
350
F
100
AcDbDictionaryWithDefault
340
F
  0
DICTIONARY
  5
EF
102
{ACAD_REACTORS
330
C
102
}
330
C
100
AcDbDictionary
281
     1
  0
DICTIONARY
  5
2A
102
{ACAD_REACTORS
330
C
102
}
330
C
100
AcDbDictionary
281
     1
  3
2dWireframe
350
2F
  3
3D Hidden
350
31
  3
3dWireframe
350
30
  3
Basic
350
32
  3
Brighten
350
36
  3
ColorChange
350
3A
  3
Conceptual
350
34
  3
Dim
350
35
  3
Facepattern
350
39
  3
Flat
350
2B
  3
FlatWithEdges
350
2C
  3
Gouraud
350
2D
  3
GouraudWithEdges
350
2E
  3
Linepattern
350
38
  3
Realistic
350
33
  3
Thicken
350
37
  0
LAYOUT
  5
1E
102
{ACAD_REACTORS
330
1A
102
}
330
1A
100
AcDbPlotSettings
  1

  2
none_device
  4

  6

 40
0.0
 41
0.0
 42
0.0
 43
0.0
 44
0.0
 45
0.0
 46
0.0
 47
0.0
 48
0.0
 49
0.0
140
0.0
141
0.0
142
1.0
143
1.0
 70
   688
 72
     0
 73
     0
 74
     5
  7

 75
    16
 76
     0
 77
     2
 78
   300
147
1.0
148
0.0
149
0.0
100
AcDbLayout
  1
Layout1
 70
     1
 71
     1
 10
0.0
 20
0.0
 11
12.0
 21
9.0
 12
0.0
 22
0.0
 32
0.0
 14
1.000000000000000E+20
 24
1.000000000000000E+20
 34
1.000000000000000E+20
 15
-1.000000000000000E+20
 25
-1.000000000000000E+20
 35
-1.000000000000000E+20
146
0.0
 13
0.0
 23
0.0
 33
0.0
 16
1.0
 26
0.0
 36
0.0
 17
0.0
 27
1.0
 37
0.0
 76
     0
330
1B
  0
LAYOUT
  5
26
102
{ACAD_REACTORS
330
1A
102
}
330
1A
100
AcDbPlotSettings
  1

  2
none_device
  4

  6

 40
0.0
 41
0.0
 42
0.0
 43
0.0
 44
0.0
 45
0.0
 46
0.0
 47
0.0
 48
0.0
 49
0.0
140
0.0
141
0.0
142
1.0
143
1.0
 70
   688
 72
     0
 73
     0
 74
     5
  7

 75
    16
 76
     0
 77
     2
 78
   300
147
1.0
148
0.0
149
0.0
100
AcDbLayout
  1
Layout2
 70
     1
 71
     2
 10
0.0
 20
0.0
 11
0.0
 21
0.0
 12
0.0
 22
0.0
 32
0.0
 14
0.0
 24
0.0
 34
0.0
 15
0.0
 25
0.0
 35
0.0
146
0.0
 13
0.0
 23
0.0
 33
0.0
 16
1.0
 26
0.0
 36
0.0
 17
0.0
 27
1.0
 37
0.0
 76
     0
330
23
  0
LAYOUT
  5
22
102
{ACAD_REACTORS
330
1A
102
}
330
1A
100
AcDbPlotSettings
  1

  2
none_device
  4

  6

 40
0.0
 41
0.0
 42
0.0
 43
0.0
 44
0.0
 45
0.0
 46
0.0
 47
0.0
 48
0.0
 49
0.0
140
0.0
141
0.0
142
1.0
143
1.0
 70
  1712
 72
     0
 73
     0
 74
     0
  7

 75
     0
 76
     0
 77
     2
 78
   300
147
1.0
148
0.0
149
0.0
100
AcDbLayout
  1
Model
 70
     1
 71
     0
 10
0.0
 20
0.0
 11
12.0
 21
9.0
 12
0.0
 22
0.0
 32
0.0
 14
1.000000000000000E+20
 24
1.000000000000000E+20
 34
1.000000000000000E+20
 15
-1.000000000000000E+20
 25
-1.000000000000000E+20
 35
-1.000000000000000E+20
146
0.0
 13
0.0
 23
0.0
 33
0.0
 16
1.0
 26
0.0
 36
0.0
 17
0.0
 27
1.0
 37
0.0
 76
     0
330
1F
331
29
  0
MATERIAL
  5
3D
102
{ACAD_REACTORS
330
3B
102
}
330
3B
100
AcDbMaterial
  1
ByBlock
 72
     1
 94
      127
  0
MATERIAL
  5
3C
102
{ACAD_REACTORS
330
3B
102
}
330
3B
100
AcDbMaterial
  1
ByLayer
 72
     1
 94
      127
  0
MATERIAL
  5
3E
102
{ACAD_REACTORS
330
3B
102
}
330
3B
100
AcDbMaterial
  1
Global
 72
     1
 94
      127
  0
MLINESTYLE
  5
18
102
{ACAD_REACTORS
330
17
102
}
330
17
100
AcDbMlineStyle
  2
Standard
 70
     0
  3

 62
   256
 51
90.0
 52
90.0
 71
     2
 49
0.5
 62
   256
  6
BYLAYER
 49
-0.5
 62
   256
  6
BYLAYER
  0
ACDBPLACEHOLDER
  5
F
102
{ACAD_REACTORS
330
E
102
}
330
E
  0
VISUALSTYLE
  5
2F
102
{ACAD_REACTORS
330
2A
102
}
330
2A
100
AcDbVisualStyle
  2
2dWireframe
 70
     4
177
     2
291
     0
 71
     0
176
     1
 72
     2
176
     1
 73
     0
176
     1
 90
        0
176
     1
 40
-0.6
176
     1
 41
-30.0
176
     1
 62
     5
 63
     7
421
 16777215
176
     1
 74
     1
176
     1
 91
        4
176
     1
 64
     7
176
     1
 65
   257
176
     1
 75
     1
176
     1
175
     1
176
     1
 42
1.0
176
     1
 92
        0
176
     1
 66
   257
176
     1
 43
1.0
176
     1
 76
     1
176
     1
 77
     6
176
     1
 78
     2
176
     1
 67
     7
176
     1
 79
     5
176
     1
170
     0
176
     1
171
     0
176
     1
290
     0
176
     1
 93
        1
176
     1
 44
0.0
176
     1
173
     0
176
     1
  0
VISUALSTYLE
  5
31
102
{ACAD_REACTORS
330
2A
102
}
330
2A
100
AcDbVisualStyle
  2
3D Hidden
 70
     6
177
     2
291
     0
 71
     1
176
     1
 72
     2
176
     1
 73
     2
176
     1
 90
        0
176
     1
 40
-0.6
176
     1
 41
-30.0
176
     1
 62
     5
 63
     7
421
 16777215
176
     1
 74
     2
176
     1
 91
        2
176
     1
 64
     7
176
     1
 65
   257
176
     1
 75
     2
176
     1
175
     1
176
     1
 42
40.0
176
     1
 92
        0
176
     1
 66
   257
176
     1
 43
1.0
176
     1
 76
     1
176
     1
 77
     6
176
     1
 78
     2
176
     1
 67
     7
176
     1
 79
     3
176
     1
170
     0
176
     1
171
     0
176
     1
290
     0
176
     1
 93
        1
176
     1
 44
0.0
176
     1
173
     0
176
     1
  0
VISUALSTYLE
  5
30
102
{ACAD_REACTORS
330
2A
102
}
330
2A
100
AcDbVisualStyle
  2
3dWireframe
 70
     5
177
     2
291
     0
 71
     0
176
     1
 72
     2
176
     1
 73
     0
176
     1
 90
        0
176
     1
 40
-0.6
176
     1
 41
-30.0
176
     1
 62
     5
 63
     7
421
 16777215
176
     1
 74
     1
176
     1
 91
        4
176
     1
 64
     7
176
     1
 65
   257
176
     1
 75
     1
176
     1
175
     1
176
     1
 42
1.0
176
     1
 92
        0
176
     1
 66
   257
176
     1
 43
1.0
176
     1
 76
     1
176
     1
 77
     6
176
     1
 78
     2
176
     1
 67
     7
176
     1
 79
     5
176
     1
170
     0
176
     1
171
     0
176
     1
290
     0
176
     1
 93
        1
176
     1
 44
0.0
176
     1
173
     0
176
     1
  0
VISUALSTYLE
  5
32
102
{ACAD_REACTORS
330
2A
102
}
330
2A
100
AcDbVisualStyle
  2
Basic
 70
     7
177
     2
291
     1
 71
     1
176
     1
 72
     0
176
     1
 73
     1
176
     1
 90
        0
176
     1
 40
-0.6
176
     1
 41
-30.0
176
     1
 62
     5
 63
     7
421
 16777215
176
     1
 74
     0
176
     1
 91
        4
176
     1
 64
     7
176
     1
 65
   257
176
     1
 75
     1
176
     1
175
     1
176
     1
 42
1.0
176
     1
 92
        8
176
     1
 66
     7
176
     1
 43
1.0
176
     1
 76
     1
176
     1
 77
     6
176
     1
 78
     2
176
     1
 67
     7
176
     1
 79
     5
176
     1
170
     0
176
     1
171
     0
176
     1
290
     0
176
     1
 93
        1
176
     1
 44
0.0
176
     1
173
     0
176
     1
  0
VISUALSTYLE
  5
36
102
{ACAD_REACTORS
330
2A
102
}
330
2A
100
AcDbVisualStyle
  2
Brighten
 70
    12
177
     2
291
     1
 71
     2
176
     1
 72
     2
176
     1
 73
     0
176
     1
 90
        0
176
     1
 40
-0.6
176
     1
 41
-30.0
176
     1
 62
     5
 63
     7
421
 16777215
176
     1
 74
     1
176
     1
 91
        4
176
     1
 64
     7
176
     1
 65
   257
176
     1
 75
     1
176
     1
175
     1
176
     1
 42
1.0
176
     1
 92
        8
176
     1
 66
     7
176
     1
 43
1.0
176
     1
 76
     1
176
     1
 77
     6
176
     1
 78
     2
176
     1
 67
     7
176
     1
 79
     5
176
     1
170
     0
176
     1
171
     0
176
     1
290
     0
176
     1
 93
        1
176
     1
 44
50.0
176
     1
173
     0
176
     1
  0
VISUALSTYLE
  5
3A
102
{ACAD_REACTORS
330
2A
102
}
330
2A
100
AcDbVisualStyle
  2
ColorChange
 70
    16
177
     2
291
     1
 71
     2
176
     1
 72
     2
176
     1
 73
     3
176
     1
 90
        0
176
     1
 40
-0.6
176
     1
 41
-30.0
176
     1
 62
     5
 63
     8
421
  8421504
176
     1
 74
     1
176
     1
 91
        4
176
     1
 64
     7
176
     1
 65
   257
176
     1
 75
     1
176
     1
175
     1
176
     1
 42
1.0
176
     1
 92
        8
176
     1
 66
     8
424
  8421504
176
     1
 43
1.0
176
     1
 76
     1
176
     1
 77
     6
176
     1
 78
     2
176
     1
 67
     7
176
     1
 79
     5
176
     1
170
     0
176
     1
171
     0
176
     1
290
     0
176
     1
 93
        1
176
     1
 44
0.0
176
     1
173
     0
176
     1
  0
VISUALSTYLE
  5
34
102
{ACAD_REACTORS
330
2A
102
}
330
2A
100
AcDbVisualStyle
  2
Conceptual
 70
     9
177
     2
291
     0
 71
     3
176
     1
 72
     2
176
     1
 73
     0
176
     1
 90
        0
176
     1
 40
-0.6
176
     1
 41
-30.0
176
     1
 62
     5
 63
     7
421
 16777215
176
     1
 74
     2
176
     1
 91
        2
176
     1
 64
     7
176
     1
 65
   257
176
     1
 75
     1
176
     1
175
     1
176
     1
 42
40.0
176
     1
 92
        8
176
     1
 66
     7
176
     1
 43
1.0
176
     1
 76
     1
176
     1
 77
     6
176
     1
 78
     2
176
     1
 67
     7
176
     1
 79
     3
176
     1
170
     0
176
     1
171
     0
176
     1
290
     0
176
     1
 93
        1
176
     1
 44
0.0
176
     1
173
     0
176
     1
  0
VISUALSTYLE
  5
35
102
{ACAD_REACTORS
330
2A
102
}
330
2A
100
AcDbVisualStyle
  2
Dim
 70
    11
177
     2
291
     1
 71
     2
176
     1
 72
     2
176
     1
 73
     0
176
     1
 90
        0
176
     1
 40
-0.6
176
     1
 41
-30.0
176
     1
 62
     5
 63
     7
421
 16777215
176
     1
 74
     1
176
     1
 91
        4
176
     1
 64
     7
176
     1
 65
   257
176
     1
 75
     1
176
     1
175
     1
176
     1
 42
1.0
176
     1
 92
        8
176
     1
 66
     7
176
     1
 43
1.0
176
     1
 76
     1
176
     1
 77
     6
176
     1
 78
     2
176
     1
 67
     7
176
     1
 79
     5
176
     1
170
     0
176
     1
171
     0
176
     1
290
     0
176
     1
 93
        1
176
     1
 44
-50.0
176
     1
173
     0
176
     1
  0
VISUALSTYLE
  5
39
102
{ACAD_REACTORS
330
2A
102
}
330
2A
100
AcDbVisualStyle
  2
Facepattern
 70
    15
177
     2
291
     1
 71
     2
176
     1
 72
     2
176
     1
 73
     0
176
     1
 90
        0
176
     1
 40
-0.6
176
     1
 41
-30.0
176
     1
 62
     5
 63
     7
421
 16777215
176
     1
 74
     1
176
     1
 91
        4
176
     1
 64
     7
176
     1
 65
   257
176
     1
 75
     1
176
     1
175
     1
176
     1
 42
1.0
176
     1
 92
        8
176
     1
 66
     7
176
     1
 43
1.0
176
     1
 76
     1
176
     1
 77
     6
176
     1
 78
     2
176
     1
 67
     7
176
     1
 79
     5
176
     1
170
     0
176
     1
171
     0
176
     1
290
     0
176
     1
 93
        1
176
     1
 44
0.0
176
     1
173
     0
176
     1
  0
VISUALSTYLE
  5
2B
102
{ACAD_REACTORS
330
2A
102
}
330
2A
100
AcDbVisualStyle
  2
Flat
 70
     0
177
     2
291
     1
 71
     2
176
     1
 72
     1
176
     1
 73
     1
176
     1
 90
        2
176
     1
 40
-0.6
176
     1
 41
30.0
176
     1
 62
     5
 63
     7
421
 16777215
176
     1
 74
     0
176
     1
 91
        4
176
     1
 64
     7
176
     1
 65
   257
176
     1
 75
     1
176
     1
175
     1
176
     1
 42
1.0
176
     1
 92
        8
176
     1
 66
     7
176
     1
 43
1.0
176
     1
 76
     1
176
     1
 77
     6
176
     1
 78
     2
176
     1
 67
     7
176
     1
 79
     5
176
     1
170
     0
176
     1
171
     0
176
     1
290
     0
176
     1
 93
       13
176
     1
 44
0.0
176
     1
173
     0
176
     1
  0
VISUALSTYLE
  5
2C
102
{ACAD_REACTORS
330
2A
102
}
330
2A
100
AcDbVisualStyle
  2
FlatWithEdges
 70
     1
177
     2
291
     1
 71
     2
176
     1
 72
     1
176
     1
 73
     1
176
     1
 90
        2
176
     1
 40
-0.6
176
     1
 41
30.0
176
     1
 62
     5
 63
     7
421
 16777215
176
     1
 74
     1
176
     1
 91
        4
176
     1
 64
     7
176
     1
 65
   257
176
     1
 75
     1
176
     1
175
     1
176
     1
 42
1.0
176
     1
 92
        0
176
     1
 66
   257
176
     1
 43
1.0
176
     1
 76
     1
176
     1
 77
     6
176
     1
 78
     2
176
     1
 67
     7
176
     1
 79
     5
176
     1
170
     0
176
     1
171
     0
176
     1
290
     0
176
     1
 93
       13
176
     1
 44
0.0
176
     1
173
     0
176
     1
  0
VISUALSTYLE
  5
2D
102
{ACAD_REACTORS
330
2A
102
}
330
2A
100
AcDbVisualStyle
  2
Gouraud
 70
     2
177
     2
291
     1
 71
     2
176
     1
 72
     2
176
     1
 73
     1
176
     1
 90
        2
176
     1
 40
-0.6
176
     1
 41
30.0
176
     1
 62
     5
 63
     7
421
 16777215
176
     1
 74
     0
176
     1
 91
        4
176
     1
 64
     7
176
     1
 65
   257
176
     1
 75
     1
176
     1
175
     1
176
     1
 42
1.0
176
     1
 92
        0
176
     1
 66
     7
176
     1
 43
1.0
176
     1
 76
     1
176
     1
 77
     6
176
     1
 78
     2
176
     1
 67
     7
176
     1
 79
     5
176
     1
170
     0
176
     1
171
     0
176
     1
290
     0
176
     1
 93
       13
176
     1
 44
0.0
176
     1
173
     0
176
     1
  0
VISUALSTYLE
  5
2E
102
{ACAD_REACTORS
330
2A
102
}
330
2A
100
AcDbVisualStyle
  2
GouraudWithEdges
 70
     3
177
     2
291
     1
 71
     2
176
     1
 72
     2
176
     1
 73
     1
176
     1
 90
        2
176
     1
 40
-0.6
176
     1
 41
30.0
176
     1
 62
     5
 63
     7
421
 16777215
176
     1
 74
     1
176
     1
 91
        4
176
     1
 64
     7
176
     1
 65
   257
176
     1
 75
     1
176
     1
175
     1
176
     1
 42
1.0
176
     1
 92
        0
176
     1
 66
   257
176
     1
 43
1.0
176
     1
 76
     1
176
     1
 77
     6
176
     1
 78
     2
176
     1
 67
     7
176
     1
 79
     5
176
     1
170
     0
176
     1
171
     0
176
     1
290
     0
176
     1
 93
       13
176
     1
 44
0.0
176
     1
173
     0
176
     1
  0
VISUALSTYLE
  5
38
102
{ACAD_REACTORS
330
2A
102
}
330
2A
100
AcDbVisualStyle
  2
Linepattern
 70
    14
177
     2
291
     1
 71
     2
176
     1
 72
     2
176
     1
 73
     0
176
     1
 90
        0
176
     1
 40
-0.6
176
     1
 41
-30.0
176
     1
 62
     5
 63
     7
421
 16777215
176
     1
 74
     1
176
     1
 91
        4
176
     1
 64
     7
176
     1
 65
   257
176
     1
 75
     7
176
     1
175
     7
176
     1
 42
1.0
176
     1
 92
        8
176
     1
 66
     7
176
     1
 43
1.0
176
     1
 76
     1
176
     1
 77
     6
176
     1
 78
     2
176
     1
 67
     7
176
     1
 79
     5
176
     1
170
     0
176
     1
171
     0
176
     1
290
     0
176
     1
 93
        1
176
     1
 44
0.0
176
     1
173
     0
176
     1
  0
VISUALSTYLE
  5
33
102
{ACAD_REACTORS
330
2A
102
}
330
2A
100
AcDbVisualStyle
  2
Realistic
 70
     8
177
     2
291
     0
 71
     2
176
     1
 72
     2
176
     1
 73
     0
176
     1
 90
        0
176
     1
 40
-0.6
176
     1
 41
-30.0
176
     1
 62
     5
 63
     7
421
 16777215
176
     1
 74
     1
176
     1
 91
        0
176
     1
 64
     7
176
     1
 65
   257
176
     1
 75
     1
176
     1
175
     1
176
     1
 42
1.0
176
     1
 92
        8
176
     1
 66
     8
424
  7895160
176
     1
 43
1.0
176
     1
 76
     1
176
     1
 77
     6
176
     1
 78
     2
176
     1
 67
     7
176
     1
 79
     5
176
     1
170
     0
176
     1
171
     0
176
     1
290
     0
176
     1
 93
       13
176
     1
 44
0.0
176
     1
173
     0
176
     1
  0
VISUALSTYLE
  5
37
102
{ACAD_REACTORS
330
2A
102
}
330
2A
100
AcDbVisualStyle
  2
Thicken
 70
    13
177
     2
291
     1
 71
     2
176
     1
 72
     2
176
     1
 73
     0
176
     1
 90
        0
176
     1
 40
-0.6
176
     1
 41
-30.0
176
     1
 62
     5
 63
     7
421
 16777215
176
     1
 74
     1
176
     1
 91
        4
176
     1
 64
     7
176
     1
 65
   257
176
     1
 75
     1
176
     1
175
     1
176
     1
 42
1.0
176
     1
 92
       12
176
     1
 66
     7
176
     1
 43
1.0
176
     1
 76
     1
176
     1
 77
     6
176
     1
 78
     2
176
     1
 67
     7
176
     1
 79
     5
176
     1
170
     0
176
     1
171
     0
176
     1
290
     0
176
     1
 93
        1
176
     1
 44
0.0
176
     1
173
     0
176
     1
  0
ENDSEC
  0
EOF
