  0
SECTION
  2
HEADER
  9
$ACADVER
  1
AC1024
  9
$ACADMAINTVER
 70
     6
  9
$DWGCODEPAGE
  3
UNDEFINED
  9
$INSBASE
 10
0.0
 20
0.0
 30
0.0
  9
$EXTMIN
 10
1.000000000000000E+20
 20
1.000000000000000E+20
 30
1.000000000000000E+20
  9
$EXTMAX
 10
-1.000000000000000E+20
 20
-1.000000000000000E+20
 30
-1.000000000000000E+20
  9
$LIMMIN
 10
0.0
 20
0.0
  9
$LIMMAX
 10
12.0
 20
9.0
  9
$ORTHOMODE
 70
     0
  9
$REGENMODE
 70
     1
  9
$FILLMODE
 70
     1
  9
$QTEXTMODE
 70
     0
  9
$MIRRTEXT
 70
     1
  9
$LTSCALE
 40
1.0
  9
$ATTMODE
 70
     1
  9
$TEXTSIZE
 40
0.2
  9
$TRACEWID
 40
0.05
  9
$TEXTSTYLE
  7
Standard
  9
$CLAYER
  8
0
  9
$CELTYPE
  6
ByLayer
  9
$CECOLOR
 62
   256
  9
$CELTSCALE
 40
1.0
  9
$DISPSILH
 70
     0
  9
$DIMSCALE
 40
1.0
  9
$DIMASZ
 40
0.18
  9
$DIMEXO
 40
0.0625
  9
$DIMDLI
 40
0.38
  9
$DIMRND
 40
0.0
  9
$DIMDLE
 40
0.0
  9
$DIMEXE
 40
0.18
  9
$DIMTP
 40
0.0
  9
$DIMTM
 40
0.0
  9
$DIMTXT
 40
0.18
  9
$DIMCEN
 40
0.09
  9
$DIMTSZ
 40
0.0
  9
$DIMTOL
 70
     0
  9
$DIMLIM
 70
     0
  9
$DIMTIH
 70
     1
  9
$DIMTOH
 70
     1
  9
$DIMSE1
 70
     0
  9
$DIMSE2
 70
     0
  9
$DIMTAD
 70
     0
  9
$DIMZIN
 70
     0
  9
$DIMBLK
  1

  9
$DIMASO
 70
     1
  9
$DIMSHO
 70
     1
  9
$DIMPOST
  1

  9
$DIMAPOST
  1

  9
$DIMALT
 70
     0
  9
$DIMALTD
 70
     2
  9
$DIMALTF
 40
25.4
  9
$DIMLFAC
 40
1.0
  9
$DIMTOFL
 70
     0
  9
$DIMTVP
 40
0.0
  9
$DIMTIX
 70
     0
  9
$DIMSOXD
 70
     0
  9
$DIMSAH
 70
     0
  9
$DIMBLK1
  1

  9
$DIMBLK2
  1

  9
$DIMSTYLE
  2
Standard
  9
$DIMCLRD
 70
     0
  9
$DIMCLRE
 70
     0
  9
$DIMCLRT
 70
     0
  9
$DIMTFAC
 40
1.0
  9
$DIMGAP
 40
0.09
  9
$DIMJUST
 70
     0
  9
$DIMSD1
 70
     0
  9
$DIMSD2
 70
     0
  9
$DIMTOLJ
 70
     1
  9
$DIMTZIN
 70
     0
  9
$DIMALTZ
 70
     0
  9
$DIMALTTZ
 70
     0
  9
$DIMUPT
 70
     0
  9
$DIMDEC
 70
     4
  9
$DIMTDEC
 70
     4
  9
$DIMALTU
 70
     2
  9
$DIMALTTD
 70
     2
  9
$DIMTXSTY
  7
Standard
  9
$DIMAUNIT
 70
     0
  9
$DIMADEC
 70
     0
  9
$DIMALTRND
 40
0.0
  9
$DIMAZIN
 70
     0
  9
$DIMDSEP
 70
    46
  9
$DIMATFIT
 70
     3
  9
$DIMFRAC
 70
     0
  9
$DIMLDRBLK
  1

  9
$DIMLUNIT
 70
     2
  9
$DIMLWD
 70
    -2
  9
$DIMLWE
 70
    -2
  9
$DIMTMOVE
 70
     0
  9
$DIMFXL
 40
1.0
  9
$DIMFXLON
 70
     0
  9
$DIMJOGANG
 40
0.7853981633974483
  9
$DIMTFILL
 70
     0
  9
$DIMTFILLCLR
 70
     0
  9
$DIMARCSYM
 70
     0
  9
$DIMLTYPE
  6

  9
$DIMLTEX1
  6

  9
$DIMLTEX2
  6

  9
$DIMTXTDIRECTION
 70
     0
  9
$LUNITS
 70
     2
  9
$LUPREC
 70
     4
  9
$SKETCHINC
 40
0.1
  9
$FILLETRAD
 40
0.5
  9
$AUNITS
 70
     0
  9
$AUPREC
 70
     0
  9
$MENU
  1
.
  9
$ELEVATION
 40
0.0
  9
$PELEVATION
 40
0.0
  9
$THICKNESS
 40
0.0
  9
$LIMCHECK
 70
     0
  9
$CHAMFERA
 40
0.5
  9
$CHAMFERB
 40
0.5
  9
$CHAMFERC
 40
1.0
  9
$CHAMFERD
 40
0.0
  9
$SKPOLY
 70
     0
  9
$TDCREATE
 40
2457917.588668982
  9
$TDUCREATE
 40
2457917.213668982
  9
$TDUPDATE
 40
2457917.588668982
  9
$TDUUPDATE
 40
2457917.213668982
  9
$TDINDWG
 40
0.0000000116
  9
$TDUSRTIMER
 40
0.0000000116
  9
$USRTIMER
 70
     1
  9
$ANGBASE
 50
0.0
  9
$ANGDIR
 70
     0
  9
$PDMODE
 70
     0
  9
$PDSIZE
 40
0.0
  9
$PLINEWID
 40
0.0
  9
$SPLFRAME
 70
     0
  9
$SPLINETYPE
 70
     6
  9
$SPLINESEGS
 70
     8
  9
$HANDSEED
  5
EB
  9
$SURFTAB1
 70
     6
  9
$SURFTAB2
 70
     6
  9
$SURFTYPE
 70
     6
  9
$SURFU
 70
     6
  9
$SURFV
 70
     6
  9
$UCSBASE
  2

  9
$UCSNAME
  2

  9
$UCSORG
 10
0.0
 20
0.0
 30
0.0
  9
$UCSXDIR
 10
1.0
 20
0.0
 30
0.0
  9
$UCSYDIR
 10
0.0
 20
1.0
 30
0.0
  9
$UCSORTHOREF
  2

  9
$UCSORTHOVIEW
 70
     0
  9
$UCSORGTOP
 10
0.0
 20
0.0
 30
0.0
  9
$UCSORGBOTTOM
 10
0.0
 20
0.0
 30
0.0
  9
$UCSORGLEFT
 10
0.0
 20
0.0
 30
0.0
  9
$UCSORGRIGHT
 10
0.0
 20
0.0
 30
0.0
  9
$UCSORGFRONT
 10
0.0
 20
0.0
 30
0.0
  9
$UCSORGBACK
 10
0.0
 20
0.0
 30
0.0
  9
$PUCSBASE
  2

  9
$PUCSNAME
  2

  9
$PUCSORG
 10
0.0
 20
0.0
 30
0.0
  9
$PUCSXDIR
 10
1.0
 20
0.0
 30
0.0
  9
$PUCSYDIR
 10
0.0
 20
1.0
 30
0.0
  9
$PUCSORTHOREF
  2

  9
$PUCSORTHOVIEW
 70
     0
  9
$PUCSORGTOP
 10
0.0
 20
0.0
 30
0.0
  9
$PUCSORGBOTTOM
 10
0.0
 20
0.0
 30
0.0
  9
$PUCSORGLEFT
 10
0.0
 20
0.0
 30
0.0
  9
$PUCSORGRIGHT
 10
0.0
 20
0.0
 30
0.0
  9
$PUCSORGFRONT
 10
0.0
 20
0.0
 30
0.0
  9
$PUCSORGBACK
 10
0.0
 20
0.0
 30
0.0
  9
$USERI1
 70
     0
  9
$USERI2
 70
     0
  9
$USERI3
 70
     0
  9
$USERI4
 70
     0
  9
$USERI5
 70
     0
  9
$USERR1
 40
0.0
  9
$USERR2
 40
0.0
  9
$USERR3
 40
0.0
  9
$USERR4
 40
0.0
  9
$USERR5
 40
0.0
  9
$WORLDVIEW
 70
     1
  9
$SHADEDGE
 70
     3
  9
$SHADEDIF
 70
    70
  9
$TILEMODE
 70
     1
  9
$MAXACTVP
 70
    64
  9
$PINSBASE
 10
0.0
 20
0.0
 30
0.0
  9
$PLIMCHECK
 70
     0
  9
$PEXTMIN
 10
1.000000000000000E+20
 20
1.000000000000000E+20
 30
1.000000000000000E+20
  9
$PEXTMAX
 10
-1.000000000000000E+20
 20
-1.000000000000000E+20
 30
-1.000000000000000E+20
  9
$PLIMMIN
 10
0.0
 20
0.0
  9
$PLIMMAX
 10
12.0
 20
9.0
  9
$UNITMODE
 70
     0
  9
$VISRETAIN
 70
     1
  9
$PLINEGEN
 70
     0
  9
$PSLTSCALE
 70
     1
  9
$TREEDEPTH
 70
  3020
  9
$CMLSTYLE
  2
Standard
  9
$CMLJUST
 70
     0
  9
$CMLSCALE
 40
1.0
  9
$PROXYGRAPHICS
 70
     1
  9
$MEASUREMENT
 70
     0
  9
$CELWEIGHT
370
    -1
  9
$ENDCAPS
280
     0
  9
$JOINSTYLE
280
     0
  9
$LWDISPLAY
290
     1
  9
$INSUNITS
 70
     1
  9
$HYPERLINKBASE
  1

  9
$STYLESHEET
  1

  9
$XEDIT
290
     1
  9
$CEPSNTYPE
380
     0
  9
$PSTYLEMODE
290
     1
  9
$FINGERPRINTGUID
  2
{8D4BFA4A-3B01-CA85-ABB3-8698B8A11F34}
  9
$VERSIONGUID
  2
{FAEB1C32-E019-11D5-929B-00C0DF256EC4}
  9
$EXTNAMES
290
     1
  9
$PSVPSCALE
 40
0.0
  9
$OLESTARTUP
290
     0
  9
$SORTENTS
280
   127
  9
$INDEXCTL
280
     0
  9
$HIDETEXT
280
     1
  9
$XCLIPFRAME
280
     2
  9
$HALOGAP
280
     0
  9
$OBSCOLOR
 70
   257
  9
$OBSLTYPE
280
     0
  9
$INTERSECTIONDISPLAY
280
     0
  9
$INTERSECTIONCOLOR
 70
   257
  9
$DIMASSOC
280
     2
  9
$PROJECTNAME
  1

  9
$CAMERADISPLAY
290
     0
  9
$LENSLENGTH
 40
50.0
  9
$CAMERAHEIGHT
 40
0.0
  9
$STEPSPERSEC
 40
2.0
  9
$STEPSIZE
 40
6.0
  9
$3DDWFPREC
 40
2.0
  9
$PSOLWIDTH
 40
0.25
  9
$PSOLHEIGHT
 40
4.0
  9
$LOFTANG1
 40
1.570796326794897
  9
$LOFTANG2
 40
1.570796326794897
  9
$LOFTMAG1
 40
0.0
  9
$LOFTMAG2
 40
0.0
  9
$LOFTPARAM
 70
     7
  9
$LOFTNORMALS
280
     1
  9
$LATITUDE
 40
37.795
  9
$LONGITUDE
 40
-122.394
  9
$NORTHDIRECTION
 40
0.0
  9
$TIMEZONE
 70
 -8000
  9
$LIGHTGLYPHDISPLAY
280
     1
  9
$TILEMODELIGHTSYNCH
280
     1
  9
$CMATERIAL
347
3C
  9
$SOLIDHIST
280
     1
  9
$SHOWHIST
280
     1
  9
$DWFFRAME
280
     2
  9
$DGNFRAME
280
     2
  9
$REALWORLDSCALE
290
     1
  9
$INTERFERECOLOR
 62
   256
  9
$CSHADOW
280
     0
  9
$SHADOWPLANELOCATION
 40
0.0
  0
ENDSEC
  0
SECTION
  2
CLASSES
  0
CLASS
  1
ACDBDICTIONARYWDFLT
  2
AcDbDictionaryWithDefault
  3
ObjectDBX Classes
 90
        0
 91
        4
280
     0
281
     0
  0
CLASS
  1
VISUALSTYLE
  2
AcDbVisualStyle
  3
ObjectDBX Classes
 90
     4095
 91
        4
280
     0
281
     0
  0
CLASS
  1
MATERIAL
  2
AcDbMaterial
  3
ObjectDBX Classes
 90
     1153
 91
        4
280
     0
281
     0
  0
CLASS
  1
SUN
  2
AcDbSun
  3
SCENEOE
 90
     1024
 91
        4
280
     0
281
     0
  0
ENDSEC
  0
SECTION
  2
TABLES
  0
TABLE
  2
VPORT
  5
8
330
0
100
AcDbSymbolTable
 70
     1
  0
VPORT
  5
29
330
8
100
AcDbSymbolTableRecord
100
AcDbViewportTableRecord
  2
*Active
 70
     0
 10
0.0
 20
0.0
 11
1.0
 21
1.0
 12
0.0
 22
0.0
 13
0.0
 23
0.0
 14
0.5
 24
0.5
 15
0.5
 25
0.5
 16
0.0
 26
0.0
 36
1.0
 17
105.0008280156501
 27
-148.4999710739862
 37
0.0
 40
296.9999421479724
 41
0.7070764206636528
 42
50.0
 43
0.0
 44
0.0
 50
0.0
 51
0.0
 71
     0
 72
   100
 73
     1
 74
     3
 75
     0
 76
     0
 77
     0
 78
     0
281
     0
 65
     1
110
0.0
120
0.0
130
0.0
111
1.0
121
0.0
131
0.0
112
0.0
122
1.0
132
0.0
 79
     0
146
0.0
 60
     3
 61
     5
292
     1
282
     1
141
0.0
142
0.0
 63
   250
361
3F
  0
ENDTAB
  0
TABLE
  2
LTYPE
  5
5
330
0
100
AcDbSymbolTable
 70
     1
  0
LTYPE
  5
14
330
5
100
AcDbSymbolTableRecord
100
AcDbLinetypeTableRecord
  2
ByBlock
 70
     0
  3

 72
    65
 73
     0
 40
0.0
  0
LTYPE
  5
15
330
5
100
AcDbSymbolTableRecord
100
AcDbLinetypeTableRecord
  2
ByLayer
 70
     0
  3

 72
    65
 73
     0
 40
0.0
  0
LTYPE
  5
16
330
5
100
AcDbSymbolTableRecord
100
AcDbLinetypeTableRecord
  2
Continuous
 70
     0
  3
Solid line
 72
    65
 73
     0
 40
0.0
  0
ENDTAB
  0
TABLE
  2
LAYER
  5
2
330
0
100
AcDbSymbolTable
 70
     2
  0
LAYER
  5
10
330
2
100
AcDbSymbolTableRecord
100
AcDbLayerTableRecord
  2
0
 70
     0
 62
     7
  6
Continuous
370
    -3
390
F
347
3E
  0
LAYER
  5
40
330
2
100
AcDbSymbolTableRecord
100
AcDbLayerTableRecord
  2
_U+30EC_U+30A4_U+30E4_U+30FC 1
 70
     0
 62
     7
  6
Continuous
370
    -3
390
F
347
3E
  0
ENDTAB
  0
TABLE
  2
STYLE
  5
3
330
0
100
AcDbSymbolTable
 70
     1
  0
STYLE
  5
11
330
3
100
AcDbSymbolTableRecord
100
AcDbTextStyleTableRecord
  2
Standard
 70
     0
 40
0.0
 41
1.0
 50
0.0
 71
     0
 42
0.2
  3
txt
  4

  0
ENDTAB
  0
TABLE
  2
VIEW
  5
6
330
0
100
AcDbSymbolTable
 70
     0
  0
ENDTAB
  0
TABLE
  2
UCS
  5
7
330
0
100
AcDbSymbolTable
 70
     0
  0
ENDTAB
  0
TABLE
  2
APPID
  5
9
330
0
100
AcDbSymbolTable
 70
     1
  0
APPID
  5
12
330
9
100
AcDbSymbolTableRecord
100
AcDbRegAppTableRecord
  2
ACAD
 70
     0
  0
ENDTAB
  0
TABLE
  2
DIMSTYLE
  5
A
330
0
100
AcDbSymbolTable
 70
     1
100
AcDbDimStyleTable
  0
DIMSTYLE
105
27
330
A
100
AcDbSymbolTableRecord
100
AcDbDimStyleTableRecord
  2
Standard
 70
     0
178
     0
340
11
  0
ENDTAB
  0
TABLE
  2
BLOCK_RECORD
  5
1
330
0
100
AcDbSymbolTable
 70
     6
  0
BLOCK_RECORD
  5
1F
330
1
100
AcDbSymbolTableRecord
100
AcDbBlockTableRecord
  2
*Model_Space
340
22
 70
     0
280
     1
281
     0
  0
BLOCK_RECORD
  5
1B
330
1
100
AcDbSymbolTableRecord
100
AcDbBlockTableRecord
  2
*Paper_Space
340
1E
 70
     0
280
     1
281
     0
  0
BLOCK_RECORD
  5
23
330
1
100
AcDbSymbolTableRecord
100
AcDbBlockTableRecord
  2
*Paper_Space0
340
26
 70
     0
280
     1
281
     0
  0
BLOCK_RECORD
  5
76
330
1
100
AcDbSymbolTableRecord
100
AcDbBlockTableRecord
  2
block 2
340
0
102
{BLKREFS
331
77
102
}
 70
     0
280
     1
281
     0
  0
BLOCK_RECORD
  5
8A
330
1
100
AcDbSymbolTableRecord
100
AcDbBlockTableRecord
  2
block 3
340
0
102
{BLKREFS
331
8B
102
}
 70
     0
280
     1
281
     0
  0
BLOCK_RECORD
  5
AF
330
1
100
AcDbSymbolTableRecord
100
AcDbBlockTableRecord
  2
block 4
340
0
102
{BLKREFS
331
B0
102
}
 70
     0
280
     1
281
     0
  0
BLOCK_RECORD
  5
C1
330
1
100
AcDbSymbolTableRecord
100
AcDbBlockTableRecord
  2
block 5
340
0
102
{BLKREFS
331
C2
102
}
 70
     0
280
     1
281
     0
  0
BLOCK_RECORD
  5
D8
330
1
100
AcDbSymbolTableRecord
100
AcDbBlockTableRecord
  2
block 6
340
0
102
{BLKREFS
331
D9
102
}
 70
     0
280
     1
281
     0
  0
ENDTAB
  0
ENDSEC
  0
SECTION
  2
BLOCKS
  0
BLOCK
  5
20
330
1F
100
AcDbEntity
  8
0
100
AcDbBlockBegin
  2
*Model_Space
 70
     0
 10
0.0
 20
0.0
 30
0.0
  3
*Model_Space
  1

  0
ENDBLK
  5
21
330
1F
100
AcDbEntity
  8
0
100
AcDbBlockEnd
  0
BLOCK
  5
1C
330
1B
100
AcDbEntity
 67
     1
  8
0
100
AcDbBlockBegin
  2
*Paper_Space
 70
     0
 10
0.0
 20
0.0
 30
0.0
  3
*Paper_Space
  1

  0
ENDBLK
  5
1D
330
1B
100
AcDbEntity
 67
     1
  8
0
100
AcDbBlockEnd
  0
BLOCK
  5
24
330
23
100
AcDbEntity
  8
0
100
AcDbBlockBegin
  2
*Paper_Space0
 70
     0
 10
0.0
 20
0.0
 30
0.0
  3
*Paper_Space0
  1

  0
ENDBLK
  5
25
330
23
100
AcDbEntity
  8
0
100
AcDbBlockEnd
  0
BLOCK
  5
78
330
76
100
AcDbEntity
  8
0
100
AcDbBlockBegin
  2
block 2
 70
     0
 10
0.0
 20
0.0
 30
0.0
  3
block 2
  1

  0
SPLINE
  5
7A
330
76
100
AcDbEntity
  8
_U+30EC_U+30A4_U+30E4_U+30FC 1
370
     0
100
AcDbSpline
210
0.0
220
0.0
230
1.0
 70
    11
 71
     3
 72
    44
 73
    40
 74
     0
 42
0.0000000001
 43
0.0000000001
 12
1.0
 22
0.0
 32
0.0
 13
1.0
 23
0.0
 33
0.0
 40
0.0
 40
0.0
 40
0.0
 40
0.0
 40
1.0
 40
1.0
 40
1.0
 40
2.0
 40
2.0
 40
2.0
 40
3.0
 40
3.0
 40
3.0
 40
4.0
 40
4.0
 40
4.0
 40
5.0
 40
5.0
 40
5.0
 40
6.0
 40
6.0
 40
6.0
 40
7.0
 40
7.0
 40
7.0
 40
8.0
 40
8.0
 40
8.0
 40
9.0
 40
9.0
 40
9.0
 40
10.0
 40
10.0
 40
10.0
 40
11.0
 40
11.0
 40
11.0
 40
12.0
 40
12.0
 40
12.0
 40
13.0
 40
13.0
 40
13.0
 40
13.0
 10
102.1684407296662
 20
-133.5212212122794
 30
0.0
 10
101.9507106949984
 20
-133.6800401141494
 30
0.0
 10
101.8576931168967
 20
-133.7541096670823
 30
0.0
 10
101.8087727610061
 20
-133.8977701488172
 30
0.0
 10
101.8087727610061
 20
-133.8977701488172
 30
0.0
 10
102.5873643406726
 20
-133.8977701488172
 30
0.0
 10
102.5873643406726
 20
-133.8977701488172
 30
0.0
 10
102.5873643406726
 20
-133.8977701488172
 30
0.0
 10
102.5873643406726
 20
-134.1030978397381
 30
0.0
 10
102.5873643406726
 20
-134.1030978397381
 30
0.0
 10
102.5873643406726
 20
-134.1030978397381
 30
0.0
 10
101.5593478478741
 20
-134.1030978397381
 30
0.0
 10
101.5593478478741
 20
-134.1030978397381
 30
0.0
 10
101.5910427263384
 20
-133.7454969283692
 30
0.0
 10
101.6564995405581
 20
-133.667293260854
 30
0.0
 10
102.041661215809
 20
-133.3689479918314
 30
0.0
 10
102.2976318103631
 20
-133.1701659823325
 30
0.0
 10
102.3630886245828
 20
-133.1022976012731
 30
0.0
 10
102.3630886245828
 20
-132.9648382914116
 30
0.0
 10
102.3630886245828
 20
-132.846327006719
 30
0.0
 10
102.2910861289411
 20
-132.7154133782795
 30
0.0
 10
102.0943711767334
 20
-132.7154133782795
 30
0.0
 10
101.834266467597
 20
-132.7154133782795
 30
0.0
 10
101.8259982384324
 20
-132.9458902662427
 30
0.0
 10
101.8215196143016
 20
-133.0623344936442
 30
0.0
 10
101.8215196143016
 20
-133.0623344936442
 30
0.0
 10
101.5972438982118
 20
-133.0623344936442
 30
0.0
 10
101.5972438982118
 20
-133.0623344936442
 30
0.0
 10
101.6058566369249
 20
-132.9352104702384
 30
0.0
 10
101.6165364329292
 20
-132.8232448669678
 30
0.0
 10
101.6968071577355
 20
-132.7047335822752
 30
0.0
 10
101.806705703715
 20
-132.543847623114
 30
0.0
 10
101.993085369467
 20
-132.5100856873586
 30
0.0
 10
102.1091850873199
 20
-132.5100856873586
 30
0.0
 10
102.3865152738825
 20
-132.5100856873586
 30
0.0
 10
102.5939100220946
 20
-132.6940537862709
 30
0.0
 10
102.5939100220946
 20
-132.9669053487027
 30
0.0
 10
102.5939100220946
 20
-133.1956596889233
 30
0.0
 10
102.4774657946931
 20
-133.2948784388985
 30
0.0
 10
102.1684407296662
 20
-133.5212212122794
 30
0.0
  0
HATCH
  5
7B
330
76
100
AcDbEntity
  8
_U+30EC_U+30A4_U+30E4_U+30FC 1
 62
     7
420
 16777215
100
AcDbHatch
 10
0.0
 20
0.0
 30
0.0
210
0.0
220
0.0
230
1.0
  2
SOLID
 70
     1
 71
     0
 91
        1
 92
        1
 93
        1
 72
     4
 94
        3
 73
     0
 74
     1
 95
       44
 96
       40
 40
0.0
 40
0.0
 40
0.0
 40
0.0
 40
1.0
 40
1.0
 40
1.0
 40
2.0
 40
2.0
 40
2.0
 40
3.0
 40
3.0
 40
3.0
 40
4.0
 40
4.0
 40
4.0
 40
5.0
 40
5.0
 40
5.0
 40
6.0
 40
6.0
 40
6.0
 40
7.0
 40
7.0
 40
7.0
 40
8.0
 40
8.0
 40
8.0
 40
9.0
 40
9.0
 40
9.0
 40
10.0
 40
10.0
 40
10.0
 40
11.0
 40
11.0
 40
11.0
 40
12.0
 40
12.0
 40
12.0
 40
13.0
 40
13.0
 40
13.0
 40
13.0
 10
102.1684407296662
 20
-133.5212212122794
 10
101.9507106949984
 20
-133.6800401141494
 10
101.8576931168967
 20
-133.7541096670823
 10
101.8087727610061
 20
-133.8977701488172
 10
101.8087727610061
 20
-133.8977701488172
 10
102.5873643406726
 20
-133.8977701488172
 10
102.5873643406726
 20
-133.8977701488172
 10
102.5873643406726
 20
-133.8977701488172
 10
102.5873643406726
 20
-134.1030978397381
 10
102.5873643406726
 20
-134.1030978397381
 10
102.5873643406726
 20
-134.1030978397381
 10
101.5593478478741
 20
-134.1030978397381
 10
101.5593478478741
 20
-134.1030978397381
 10
101.5910427263384
 20
-133.7454969283692
 10
101.6564995405581
 20
-133.667293260854
 10
102.041661215809
 20
-133.3689479918314
 10
102.2976318103631
 20
-133.1701659823325
 10
102.3630886245828
 20
-133.1022976012731
 10
102.3630886245828
 20
-132.9648382914116
 10
102.3630886245828
 20
-132.846327006719
 10
102.2910861289411
 20
-132.7154133782795
 10
102.0943711767334
 20
-132.7154133782795
 10
101.834266467597
 20
-132.7154133782795
 10
101.8259982384324
 20
-132.9458902662427
 10
101.8215196143016
 20
-133.0623344936442
 10
101.8215196143016
 20
-133.0623344936442
 10
101.5972438982118
 20
-133.0623344936442
 10
101.5972438982118
 20
-133.0623344936442
 10
101.6058566369249
 20
-132.9352104702384
 10
101.6165364329292
 20
-132.8232448669678
 10
101.6968071577355
 20
-132.7047335822752
 10
101.806705703715
 20
-132.543847623114
 10
101.993085369467
 20
-132.5100856873586
 10
102.1091850873199
 20
-132.5100856873586
 10
102.3865152738825
 20
-132.5100856873586
 10
102.5939100220946
 20
-132.6940537862709
 10
102.5939100220946
 20
-132.9669053487027
 10
102.5939100220946
 20
-133.1956596889233
 10
102.4774657946931
 20
-133.2948784388985
 10
102.1684407296662
 20
-133.5212212122794
 97
        0
 97
        0
 75
     2
 76
     1
 98
        0
  0
SPLINE
  5
7C
330
76
100
AcDbEntity
  8
_U+30EC_U+30A4_U+30E4_U+30FC 1
370
     0
100
AcDbSpline
210
0.0
220
0.0
230
1.0
 70
    11
 71
     3
 72
    53
 73
    49
 74
     0
 42
0.0000000001
 43
0.0000000001
 12
1.0
 22
0.0
 32
0.0
 13
1.0
 23
0.0
 33
0.0
 40
0.0
 40
0.0
 40
0.0
 40
0.0
 40
1.0
 40
1.0
 40
1.0
 40
2.0
 40
2.0
 40
2.0
 40
3.0
 40
3.0
 40
3.0
 40
4.0
 40
4.0
 40
4.0
 40
5.0
 40
5.0
 40
5.0
 40
6.0
 40
6.0
 40
6.0
 40
7.0
 40
7.0
 40
7.0
 40
8.0
 40
8.0
 40
8.0
 40
9.0
 40
9.0
 40
9.0
 40
10.0
 40
10.0
 40
10.0
 40
11.0
 40
11.0
 40
11.0
 40
12.0
 40
12.0
 40
12.0
 40
13.0
 40
13.0
 40
13.0
 40
14.0
 40
14.0
 40
14.0
 40
15.0
 40
15.0
 40
15.0
 40
16.0
 40
16.0
 40
16.0
 40
16.0
 10
103.233319744157
 20
-134.1537407433713
 30
0.0
 10
103.1551160766418
 20
-134.1537407433713
 30
0.0
 10
103.0534857598269
 20
-134.1368597754936
 30
0.0
 10
102.951855443012
 20
-134.073470018565
 30
0.0
 10
102.778567140104
 20
-133.9635714725855
 30
0.0
 10
102.7572075480954
 20
-133.8323133345975
 30
0.0
 10
102.7382595229266
 20
-133.7244818459092
 30
0.0
 10
102.7382595229266
 20
-133.7244818459092
 30
0.0
 10
102.9604681817252
 20
-133.7244818459092
 30
0.0
 10
102.9604681817252
 20
-133.7244818459092
 30
0.0
 10
103.0152451999406
 20
-133.9232638554081
 30
0.0
 10
103.1423692233463
 20
-133.9528916765812
 30
0.0
 10
103.2353868014481
 20
-133.9528916765812
 30
0.0
 10
103.3749131686007
 20
-133.9528916765812
 30
0.0
 10
103.5271863890488
 20
-133.8533284170575
 30
0.0
 10
103.5271863890488
 20
-133.6207844718031
 30
0.0
 10
103.5271863890488
 20
-133.3648138772491
 30
0.0
 10
103.3473524047187
 20
-133.2948784388985
 30
0.0
 10
103.226774062735
 20
-133.2948784388985
 30
0.0
 10
103.1950791842707
 20
-133.2948784388985
 30
0.0
 10
103.0534857598269
 20
-133.2948784388985
 30
0.0
 10
102.9646022963075
 20
-133.4240695195954
 30
0.0
 10
102.9646022963075
 20
-133.4240695195954
 30
0.0
 10
102.7889024265597
 20
-133.4051214944265
 30
0.0
 10
102.7889024265597
 20
-133.4051214944265
 30
0.0
 10
102.7889024265597
 20
-133.4051214944265
 30
0.0
 10
102.9094807685435
 20
-132.5586615337006
 30
0.0
 10
102.9094807685435
 20
-132.5586615337006
 30
0.0
 10
102.9094807685435
 20
-132.5586615337006
 30
0.0
 10
103.6880723482099
 20
-132.5586615337006
 30
0.0
 10
103.6880723482099
 20
-132.5586615337006
 30
0.0
 10
103.6880723482099
 20
-132.5586615337006
 30
0.0
 10
103.6880723482099
 20
-132.7533094286172
 30
0.0
 10
103.6880723482099
 20
-132.7533094286172
 30
0.0
 10
103.6880723482099
 20
-132.7533094286172
 30
0.0
 10
103.0724337849958
 20
-132.7533094286172
 30
0.0
 10
103.0724337849958
 20
-132.7533094286172
 30
0.0
 10
103.0724337849958
 20
-132.7533094286172
 30
0.0
 10
103.006976970776
 20
-133.1763671542059
 30
0.0
 10
103.006976970776
 20
-133.1763671542059
 30
0.0
 10
103.0682996704135
 20
-133.1426052184505
 30
0.0
 10
103.150637452511
 20
-133.1022976012731
 30
0.0
 10
103.2691487372036
 20
-133.1022976012731
 30
0.0
 10
103.5230522744665
 20
-133.1022976012731
 30
0.0
 10
103.7600748438517
 20
-133.2886772670251
 30
0.0
 10
103.7600748438517
 20
-133.6018364466343
 30
0.0
 10
103.7600748438517
 20
-133.9191297408258
 30
0.0
 10
103.5357991277619
 20
-134.1537407433713
 30
0.0
 10
103.233319744157
 20
-134.1537407433713
 30
0.0
  0
HATCH
  5
7D
330
76
100
AcDbEntity
  8
_U+30EC_U+30A4_U+30E4_U+30FC 1
 62
     7
420
 16777215
100
AcDbHatch
 10
0.0
 20
0.0
 30
0.0
210
0.0
220
0.0
230
1.0
  2
SOLID
 70
     1
 71
     0
 91
        1
 92
        1
 93
        1
 72
     4
 94
        3
 73
     0
 74
     1
 95
       53
 96
       49
 40
0.0
 40
0.0
 40
0.0
 40
0.0
 40
1.0
 40
1.0
 40
1.0
 40
2.0
 40
2.0
 40
2.0
 40
3.0
 40
3.0
 40
3.0
 40
4.0
 40
4.0
 40
4.0
 40
5.0
 40
5.0
 40
5.0
 40
6.0
 40
6.0
 40
6.0
 40
7.0
 40
7.0
 40
7.0
 40
8.0
 40
8.0
 40
8.0
 40
9.0
 40
9.0
 40
9.0
 40
10.0
 40
10.0
 40
10.0
 40
11.0
 40
11.0
 40
11.0
 40
12.0
 40
12.0
 40
12.0
 40
13.0
 40
13.0
 40
13.0
 40
14.0
 40
14.0
 40
14.0
 40
15.0
 40
15.0
 40
15.0
 40
16.0
 40
16.0
 40
16.0
 40
16.0
 10
103.233319744157
 20
-134.1537407433713
 10
103.1551160766418
 20
-134.1537407433713
 10
103.0534857598269
 20
-134.1368597754936
 10
102.951855443012
 20
-134.073470018565
 10
102.778567140104
 20
-133.9635714725855
 10
102.7572075480954
 20
-133.8323133345975
 10
102.7382595229266
 20
-133.7244818459092
 10
102.7382595229266
 20
-133.7244818459092
 10
102.9604681817252
 20
-133.7244818459092
 10
102.9604681817252
 20
-133.7244818459092
 10
103.0152451999406
 20
-133.9232638554081
 10
103.1423692233463
 20
-133.9528916765812
 10
103.2353868014481
 20
-133.9528916765812
 10
103.3749131686007
 20
-133.9528916765812
 10
103.5271863890488
 20
-133.8533284170575
 10
103.5271863890488
 20
-133.6207844718031
 10
103.5271863890488
 20
-133.3648138772491
 10
103.3473524047187
 20
-133.2948784388985
 10
103.226774062735
 20
-133.2948784388985
 10
103.1950791842707
 20
-133.2948784388985
 10
103.0534857598269
 20
-133.2948784388985
 10
102.9646022963075
 20
-133.4240695195954
 10
102.9646022963075
 20
-133.4240695195954
 10
102.7889024265597
 20
-133.4051214944265
 10
102.7889024265597
 20
-133.4051214944265
 10
102.7889024265597
 20
-133.4051214944265
 10
102.9094807685435
 20
-132.5586615337006
 10
102.9094807685435
 20
-132.5586615337006
 10
102.9094807685435
 20
-132.5586615337006
 10
103.6880723482099
 20
-132.5586615337006
 10
103.6880723482099
 20
-132.5586615337006
 10
103.6880723482099
 20
-132.5586615337006
 10
103.6880723482099
 20
-132.7533094286172
 10
103.6880723482099
 20
-132.7533094286172
 10
103.6880723482099
 20
-132.7533094286172
 10
103.0724337849958
 20
-132.7533094286172
 10
103.0724337849958
 20
-132.7533094286172
 10
103.0724337849958
 20
-132.7533094286172
 10
103.006976970776
 20
-133.1763671542059
 10
103.006976970776
 20
-133.1763671542059
 10
103.0682996704135
 20
-133.1426052184505
 10
103.150637452511
 20
-133.1022976012731
 10
103.2691487372036
 20
-133.1022976012731
 10
103.5230522744665
 20
-133.1022976012731
 10
103.7600748438517
 20
-133.2886772670251
 10
103.7600748438517
 20
-133.6018364466343
 10
103.7600748438517
 20
-133.9191297408258
 10
103.5357991277619
 20
-134.1537407433713
 10
103.233319744157
 20
-134.1537407433713
 97
        0
 97
        0
 75
     2
 76
     1
 98
        0
  0
ENDBLK
  5
79
330
76
100
AcDbEntity
  8
0
100
AcDbBlockEnd
  0
BLOCK
  5
8C
330
8A
100
AcDbEntity
  8
0
100
AcDbBlockBegin
  2
block 3
 70
     0
 10
0.0
 20
0.0
 30
0.0
  3
block 3
  1

  0
SPLINE
  5
8E
330
8A
100
AcDbEntity
  8
_U+30EC_U+30A4_U+30E4_U+30FC 1
370
     0
100
AcDbSpline
210
0.0
220
0.0
230
1.0
 70
    11
 71
     3
 72
    26
 73
    22
 74
     0
 42
0.0000000001
 43
0.0000000001
 12
1.0
 22
0.0
 32
0.0
 13
1.0
 23
0.0
 33
0.0
 40
0.0
 40
0.0
 40
0.0
 40
0.0
 40
1.0
 40
1.0
 40
1.0
 40
2.0
 40
2.0
 40
2.0
 40
3.0
 40
3.0
 40
3.0
 40
4.0
 40
4.0
 40
4.0
 40
5.0
 40
5.0
 40
5.0
 40
6.0
 40
6.0
 40
6.0
 40
7.0
 40
7.0
 40
7.0
 40
7.0
 10
94.52980276499602
 20
-163.6027614608354
 30
0.0
 10
94.52980276499602
 20
-163.6027614608354
 30
0.0
 10
94.52980276499602
 20
-162.4986083578129
 30
0.0
 10
94.52980276499602
 20
-162.4986083578129
 30
0.0
 10
94.52980276499602
 20
-162.4986083578129
 30
0.0
 10
94.1997626175091
 20
-162.4986083578129
 30
0.0
 10
94.1997626175091
 20
-162.4986083578129
 30
0.0
 10
94.1997626175091
 20
-162.4986083578129
 30
0.0
 10
94.1997626175091
 20
-162.3504692519471
 30
0.0
 10
94.1997626175091
 20
-162.3504692519471
 30
0.0
 10
94.53186982228718
 20
-162.3356553413605
 30
0.0
 10
94.57837861133805
 20
-162.1727023249082
 30
0.0
 10
94.6080064325112
 20
-162.0583251547979
 30
0.0
 10
94.6080064325112
 20
-162.0583251547979
 30
0.0
 10
94.75390622631153
 20
-162.0583251547979
 30
0.0
 10
94.75390622631153
 20
-162.0583251547979
 30
0.0
 10
94.75390622631153
 20
-162.0583251547979
 30
0.0
 10
94.75390622631153
 20
-163.6027614608354
 30
0.0
 10
94.75390622631153
 20
-163.6027614608354
 30
0.0
 10
94.75390622631153
 20
-163.6027614608354
 30
0.0
 10
94.52980276499602
 20
-163.6027614608354
 30
0.0
 10
94.52980276499602
 20
-163.6027614608354
 30
0.0
  0
HATCH
  5
8F
330
8A
100
AcDbEntity
  8
_U+30EC_U+30A4_U+30E4_U+30FC 1
 62
     7
420
 16777215
100
AcDbHatch
 10
0.0
 20
0.0
 30
0.0
210
0.0
220
0.0
230
1.0
  2
SOLID
 70
     1
 71
     0
 91
        1
 92
        1
 93
        1
 72
     4
 94
        3
 73
     0
 74
     1
 95
       26
 96
       22
 40
0.0
 40
0.0
 40
0.0
 40
0.0
 40
1.0
 40
1.0
 40
1.0
 40
2.0
 40
2.0
 40
2.0
 40
3.0
 40
3.0
 40
3.0
 40
4.0
 40
4.0
 40
4.0
 40
5.0
 40
5.0
 40
5.0
 40
6.0
 40
6.0
 40
6.0
 40
7.0
 40
7.0
 40
7.0
 40
7.0
 10
94.52980276499602
 20
-163.6027614608354
 10
94.52980276499602
 20
-163.6027614608354
 10
94.52980276499602
 20
-162.4986083578129
 10
94.52980276499602
 20
-162.4986083578129
 10
94.52980276499602
 20
-162.4986083578129
 10
94.1997626175091
 20
-162.4986083578129
 10
94.1997626175091
 20
-162.4986083578129
 10
94.1997626175091
 20
-162.4986083578129
 10
94.1997626175091
 20
-162.3504692519471
 10
94.1997626175091
 20
-162.3504692519471
 10
94.53186982228718
 20
-162.3356553413605
 10
94.57837861133805
 20
-162.1727023249082
 10
94.6080064325112
 20
-162.0583251547979
 10
94.6080064325112
 20
-162.0583251547979
 10
94.75390622631153
 20
-162.0583251547979
 10
94.75390622631153
 20
-162.0583251547979
 10
94.75390622631153
 20
-162.0583251547979
 10
94.75390622631153
 20
-163.6027614608354
 10
94.75390622631153
 20
-163.6027614608354
 10
94.75390622631153
 20
-163.6027614608354
 10
94.52980276499602
 20
-163.6027614608354
 10
94.52980276499602
 20
-163.6027614608354
 97
        0
 97
        0
 75
     2
 76
     1
 98
        0
  0
SPLINE
  5
90
330
8A
100
AcDbEntity
  8
_U+30EC_U+30A4_U+30E4_U+30FC 1
370
     0
100
AcDbSpline
210
0.0
220
0.0
230
1.0
 70
    11
 71
     3
 72
    29
 73
    25
 74
     0
 42
0.0000000001
 43
0.0000000001
 12
1.0
 22
0.0
 32
0.0
 13
1.0
 23
0.0
 33
0.0
 40
0.0
 40
0.0
 40
0.0
 40
0.0
 40
1.0
 40
1.0
 40
1.0
 40
2.0
 40
2.0
 40
2.0
 40
3.0
 40
3.0
 40
3.0
 40
4.0
 40
4.0
 40
4.0
 40
5.0
 40
5.0
 40
5.0
 40
6.0
 40
6.0
 40
6.0
 40
7.0
 40
7.0
 40
7.0
 40
8.0
 40
8.0
 40
8.0
 40
8.0
 10
96.15295950287148
 20
-163.4249945337965
 30
0.0
 10
96.04512801418316
 20
-163.6344563392997
 30
0.0
 10
95.87166745650083
 20
-163.6534043644686
 30
0.0
 10
95.7552232290994
 20
-163.6534043644686
 30
0.0
 10
95.59450952471249
 20
-163.6534043644686
 30
0.0
 10
95.45274384549445
 20
-163.6068955754177
 30
0.0
 10
95.3574869553273
 20
-163.4249945337965
 30
0.0
 10
95.25396183599554
 20
-163.2303466388799
 30
0.0
 10
95.2348415560524
 20
-162.9936685790433
 30
0.0
 10
95.2348415560524
 20
-162.8307155625909
 30
0.0
 10
95.2348415560524
 20
-162.6867105713075
 30
0.0
 10
95.25172252393013
 20
-162.4348740913357
 30
0.0
 10
95.3574869553273
 20
-162.2360920818368
 30
0.0
 10
95.46549069878988
 20
-162.0331759577556
 30
0.0
 10
95.62620440317679
 20
-162.0097493084559
 30
0.0
 10
95.7552232290994
 20
-162.0097493084559
 30
0.0
 10
95.91386987619515
 20
-162.0097493084559
 30
0.0
 10
96.05770261270433
 20
-162.0541910402156
 30
0.0
 10
96.15295950287148
 20
-162.2360920818368
 30
0.0
 10
96.25235050762095
 20
-162.4286729194623
 30
0.0
 10
96.27560490214638
 20
-162.6570827501344
 30
0.0
 10
96.27560490214638
 20
-162.8307155625909
 30
0.0
 10
96.27560490214638
 20
-163.0019368082079
 30
0.0
 10
96.25458981968636
 20
-163.2324136961711
 30
0.0
 10
96.15295950287148
 20
-163.4249945337965
 30
0.0
  0
SPLINE
  5
91
330
8A
100
AcDbEntity
  8
_U+30EC_U+30A4_U+30E4_U+30FC 1
370
     0
100
AcDbSpline
210
0.0
220
0.0
230
1.0
 70
    11
 71
     3
 72
    17
 73
    13
 74
     0
 42
0.0000000001
 43
0.0000000001
 12
1.0
 22
0.0
 32
0.0
 13
1.0
 23
0.0
 33
0.0
 40
0.0
 40
0.0
 40
0.0
 40
0.0
 40
1.0
 40
1.0
 40
1.0
 40
2.0
 40
2.0
 40
2.0
 40
3.0
 40
3.0
 40
3.0
 40
4.0
 40
4.0
 40
4.0
 40
4.0
 10
95.7552232290994
 20
-162.2023301460814
 30
0.0
 10
95.50562606119304
 20
-162.2023301460814
 30
0.0
 10
95.45911727214217
 20
-162.4858615045174
 30
0.0
 10
95.45911727214217
 20
-162.8307155625909
 30
0.0
 10
95.45911727214217
 20
-163.1500759140736
 30
0.0
 10
95.49511851996303
 20
-163.458756469552
 30
0.0
 10
95.7552232290994
 20
-163.458756469552
 30
0.0
 10
96.00275333971459
 20
-163.458756469552
 30
0.0
 10
96.05150144083088
 20
-163.1776366779556
 30
0.0
 10
96.05150144083088
 20
-162.8307155625909
 30
0.0
 10
96.05150144083088
 20
-162.5110107015597
 30
0.0
 10
96.01343313571887
 20
-162.2023301460814
 30
0.0
 10
95.7552232290994
 20
-162.2023301460814
 30
0.0
  0
HATCH
  5
92
330
8A
100
AcDbEntity
  8
_U+30EC_U+30A4_U+30E4_U+30FC 1
 62
     7
420
 16777215
100
AcDbHatch
 10
0.0
 20
0.0
 30
0.0
210
0.0
220
0.0
230
1.0
  2
SOLID
 70
     1
 71
     0
 91
        2
 92
        1
 93
        1
 72
     4
 94
        3
 73
     0
 74
     1
 95
       29
 96
       25
 40
0.0
 40
0.0
 40
0.0
 40
0.0
 40
1.0
 40
1.0
 40
1.0
 40
2.0
 40
2.0
 40
2.0
 40
3.0
 40
3.0
 40
3.0
 40
4.0
 40
4.0
 40
4.0
 40
5.0
 40
5.0
 40
5.0
 40
6.0
 40
6.0
 40
6.0
 40
7.0
 40
7.0
 40
7.0
 40
8.0
 40
8.0
 40
8.0
 40
8.0
 10
96.15295950287148
 20
-163.4249945337965
 10
96.04512801418316
 20
-163.6344563392997
 10
95.87166745650083
 20
-163.6534043644686
 10
95.7552232290994
 20
-163.6534043644686
 10
95.59450952471249
 20
-163.6534043644686
 10
95.45274384549445
 20
-163.6068955754177
 10
95.3574869553273
 20
-163.4249945337965
 10
95.25396183599554
 20
-163.2303466388799
 10
95.2348415560524
 20
-162.9936685790433
 10
95.2348415560524
 20
-162.8307155625909
 10
95.2348415560524
 20
-162.6867105713075
 10
95.25172252393013
 20
-162.4348740913357
 10
95.3574869553273
 20
-162.2360920818368
 10
95.46549069878988
 20
-162.0331759577556
 10
95.62620440317679
 20
-162.0097493084559
 10
95.7552232290994
 20
-162.0097493084559
 10
95.91386987619515
 20
-162.0097493084559
 10
96.05770261270433
 20
-162.0541910402156
 10
96.15295950287148
 20
-162.2360920818368
 10
96.25235050762095
 20
-162.4286729194623
 10
96.27560490214638
 20
-162.6570827501344
 10
96.27560490214638
 20
-162.8307155625909
 10
96.27560490214638
 20
-163.0019368082079
 10
96.25458981968636
 20
-163.2324136961711
 10
96.15295950287148
 20
-163.4249945337965
 97
        0
 97
        0
 92
        1
 93
        1
 72
     4
 94
        3
 73
     0
 74
     1
 95
       17
 96
       13
 40
0.0
 40
0.0
 40
0.0
 40
0.0
 40
1.0
 40
1.0
 40
1.0
 40
2.0
 40
2.0
 40
2.0
 40
3.0
 40
3.0
 40
3.0
 40
4.0
 40
4.0
 40
4.0
 40
4.0
 10
95.7552232290994
 20
-162.2023301460814
 10
95.50562606119304
 20
-162.2023301460814
 10
95.45911727214217
 20
-162.4858615045174
 10
95.45911727214217
 20
-162.8307155625909
 10
95.45911727214217
 20
-163.1500759140736
 10
95.49511851996303
 20
-163.458756469552
 10
95.7552232290994
 20
-163.458756469552
 10
96.00275333971459
 20
-163.458756469552
 10
96.05150144083088
 20
-163.1776366779556
 10
96.05150144083088
 20
-162.8307155625909
 10
96.05150144083088
 20
-162.5110107015597
 10
96.01343313571887
 20
-162.2023301460814
 10
95.7552232290994
 20
-162.2023301460814
 97
        0
 97
        0
 75
     2
 76
     1
 98
        0
  0
ENDBLK
  5
8D
330
8A
100
AcDbEntity
  8
0
100
AcDbBlockEnd
  0
BLOCK
  5
B1
330
AF
100
AcDbEntity
  8
0
100
AcDbBlockBegin
  2
block 4
 70
     0
 10
0.0
 20
0.0
 30
0.0
  3
block 4
  1

  0
SPLINE
  5
B3
330
AF
100
AcDbEntity
  8
_U+30EC_U+30A4_U+30E4_U+30FC 1
370
     0
100
AcDbSpline
210
0.0
220
0.0
230
1.0
 70
    11
 71
     3
 72
    26
 73
    22
 74
     0
 42
0.0000000001
 43
0.0000000001
 12
1.0
 22
0.0
 32
0.0
 13
1.0
 23
0.0
 33
0.0
 40
0.0
 40
0.0
 40
0.0
 40
0.0
 40
1.0
 40
1.0
 40
1.0
 40
2.0
 40
2.0
 40
2.0
 40
3.0
 40
3.0
 40
3.0
 40
4.0
 40
4.0
 40
4.0
 40
5.0
 40
5.0
 40
5.0
 40
6.0
 40
6.0
 40
6.0
 40
7.0
 40
7.0
 40
7.0
 40
7.0
 10
118.5677842585525
 20
-137.6598144187101
 30
0.0
 10
118.5677842585525
 20
-137.6598144187101
 30
0.0
 10
117.4636311555299
 20
-137.6598144187101
 30
0.0
 10
117.4636311555299
 20
-137.6598144187101
 30
0.0
 10
117.4636311555299
 20
-137.6598144187101
 30
0.0
 10
117.4636311555299
 20
-137.989854566197
 30
0.0
 10
117.4636311555299
 20
-137.989854566197
 30
0.0
 10
117.4636311555299
 20
-137.989854566197
 30
0.0
 10
117.3154920496642
 20
-137.989854566197
 30
0.0
 10
117.3154920496642
 20
-137.989854566197
 30
0.0
 10
117.3006781390776
 20
-137.6577473614189
 30
0.0
 10
117.1377251226253
 20
-137.611238572368
 30
0.0
 10
117.023347952515
 20
-137.5816107511949
 30
0.0
 10
117.023347952515
 20
-137.5816107511949
 30
0.0
 10
117.023347952515
 20
-137.4355387026203
 30
0.0
 10
117.023347952515
 20
-137.4355387026203
 30
0.0
 10
117.023347952515
 20
-137.4355387026203
 30
0.0
 10
118.5677842585525
 20
-137.4355387026203
 30
0.0
 10
118.5677842585525
 20
-137.4355387026203
 30
0.0
 10
118.5677842585525
 20
-137.4355387026203
 30
0.0
 10
118.5677842585525
 20
-137.6598144187101
 30
0.0
 10
118.5677842585525
 20
-137.6598144187101
 30
0.0
  0
HATCH
  5
B4
330
AF
100
AcDbEntity
  8
_U+30EC_U+30A4_U+30E4_U+30FC 1
 62
     7
420
 16777215
100
AcDbHatch
 10
0.0
 20
0.0
 30
0.0
210
0.0
220
0.0
230
1.0
  2
SOLID
 70
     1
 71
     0
 91
        1
 92
        1
 93
        1
 72
     4
 94
        3
 73
     0
 74
     1
 95
       26
 96
       22
 40
0.0
 40
0.0
 40
0.0
 40
0.0
 40
1.0
 40
1.0
 40
1.0
 40
2.0
 40
2.0
 40
2.0
 40
3.0
 40
3.0
 40
3.0
 40
4.0
 40
4.0
 40
4.0
 40
5.0
 40
5.0
 40
5.0
 40
6.0
 40
6.0
 40
6.0
 40
7.0
 40
7.0
 40
7.0
 40
7.0
 10
118.5677842585525
 20
-137.6598144187101
 10
118.5677842585525
 20
-137.6598144187101
 10
117.4636311555299
 20
-137.6598144187101
 10
117.4636311555299
 20
-137.6598144187101
 10
117.4636311555299
 20
-137.6598144187101
 10
117.4636311555299
 20
-137.989854566197
 10
117.4636311555299
 20
-137.989854566197
 10
117.4636311555299
 20
-137.989854566197
 10
117.3154920496642
 20
-137.989854566197
 10
117.3154920496642
 20
-137.989854566197
 10
117.3006781390776
 20
-137.6577473614189
 10
117.1377251226253
 20
-137.611238572368
 10
117.023347952515
 20
-137.5816107511949
 10
117.023347952515
 20
-137.5816107511949
 10
117.023347952515
 20
-137.4355387026203
 10
117.023347952515
 20
-137.4355387026203
 10
117.023347952515
 20
-137.4355387026203
 10
118.5677842585525
 20
-137.4355387026203
 10
118.5677842585525
 20
-137.4355387026203
 10
118.5677842585525
 20
-137.4355387026203
 10
118.5677842585525
 20
-137.6598144187101
 10
118.5677842585525
 20
-137.6598144187101
 97
        0
 97
        0
 75
     2
 76
     1
 98
        0
  0
ENDBLK
  5
B2
330
AF
100
AcDbEntity
  8
0
100
AcDbBlockEnd
  0
BLOCK
  5
C3
330
C1
100
AcDbEntity
  8
0
100
AcDbBlockBegin
  2
block 5
 70
     0
 10
0.0
 20
0.0
 30
0.0
  3
block 5
  1

  0
SPLINE
  5
C5
330
C1
100
AcDbEntity
  8
_U+30EC_U+30A4_U+30E4_U+30FC 1
370
     0
100
AcDbSpline
210
0.0
220
0.0
230
1.0
 70
    11
 71
     3
 72
    26
 73
    22
 74
     0
 42
0.0000000001
 43
0.0000000001
 12
1.0
 22
0.0
 32
0.0
 13
1.0
 23
0.0
 33
0.0
 40
0.0
 40
0.0
 40
0.0
 40
0.0
 40
1.0
 40
1.0
 40
1.0
 40
2.0
 40
2.0
 40
2.0
 40
3.0
 40
3.0
 40
3.0
 40
4.0
 40
4.0
 40
4.0
 40
5.0
 40
5.0
 40
5.0
 40
6.0
 40
6.0
 40
6.0
 40
7.0
 40
7.0
 40
7.0
 40
7.0
 10
118.5677842585525
 20
-150.9489257435128
 30
0.0
 10
118.5677842585525
 20
-150.9489257435128
 30
0.0
 10
117.4636311555299
 20
-150.9489257435128
 30
0.0
 10
117.4636311555299
 20
-150.9489257435128
 30
0.0
 10
117.4636311555299
 20
-150.9489257435128
 30
0.0
 10
117.4636311555299
 20
-151.2789658909997
 30
0.0
 10
117.4636311555299
 20
-151.2789658909997
 30
0.0
 10
117.4636311555299
 20
-151.2789658909997
 30
0.0
 10
117.3154920496642
 20
-151.2789658909997
 30
0.0
 10
117.3154920496642
 20
-151.2789658909997
 30
0.0
 10
117.3006781390776
 20
-150.9468586862216
 30
0.0
 10
117.1377251226253
 20
-150.9003498971707
 30
0.0
 10
117.023347952515
 20
-150.8707220759976
 30
0.0
 10
117.023347952515
 20
-150.8707220759976
 30
0.0
 10
117.023347952515
 20
-150.724650027423
 30
0.0
 10
117.023347952515
 20
-150.724650027423
 30
0.0
 10
117.023347952515
 20
-150.724650027423
 30
0.0
 10
118.5677842585525
 20
-150.724650027423
 30
0.0
 10
118.5677842585525
 20
-150.724650027423
 30
0.0
 10
118.5677842585525
 20
-150.724650027423
 30
0.0
 10
118.5677842585525
 20
-150.9489257435128
 30
0.0
 10
118.5677842585525
 20
-150.9489257435128
 30
0.0
  0
HATCH
  5
C6
330
C1
100
AcDbEntity
  8
_U+30EC_U+30A4_U+30E4_U+30FC 1
 62
     7
420
 16777215
100
AcDbHatch
 10
0.0
 20
0.0
 30
0.0
210
0.0
220
0.0
230
1.0
  2
SOLID
 70
     1
 71
     0
 91
        1
 92
        1
 93
        1
 72
     4
 94
        3
 73
     0
 74
     1
 95
       26
 96
       22
 40
0.0
 40
0.0
 40
0.0
 40
0.0
 40
1.0
 40
1.0
 40
1.0
 40
2.0
 40
2.0
 40
2.0
 40
3.0
 40
3.0
 40
3.0
 40
4.0
 40
4.0
 40
4.0
 40
5.0
 40
5.0
 40
5.0
 40
6.0
 40
6.0
 40
6.0
 40
7.0
 40
7.0
 40
7.0
 40
7.0
 10
118.5677842585525
 20
-150.9489257435128
 10
118.5677842585525
 20
-150.9489257435128
 10
117.4636311555299
 20
-150.9489257435128
 10
117.4636311555299
 20
-150.9489257435128
 10
117.4636311555299
 20
-150.9489257435128
 10
117.4636311555299
 20
-151.2789658909997
 10
117.4636311555299
 20
-151.2789658909997
 10
117.4636311555299
 20
-151.2789658909997
 10
117.3154920496642
 20
-151.2789658909997
 10
117.3154920496642
 20
-151.2789658909997
 10
117.3006781390776
 20
-150.9468586862216
 10
117.1377251226253
 20
-150.9003498971707
 10
117.023347952515
 20
-150.8707220759976
 10
117.023347952515
 20
-150.8707220759976
 10
117.023347952515
 20
-150.724650027423
 10
117.023347952515
 20
-150.724650027423
 10
117.023347952515
 20
-150.724650027423
 10
118.5677842585525
 20
-150.724650027423
 10
118.5677842585525
 20
-150.724650027423
 10
118.5677842585525
 20
-150.724650027423
 10
118.5677842585525
 20
-150.9489257435128
 10
118.5677842585525
 20
-150.9489257435128
 97
        0
 97
        0
 75
     2
 76
     1
 98
        0
  0
SPLINE
  5
C7
330
C1
100
AcDbEntity
  8
_U+30EC_U+30A4_U+30E4_U+30FC 1
370
     0
100
AcDbSpline
210
0.0
220
0.0
230
1.0
 70
    11
 71
     3
 72
    32
 73
    28
 74
     0
 42
0.0000000001
 43
0.0000000001
 12
1.0
 22
0.0
 32
0.0
 13
1.0
 23
0.0
 33
0.0
 40
0.0
 40
0.0
 40
0.0
 40
0.0
 40
1.0
 40
1.0
 40
1.0
 40
2.0
 40
2.0
 40
2.0
 40
3.0
 40
3.0
 40
3.0
 40
4.0
 40
4.0
 40
4.0
 40
5.0
 40
5.0
 40
5.0
 40
6.0
 40
6.0
 40
6.0
 40
7.0
 40
7.0
 40
7.0
 40
8.0
 40
8.0
 40
8.0
 40
9.0
 40
9.0
 40
9.0
 40
9.0
 10
118.6184271621857
 20
-149.765879953878
 30
0.0
 10
118.6184271621857
 20
-149.939168256786
 30
0.0
 10
118.5488362333836
 20
-150.1848035648844
 30
0.0
 10
118.2167290286055
 20
-150.2226996152221
 30
0.0
 10
118.2167290286055
 20
-150.2226996152221
 30
0.0
 10
118.2167290286055
 20
-150.0091036951366
 30
0.0
 10
118.2167290286055
 20
-150.0091036951366
 30
0.0
 10
118.2759846709518
 20
-149.9984238991323
 30
0.0
 10
118.4237792672691
 20
-149.9667290206681
 30
0.0
 10
118.4237792672691
 20
-149.7638128965868
 30
0.0
 10
118.4237792672691
 20
-149.4716687994377
 30
0.0
 10
118.0937391197821
 20
-149.4337727490999
 30
0.0
 10
117.8887559384098
 20
-149.4210258958045
 30
0.0
 10
117.9690266632161
 20
-149.5119764166151
 30
0.0
 10
118.0262152482712
 20
-149.579500288126
 30
0.0
 10
118.0262152482712
 20
-149.7614013297471
 30
0.0
 10
118.0262152482712
 20
-149.9412353140772
 30
0.0
 10
117.9204508168741
 20
-150.2437146976821
 30
0.0
 10
117.5142740591631
 20
-150.2437146976821
 30
0.0
 10
117.1949137076804
 20
-150.2437146976821
 30
0.0
 10
116.974772106173
 20
-150.0449326881832
 30
0.0
 10
116.974772106173
 20
-149.7276393939917
 30
0.0
 10
116.974772106173
 20
-149.2136311475924
 30
0.0
 10
117.5290879697497
 20
-149.2029513515882
 30
0.0
 10
117.7426838898352
 20
-149.2029513515882
 30
0.0
 10
117.9731607777984
 20
-149.2029513515882
 30
0.0
 10
118.6184271621857
 20
-149.2222438863056
 30
0.0
 10
118.6184271621857
 20
-149.765879953878
 30
0.0
  0
SPLINE
  5
C8
330
C1
100
AcDbEntity
  8
_U+30EC_U+30A4_U+30E4_U+30FC 1
370
     0
100
AcDbSpline
210
0.0
220
0.0
230
1.0
 70
    11
 71
     3
 72
    17
 73
    13
 74
     0
 42
0.0000000001
 43
0.0000000001
 12
1.0
 22
0.0
 32
0.0
 13
1.0
 23
0.0
 33
0.0
 40
0.0
 40
0.0
 40
0.0
 40
0.0
 40
1.0
 40
1.0
 40
1.0
 40
2.0
 40
2.0
 40
2.0
 40
3.0
 40
3.0
 40
3.0
 40
4.0
 40
4.0
 40
4.0
 40
4.0
 10
117.1673529437984
 20
-149.7255723367006
 30
0.0
 10
117.1673529437984
 20
-149.8440836213931
 30
0.0
 10
117.2245415288536
 20
-150.0197834911409
 30
0.0
 10
117.5101399445808
 20
-150.0197834911409
 30
0.0
 10
117.7364827179617
 20
-150.0197834911409
 30
0.0
 10
117.8315673533546
 20
-149.8799126144397
 30
0.0
 10
117.8315673533546
 20
-149.7445203618694
 30
0.0
 10
117.8315673533546
 20
-149.4823485954419
 30
0.0
 10
117.6221055478514
 20
-149.4441080355556
 30
0.0
 10
117.50566132045
 20
-149.4441080355556
 30
0.0
 10
117.3303059602508
 20
-149.4441080355556
 30
0.0
 10
117.1673529437984
 20
-149.5395371804971
 30
0.0
 10
117.1673529437984
 20
-149.7255723367006
 30
0.0
  0
HATCH
  5
C9
330
C1
100
AcDbEntity
  8
_U+30EC_U+30A4_U+30E4_U+30FC 1
 62
     7
420
 16777215
100
AcDbHatch
 10
0.0
 20
0.0
 30
0.0
210
0.0
220
0.0
230
1.0
  2
SOLID
 70
     1
 71
     0
 91
        2
 92
        1
 93
        1
 72
     4
 94
        3
 73
     0
 74
     1
 95
       32
 96
       28
 40
0.0
 40
0.0
 40
0.0
 40
0.0
 40
1.0
 40
1.0
 40
1.0
 40
2.0
 40
2.0
 40
2.0
 40
3.0
 40
3.0
 40
3.0
 40
4.0
 40
4.0
 40
4.0
 40
5.0
 40
5.0
 40
5.0
 40
6.0
 40
6.0
 40
6.0
 40
7.0
 40
7.0
 40
7.0
 40
8.0
 40
8.0
 40
8.0
 40
9.0
 40
9.0
 40
9.0
 40
9.0
 10
118.6184271621857
 20
-149.765879953878
 10
118.6184271621857
 20
-149.939168256786
 10
118.5488362333836
 20
-150.1848035648844
 10
118.2167290286055
 20
-150.2226996152221
 10
118.2167290286055
 20
-150.2226996152221
 10
118.2167290286055
 20
-150.0091036951366
 10
118.2167290286055
 20
-150.0091036951366
 10
118.2759846709518
 20
-149.9984238991323
 10
118.4237792672691
 20
-149.9667290206681
 10
118.4237792672691
 20
-149.7638128965868
 10
118.4237792672691
 20
-149.4716687994377
 10
118.0937391197821
 20
-149.4337727490999
 10
117.8887559384098
 20
-149.4210258958045
 10
117.9690266632161
 20
-149.5119764166151
 10
118.0262152482712
 20
-149.579500288126
 10
118.0262152482712
 20
-149.7614013297471
 10
118.0262152482712
 20
-149.9412353140772
 10
117.9204508168741
 20
-150.2437146976821
 10
117.5142740591631
 20
-150.2437146976821
 10
117.1949137076804
 20
-150.2437146976821
 10
116.974772106173
 20
-150.0449326881832
 10
116.974772106173
 20
-149.7276393939917
 10
116.974772106173
 20
-149.2136311475924
 10
117.5290879697497
 20
-149.2029513515882
 10
117.7426838898352
 20
-149.2029513515882
 10
117.9731607777984
 20
-149.2029513515882
 10
118.6184271621857
 20
-149.2222438863056
 10
118.6184271621857
 20
-149.765879953878
 97
        0
 97
        0
 92
        1
 93
        1
 72
     4
 94
        3
 73
     0
 74
     1
 95
       17
 96
       13
 40
0.0
 40
0.0
 40
0.0
 40
0.0
 40
1.0
 40
1.0
 40
1.0
 40
2.0
 40
2.0
 40
2.0
 40
3.0
 40
3.0
 40
3.0
 40
4.0
 40
4.0
 40
4.0
 40
4.0
 10
117.1673529437984
 20
-149.7255723367006
 10
117.1673529437984
 20
-149.8440836213931
 10
117.2245415288536
 20
-150.0197834911409
 10
117.5101399445808
 20
-150.0197834911409
 10
117.7364827179617
 20
-150.0197834911409
 10
117.8315673533546
 20
-149.8799126144397
 10
117.8315673533546
 20
-149.7445203618694
 10
117.8315673533546
 20
-149.4823485954419
 10
117.6221055478514
 20
-149.4441080355556
 10
117.50566132045
 20
-149.4441080355556
 10
117.3303059602508
 20
-149.4441080355556
 10
117.1673529437984
 20
-149.5395371804971
 10
117.1673529437984
 20
-149.7255723367006
 97
        0
 97
        0
 75
     2
 76
     1
 98
        0
  0
POLYLINE
  5
CA
330
C1
100
AcDbEntity
  8
_U+30EC_U+30A4_U+30E4_U+30FC 1
370
     0
100
AcDb2dPolyline
 66
     1
 10
0.0
 20
0.0
 30
0.0
  0
VERTEX
  5
CB
330
CA
100
AcDbEntity
  8
_U+30EC_U+30A4_U+30E4_U+30FC 1
370
     0
100
AcDbVertex
100
AcDb2dVertex
 10
118.5677842585525
 20
-148.9865993551145
 30
0.0
  0
VERTEX
  5
CC
330
CA
100
AcDbEntity
  8
_U+30EC_U+30A4_U+30E4_U+30FC 1
370
     0
100
AcDbVertex
100
AcDb2dVertex
 10
118.3159477785807
 20
-148.9865993551145
 30
0.0
  0
VERTEX
  5
CD
330
CA
100
AcDbEntity
  8
_U+30EC_U+30A4_U+30E4_U+30FC 1
370
     0
100
AcDbVertex
100
AcDb2dVertex
 10
118.3159477785807
 20
-148.7347628751427
 30
0.0
  0
VERTEX
  5
CE
330
CA
100
AcDbEntity
  8
_U+30EC_U+30A4_U+30E4_U+30FC 1
370
     0
100
AcDbVertex
100
AcDb2dVertex
 10
118.5677842585525
 20
-148.7347628751427
 30
0.0
  0
VERTEX
  5
CF
330
CA
100
AcDbEntity
  8
_U+30EC_U+30A4_U+30E4_U+30FC 1
370
     0
100
AcDbVertex
100
AcDb2dVertex
 10
118.5677842585525
 20
-148.9865993551145
 30
0.0
  0
SEQEND
  5
D0
330
CA
100
AcDbEntity
  8
_U+30EC_U+30A4_U+30E4_U+30FC 1
370
     0
  0
HATCH
  5
D1
330
C1
100
AcDbEntity
  8
_U+30EC_U+30A4_U+30E4_U+30FC 1
 62
     7
420
 16777215
100
AcDbHatch
 10
0.0
 20
0.0
 30
0.0
210
0.0
220
0.0
230
1.0
  2
SOLID
 70
     1
 71
     0
 91
        1
 92
        1
 93
        4
 72
     1
 10
118.5677842585525
 20
-148.9865993551145
 11
118.3159477785807
 21
-148.9865993551145
 72
     1
 10
118.3159477785807
 20
-148.9865993551145
 11
118.3159477785807
 21
-148.7347628751427
 72
     1
 10
118.3159477785807
 20
-148.7347628751427
 11
118.5677842585525
 21
-148.7347628751427
 72
     1
 10
118.5677842585525
 20
-148.7347628751427
 11
118.5677842585525
 21
-148.9865993551145
 97
        0
 75
     2
 76
     1
 98
        0
  0
SPLINE
  5
D2
330
C1
100
AcDbEntity
  8
_U+30EC_U+30A4_U+30E4_U+30FC 1
370
     0
100
AcDbSpline
210
0.0
220
0.0
230
1.0
 70
    11
 71
     3
 72
    53
 73
    49
 74
     0
 42
0.0000000001
 43
0.0000000001
 12
1.0
 22
0.0
 32
0.0
 13
1.0
 23
0.0
 33
0.0
 40
0.0
 40
0.0
 40
0.0
 40
0.0
 40
1.0
 40
1.0
 40
1.0
 40
2.0
 40
2.0
 40
2.0
 40
3.0
 40
3.0
 40
3.0
 40
4.0
 40
4.0
 40
4.0
 40
5.0
 40
5.0
 40
5.0
 40
6.0
 40
6.0
 40
6.0
 40
7.0
 40
7.0
 40
7.0
 40
8.0
 40
8.0
 40
8.0
 40
9.0
 40
9.0
 40
9.0
 40
10.0
 40
10.0
 40
10.0
 40
11.0
 40
11.0
 40
11.0
 40
12.0
 40
12.0
 40
12.0
 40
13.0
 40
13.0
 40
13.0
 40
14.0
 40
14.0
 40
14.0
 40
15.0
 40
15.0
 40
15.0
 40
16.0
 40
16.0
 40
16.0
 40
16.0
 10
118.6184271621857
 20
-148.0174939951137
 30
0.0
 10
118.6184271621857
 20
-148.0956976626289
 30
0.0
 10
118.601546194308
 20
-148.1973279794437
 30
0.0
 10
118.5381564373794
 20
-148.2989582962586
 30
0.0
 10
118.4282578913999
 20
-148.4722465991667
 30
0.0
 10
118.2969997534119
 20
-148.4936061911752
 30
0.0
 10
118.1891682647235
 20
-148.5125542163441
 30
0.0
 10
118.1891682647235
 20
-148.5125542163441
 30
0.0
 10
118.1891682647235
 20
-148.2903455575455
 30
0.0
 10
118.1891682647235
 20
-148.2903455575455
 30
0.0
 10
118.3879502742225
 20
-148.23556853933
 30
0.0
 10
118.4175780953956
 20
-148.1084445159243
 30
0.0
 10
118.4175780953956
 20
-148.0154269378225
 30
0.0
 10
118.4175780953956
 20
-147.8759005706699
 30
0.0
 10
118.3180148358719
 20
-147.7236273502219
 30
0.0
 10
118.0854708906175
 20
-147.7236273502219
 30
0.0
 10
117.8295002960635
 20
-147.7236273502219
 30
0.0
 10
117.7595648577129
 20
-147.9034613345519
 30
0.0
 10
117.7595648577129
 20
-148.0240396765357
 30
0.0
 10
117.7595648577129
 20
-148.055734555
 30
0.0
 10
117.7595648577129
 20
-148.1973279794437
 30
0.0
 10
117.8887559384098
 20
-148.2862114429632
 30
0.0
 10
117.8887559384098
 20
-148.2862114429632
 30
0.0
 10
117.8698079132409
 20
-148.4619113127109
 30
0.0
 10
117.8698079132409
 20
-148.4619113127109
 30
0.0
 10
117.8698079132409
 20
-148.4619113127109
 30
0.0
 10
117.023347952515
 20
-148.3413329707272
 30
0.0
 10
117.023347952515
 20
-148.3413329707272
 30
0.0
 10
117.023347952515
 20
-148.3413329707272
 30
0.0
 10
117.023347952515
 20
-147.5627413910607
 30
0.0
 10
117.023347952515
 20
-147.5627413910607
 30
0.0
 10
117.023347952515
 20
-147.5627413910607
 30
0.0
 10
117.2179958474316
 20
-147.5627413910607
 30
0.0
 10
117.2179958474316
 20
-147.5627413910607
 30
0.0
 10
117.2179958474316
 20
-147.5627413910607
 30
0.0
 10
117.2179958474316
 20
-148.1783799542748
 30
0.0
 10
117.2179958474316
 20
-148.1783799542748
 30
0.0
 10
117.2179958474316
 20
-148.1783799542748
 30
0.0
 10
117.6410535730203
 20
-148.2438367684946
 30
0.0
 10
117.6410535730203
 20
-148.2438367684946
 30
0.0
 10
117.6072916372649
 20
-148.1825140688572
 30
0.0
 10
117.5669840200874
 20
-148.1001762867597
 30
0.0
 10
117.5669840200874
 20
-147.9816650020671
 30
0.0
 10
117.5669840200874
 20
-147.7277614648042
 30
0.0
 10
117.7533636858394
 20
-147.490738895419
 30
0.0
 10
118.0665228654486
 20
-147.490738895419
 30
0.0
 10
118.3838161596402
 20
-147.490738895419
 30
0.0
 10
118.6184271621857
 20
-147.7150146115088
 30
0.0
 10
118.6184271621857
 20
-148.0174939951137
 30
0.0
  0
HATCH
  5
D3
330
C1
100
AcDbEntity
  8
_U+30EC_U+30A4_U+30E4_U+30FC 1
 62
     7
420
 16777215
100
AcDbHatch
 10
0.0
 20
0.0
 30
0.0
210
0.0
220
0.0
230
1.0
  2
SOLID
 70
     1
 71
     0
 91
        1
 92
        1
 93
        1
 72
     4
 94
        3
 73
     0
 74
     1
 95
       53
 96
       49
 40
0.0
 40
0.0
 40
0.0
 40
0.0
 40
1.0
 40
1.0
 40
1.0
 40
2.0
 40
2.0
 40
2.0
 40
3.0
 40
3.0
 40
3.0
 40
4.0
 40
4.0
 40
4.0
 40
5.0
 40
5.0
 40
5.0
 40
6.0
 40
6.0
 40
6.0
 40
7.0
 40
7.0
 40
7.0
 40
8.0
 40
8.0
 40
8.0
 40
9.0
 40
9.0
 40
9.0
 40
10.0
 40
10.0
 40
10.0
 40
11.0
 40
11.0
 40
11.0
 40
12.0
 40
12.0
 40
12.0
 40
13.0
 40
13.0
 40
13.0
 40
14.0
 40
14.0
 40
14.0
 40
15.0
 40
15.0
 40
15.0
 40
16.0
 40
16.0
 40
16.0
 40
16.0
 10
118.6184271621857
 20
-148.0174939951137
 10
118.6184271621857
 20
-148.0956976626289
 10
118.601546194308
 20
-148.1973279794437
 10
118.5381564373794
 20
-148.2989582962586
 10
118.4282578913999
 20
-148.4722465991667
 10
118.2969997534119
 20
-148.4936061911752
 10
118.1891682647235
 20
-148.5125542163441
 10
118.1891682647235
 20
-148.5125542163441
 10
118.1891682647235
 20
-148.2903455575455
 10
118.1891682647235
 20
-148.2903455575455
 10
118.3879502742225
 20
-148.23556853933
 10
118.4175780953956
 20
-148.1084445159243
 10
118.4175780953956
 20
-148.0154269378225
 10
118.4175780953956
 20
-147.8759005706699
 10
118.3180148358719
 20
-147.7236273502219
 10
118.0854708906175
 20
-147.7236273502219
 10
117.8295002960635
 20
-147.7236273502219
 10
117.7595648577129
 20
-147.9034613345519
 10
117.7595648577129
 20
-148.0240396765357
 10
117.7595648577129
 20
-148.055734555
 10
117.7595648577129
 20
-148.1973279794437
 10
117.8887559384098
 20
-148.2862114429632
 10
117.8887559384098
 20
-148.2862114429632
 10
117.8698079132409
 20
-148.4619113127109
 10
117.8698079132409
 20
-148.4619113127109
 10
117.8698079132409
 20
-148.4619113127109
 10
117.023347952515
 20
-148.3413329707272
 10
117.023347952515
 20
-148.3413329707272
 10
117.023347952515
 20
-148.3413329707272
 10
117.023347952515
 20
-147.5627413910607
 10
117.023347952515
 20
-147.5627413910607
 10
117.023347952515
 20
-147.5627413910607
 10
117.2179958474316
 20
-147.5627413910607
 10
117.2179958474316
 20
-147.5627413910607
 10
117.2179958474316
 20
-147.5627413910607
 10
117.2179958474316
 20
-148.1783799542748
 10
117.2179958474316
 20
-148.1783799542748
 10
117.2179958474316
 20
-148.1783799542748
 10
117.6410535730203
 20
-148.2438367684946
 10
117.6410535730203
 20
-148.2438367684946
 10
117.6072916372649
 20
-148.1825140688572
 10
117.5669840200874
 20
-148.1001762867597
 10
117.5669840200874
 20
-147.9816650020671
 10
117.5669840200874
 20
-147.7277614648042
 10
117.7533636858394
 20
-147.490738895419
 10
118.0665228654486
 20
-147.490738895419
 10
118.3838161596402
 20
-147.490738895419
 10
118.6184271621857
 20
-147.7150146115088
 10
118.6184271621857
 20
-148.0174939951137
 97
        0
 97
        0
 75
     2
 76
     1
 98
        0
  0
ENDBLK
  5
C4
330
C1
100
AcDbEntity
  8
0
100
AcDbBlockEnd
  0
BLOCK
  5
DA
330
D8
100
AcDbEntity
  8
0
100
AcDbBlockBegin
  2
block 6
 70
     0
 10
0.0
 20
0.0
 30
0.0
  3
block 6
  1

  0
SPLINE
  5
DC
330
D8
100
AcDbEntity
  8
_U+30EC_U+30A4_U+30E4_U+30FC 1
370
     0
100
AcDbSpline
210
0.0
220
0.0
230
1.0
 70
    11
 71
     3
 72
    29
 73
    25
 74
     0
 42
0.0000000001
 43
0.0000000001
 12
1.0
 22
0.0
 32
0.0
 13
1.0
 23
0.0
 33
0.0
 40
0.0
 40
0.0
 40
0.0
 40
0.0
 40
1.0
 40
1.0
 40
1.0
 40
2.0
 40
2.0
 40
2.0
 40
3.0
 40
3.0
 40
3.0
 40
4.0
 40
4.0
 40
4.0
 40
5.0
 40
5.0
 40
5.0
 40
6.0
 40
6.0
 40
6.0
 40
7.0
 40
7.0
 40
7.0
 40
8.0
 40
8.0
 40
8.0
 40
8.0
 10
103.395411486738
 20
-157.0529459242784
 30
0.0
 10
103.6048732922412
 20
-157.1611219225153
 30
0.0
 10
103.62382131741
 20
-157.3344102254233
 30
0.0
 10
103.62382131741
 20
-157.4508544528248
 30
0.0
 10
103.62382131741
 20
-157.6117404119859
 30
0.0
 10
103.5773125283591
 20
-157.7533338364297
 30
0.0
 10
103.395411486738
 20
-157.8484184718226
 30
0.0
 10
103.2007635918213
 20
-157.9521158459286
 30
0.0
 10
102.9640855319847
 20
-157.971408380646
 30
0.0
 10
102.8011325155324
 20
-157.971408380646
 30
0.0
 10
102.6571275242489
 20
-157.971408380646
 30
0.0
 10
102.4052910442771
 20
-157.9541829032198
 30
0.0
 10
102.2065090347782
 20
-157.8484184718226
 30
0.0
 10
102.003592910697
 20
-157.7405869831343
 30
0.0
 10
101.9801662613973
 20
-157.5797010239731
 30
0.0
 10
101.9801662613973
 20
-157.4508544528248
 30
0.0
 10
101.9801662613973
 20
-157.2920355509548
 30
0.0
 10
102.024607993157
 20
-157.1483750692199
 30
0.0
 10
102.2065090347782
 20
-157.0529459242784
 30
0.0
 10
102.3990898724037
 20
-156.9537271743033
 30
0.0
 10
102.6274997030758
 20
-156.9303005250035
 30
0.0
 10
102.8011325155324
 20
-156.9303005250035
 30
0.0
 10
102.9723537611493
 20
-156.9303005250035
 30
0.0
 10
103.2028306491125
 20
-156.9516601170121
 30
0.0
 10
103.395411486738
 20
-157.0529459242784
 30
0.0
  0
SPLINE
  5
DD
330
D8
100
AcDbEntity
  8
_U+30EC_U+30A4_U+30E4_U+30FC 1
370
     0
100
AcDbSpline
210
0.0
220
0.0
230
1.0
 70
    11
 71
     3
 72
    17
 73
    13
 74
     0
 42
0.0000000001
 43
0.0000000001
 12
1.0
 22
0.0
 32
0.0
 13
1.0
 23
0.0
 33
0.0
 40
0.0
 40
0.0
 40
0.0
 40
0.0
 40
1.0
 40
1.0
 40
1.0
 40
2.0
 40
2.0
 40
2.0
 40
3.0
 40
3.0
 40
3.0
 40
4.0
 40
4.0
 40
4.0
 40
4.0
 10
102.1727470990228
 20
-157.4508544528248
 30
0.0
 10
102.1727470990228
 20
-157.7006238755054
 30
0.0
 10
102.4562784574589
 20
-157.7471326645563
 30
0.0
 10
102.8011325155324
 20
-157.7471326645563
 30
0.0
 10
103.120492867015
 20
-157.7471326645563
 30
0.0
 10
103.4291734224934
 20
-157.7109591619611
 30
0.0
 10
103.4291734224934
 20
-157.4508544528248
 30
0.0
 10
103.4291734224934
 20
-157.2031520874353
 30
0.0
 10
103.148053630897
 20
-157.1545762410933
 30
0.0
 10
102.8011325155324
 20
-157.1545762410933
 30
0.0
 10
102.4814276545012
 20
-157.1545762410933
 30
0.0
 10
102.1727470990228
 20
-157.1928168009796
 30
0.0
 10
102.1727470990228
 20
-157.4508544528248
 30
0.0
  0
HATCH
  5
DE
330
D8
100
AcDbEntity
  8
_U+30EC_U+30A4_U+30E4_U+30FC 1
 62
     7
420
 16777215
100
AcDbHatch
 10
0.0
 20
0.0
 30
0.0
210
0.0
220
0.0
230
1.0
  2
SOLID
 70
     1
 71
     0
 91
        2
 92
        1
 93
        1
 72
     4
 94
        3
 73
     0
 74
     1
 95
       29
 96
       25
 40
0.0
 40
0.0
 40
0.0
 40
0.0
 40
1.0
 40
1.0
 40
1.0
 40
2.0
 40
2.0
 40
2.0
 40
3.0
 40
3.0
 40
3.0
 40
4.0
 40
4.0
 40
4.0
 40
5.0
 40
5.0
 40
5.0
 40
6.0
 40
6.0
 40
6.0
 40
7.0
 40
7.0
 40
7.0
 40
8.0
 40
8.0
 40
8.0
 40
8.0
 10
103.395411486738
 20
-157.0529459242784
 10
103.6048732922412
 20
-157.1611219225153
 10
103.62382131741
 20
-157.3344102254233
 10
103.62382131741
 20
-157.4508544528248
 10
103.62382131741
 20
-157.6117404119859
 10
103.5773125283591
 20
-157.7533338364297
 10
103.395411486738
 20
-157.8484184718226
 10
103.2007635918213
 20
-157.9521158459286
 10
102.9640855319847
 20
-157.971408380646
 10
102.8011325155324
 20
-157.971408380646
 10
102.6571275242489
 20
-157.971408380646
 10
102.4052910442771
 20
-157.9541829032198
 10
102.2065090347782
 20
-157.8484184718226
 10
102.003592910697
 20
-157.7405869831343
 10
101.9801662613973
 20
-157.5797010239731
 10
101.9801662613973
 20
-157.4508544528248
 10
101.9801662613973
 20
-157.2920355509548
 10
102.024607993157
 20
-157.1483750692199
 10
102.2065090347782
 20
-157.0529459242784
 10
102.3990898724037
 20
-156.9537271743033
 10
102.6274997030758
 20
-156.9303005250035
 10
102.8011325155324
 20
-156.9303005250035
 10
102.9723537611493
 20
-156.9303005250035
 10
103.2028306491125
 20
-156.9516601170121
 10
103.395411486738
 20
-157.0529459242784
 97
        0
 97
        0
 92
        1
 93
        1
 72
     4
 94
        3
 73
     0
 74
     1
 95
       17
 96
       13
 40
0.0
 40
0.0
 40
0.0
 40
0.0
 40
1.0
 40
1.0
 40
1.0
 40
2.0
 40
2.0
 40
2.0
 40
3.0
 40
3.0
 40
3.0
 40
4.0
 40
4.0
 40
4.0
 40
4.0
 10
102.1727470990228
 20
-157.4508544528248
 10
102.1727470990228
 20
-157.7006238755054
 10
102.4562784574589
 20
-157.7471326645563
 10
102.8011325155324
 20
-157.7471326645563
 10
103.120492867015
 20
-157.7471326645563
 10
103.4291734224934
 20
-157.7109591619611
 10
103.4291734224934
 20
-157.4508544528248
 10
103.4291734224934
 20
-157.2031520874353
 10
103.148053630897
 20
-157.1545762410933
 10
102.8011325155324
 20
-157.1545762410933
 10
102.4814276545012
 20
-157.1545762410933
 10
102.1727470990228
 20
-157.1928168009796
 10
102.1727470990228
 20
-157.4508544528248
 97
        0
 97
        0
 75
     2
 76
     1
 98
        0
  0
POLYLINE
  5
DF
330
D8
100
AcDbEntity
  8
_U+30EC_U+30A4_U+30E4_U+30FC 1
370
     0
100
AcDb2dPolyline
 66
     1
 10
0.0
 20
0.0
 30
0.0
  0
VERTEX
  5
E0
330
DF
100
AcDbEntity
  8
_U+30EC_U+30A4_U+30E4_U+30FC 1
370
     0
100
AcDbVertex
100
AcDb2dVertex
 10
103.5731784137768
 20
-156.7139485285298
 30
0.0
  0
VERTEX
  5
E1
330
DF
100
AcDbEntity
  8
_U+30EC_U+30A4_U+30E4_U+30FC 1
370
     0
100
AcDbVertex
100
AcDb2dVertex
 10
103.3213419338051
 20
-156.7139485285298
 30
0.0
  0
VERTEX
  5
E2
330
DF
100
AcDbEntity
  8
_U+30EC_U+30A4_U+30E4_U+30FC 1
370
     0
100
AcDbVertex
100
AcDb2dVertex
 10
103.3213419338051
 20
-156.4621120485581
 30
0.0
  0
VERTEX
  5
E3
330
DF
100
AcDbEntity
  8
_U+30EC_U+30A4_U+30E4_U+30FC 1
370
     0
100
AcDbVertex
100
AcDb2dVertex
 10
103.5731784137768
 20
-156.4621120485581
 30
0.0
  0
VERTEX
  5
E4
330
DF
100
AcDbEntity
  8
_U+30EC_U+30A4_U+30E4_U+30FC 1
370
     0
100
AcDbVertex
100
AcDb2dVertex
 10
103.5731784137768
 20
-156.7139485285298
 30
0.0
  0
SEQEND
  5
E5
330
DF
100
AcDbEntity
  8
_U+30EC_U+30A4_U+30E4_U+30FC 1
370
     0
  0
HATCH
  5
E6
330
D8
100
AcDbEntity
  8
_U+30EC_U+30A4_U+30E4_U+30FC 1
 62
     7
420
 16777215
100
AcDbHatch
 10
0.0
 20
0.0
 30
0.0
210
0.0
220
0.0
230
1.0
  2
SOLID
 70
     1
 71
     0
 91
        1
 92
        1
 93
        4
 72
     1
 10
103.5731784137768
 20
-156.7139485285298
 11
103.3213419338051
 21
-156.7139485285298
 72
     1
 10
103.3213419338051
 20
-156.7139485285298
 11
103.3213419338051
 21
-156.4621120485581
 72
     1
 10
103.3213419338051
 20
-156.4621120485581
 11
103.5731784137768
 21
-156.4621120485581
 72
     1
 10
103.5731784137768
 20
-156.4621120485581
 11
103.5731784137768
 21
-156.7139485285298
 97
        0
 75
     2
 76
     1
 98
        0
  0
SPLINE
  5
E7
330
D8
100
AcDbEntity
  8
_U+30EC_U+30A4_U+30E4_U+30FC 1
370
     0
100
AcDbSpline
210
0.0
220
0.0
230
1.0
 70
    11
 71
     3
 72
    53
 73
    49
 74
     0
 42
0.0000000001
 43
0.0000000001
 12
1.0
 22
0.0
 32
0.0
 13
1.0
 23
0.0
 33
0.0
 40
0.0
 40
0.0
 40
0.0
 40
0.0
 40
1.0
 40
1.0
 40
1.0
 40
2.0
 40
2.0
 40
2.0
 40
3.0
 40
3.0
 40
3.0
 40
4.0
 40
4.0
 40
4.0
 40
5.0
 40
5.0
 40
5.0
 40
6.0
 40
6.0
 40
6.0
 40
7.0
 40
7.0
 40
7.0
 40
8.0
 40
8.0
 40
8.0
 40
9.0
 40
9.0
 40
9.0
 40
10.0
 40
10.0
 40
10.0
 40
11.0
 40
11.0
 40
11.0
 40
12.0
 40
12.0
 40
12.0
 40
13.0
 40
13.0
 40
13.0
 40
14.0
 40
14.0
 40
14.0
 40
15.0
 40
15.0
 40
15.0
 40
16.0
 40
16.0
 40
16.0
 40
16.0
 10
103.62382131741
 20
-155.7448431685291
 30
0.0
 10
103.62382131741
 20
-155.8230468360443
 30
0.0
 10
103.6069403495323
 20
-155.9246771528591
 30
0.0
 10
103.5435505926037
 20
-156.026307469674
 30
0.0
 10
103.4336520466242
 20
-156.1995957725821
 30
0.0
 10
103.3023939086362
 20
-156.2209553645906
 30
0.0
 10
103.1945624199479
 20
-156.2399033897595
 30
0.0
 10
103.1945624199479
 20
-156.2399033897595
 30
0.0
 10
103.1945624199479
 20
-156.0176947309609
 30
0.0
 10
103.1945624199479
 20
-156.0176947309609
 30
0.0
 10
103.3933444294468
 20
-155.9629177127454
 30
0.0
 10
103.4229722506199
 20
-155.8357936893397
 30
0.0
 10
103.4229722506199
 20
-155.7427761112379
 30
0.0
 10
103.4229722506199
 20
-155.6032497440853
 30
0.0
 10
103.3234089910962
 20
-155.4509765236373
 30
0.0
 10
103.0908650458419
 20
-155.4509765236373
 30
0.0
 10
102.8348944512878
 20
-155.4509765236373
 30
0.0
 10
102.7649590129372
 20
-155.6308105079673
 30
0.0
 10
102.7649590129372
 20
-155.751388849951
 30
0.0
 10
102.7649590129372
 20
-155.7830837284153
 30
0.0
 10
102.7649590129372
 20
-155.9246771528591
 30
0.0
 10
102.8941500936341
 20
-156.0135606163786
 30
0.0
 10
102.8941500936341
 20
-156.0135606163786
 30
0.0
 10
102.8752020684652
 20
-156.1892604861263
 30
0.0
 10
102.8752020684652
 20
-156.1892604861263
 30
0.0
 10
102.8752020684652
 20
-156.1892604861263
 30
0.0
 10
102.0287421077393
 20
-156.0686821441426
 30
0.0
 10
102.0287421077393
 20
-156.0686821441426
 30
0.0
 10
102.0287421077393
 20
-156.0686821441426
 30
0.0
 10
102.0287421077393
 20
-155.2900905644761
 30
0.0
 10
102.0287421077393
 20
-155.2900905644761
 30
0.0
 10
102.0287421077393
 20
-155.2900905644761
 30
0.0
 10
102.223390002656
 20
-155.2900905644761
 30
0.0
 10
102.223390002656
 20
-155.2900905644761
 30
0.0
 10
102.223390002656
 20
-155.2900905644761
 30
0.0
 10
102.223390002656
 20
-155.9057291276903
 30
0.0
 10
102.223390002656
 20
-155.9057291276903
 30
0.0
 10
102.223390002656
 20
-155.9057291276903
 30
0.0
 10
102.6464477282446
 20
-155.97118594191
 30
0.0
 10
102.6464477282446
 20
-155.97118594191
 30
0.0
 10
102.6126857924892
 20
-155.9098632422725
 30
0.0
 10
102.5723781753118
 20
-155.8275254601751
 30
0.0
 10
102.5723781753118
 20
-155.7090141754825
 30
0.0
 10
102.5723781753118
 20
-155.4551106382196
 30
0.0
 10
102.7587578410638
 20
-155.2180880688344
 30
0.0
 10
103.071917020673
 20
-155.2180880688344
 30
0.0
 10
103.3892103148645
 20
-155.2180880688344
 30
0.0
 10
103.62382131741
 20
-155.4423637849241
 30
0.0
 10
103.62382131741
 20
-155.7448431685291
 30
0.0
  0
HATCH
  5
E8
330
D8
100
AcDbEntity
  8
_U+30EC_U+30A4_U+30E4_U+30FC 1
 62
     7
420
 16777215
100
AcDbHatch
 10
0.0
 20
0.0
 30
0.0
210
0.0
220
0.0
230
1.0
  2
SOLID
 70
     1
 71
     0
 91
        1
 92
        1
 93
        1
 72
     4
 94
        3
 73
     0
 74
     1
 95
       53
 96
       49
 40
0.0
 40
0.0
 40
0.0
 40
0.0
 40
1.0
 40
1.0
 40
1.0
 40
2.0
 40
2.0
 40
2.0
 40
3.0
 40
3.0
 40
3.0
 40
4.0
 40
4.0
 40
4.0
 40
5.0
 40
5.0
 40
5.0
 40
6.0
 40
6.0
 40
6.0
 40
7.0
 40
7.0
 40
7.0
 40
8.0
 40
8.0
 40
8.0
 40
9.0
 40
9.0
 40
9.0
 40
10.0
 40
10.0
 40
10.0
 40
11.0
 40
11.0
 40
11.0
 40
12.0
 40
12.0
 40
12.0
 40
13.0
 40
13.0
 40
13.0
 40
14.0
 40
14.0
 40
14.0
 40
15.0
 40
15.0
 40
15.0
 40
16.0
 40
16.0
 40
16.0
 40
16.0
 10
103.62382131741
 20
-155.7448431685291
 10
103.62382131741
 20
-155.8230468360443
 10
103.6069403495323
 20
-155.9246771528591
 10
103.5435505926037
 20
-156.026307469674
 10
103.4336520466242
 20
-156.1995957725821
 10
103.3023939086362
 20
-156.2209553645906
 10
103.1945624199479
 20
-156.2399033897595
 10
103.1945624199479
 20
-156.2399033897595
 10
103.1945624199479
 20
-156.0176947309609
 10
103.1945624199479
 20
-156.0176947309609
 10
103.3933444294468
 20
-155.9629177127454
 10
103.4229722506199
 20
-155.8357936893397
 10
103.4229722506199
 20
-155.7427761112379
 10
103.4229722506199
 20
-155.6032497440853
 10
103.3234089910962
 20
-155.4509765236373
 10
103.0908650458419
 20
-155.4509765236373
 10
102.8348944512878
 20
-155.4509765236373
 10
102.7649590129372
 20
-155.6308105079673
 10
102.7649590129372
 20
-155.751388849951
 10
102.7649590129372
 20
-155.7830837284153
 10
102.7649590129372
 20
-155.9246771528591
 10
102.8941500936341
 20
-156.0135606163786
 10
102.8941500936341
 20
-156.0135606163786
 10
102.8752020684652
 20
-156.1892604861263
 10
102.8752020684652
 20
-156.1892604861263
 10
102.8752020684652
 20
-156.1892604861263
 10
102.0287421077393
 20
-156.0686821441426
 10
102.0287421077393
 20
-156.0686821441426
 10
102.0287421077393
 20
-156.0686821441426
 10
102.0287421077393
 20
-155.2900905644761
 10
102.0287421077393
 20
-155.2900905644761
 10
102.0287421077393
 20
-155.2900905644761
 10
102.223390002656
 20
-155.2900905644761
 10
102.223390002656
 20
-155.2900905644761
 10
102.223390002656
 20
-155.2900905644761
 10
102.223390002656
 20
-155.9057291276903
 10
102.223390002656
 20
-155.9057291276903
 10
102.223390002656
 20
-155.9057291276903
 10
102.6464477282446
 20
-155.97118594191
 10
102.6464477282446
 20
-155.97118594191
 10
102.6126857924892
 20
-155.9098632422725
 10
102.5723781753118
 20
-155.8275254601751
 10
102.5723781753118
 20
-155.7090141754825
 10
102.5723781753118
 20
-155.4551106382196
 10
102.7587578410638
 20
-155.2180880688344
 10
103.071917020673
 20
-155.2180880688344
 10
103.3892103148645
 20
-155.2180880688344
 10
103.62382131741
 20
-155.4423637849241
 10
103.62382131741
 20
-155.7448431685291
 97
        0
 97
        0
 75
     2
 76
     1
 98
        0
  0
ENDBLK
  5
DB
330
D8
100
AcDbEntity
  8
0
100
AcDbBlockEnd
  0
ENDSEC
  0
SECTION
  2
ENTITIES
  0
POLYLINE
  5
41
330
1F
100
AcDbEntity
  8
_U+30EC_U+30A4_U+30E4_U+30FC 1
 62
     7
420
 16777215
370
    25
100
AcDb2dPolyline
 66
     1
 10
0.0
 20
0.0
 30
0.0
  0
VERTEX
  5
42
330
41
100
AcDbEntity
  8
_U+30EC_U+30A4_U+30E4_U+30FC 1
 62
     7
420
 16777215
370
    25
100
AcDbVertex
100
AcDb2dVertex
 10
90.1638240886181
 20
-138.6995574653251
 30
0.0
  0
VERTEX
  5
43
330
41
100
AcDbEntity
  8
_U+30EC_U+30A4_U+30E4_U+30FC 1
 62
     7
420
 16777215
370
    25
100
AcDbVertex
100
AcDb2dVertex
 10
115.1640203952544
 20
-138.6995574653251
 30
0.0
  0
SEQEND
  5
44
330
41
100
AcDbEntity
  8
_U+30EC_U+30A4_U+30E4_U+30FC 1
 62
     7
420
 16777215
370
    25
  0
POLYLINE
  5
45
330
1F
100
AcDbEntity
  8
_U+30EC_U+30A4_U+30E4_U+30FC 1
 62
     7
420
 16777215
370
    25
100
AcDb2dPolyline
 66
     1
 10
0.0
 20
0.0
 30
0.0
  0
VERTEX
  5
46
330
45
100
AcDbEntity
  8
_U+30EC_U+30A4_U+30E4_U+30FC 1
 62
     7
420
 16777215
370
    25
100
AcDbVertex
100
AcDb2dVertex
 10
90.1638240886181
 20
-138.6995574653251
 30
0.0
  0
VERTEX
  5
47
330
45
100
AcDbEntity
  8
_U+30EC_U+30A4_U+30E4_U+30FC 1
 62
     7
420
 16777215
370
    25
100
AcDbVertex
100
AcDb2dVertex
 10
90.1638240886181
 20
-160.198999404395
 30
0.0
  0
SEQEND
  5
48
330
45
100
AcDbEntity
  8
_U+30EC_U+30A4_U+30E4_U+30FC 1
 62
     7
420
 16777215
370
    25
  0
POLYLINE
  5
49
330
1F
100
AcDbEntity
  8
_U+30EC_U+30A4_U+30E4_U+30FC 1
 62
     7
420
 16777215
370
    25
100
AcDb2dPolyline
 66
     1
 10
0.0
 20
0.0
 30
0.0
  0
VERTEX
  5
4A
330
49
100
AcDbEntity
  8
_U+30EC_U+30A4_U+30E4_U+30FC 1
 62
     7
420
 16777215
370
    25
100
AcDbVertex
100
AcDb2dVertex
 10
115.1640203952544
 20
-138.6995574653251
 30
0.0
  0
VERTEX
  5
4B
330
49
100
AcDbEntity
  8
_U+30EC_U+30A4_U+30E4_U+30FC 1
 62
     7
420
 16777215
370
    25
100
AcDbVertex
100
AcDb2dVertex
 10
115.1640203952544
 20
-139.6992944095195
 30
0.0
  0
SEQEND
  5
4C
330
49
100
AcDbEntity
  8
_U+30EC_U+30A4_U+30E4_U+30FC 1
 62
     7
420
 16777215
370
    25
  0
POLYLINE
  5
4D
330
1F
100
AcDbEntity
  8
_U+30EC_U+30A4_U+30E4_U+30FC 1
 62
     7
420
 16777215
370
    25
100
AcDb2dPolyline
 66
     1
 10
0.0
 20
0.0
 30
0.0
  0
VERTEX
  5
4E
330
4D
100
AcDbEntity
  8
_U+30EC_U+30A4_U+30E4_U+30FC 1
 62
     7
420
 16777215
370
    25
100
AcDbVertex
100
AcDb2dVertex
 10
91.16394906310279
 20
-139.6992944095195
 30
0.0
  0
VERTEX
  5
4F
330
4D
100
AcDbEntity
  8
_U+30EC_U+30A4_U+30E4_U+30FC 1
 62
     7
420
 16777215
370
    25
100
AcDbVertex
100
AcDb2dVertex
 10
115.1640203952544
 20
-139.6992944095195
 30
0.0
  0
SEQEND
  5
50
330
4D
100
AcDbEntity
  8
_U+30EC_U+30A4_U+30E4_U+30FC 1
 62
     7
420
 16777215
370
    25
  0
POLYLINE
  5
51
330
1F
100
AcDbEntity
  8
_U+30EC_U+30A4_U+30E4_U+30FC 1
 62
     7
420
 16777215
370
    25
100
AcDb2dPolyline
 66
     1
 10
0.0
 20
0.0
 30
0.0
  0
VERTEX
  5
52
330
51
100
AcDbEntity
  8
_U+30EC_U+30A4_U+30E4_U+30FC 1
 62
     7
420
 16777215
370
    25
100
AcDbVertex
100
AcDb2dVertex
 10
100.1694130000209
 20
-159.1992271824224
 30
0.0
  0
VERTEX
  5
53
330
51
100
AcDbEntity
  8
_U+30EC_U+30A4_U+30E4_U+30FC 1
 62
     7
420
 16777215
370
    25
100
AcDbVertex
100
AcDb2dVertex
 10
100.1694130000209
 20
-159.6987957934088
 30
0.0
  0
SEQEND
  5
54
330
51
100
AcDbEntity
  8
_U+30EC_U+30A4_U+30E4_U+30FC 1
 62
     7
420
 16777215
370
    25
  0
POLYLINE
  5
55
330
1F
100
AcDbEntity
  8
_U+30EC_U+30A4_U+30E4_U+30FC 1
 62
     7
420
 16777215
370
    25
100
AcDb2dPolyline
 66
     1
 10
0.0
 20
0.0
 30
0.0
  0
VERTEX
  5
56
330
55
100
AcDbEntity
  8
_U+30EC_U+30A4_U+30E4_U+30FC 1
 62
     7
420
 16777215
370
    25
100
AcDbVertex
100
AcDb2dVertex
 10
91.16394906310279
 20
-159.1992271824224
 30
0.0
  0
VERTEX
  5
57
330
55
100
AcDbEntity
  8
_U+30EC_U+30A4_U+30E4_U+30FC 1
 62
     7
420
 16777215
370
    25
100
AcDbVertex
100
AcDb2dVertex
 10
100.1694130000209
 20
-159.1992271824224
 30
0.0
  0
SEQEND
  5
58
330
55
100
AcDbEntity
  8
_U+30EC_U+30A4_U+30E4_U+30FC 1
 62
     7
420
 16777215
370
    25
  0
POLYLINE
  5
59
330
1F
100
AcDbEntity
  8
_U+30EC_U+30A4_U+30E4_U+30FC 1
 62
     7
420
 16777215
370
    25
100
AcDb2dPolyline
 66
     1
 10
0.0
 20
0.0
 30
0.0
  0
VERTEX
  5
5A
330
59
100
AcDbEntity
  8
_U+30EC_U+30A4_U+30E4_U+30FC 1
 62
     7
420
 16777215
370
    25
100
AcDbVertex
100
AcDb2dVertex
 10
90.1638240886181
 20
-160.198999404395
 30
0.0
  0
VERTEX
  5
5B
330
59
100
AcDbEntity
  8
_U+30EC_U+30A4_U+30E4_U+30FC 1
 62
     7
420
 16777215
370
    25
100
AcDbVertex
100
AcDb2dVertex
 10
100.1694130000209
 20
-159.6987957934088
 30
0.0
  0
SEQEND
  5
5C
330
59
100
AcDbEntity
  8
_U+30EC_U+30A4_U+30E4_U+30FC 1
 62
     7
420
 16777215
370
    25
  0
POLYLINE
  5
5D
330
1F
100
AcDbEntity
  8
_U+30EC_U+30A4_U+30E4_U+30FC 1
 62
     7
420
 16777215
370
    25
100
AcDb2dPolyline
 66
     1
 10
0.0
 20
0.0
 30
0.0
  0
VERTEX
  5
5E
330
5D
100
AcDbEntity
  8
_U+30EC_U+30A4_U+30E4_U+30FC 1
 62
     7
420
 16777215
370
    25
100
AcDbVertex
100
AcDb2dVertex
 10
91.16394906310279
 20
-139.6992944095195
 30
0.0
  0
VERTEX
  5
5F
330
5D
100
AcDbEntity
  8
_U+30EC_U+30A4_U+30E4_U+30FC 1
 62
     7
420
 16777215
370
    25
100
AcDbVertex
100
AcDb2dVertex
 10
91.16394906310279
 20
-159.1992271824224
 30
0.0
  0
SEQEND
  5
60
330
5D
100
AcDbEntity
  8
_U+30EC_U+30A4_U+30E4_U+30FC 1
 62
     7
420
 16777215
370
    25
  0
SPLINE
  5
61
330
1F
100
AcDbEntity
  8
_U+30EC_U+30A4_U+30E4_U+30FC 1
 62
     7
420
 16777215
370
     9
100
AcDbSpline
210
0.0
220
0.0
230
1.0
 70
    11
 71
     3
 72
    17
 73
    13
 74
     0
 42
0.0000000001
 43
0.0000000001
 12
1.0
 22
0.0
 32
0.0
 13
1.0
 23
0.0
 33
0.0
 40
0.0
 40
0.0
 40
0.0
 40
0.0
 40
1.0
 40
1.0
 40
1.0
 40
2.0
 40
2.0
 40
2.0
 40
3.0
 40
3.0
 40
3.0
 40
4.0
 40
4.0
 40
4.0
 40
4.0
 10
90.26373075273594
 20
-134.6996219107697
 30
0.0
 10
90.26373075273594
 20
-134.6444827441166
 30
0.0
 10
90.21896325387804
 20
-134.5997152441277
 30
0.0
 10
90.1638240886181
 20
-134.5997152441277
 30
0.0
 10
90.10872020113503
 20
-134.5997152441277
 30
0.0
 10
90.06391742450026
 20
-134.6444827441166
 30
0.0
 10
90.06391742450026
 20
-134.6996219107697
 30
0.0
 10
90.06391742450026
 20
-134.7550785774223
 30
0.0
 10
90.10872020113503
 20
-134.7998813551891
 30
0.0
 10
90.1638240886181
 20
-134.7998813551891
 30
0.0
 10
90.21896325387804
 20
-134.7998813551891
 30
0.0
 10
90.26373075273594
 20
-134.7550785774223
 30
0.0
 10
90.26373075273594
 20
-134.6996219107697
 30
0.0
  0
SPLINE
  5
62
330
1F
100
AcDbEntity
  8
_U+30EC_U+30A4_U+30E4_U+30FC 1
 62
     7
420
 16777215
370
     9
100
AcDbSpline
210
0.0
220
0.0
230
1.0
 70
    11
 71
     3
 72
    17
 73
    13
 74
     0
 42
0.0000000001
 43
0.0000000001
 12
1.0
 22
0.0
 32
0.0
 13
1.0
 23
0.0
 33
0.0
 40
0.0
 40
0.0
 40
0.0
 40
0.0
 40
1.0
 40
1.0
 40
1.0
 40
2.0
 40
2.0
 40
2.0
 40
3.0
 40
3.0
 40
3.0
 40
4.0
 40
4.0
 40
4.0
 40
4.0
 10
115.2639270593722
 20
-134.6996219107697
 30
0.0
 10
115.2639270593722
 20
-134.6444827441166
 30
0.0
 10
115.2191595605143
 20
-134.5997152441277
 30
0.0
 10
115.1640203952544
 20
-134.5997152441277
 30
0.0
 10
115.1089194156671
 20
-134.5997152441277
 30
0.0
 10
115.0641166379004
 20
-134.6444827441166
 30
0.0
 10
115.0641166379004
 20
-134.6996219107697
 30
0.0
 10
115.0641166379004
 20
-134.7550785774223
 30
0.0
 10
115.1089194156671
 20
-134.7998813551891
 30
0.0
 10
115.1640203952544
 20
-134.7998813551891
 30
0.0
 10
115.2191595605143
 20
-134.7998813551891
 30
0.0
 10
115.2639270593722
 20
-134.7550785774223
 30
0.0
 10
115.2639270593722
 20
-134.6996219107697
 30
0.0
  0
SPLINE
  5
63
330
1F
100
AcDbEntity
  8
_U+30EC_U+30A4_U+30E4_U+30FC 1
 62
     7
420
 16777215
370
     9
100
AcDbSpline
210
0.0
220
0.0
230
1.0
 70
    11
 71
     3
 72
    17
 73
    13
 74
     0
 42
0.0000000001
 43
0.0000000001
 12
1.0
 22
0.0
 32
0.0
 13
1.0
 23
0.0
 33
0.0
 40
0.0
 40
0.0
 40
0.0
 40
0.0
 40
1.0
 40
1.0
 40
1.0
 40
2.0
 40
2.0
 40
2.0
 40
3.0
 40
3.0
 40
3.0
 40
4.0
 40
4.0
 40
4.0
 40
4.0
 10
119.2636861239965
 20
-138.6995574653251
 30
0.0
 10
119.2636861239965
 20
-138.6440655208946
 30
0.0
 10
119.2189186251387
 20
-138.5992980209057
 30
0.0
 10
119.1637794598787
 20
-138.5992980209057
 30
0.0
 10
119.1086755723956
 20
-138.5992980209057
 30
0.0
 10
119.0638727957609
 20
-138.6440655208946
 30
0.0
 10
119.0638727957609
 20
-138.6995574653251
 30
0.0
 10
119.0638727957609
 20
-138.7546613542004
 30
0.0
 10
119.1086755723956
 20
-138.7994641319667
 30
0.0
 10
119.1637794598787
 20
-138.7994641319667
 30
0.0
 10
119.2189186251387
 20
-138.7994641319667
 30
0.0
 10
119.2636861239965
 20
-138.7546613542004
 30
0.0
 10
119.2636861239965
 20
-138.6995574653251
 30
0.0
  0
SPLINE
  5
64
330
1F
100
AcDbEntity
  8
_U+30EC_U+30A4_U+30E4_U+30FC 1
 62
     7
420
 16777215
370
     9
100
AcDbSpline
210
0.0
220
0.0
230
1.0
 70
    11
 71
     3
 72
    17
 73
    13
 74
     0
 42
0.0000000001
 43
0.0000000001
 12
1.0
 22
0.0
 32
0.0
 13
1.0
 23
0.0
 33
0.0
 40
0.0
 40
0.0
 40
0.0
 40
0.0
 40
1.0
 40
1.0
 40
1.0
 40
2.0
 40
2.0
 40
2.0
 40
3.0
 40
3.0
 40
3.0
 40
4.0
 40
4.0
 40
4.0
 40
4.0
 10
119.2636861239965
 20
-139.6992944095195
 30
0.0
 10
119.2636861239965
 20
-139.6441905206446
 30
0.0
 10
119.2189186251387
 20
-139.5993877428778
 30
0.0
 10
119.1637794598787
 20
-139.5993877428778
 30
0.0
 10
119.1086755723956
 20
-139.5993877428778
 30
0.0
 10
119.0638727957609
 20
-139.6441905206446
 30
0.0
 10
119.0638727957609
 20
-139.6992944095195
 30
0.0
 10
119.0638727957609
 20
-139.7544335761726
 30
0.0
 10
119.1086755723956
 20
-139.799236353939
 30
0.0
 10
119.1637794598787
 20
-139.799236353939
 30
0.0
 10
119.2189186251387
 20
-139.799236353939
 30
0.0
 10
119.2636861239965
 20
-139.7544335761726
 30
0.0
 10
119.2636861239965
 20
-139.6992944095195
 30
0.0
  0
SPLINE
  5
65
330
1F
100
AcDbEntity
  8
_U+30EC_U+30A4_U+30E4_U+30FC 1
 62
     7
420
 16777215
370
     9
100
AcDbSpline
210
0.0
220
0.0
230
1.0
 70
    11
 71
     3
 72
    17
 73
    13
 74
     0
 42
0.0000000001
 43
0.0000000001
 12
1.0
 22
0.0
 32
0.0
 13
1.0
 23
0.0
 33
0.0
 40
0.0
 40
0.0
 40
0.0
 40
0.0
 40
1.0
 40
1.0
 40
1.0
 40
2.0
 40
2.0
 40
2.0
 40
3.0
 40
3.0
 40
3.0
 40
4.0
 40
4.0
 40
4.0
 40
4.0
 10
119.2636861239965
 20
-159.1992271824224
 30
0.0
 10
119.2636861239965
 20
-159.143417737992
 30
0.0
 10
119.2189186251387
 20
-159.0986502380034
 30
0.0
 10
119.1637794598787
 20
-159.0986502380034
 30
0.0
 10
119.1086755723956
 20
-159.0986502380034
 30
0.0
 10
119.0638727957609
 20
-159.143417737992
 30
0.0
 10
119.0638727957609
 20
-159.1992271824224
 30
0.0
 10
119.0638727957609
 20
-159.2543663490755
 30
0.0
 10
119.1086755723956
 20
-159.2991338490641
 30
0.0
 10
119.1637794598787
 20
-159.2991338490641
 30
0.0
 10
119.2189186251387
 20
-159.2991338490641
 30
0.0
 10
119.2636861239965
 20
-159.2543663490755
 30
0.0
 10
119.2636861239965
 20
-159.1992271824224
 30
0.0
  0
SPLINE
  5
66
330
1F
100
AcDbEntity
  8
_U+30EC_U+30A4_U+30E4_U+30FC 1
 62
     7
420
 16777215
370
     9
100
AcDbSpline
210
0.0
220
0.0
230
1.0
 70
    11
 71
     3
 72
    17
 73
    13
 74
     0
 42
0.0000000001
 43
0.0000000001
 12
1.0
 22
0.0
 32
0.0
 13
1.0
 23
0.0
 33
0.0
 40
0.0
 40
0.0
 40
0.0
 40
0.0
 40
1.0
 40
1.0
 40
1.0
 40
2.0
 40
2.0
 40
2.0
 40
3.0
 40
3.0
 40
3.0
 40
4.0
 40
4.0
 40
4.0
 40
4.0
 10
104.2694315065318
 20
-159.1992271824224
 30
0.0
 10
104.2694315065318
 20
-159.143417737992
 30
0.0
 10
104.2246287298971
 20
-159.0986502380034
 30
0.0
 10
104.169524842414
 20
-159.0986502380034
 30
0.0
 10
104.1143856771541
 20
-159.0986502380034
 30
0.0
 10
104.0696181782962
 20
-159.143417737992
 30
0.0
 10
104.0696181782962
 20
-159.1992271824224
 30
0.0
 10
104.0696181782962
 20
-159.2543663490755
 30
0.0
 10
104.1143856771541
 20
-159.2991338490641
 30
0.0
 10
104.169524842414
 20
-159.2991338490641
 30
0.0
 10
104.2246287298971
 20
-159.2991338490641
 30
0.0
 10
104.2694315065318
 20
-159.2543663490755
 30
0.0
 10
104.2694315065318
 20
-159.1992271824224
 30
0.0
  0
SPLINE
  5
67
330
1F
100
AcDbEntity
  8
_U+30EC_U+30A4_U+30E4_U+30FC 1
 62
     7
420
 16777215
370
     9
100
AcDbSpline
210
0.0
220
0.0
230
1.0
 70
    11
 71
     3
 72
    17
 73
    13
 74
     0
 42
0.0000000001
 43
0.0000000001
 12
1.0
 22
0.0
 32
0.0
 13
1.0
 23
0.0
 33
0.0
 40
0.0
 40
0.0
 40
0.0
 40
0.0
 40
1.0
 40
1.0
 40
1.0
 40
2.0
 40
2.0
 40
2.0
 40
3.0
 40
3.0
 40
3.0
 40
4.0
 40
4.0
 40
4.0
 40
4.0
 10
104.2694315065318
 20
-159.6987957934088
 30
0.0
 10
104.2694315065318
 20
-159.6436566267557
 30
0.0
 10
104.2246287298971
 20
-159.5988891267671
 30
0.0
 10
104.169524842414
 20
-159.5988891267671
 30
0.0
 10
104.1143856771541
 20
-159.5988891267671
 30
0.0
 10
104.0696181782962
 20
-159.6436566267557
 30
0.0
 10
104.0696181782962
 20
-159.6987957934088
 30
0.0
 10
104.0696181782962
 20
-159.7538996822837
 30
0.0
 10
104.1143856771541
 20
-159.7987024600504
 30
0.0
 10
104.169524842414
 20
-159.7987024600504
 30
0.0
 10
104.2246287298971
 20
-159.7987024600504
 30
0.0
 10
104.2694315065318
 20
-159.7538996822837
 30
0.0
 10
104.2694315065318
 20
-159.6987957934088
 30
0.0
  0
SPLINE
  5
68
330
1F
100
AcDbEntity
  8
_U+30EC_U+30A4_U+30E4_U+30FC 1
 62
     7
420
 16777215
370
     9
100
AcDbSpline
210
0.0
220
0.0
230
1.0
 70
    11
 71
     3
 72
    17
 73
    13
 74
     0
 42
0.0000000001
 43
0.0000000001
 12
1.0
 22
0.0
 32
0.0
 13
1.0
 23
0.0
 33
0.0
 40
0.0
 40
0.0
 40
0.0
 40
0.0
 40
1.0
 40
1.0
 40
1.0
 40
2.0
 40
2.0
 40
2.0
 40
3.0
 40
3.0
 40
3.0
 40
4.0
 40
4.0
 40
4.0
 40
4.0
 10
100.2700277527101
 20
-164.1987585700612
 30
0.0
 10
100.2700277527101
 20
-164.1436546811863
 30
0.0
 10
100.2252249749437
 20
-164.0988519034196
 30
0.0
 10
100.1694130000209
 20
-164.0988519034196
 30
0.0
 10
100.1143091125379
 20
-164.0988519034196
 30
0.0
 10
100.0695063359031
 20
-164.1436546811863
 30
0.0
 10
100.0695063359031
 20
-164.1987585700612
 30
0.0
 10
100.0695063359031
 20
-164.2538977367143
 30
0.0
 10
100.1143091125379
 20
-164.2986652367028
 30
0.0
 10
100.1694130000209
 20
-164.2986652367028
 30
0.0
 10
100.2252249749437
 20
-164.2986652367028
 30
0.0
 10
100.2700277527101
 20
-164.2538977367143
 30
0.0
 10
100.2700277527101
 20
-164.1987585700612
 30
0.0
  0
SPLINE
  5
69
330
1F
100
AcDbEntity
  8
_U+30EC_U+30A4_U+30E4_U+30FC 1
 62
     7
420
 16777215
370
     9
100
AcDbSpline
210
0.0
220
0.0
230
1.0
 70
    11
 71
     3
 72
    17
 73
    13
 74
     0
 42
0.0000000001
 43
0.0000000001
 12
1.0
 22
0.0
 32
0.0
 13
1.0
 23
0.0
 33
0.0
 40
0.0
 40
0.0
 40
0.0
 40
0.0
 40
1.0
 40
1.0
 40
1.0
 40
2.0
 40
2.0
 40
2.0
 40
3.0
 40
3.0
 40
3.0
 40
4.0
 40
4.0
 40
4.0
 40
4.0
 10
90.26373075273594
 20
-164.1987585700612
 30
0.0
 10
90.26373075273594
 20
-164.1436546811863
 30
0.0
 10
90.21896325387804
 20
-164.0988519034196
 30
0.0
 10
90.1638240886181
 20
-164.0988519034196
 30
0.0
 10
90.10872020113503
 20
-164.0988519034196
 30
0.0
 10
90.06391742450026
 20
-164.1436546811863
 30
0.0
 10
90.06391742450026
 20
-164.1987585700612
 30
0.0
 10
90.06391742450026
 20
-164.2538977367143
 30
0.0
 10
90.10872020113503
 20
-164.2986652367028
 30
0.0
 10
90.1638240886181
 20
-164.2986652367028
 30
0.0
 10
90.21896325387804
 20
-164.2986652367028
 30
0.0
 10
90.26373075273594
 20
-164.2538977367143
 30
0.0
 10
90.26373075273594
 20
-164.1987585700612
 30
0.0
  0
POLYLINE
  5
6A
330
1F
100
AcDbEntity
  8
_U+30EC_U+30A4_U+30E4_U+30FC 1
 62
     7
420
 16777215
370
     9
100
AcDb2dPolyline
 66
     1
 10
0.0
 20
0.0
 30
0.0
  0
VERTEX
  5
6B
330
6A
100
AcDbEntity
  8
_U+30EC_U+30A4_U+30E4_U+30FC 1
 62
     7
420
 16777215
370
     9
100
AcDbVertex
100
AcDb2dVertex
 10
90.1638240886181
 20
-134.6996219107697
 30
0.0
  0
VERTEX
  5
6C
330
6A
100
AcDbEntity
  8
_U+30EC_U+30A4_U+30E4_U+30FC 1
 62
     7
420
 16777215
370
     9
100
AcDbVertex
100
AcDb2dVertex
 10
115.1640203952544
 20
-134.6996219107697
 30
0.0
  0
SEQEND
  5
6D
330
6A
100
AcDbEntity
  8
_U+30EC_U+30A4_U+30E4_U+30FC 1
 62
     7
420
 16777215
370
     9
  0
POLYLINE
  5
6E
330
1F
100
AcDbEntity
  8
_U+30EC_U+30A4_U+30E4_U+30FC 1
 62
     7
420
 16777215
370
     9
100
AcDb2dPolyline
 66
     1
 10
0.0
 20
0.0
 30
0.0
  0
VERTEX
  5
6F
330
6E
100
AcDbEntity
  8
_U+30EC_U+30A4_U+30E4_U+30FC 1
 62
     7
420
 16777215
370
     9
100
AcDbVertex
100
AcDb2dVertex
 10
90.1638240886181
 20
-136.1591341326271
 30
0.0
  0
VERTEX
  5
70
330
6E
100
AcDbEntity
  8
_U+30EC_U+30A4_U+30E4_U+30FC 1
 62
     7
420
 16777215
370
     9
100
AcDbVertex
100
AcDb2dVertex
 10
90.1638240886181
 20
-133.6998496887974
 30
0.0
  0
SEQEND
  5
71
330
6E
100
AcDbEntity
  8
_U+30EC_U+30A4_U+30E4_U+30FC 1
 62
     7
420
 16777215
370
     9
  0
POLYLINE
  5
72
330
1F
100
AcDbEntity
  8
_U+30EC_U+30A4_U+30E4_U+30FC 1
 62
     7
420
 16777215
370
     9
100
AcDb2dPolyline
 66
     1
 10
0.0
 20
0.0
 30
0.0
  0
VERTEX
  5
73
330
72
100
AcDbEntity
  8
_U+30EC_U+30A4_U+30E4_U+30FC 1
 62
     7
420
 16777215
370
     9
100
AcDbVertex
100
AcDb2dVertex
 10
115.1640203952544
 20
-136.1591341326271
 30
0.0
  0
VERTEX
  5
74
330
72
100
AcDbEntity
  8
_U+30EC_U+30A4_U+30E4_U+30FC 1
 62
     7
420
 16777215
370
     9
100
AcDbVertex
100
AcDb2dVertex
 10
115.1640203952544
 20
-133.6998496887974
 30
0.0
  0
SEQEND
  5
75
330
72
100
AcDbEntity
  8
_U+30EC_U+30A4_U+30E4_U+30FC 1
 62
     7
420
 16777215
370
     9
  0
INSERT
  5
77
330
1F
100
AcDbEntity
  8
_U+30EC_U+30A4_U+30E4_U+30FC 1
100
AcDbBlockReference
  2
block 2
 10
0.0
 20
0.0
 30
0.0
  0
POLYLINE
  5
7E
330
1F
100
AcDbEntity
  8
_U+30EC_U+30A4_U+30E4_U+30FC 1
 62
     7
420
 16777215
370
     9
100
AcDb2dPolyline
 66
     1
 10
0.0
 20
0.0
 30
0.0
  0
VERTEX
  5
7F
330
7E
100
AcDbEntity
  8
_U+30EC_U+30A4_U+30E4_U+30FC 1
 62
     7
420
 16777215
370
     9
100
AcDbVertex
100
AcDb2dVertex
 10
90.1638240886181
 20
-164.1987585700612
 30
0.0
  0
VERTEX
  5
80
330
7E
100
AcDbEntity
  8
_U+30EC_U+30A4_U+30E4_U+30FC 1
 62
     7
420
 16777215
370
     9
100
AcDbVertex
100
AcDb2dVertex
 10
100.1694130000209
 20
-164.1987585700612
 30
0.0
  0
SEQEND
  5
81
330
7E
100
AcDbEntity
  8
_U+30EC_U+30A4_U+30E4_U+30FC 1
 62
     7
420
 16777215
370
     9
  0
POLYLINE
  5
82
330
1F
100
AcDbEntity
  8
_U+30EC_U+30A4_U+30E4_U+30FC 1
 62
     7
420
 16777215
370
     9
100
AcDb2dPolyline
 66
     1
 10
0.0
 20
0.0
 30
0.0
  0
VERTEX
  5
83
330
82
100
AcDbEntity
  8
_U+30EC_U+30A4_U+30E4_U+30FC 1
 62
     7
420
 16777215
370
     9
100
AcDbVertex
100
AcDb2dVertex
 10
90.1638240886181
 20
-162.7387171815375
 30
0.0
  0
VERTEX
  5
84
330
82
100
AcDbEntity
  8
_U+30EC_U+30A4_U+30E4_U+30FC 1
 62
     7
420
 16777215
370
     9
100
AcDbVertex
100
AcDb2dVertex
 10
90.1638240886181
 20
-165.1992363475893
 30
0.0
  0
SEQEND
  5
85
330
82
100
AcDbEntity
  8
_U+30EC_U+30A4_U+30E4_U+30FC 1
 62
     7
420
 16777215
370
     9
  0
POLYLINE
  5
86
330
1F
100
AcDbEntity
  8
_U+30EC_U+30A4_U+30E4_U+30FC 1
 62
     7
420
 16777215
370
     9
100
AcDb2dPolyline
 66
     1
 10
0.0
 20
0.0
 30
0.0
  0
VERTEX
  5
87
330
86
100
AcDbEntity
  8
_U+30EC_U+30A4_U+30E4_U+30FC 1
 62
     7
420
 16777215
370
     9
100
AcDbVertex
100
AcDb2dVertex
 10
100.1694130000209
 20
-162.2391838483293
 30
0.0
  0
VERTEX
  5
88
330
86
100
AcDbEntity
  8
_U+30EC_U+30A4_U+30E4_U+30FC 1
 62
     7
420
 16777215
370
     9
100
AcDbVertex
100
AcDb2dVertex
 10
100.1694130000209
 20
-165.1992363475893
 30
0.0
  0
SEQEND
  5
89
330
86
100
AcDbEntity
  8
_U+30EC_U+30A4_U+30E4_U+30FC 1
 62
     7
420
 16777215
370
     9
  0
INSERT
  5
8B
330
1F
100
AcDbEntity
  8
_U+30EC_U+30A4_U+30E4_U+30FC 1
100
AcDbBlockReference
  2
block 3
 10
0.0
 20
0.0
 30
0.0
  0
POLYLINE
  5
93
330
1F
100
AcDbEntity
  8
_U+30EC_U+30A4_U+30E4_U+30FC 1
 62
     7
420
 16777215
370
     9
100
AcDb2dPolyline
 66
     1
 10
0.0
 20
0.0
 30
0.0
  0
VERTEX
  5
94
330
93
100
AcDbEntity
  8
_U+30EC_U+30A4_U+30E4_U+30FC 1
 62
     7
420
 16777215
370
     9
100
AcDbVertex
100
AcDb2dVertex
 10
104.169524842414
 20
-159.1992271824224
 30
0.0
  0
VERTEX
  5
95
330
93
100
AcDbEntity
  8
_U+30EC_U+30A4_U+30E4_U+30FC 1
 62
     7
420
 16777215
370
     9
100
AcDbVertex
100
AcDb2dVertex
 10
104.169524842414
 20
-160.6992382931587
 30
0.0
  0
SEQEND
  5
96
330
93
100
AcDbEntity
  8
_U+30EC_U+30A4_U+30E4_U+30FC 1
 62
     7
420
 16777215
370
     9
  0
POLYLINE
  5
97
330
1F
100
AcDbEntity
  8
_U+30EC_U+30A4_U+30E4_U+30FC 1
 62
     7
420
 16777215
370
     9
100
AcDb2dPolyline
 66
     1
 10
0.0
 20
0.0
 30
0.0
  0
VERTEX
  5
98
330
97
100
AcDbEntity
  8
_U+30EC_U+30A4_U+30E4_U+30FC 1
 62
     7
420
 16777215
370
     9
100
AcDbVertex
100
AcDb2dVertex
 10
102.7094860854339
 20
-159.1992271824224
 30
0.0
  0
VERTEX
  5
99
330
97
100
AcDbEntity
  8
_U+30EC_U+30A4_U+30E4_U+30FC 1
 62
     7
420
 16777215
370
     9
100
AcDbVertex
100
AcDb2dVertex
 10
105.1692970391299
 20
-159.1992271824224
 30
0.0
  0
SEQEND
  5
9A
330
97
100
AcDbEntity
  8
_U+30EC_U+30A4_U+30E4_U+30FC 1
 62
     7
420
 16777215
370
     9
  0
POLYLINE
  5
9B
330
1F
100
AcDbEntity
  8
_U+30EC_U+30A4_U+30E4_U+30FC 1
 62
     7
420
 16777215
370
     9
100
AcDb2dPolyline
 66
     1
 10
0.0
 20
0.0
 30
0.0
  0
VERTEX
  5
9C
330
9B
100
AcDbEntity
  8
_U+30EC_U+30A4_U+30E4_U+30FC 1
 62
     7
420
 16777215
370
     9
100
AcDbVertex
100
AcDb2dVertex
 10
102.7094860854339
 20
-159.6987957934088
 30
0.0
  0
VERTEX
  5
9D
330
9B
100
AcDbEntity
  8
_U+30EC_U+30A4_U+30E4_U+30FC 1
 62
     7
420
 16777215
370
     9
100
AcDbVertex
100
AcDb2dVertex
 10
105.1692970391299
 20
-159.6987957934088
 30
0.0
  0
SEQEND
  5
9E
330
9B
100
AcDbEntity
  8
_U+30EC_U+30A4_U+30E4_U+30FC 1
 62
     7
420
 16777215
370
     9
  0
POLYLINE
  5
9F
330
1F
100
AcDbEntity
  8
_U+30EC_U+30A4_U+30E4_U+30FC 1
 62
     7
420
 16777215
370
     9
100
AcDb2dPolyline
 66
     1
 10
0.0
 20
0.0
 30
0.0
  0
VERTEX
  5
A0
330
9F
100
AcDbEntity
  8
_U+30EC_U+30A4_U+30E4_U+30FC 1
 62
     7
420
 16777215
370
     9
100
AcDbVertex
100
AcDb2dVertex
 10
119.1637794598787
 20
-138.6995574653251
 30
0.0
  0
VERTEX
  5
A1
330
9F
100
AcDbEntity
  8
_U+30EC_U+30A4_U+30E4_U+30FC 1
 62
     7
420
 16777215
370
     9
100
AcDbVertex
100
AcDb2dVertex
 10
119.1637794598787
 20
-134.9297388551565
 30
0.0
  0
SEQEND
  5
A2
330
9F
100
AcDbEntity
  8
_U+30EC_U+30A4_U+30E4_U+30FC 1
 62
     7
420
 16777215
370
     9
  0
POLYLINE
  5
A3
330
1F
100
AcDbEntity
  8
_U+30EC_U+30A4_U+30E4_U+30FC 1
 62
     7
420
 16777215
370
     9
100
AcDb2dPolyline
 66
     1
 10
0.0
 20
0.0
 30
0.0
  0
VERTEX
  5
A4
330
A3
100
AcDbEntity
  8
_U+30EC_U+30A4_U+30E4_U+30FC 1
 62
     7
420
 16777215
370
     9
100
AcDbVertex
100
AcDb2dVertex
 10
119.1637794598787
 20
-138.6995574653251
 30
0.0
  0
VERTEX
  5
A5
330
A3
100
AcDbEntity
  8
_U+30EC_U+30A4_U+30E4_U+30FC 1
 62
     7
420
 16777215
370
     9
100
AcDbVertex
100
AcDb2dVertex
 10
119.1637794598787
 20
-139.6992944095195
 30
0.0
  0
SEQEND
  5
A6
330
A3
100
AcDbEntity
  8
_U+30EC_U+30A4_U+30E4_U+30FC 1
 62
     7
420
 16777215
370
     9
  0
POLYLINE
  5
A7
330
1F
100
AcDbEntity
  8
_U+30EC_U+30A4_U+30E4_U+30FC 1
 62
     7
420
 16777215
370
     9
100
AcDb2dPolyline
 66
     1
 10
0.0
 20
0.0
 30
0.0
  0
VERTEX
  5
A8
330
A7
100
AcDbEntity
  8
_U+30EC_U+30A4_U+30E4_U+30FC 1
 62
     7
420
 16777215
370
     9
100
AcDbVertex
100
AcDb2dVertex
 10
117.7037381082386
 20
-138.6995574653251
 30
0.0
  0
VERTEX
  5
A9
330
A7
100
AcDbEntity
  8
_U+30EC_U+30A4_U+30E4_U+30FC 1
 62
     7
420
 16777215
370
     9
100
AcDbVertex
100
AcDb2dVertex
 10
120.1635516565946
 20
-138.6995574653251
 30
0.0
  0
SEQEND
  5
AA
330
A7
100
AcDbEntity
  8
_U+30EC_U+30A4_U+30E4_U+30FC 1
 62
     7
420
 16777215
370
     9
  0
POLYLINE
  5
AB
330
1F
100
AcDbEntity
  8
_U+30EC_U+30A4_U+30E4_U+30FC 1
 62
     7
420
 16777215
370
     9
100
AcDb2dPolyline
 66
     1
 10
0.0
 20
0.0
 30
0.0
  0
VERTEX
  5
AC
330
AB
100
AcDbEntity
  8
_U+30EC_U+30A4_U+30E4_U+30FC 1
 62
     7
420
 16777215
370
     9
100
AcDbVertex
100
AcDb2dVertex
 10
117.7037381082386
 20
-139.6992944095195
 30
0.0
  0
VERTEX
  5
AD
330
AB
100
AcDbEntity
  8
_U+30EC_U+30A4_U+30E4_U+30FC 1
 62
     7
420
 16777215
370
     9
100
AcDbVertex
100
AcDb2dVertex
 10
120.1635516565946
 20
-139.6992944095195
 30
0.0
  0
SEQEND
  5
AE
330
AB
100
AcDbEntity
  8
_U+30EC_U+30A4_U+30E4_U+30FC 1
 62
     7
420
 16777215
370
     9
  0
INSERT
  5
B0
330
1F
100
AcDbEntity
  8
_U+30EC_U+30A4_U+30E4_U+30FC 1
100
AcDbBlockReference
  2
block 4
 10
0.0
 20
0.0
 30
0.0
  0
POLYLINE
  5
B5
330
1F
100
AcDbEntity
  8
_U+30EC_U+30A4_U+30E4_U+30FC 1
 62
     7
420
 16777215
370
     9
100
AcDb2dPolyline
 66
     1
 10
0.0
 20
0.0
 30
0.0
  0
VERTEX
  5
B6
330
B5
100
AcDbEntity
  8
_U+30EC_U+30A4_U+30E4_U+30FC 1
 62
     7
420
 16777215
370
     9
100
AcDbVertex
100
AcDb2dVertex
 10
119.1637794598787
 20
-139.6992944095195
 30
0.0
  0
VERTEX
  5
B7
330
B5
100
AcDbEntity
  8
_U+30EC_U+30A4_U+30E4_U+30FC 1
 62
     7
420
 16777215
370
     9
100
AcDbVertex
100
AcDb2dVertex
 10
119.1637794598787
 20
-159.1992271824224
 30
0.0
  0
SEQEND
  5
B8
330
B5
100
AcDbEntity
  8
_U+30EC_U+30A4_U+30E4_U+30FC 1
 62
     7
420
 16777215
370
     9
  0
POLYLINE
  5
B9
330
1F
100
AcDbEntity
  8
_U+30EC_U+30A4_U+30E4_U+30FC 1
 62
     7
420
 16777215
370
     9
100
AcDb2dPolyline
 66
     1
 10
0.0
 20
0.0
 30
0.0
  0
VERTEX
  5
BA
330
B9
100
AcDbEntity
  8
_U+30EC_U+30A4_U+30E4_U+30FC 1
 62
     7
420
 16777215
370
     9
100
AcDbVertex
100
AcDb2dVertex
 10
117.7037381082386
 20
-139.6992944095195
 30
0.0
  0
VERTEX
  5
BB
330
B9
100
AcDbEntity
  8
_U+30EC_U+30A4_U+30E4_U+30FC 1
 62
     7
420
 16777215
370
     9
100
AcDbVertex
100
AcDb2dVertex
 10
120.1635516565946
 20
-139.6992944095195
 30
0.0
  0
SEQEND
  5
BC
330
B9
100
AcDbEntity
  8
_U+30EC_U+30A4_U+30E4_U+30FC 1
 62
     7
420
 16777215
370
     9
  0
POLYLINE
  5
BD
330
1F
100
AcDbEntity
  8
_U+30EC_U+30A4_U+30E4_U+30FC 1
 62
     7
420
 16777215
370
     9
100
AcDb2dPolyline
 66
     1
 10
0.0
 20
0.0
 30
0.0
  0
VERTEX
  5
BE
330
BD
100
AcDbEntity
  8
_U+30EC_U+30A4_U+30E4_U+30FC 1
 62
     7
420
 16777215
370
     9
100
AcDbVertex
100
AcDb2dVertex
 10
102.7094860854339
 20
-159.1992271824224
 30
0.0
  0
VERTEX
  5
BF
330
BD
100
AcDbEntity
  8
_U+30EC_U+30A4_U+30E4_U+30FC 1
 62
     7
420
 16777215
370
     9
100
AcDbVertex
100
AcDb2dVertex
 10
120.1635516565946
 20
-159.1992271824224
 30
0.0
  0
SEQEND
  5
C0
330
BD
100
AcDbEntity
  8
_U+30EC_U+30A4_U+30E4_U+30FC 1
 62
     7
420
 16777215
370
     9
  0
INSERT
  5
C2
330
1F
100
AcDbEntity
  8
_U+30EC_U+30A4_U+30E4_U+30FC 1
100
AcDbBlockReference
  2
block 5
 10
0.0
 20
0.0
 30
0.0
  0
POLYLINE
  5
D4
330
1F
100
AcDbEntity
  8
_U+30EC_U+30A4_U+30E4_U+30FC 1
 62
     7
420
 16777215
370
     9
100
AcDb2dPolyline
 66
     1
 10
0.0
 20
0.0
 30
0.0
  0
VERTEX
  5
D5
330
D4
100
AcDbEntity
  8
_U+30EC_U+30A4_U+30E4_U+30FC 1
 62
     7
420
 16777215
370
     9
100
AcDbVertex
100
AcDb2dVertex
 10
104.169524842414
 20
-159.1992271824224
 30
0.0
  0
VERTEX
  5
D6
330
D4
100
AcDbEntity
  8
_U+30EC_U+30A4_U+30E4_U+30FC 1
 62
     7
420
 16777215
370
     9
100
AcDbVertex
100
AcDb2dVertex
 10
104.169524842414
 20
-154.737858294649
 30
0.0
  0
SEQEND
  5
D7
330
D4
100
AcDbEntity
  8
_U+30EC_U+30A4_U+30E4_U+30FC 1
 62
     7
420
 16777215
370
     9
  0
INSERT
  5
D9
330
1F
100
AcDbEntity
  8
_U+30EC_U+30A4_U+30E4_U+30FC 1
100
AcDbBlockReference
  2
block 6
 10
0.0
 20
0.0
 30
0.0
  0
ENDSEC
  0
SECTION
  2
OBJECTS
  0
DICTIONARY
  5
C
330
0
100
AcDbDictionary
281
     1
  3
ACAD_GROUP
350
D
  3
ACAD_LAYOUT
350
1A
  3
ACAD_MATERIAL
350
3B
  3
ACAD_MLEADERSTYLE
350
EA
  3
ACAD_MLINESTYLE
350
17
  3
ACAD_PLOTSETTINGS
350
19
  3
ACAD_PLOTSTYLENAME
350
E
  3
ACAD_TABLESTYLE
350
E9
  3
ACAD_VISUALSTYLE
350
2A
  0
SUN
  5
3F
330
29
100
AcDbSun
 90
        1
290
     0
 63
     7
421
 16777215
 40
1.0
291
     1
 91
  2455826
 92
 54000000
292
     0
 70
     2
 71
   256
280
     1
  0
DICTIONARY
  5
D
102
{ACAD_REACTORS
330
C
102
}
330
C
100
AcDbDictionary
281
     1
  0
DICTIONARY
  5
1A
102
{ACAD_REACTORS
330
C
102
}
330
C
100
AcDbDictionary
281
     1
  3
Layout1
350
1E
  3
Layout2
350
26
  3
Model
350
22
  0
DICTIONARY
  5
3B
102
{ACAD_REACTORS
330
C
102
}
330
C
100
AcDbDictionary
281
     1
  3
ByBlock
350
3D
  3
ByLayer
350
3C
  3
Global
350
3E
  0
DICTIONARY
  5
EA
102
{ACAD_REACTORS
330
C
102
}
330
C
100
AcDbDictionary
281
     1
  0
DICTIONARY
  5
17
102
{ACAD_REACTORS
330
C
102
}
330
C
100
AcDbDictionary
281
     1
  3
Standard
350
18
  0
DICTIONARY
  5
19
102
{ACAD_REACTORS
330
C
102
}
330
C
100
AcDbDictionary
281
     1
  0
ACDBDICTIONARYWDFLT
  5
E
102
{ACAD_REACTORS
330
C
102
}
330
C
100
AcDbDictionary
281
     1
  3
Normal
350
F
100
AcDbDictionaryWithDefault
340
F
  0
DICTIONARY
  5
E9
102
{ACAD_REACTORS
330
C
102
}
330
C
100
AcDbDictionary
281
     1
  0
DICTIONARY
  5
2A
102
{ACAD_REACTORS
330
C
102
}
330
C
100
AcDbDictionary
281
     1
  3
2dWireframe
350
2F
  3
3D Hidden
350
31
  3
3dWireframe
350
30
  3
Basic
350
32
  3
Brighten
350
36
  3
ColorChange
350
3A
  3
Conceptual
350
34
  3
Dim
350
35
  3
Facepattern
350
39
  3
Flat
350
2B
  3
FlatWithEdges
350
2C
  3
Gouraud
350
2D
  3
GouraudWithEdges
350
2E
  3
Linepattern
350
38
  3
Realistic
350
33
  3
Thicken
350
37
  0
LAYOUT
  5
1E
102
{ACAD_REACTORS
330
1A
102
}
330
1A
100
AcDbPlotSettings
  1

  2
none_device
  4

  6

 40
0.0
 41
0.0
 42
0.0
 43
0.0
 44
0.0
 45
0.0
 46
0.0
 47
0.0
 48
0.0
 49
0.0
140
0.0
141
0.0
142
1.0
143
1.0
 70
   688
 72
     0
 73
     0
 74
     5
  7

 75
    16
 76
     0
 77
     2
 78
   300
147
1.0
148
0.0
149
0.0
100
AcDbLayout
  1
Layout1
 70
     1
 71
     1
 10
0.0
 20
0.0
 11
12.0
 21
9.0
 12
0.0
 22
0.0
 32
0.0
 14
1.000000000000000E+20
 24
1.000000000000000E+20
 34
1.000000000000000E+20
 15
-1.000000000000000E+20
 25
-1.000000000000000E+20
 35
-1.000000000000000E+20
146
0.0
 13
0.0
 23
0.0
 33
0.0
 16
1.0
 26
0.0
 36
0.0
 17
0.0
 27
1.0
 37
0.0
 76
     0
330
1B
  0
LAYOUT
  5
26
102
{ACAD_REACTORS
330
1A
102
}
330
1A
100
AcDbPlotSettings
  1

  2
none_device
  4

  6

 40
0.0
 41
0.0
 42
0.0
 43
0.0
 44
0.0
 45
0.0
 46
0.0
 47
0.0
 48
0.0
 49
0.0
140
0.0
141
0.0
142
1.0
143
1.0
 70
   688
 72
     0
 73
     0
 74
     5
  7

 75
    16
 76
     0
 77
     2
 78
   300
147
1.0
148
0.0
149
0.0
100
AcDbLayout
  1
Layout2
 70
     1
 71
     2
 10
0.0
 20
0.0
 11
0.0
 21
0.0
 12
0.0
 22
0.0
 32
0.0
 14
0.0
 24
0.0
 34
0.0
 15
0.0
 25
0.0
 35
0.0
146
0.0
 13
0.0
 23
0.0
 33
0.0
 16
1.0
 26
0.0
 36
0.0
 17
0.0
 27
1.0
 37
0.0
 76
     0
330
23
  0
LAYOUT
  5
22
102
{ACAD_REACTORS
330
1A
102
}
330
1A
100
AcDbPlotSettings
  1

  2
none_device
  4

  6

 40
0.0
 41
0.0
 42
0.0
 43
0.0
 44
0.0
 45
0.0
 46
0.0
 47
0.0
 48
0.0
 49
0.0
140
0.0
141
0.0
142
1.0
143
1.0
 70
  1712
 72
     0
 73
     0
 74
     0
  7

 75
     0
 76
     0
 77
     2
 78
   300
147
1.0
148
0.0
149
0.0
100
AcDbLayout
  1
Model
 70
     1
 71
     0
 10
0.0
 20
0.0
 11
12.0
 21
9.0
 12
0.0
 22
0.0
 32
0.0
 14
1.000000000000000E+20
 24
1.000000000000000E+20
 34
1.000000000000000E+20
 15
-1.000000000000000E+20
 25
-1.000000000000000E+20
 35
-1.000000000000000E+20
146
0.0
 13
0.0
 23
0.0
 33
0.0
 16
1.0
 26
0.0
 36
0.0
 17
0.0
 27
1.0
 37
0.0
 76
     0
330
1F
331
29
  0
MATERIAL
  5
3D
102
{ACAD_REACTORS
330
3B
102
}
330
3B
100
AcDbMaterial
  1
ByBlock
 72
     1
 94
      127
  0
MATERIAL
  5
3C
102
{ACAD_REACTORS
330
3B
102
}
330
3B
100
AcDbMaterial
  1
ByLayer
 72
     1
 94
      127
  0
MATERIAL
  5
3E
102
{ACAD_REACTORS
330
3B
102
}
330
3B
100
AcDbMaterial
  1
Global
 72
     1
 94
      127
  0
MLINESTYLE
  5
18
102
{ACAD_REACTORS
330
17
102
}
330
17
100
AcDbMlineStyle
  2
Standard
 70
     0
  3

 62
   256
 51
90.0
 52
90.0
 71
     2
 49
0.5
 62
   256
  6
BYLAYER
 49
-0.5
 62
   256
  6
BYLAYER
  0
ACDBPLACEHOLDER
  5
F
102
{ACAD_REACTORS
330
E
102
}
330
E
  0
VISUALSTYLE
  5
2F
102
{ACAD_REACTORS
330
2A
102
}
330
2A
100
AcDbVisualStyle
  2
2dWireframe
 70
     4
177
     2
291
     0
 71
     0
176
     1
 72
     2
176
     1
 73
     0
176
     1
 90
        0
176
     1
 40
-0.6
176
     1
 41
-30.0
176
     1
 62
     5
 63
     7
421
 16777215
176
     1
 74
     1
176
     1
 91
        4
176
     1
 64
     7
176
     1
 65
   257
176
     1
 75
     1
176
     1
175
     1
176
     1
 42
1.0
176
     1
 92
        0
176
     1
 66
   257
176
     1
 43
1.0
176
     1
 76
     1
176
     1
 77
     6
176
     1
 78
     2
176
     1
 67
     7
176
     1
 79
     5
176
     1
170
     0
176
     1
171
     0
176
     1
290
     0
176
     1
 93
        1
176
     1
 44
0.0
176
     1
173
     0
176
     1
  0
VISUALSTYLE
  5
31
102
{ACAD_REACTORS
330
2A
102
}
330
2A
100
AcDbVisualStyle
  2
3D Hidden
 70
     6
177
     2
291
     0
 71
     1
176
     1
 72
     2
176
     1
 73
     2
176
     1
 90
        0
176
     1
 40
-0.6
176
     1
 41
-30.0
176
     1
 62
     5
 63
     7
421
 16777215
176
     1
 74
     2
176
     1
 91
        2
176
     1
 64
     7
176
     1
 65
   257
176
     1
 75
     2
176
     1
175
     1
176
     1
 42
40.0
176
     1
 92
        0
176
     1
 66
   257
176
     1
 43
1.0
176
     1
 76
     1
176
     1
 77
     6
176
     1
 78
     2
176
     1
 67
     7
176
     1
 79
     3
176
     1
170
     0
176
     1
171
     0
176
     1
290
     0
176
     1
 93
        1
176
     1
 44
0.0
176
     1
173
     0
176
     1
  0
VISUALSTYLE
  5
30
102
{ACAD_REACTORS
330
2A
102
}
330
2A
100
AcDbVisualStyle
  2
3dWireframe
 70
     5
177
     2
291
     0
 71
     0
176
     1
 72
     2
176
     1
 73
     0
176
     1
 90
        0
176
     1
 40
-0.6
176
     1
 41
-30.0
176
     1
 62
     5
 63
     7
421
 16777215
176
     1
 74
     1
176
     1
 91
        4
176
     1
 64
     7
176
     1
 65
   257
176
     1
 75
     1
176
     1
175
     1
176
     1
 42
1.0
176
     1
 92
        0
176
     1
 66
   257
176
     1
 43
1.0
176
     1
 76
     1
176
     1
 77
     6
176
     1
 78
     2
176
     1
 67
     7
176
     1
 79
     5
176
     1
170
     0
176
     1
171
     0
176
     1
290
     0
176
     1
 93
        1
176
     1
 44
0.0
176
     1
173
     0
176
     1
  0
VISUALSTYLE
  5
32
102
{ACAD_REACTORS
330
2A
102
}
330
2A
100
AcDbVisualStyle
  2
Basic
 70
     7
177
     2
291
     1
 71
     1
176
     1
 72
     0
176
     1
 73
     1
176
     1
 90
        0
176
     1
 40
-0.6
176
     1
 41
-30.0
176
     1
 62
     5
 63
     7
421
 16777215
176
     1
 74
     0
176
     1
 91
        4
176
     1
 64
     7
176
     1
 65
   257
176
     1
 75
     1
176
     1
175
     1
176
     1
 42
1.0
176
     1
 92
        8
176
     1
 66
     7
176
     1
 43
1.0
176
     1
 76
     1
176
     1
 77
     6
176
     1
 78
     2
176
     1
 67
     7
176
     1
 79
     5
176
     1
170
     0
176
     1
171
     0
176
     1
290
     0
176
     1
 93
        1
176
     1
 44
0.0
176
     1
173
     0
176
     1
  0
VISUALSTYLE
  5
36
102
{ACAD_REACTORS
330
2A
102
}
330
2A
100
AcDbVisualStyle
  2
Brighten
 70
    12
177
     2
291
     1
 71
     2
176
     1
 72
     2
176
     1
 73
     0
176
     1
 90
        0
176
     1
 40
-0.6
176
     1
 41
-30.0
176
     1
 62
     5
 63
     7
421
 16777215
176
     1
 74
     1
176
     1
 91
        4
176
     1
 64
     7
176
     1
 65
   257
176
     1
 75
     1
176
     1
175
     1
176
     1
 42
1.0
176
     1
 92
        8
176
     1
 66
     7
176
     1
 43
1.0
176
     1
 76
     1
176
     1
 77
     6
176
     1
 78
     2
176
     1
 67
     7
176
     1
 79
     5
176
     1
170
     0
176
     1
171
     0
176
     1
290
     0
176
     1
 93
        1
176
     1
 44
50.0
176
     1
173
     0
176
     1
  0
VISUALSTYLE
  5
3A
102
{ACAD_REACTORS
330
2A
102
}
330
2A
100
AcDbVisualStyle
  2
ColorChange
 70
    16
177
     2
291
     1
 71
     2
176
     1
 72
     2
176
     1
 73
     3
176
     1
 90
        0
176
     1
 40
-0.6
176
     1
 41
-30.0
176
     1
 62
     5
 63
     8
421
  8421504
176
     1
 74
     1
176
     1
 91
        4
176
     1
 64
     7
176
     1
 65
   257
176
     1
 75
     1
176
     1
175
     1
176
     1
 42
1.0
176
     1
 92
        8
176
     1
 66
     8
424
  8421504
176
     1
 43
1.0
176
     1
 76
     1
176
     1
 77
     6
176
     1
 78
     2
176
     1
 67
     7
176
     1
 79
     5
176
     1
170
     0
176
     1
171
     0
176
     1
290
     0
176
     1
 93
        1
176
     1
 44
0.0
176
     1
173
     0
176
     1
  0
VISUALSTYLE
  5
34
102
{ACAD_REACTORS
330
2A
102
}
330
2A
100
AcDbVisualStyle
  2
Conceptual
 70
     9
177
     2
291
     0
 71
     3
176
     1
 72
     2
176
     1
 73
     0
176
     1
 90
        0
176
     1
 40
-0.6
176
     1
 41
-30.0
176
     1
 62
     5
 63
     7
421
 16777215
176
     1
 74
     2
176
     1
 91
        2
176
     1
 64
     7
176
     1
 65
   257
176
     1
 75
     1
176
     1
175
     1
176
     1
 42
40.0
176
     1
 92
        8
176
     1
 66
     7
176
     1
 43
1.0
176
     1
 76
     1
176
     1
 77
     6
176
     1
 78
     2
176
     1
 67
     7
176
     1
 79
     3
176
     1
170
     0
176
     1
171
     0
176
     1
290
     0
176
     1
 93
        1
176
     1
 44
0.0
176
     1
173
     0
176
     1
  0
VISUALSTYLE
  5
35
102
{ACAD_REACTORS
330
2A
102
}
330
2A
100
AcDbVisualStyle
  2
Dim
 70
    11
177
     2
291
     1
 71
     2
176
     1
 72
     2
176
     1
 73
     0
176
     1
 90
        0
176
     1
 40
-0.6
176
     1
 41
-30.0
176
     1
 62
     5
 63
     7
421
 16777215
176
     1
 74
     1
176
     1
 91
        4
176
     1
 64
     7
176
     1
 65
   257
176
     1
 75
     1
176
     1
175
     1
176
     1
 42
1.0
176
     1
 92
        8
176
     1
 66
     7
176
     1
 43
1.0
176
     1
 76
     1
176
     1
 77
     6
176
     1
 78
     2
176
     1
 67
     7
176
     1
 79
     5
176
     1
170
     0
176
     1
171
     0
176
     1
290
     0
176
     1
 93
        1
176
     1
 44
-50.0
176
     1
173
     0
176
     1
  0
VISUALSTYLE
  5
39
102
{ACAD_REACTORS
330
2A
102
}
330
2A
100
AcDbVisualStyle
  2
Facepattern
 70
    15
177
     2
291
     1
 71
     2
176
     1
 72
     2
176
     1
 73
     0
176
     1
 90
        0
176
     1
 40
-0.6
176
     1
 41
-30.0
176
     1
 62
     5
 63
     7
421
 16777215
176
     1
 74
     1
176
     1
 91
        4
176
     1
 64
     7
176
     1
 65
   257
176
     1
 75
     1
176
     1
175
     1
176
     1
 42
1.0
176
     1
 92
        8
176
     1
 66
     7
176
     1
 43
1.0
176
     1
 76
     1
176
     1
 77
     6
176
     1
 78
     2
176
     1
 67
     7
176
     1
 79
     5
176
     1
170
     0
176
     1
171
     0
176
     1
290
     0
176
     1
 93
        1
176
     1
 44
0.0
176
     1
173
     0
176
     1
  0
VISUALSTYLE
  5
2B
102
{ACAD_REACTORS
330
2A
102
}
330
2A
100
AcDbVisualStyle
  2
Flat
 70
     0
177
     2
291
     1
 71
     2
176
     1
 72
     1
176
     1
 73
     1
176
     1
 90
        2
176
     1
 40
-0.6
176
     1
 41
30.0
176
     1
 62
     5
 63
     7
421
 16777215
176
     1
 74
     0
176
     1
 91
        4
176
     1
 64
     7
176
     1
 65
   257
176
     1
 75
     1
176
     1
175
     1
176
     1
 42
1.0
176
     1
 92
        8
176
     1
 66
     7
176
     1
 43
1.0
176
     1
 76
     1
176
     1
 77
     6
176
     1
 78
     2
176
     1
 67
     7
176
     1
 79
     5
176
     1
170
     0
176
     1
171
     0
176
     1
290
     0
176
     1
 93
       13
176
     1
 44
0.0
176
     1
173
     0
176
     1
  0
VISUALSTYLE
  5
2C
102
{ACAD_REACTORS
330
2A
102
}
330
2A
100
AcDbVisualStyle
  2
FlatWithEdges
 70
     1
177
     2
291
     1
 71
     2
176
     1
 72
     1
176
     1
 73
     1
176
     1
 90
        2
176
     1
 40
-0.6
176
     1
 41
30.0
176
     1
 62
     5
 63
     7
421
 16777215
176
     1
 74
     1
176
     1
 91
        4
176
     1
 64
     7
176
     1
 65
   257
176
     1
 75
     1
176
     1
175
     1
176
     1
 42
1.0
176
     1
 92
        0
176
     1
 66
   257
176
     1
 43
1.0
176
     1
 76
     1
176
     1
 77
     6
176
     1
 78
     2
176
     1
 67
     7
176
     1
 79
     5
176
     1
170
     0
176
     1
171
     0
176
     1
290
     0
176
     1
 93
       13
176
     1
 44
0.0
176
     1
173
     0
176
     1
  0
VISUALSTYLE
  5
2D
102
{ACAD_REACTORS
330
2A
102
}
330
2A
100
AcDbVisualStyle
  2
Gouraud
 70
     2
177
     2
291
     1
 71
     2
176
     1
 72
     2
176
     1
 73
     1
176
     1
 90
        2
176
     1
 40
-0.6
176
     1
 41
30.0
176
     1
 62
     5
 63
     7
421
 16777215
176
     1
 74
     0
176
     1
 91
        4
176
     1
 64
     7
176
     1
 65
   257
176
     1
 75
     1
176
     1
175
     1
176
     1
 42
1.0
176
     1
 92
        0
176
     1
 66
     7
176
     1
 43
1.0
176
     1
 76
     1
176
     1
 77
     6
176
     1
 78
     2
176
     1
 67
     7
176
     1
 79
     5
176
     1
170
     0
176
     1
171
     0
176
     1
290
     0
176
     1
 93
       13
176
     1
 44
0.0
176
     1
173
     0
176
     1
  0
VISUALSTYLE
  5
2E
102
{ACAD_REACTORS
330
2A
102
}
330
2A
100
AcDbVisualStyle
  2
GouraudWithEdges
 70
     3
177
     2
291
     1
 71
     2
176
     1
 72
     2
176
     1
 73
     1
176
     1
 90
        2
176
     1
 40
-0.6
176
     1
 41
30.0
176
     1
 62
     5
 63
     7
421
 16777215
176
     1
 74
     1
176
     1
 91
        4
176
     1
 64
     7
176
     1
 65
   257
176
     1
 75
     1
176
     1
175
     1
176
     1
 42
1.0
176
     1
 92
        0
176
     1
 66
   257
176
     1
 43
1.0
176
     1
 76
     1
176
     1
 77
     6
176
     1
 78
     2
176
     1
 67
     7
176
     1
 79
     5
176
     1
170
     0
176
     1
171
     0
176
     1
290
     0
176
     1
 93
       13
176
     1
 44
0.0
176
     1
173
     0
176
     1
  0
VISUALSTYLE
  5
38
102
{ACAD_REACTORS
330
2A
102
}
330
2A
100
AcDbVisualStyle
  2
Linepattern
 70
    14
177
     2
291
     1
 71
     2
176
     1
 72
     2
176
     1
 73
     0
176
     1
 90
        0
176
     1
 40
-0.6
176
     1
 41
-30.0
176
     1
 62
     5
 63
     7
421
 16777215
176
     1
 74
     1
176
     1
 91
        4
176
     1
 64
     7
176
     1
 65
   257
176
     1
 75
     7
176
     1
175
     7
176
     1
 42
1.0
176
     1
 92
        8
176
     1
 66
     7
176
     1
 43
1.0
176
     1
 76
     1
176
     1
 77
     6
176
     1
 78
     2
176
     1
 67
     7
176
     1
 79
     5
176
     1
170
     0
176
     1
171
     0
176
     1
290
     0
176
     1
 93
        1
176
     1
 44
0.0
176
     1
173
     0
176
     1
  0
VISUALSTYLE
  5
33
102
{ACAD_REACTORS
330
2A
102
}
330
2A
100
AcDbVisualStyle
  2
Realistic
 70
     8
177
     2
291
     0
 71
     2
176
     1
 72
     2
176
     1
 73
     0
176
     1
 90
        0
176
     1
 40
-0.6
176
     1
 41
-30.0
176
     1
 62
     5
 63
     7
421
 16777215
176
     1
 74
     1
176
     1
 91
        0
176
     1
 64
     7
176
     1
 65
   257
176
     1
 75
     1
176
     1
175
     1
176
     1
 42
1.0
176
     1
 92
        8
176
     1
 66
     8
424
  7895160
176
     1
 43
1.0
176
     1
 76
     1
176
     1
 77
     6
176
     1
 78
     2
176
     1
 67
     7
176
     1
 79
     5
176
     1
170
     0
176
     1
171
     0
176
     1
290
     0
176
     1
 93
       13
176
     1
 44
0.0
176
     1
173
     0
176
     1
  0
VISUALSTYLE
  5
37
102
{ACAD_REACTORS
330
2A
102
}
330
2A
100
AcDbVisualStyle
  2
Thicken
 70
    13
177
     2
291
     1
 71
     2
176
     1
 72
     2
176
     1
 73
     0
176
     1
 90
        0
176
     1
 40
-0.6
176
     1
 41
-30.0
176
     1
 62
     5
 63
     7
421
 16777215
176
     1
 74
     1
176
     1
 91
        4
176
     1
 64
     7
176
     1
 65
   257
176
     1
 75
     1
176
     1
175
     1
176
     1
 42
1.0
176
     1
 92
       12
176
     1
 66
     7
176
     1
 43
1.0
176
     1
 76
     1
176
     1
 77
     6
176
     1
 78
     2
176
     1
 67
     7
176
     1
 79
     5
176
     1
170
     0
176
     1
171
     0
176
     1
290
     0
176
     1
 93
        1
176
     1
 44
0.0
176
     1
173
     0
176
     1
  0
ENDSEC
  0
EOF
