  0
SECTION
  2
HEADER
  9
$ACADVER
  1
AC1024
  9
$ACADMAINTVER
 70
     6
  9
$DWGCODEPAGE
  3
UNDEFINED
  9
$INSBASE
 10
0.0
 20
0.0
 30
0.0
  9
$EXTMIN
 10
1.000000000000000E+20
 20
1.000000000000000E+20
 30
1.000000000000000E+20
  9
$EXTMAX
 10
-1.000000000000000E+20
 20
-1.000000000000000E+20
 30
-1.000000000000000E+20
  9
$LIMMIN
 10
0.0
 20
0.0
  9
$LIMMAX
 10
12.0
 20
9.0
  9
$ORTHOMODE
 70
     0
  9
$REGENMODE
 70
     1
  9
$FILLMODE
 70
     1
  9
$QTEXTMODE
 70
     0
  9
$MIRRTEXT
 70
     1
  9
$LTSCALE
 40
1.0
  9
$ATTMODE
 70
     1
  9
$TEXTSIZE
 40
0.2
  9
$TRACEWID
 40
0.05
  9
$TEXTSTYLE
  7
Standard
  9
$CLAYER
  8
0
  9
$CELTYPE
  6
ByLayer
  9
$CECOLOR
 62
   256
  9
$CELTSCALE
 40
1.0
  9
$DISPSILH
 70
     0
  9
$DIMSCALE
 40
1.0
  9
$DIMASZ
 40
0.18
  9
$DIMEXO
 40
0.0625
  9
$DIMDLI
 40
0.38
  9
$DIMRND
 40
0.0
  9
$DIMDLE
 40
0.0
  9
$DIMEXE
 40
0.18
  9
$DIMTP
 40
0.0
  9
$DIMTM
 40
0.0
  9
$DIMTXT
 40
0.18
  9
$DIMCEN
 40
0.09
  9
$DIMTSZ
 40
0.0
  9
$DIMTOL
 70
     0
  9
$DIMLIM
 70
     0
  9
$DIMTIH
 70
     1
  9
$DIMTOH
 70
     1
  9
$DIMSE1
 70
     0
  9
$DIMSE2
 70
     0
  9
$DIMTAD
 70
     0
  9
$DIMZIN
 70
     0
  9
$DIMBLK
  1

  9
$DIMASO
 70
     1
  9
$DIMSHO
 70
     1
  9
$DIMPOST
  1

  9
$DIMAPOST
  1

  9
$DIMALT
 70
     0
  9
$DIMALTD
 70
     2
  9
$DIMALTF
 40
25.4
  9
$DIMLFAC
 40
1.0
  9
$DIMTOFL
 70
     0
  9
$DIMTVP
 40
0.0
  9
$DIMTIX
 70
     0
  9
$DIMSOXD
 70
     0
  9
$DIMSAH
 70
     0
  9
$DIMBLK1
  1

  9
$DIMBLK2
  1

  9
$DIMSTYLE
  2
Standard
  9
$DIMCLRD
 70
     0
  9
$DIMCLRE
 70
     0
  9
$DIMCLRT
 70
     0
  9
$DIMTFAC
 40
1.0
  9
$DIMGAP
 40
0.09
  9
$DIMJUST
 70
     0
  9
$DIMSD1
 70
     0
  9
$DIMSD2
 70
     0
  9
$DIMTOLJ
 70
     1
  9
$DIMTZIN
 70
     0
  9
$DIMALTZ
 70
     0
  9
$DIMALTTZ
 70
     0
  9
$DIMUPT
 70
     0
  9
$DIMDEC
 70
     4
  9
$DIMTDEC
 70
     4
  9
$DIMALTU
 70
     2
  9
$DIMALTTD
 70
     2
  9
$DIMTXSTY
  7
Standard
  9
$DIMAUNIT
 70
     0
  9
$DIMADEC
 70
     0
  9
$DIMALTRND
 40
0.0
  9
$DIMAZIN
 70
     0
  9
$DIMDSEP
 70
    46
  9
$DIMATFIT
 70
     3
  9
$DIMFRAC
 70
     0
  9
$DIMLDRBLK
  1

  9
$DIMLUNIT
 70
     2
  9
$DIMLWD
 70
    -2
  9
$DIMLWE
 70
    -2
  9
$DIMTMOVE
 70
     0
  9
$DIMFXL
 40
1.0
  9
$DIMFXLON
 70
     0
  9
$DIMJOGANG
 40
0.7853981633974483
  9
$DIMTFILL
 70
     0
  9
$DIMTFILLCLR
 70
     0
  9
$DIMARCSYM
 70
     0
  9
$DIMLTYPE
  6

  9
$DIMLTEX1
  6

  9
$DIMLTEX2
  6

  9
$DIMTXTDIRECTION
 70
     0
  9
$LUNITS
 70
     2
  9
$LUPREC
 70
     4
  9
$SKETCHINC
 40
0.1
  9
$FILLETRAD
 40
0.5
  9
$AUNITS
 70
     0
  9
$AUPREC
 70
     0
  9
$MENU
  1
.
  9
$ELEVATION
 40
0.0
  9
$PELEVATION
 40
0.0
  9
$THICKNESS
 40
0.0
  9
$LIMCHECK
 70
     0
  9
$CHAMFERA
 40
0.5
  9
$CHAMFERB
 40
0.5
  9
$CHAMFERC
 40
1.0
  9
$CHAMFERD
 40
0.0
  9
$SKPOLY
 70
     0
  9
$TDCREATE
 40
2457917.588611099
  9
$TDUCREATE
 40
2457917.213611111
  9
$TDUPDATE
 40
2457917.588611099
  9
$TDUUPDATE
 40
2457917.213611111
  9
$TDINDWG
 40
0.0000000116
  9
$TDUSRTIMER
 40
0.0000000116
  9
$USRTIMER
 70
     1
  9
$ANGBASE
 50
0.0
  9
$ANGDIR
 70
     0
  9
$PDMODE
 70
     0
  9
$PDSIZE
 40
0.0
  9
$PLINEWID
 40
0.0
  9
$SPLFRAME
 70
     0
  9
$SPLINETYPE
 70
     6
  9
$SPLINESEGS
 70
     8
  9
$HANDSEED
  5
C7
  9
$SURFTAB1
 70
     6
  9
$SURFTAB2
 70
     6
  9
$SURFTYPE
 70
     6
  9
$SURFU
 70
     6
  9
$SURFV
 70
     6
  9
$UCSBASE
  2

  9
$UCSNAME
  2

  9
$UCSORG
 10
0.0
 20
0.0
 30
0.0
  9
$UCSXDIR
 10
1.0
 20
0.0
 30
0.0
  9
$UCSYDIR
 10
0.0
 20
1.0
 30
0.0
  9
$UCSORTHOREF
  2

  9
$UCSORTHOVIEW
 70
     0
  9
$UCSORGTOP
 10
0.0
 20
0.0
 30
0.0
  9
$UCSORGBOTTOM
 10
0.0
 20
0.0
 30
0.0
  9
$UCSORGLEFT
 10
0.0
 20
0.0
 30
0.0
  9
$UCSORGRIGHT
 10
0.0
 20
0.0
 30
0.0
  9
$UCSORGFRONT
 10
0.0
 20
0.0
 30
0.0
  9
$UCSORGBACK
 10
0.0
 20
0.0
 30
0.0
  9
$PUCSBASE
  2

  9
$PUCSNAME
  2

  9
$PUCSORG
 10
0.0
 20
0.0
 30
0.0
  9
$PUCSXDIR
 10
1.0
 20
0.0
 30
0.0
  9
$PUCSYDIR
 10
0.0
 20
1.0
 30
0.0
  9
$PUCSORTHOREF
  2

  9
$PUCSORTHOVIEW
 70
     0
  9
$PUCSORGTOP
 10
0.0
 20
0.0
 30
0.0
  9
$PUCSORGBOTTOM
 10
0.0
 20
0.0
 30
0.0
  9
$PUCSORGLEFT
 10
0.0
 20
0.0
 30
0.0
  9
$PUCSORGRIGHT
 10
0.0
 20
0.0
 30
0.0
  9
$PUCSORGFRONT
 10
0.0
 20
0.0
 30
0.0
  9
$PUCSORGBACK
 10
0.0
 20
0.0
 30
0.0
  9
$USERI1
 70
     0
  9
$USERI2
 70
     0
  9
$USERI3
 70
     0
  9
$USERI4
 70
     0
  9
$USERI5
 70
     0
  9
$USERR1
 40
0.0
  9
$USERR2
 40
0.0
  9
$USERR3
 40
0.0
  9
$USERR4
 40
0.0
  9
$USERR5
 40
0.0
  9
$WORLDVIEW
 70
     1
  9
$SHADEDGE
 70
     3
  9
$SHADEDIF
 70
    70
  9
$TILEMODE
 70
     1
  9
$MAXACTVP
 70
    64
  9
$PINSBASE
 10
0.0
 20
0.0
 30
0.0
  9
$PLIMCHECK
 70
     0
  9
$PEXTMIN
 10
1.000000000000000E+20
 20
1.000000000000000E+20
 30
1.000000000000000E+20
  9
$PEXTMAX
 10
-1.000000000000000E+20
 20
-1.000000000000000E+20
 30
-1.000000000000000E+20
  9
$PLIMMIN
 10
0.0
 20
0.0
  9
$PLIMMAX
 10
12.0
 20
9.0
  9
$UNITMODE
 70
     0
  9
$VISRETAIN
 70
     1
  9
$PLINEGEN
 70
     0
  9
$PSLTSCALE
 70
     1
  9
$TREEDEPTH
 70
  3020
  9
$CMLSTYLE
  2
Standard
  9
$CMLJUST
 70
     0
  9
$CMLSCALE
 40
1.0
  9
$PROXYGRAPHICS
 70
     1
  9
$MEASUREMENT
 70
     0
  9
$CELWEIGHT
370
    -1
  9
$ENDCAPS
280
     0
  9
$JOINSTYLE
280
     0
  9
$LWDISPLAY
290
     1
  9
$INSUNITS
 70
     1
  9
$HYPERLINKBASE
  1

  9
$STYLESHEET
  1

  9
$XEDIT
290
     1
  9
$CEPSNTYPE
380
     0
  9
$PSTYLEMODE
290
     1
  9
$FINGERPRINTGUID
  2
{A8D81F28-52F7-89D5-6414-06FB5F550630}
  9
$VERSIONGUID
  2
{FAEB1C32-E019-11D5-929B-00C0DF256EC4}
  9
$EXTNAMES
290
     1
  9
$PSVPSCALE
 40
0.0
  9
$OLESTARTUP
290
     0
  9
$SORTENTS
280
   127
  9
$INDEXCTL
280
     0
  9
$HIDETEXT
280
     1
  9
$XCLIPFRAME
280
     2
  9
$HALOGAP
280
     0
  9
$OBSCOLOR
 70
   257
  9
$OBSLTYPE
280
     0
  9
$INTERSECTIONDISPLAY
280
     0
  9
$INTERSECTIONCOLOR
 70
   257
  9
$DIMASSOC
280
     2
  9
$PROJECTNAME
  1

  9
$CAMERADISPLAY
290
     0
  9
$LENSLENGTH
 40
50.0
  9
$CAMERAHEIGHT
 40
0.0
  9
$STEPSPERSEC
 40
2.0
  9
$STEPSIZE
 40
6.0
  9
$3DDWFPREC
 40
2.0
  9
$PSOLWIDTH
 40
0.25
  9
$PSOLHEIGHT
 40
4.0
  9
$LOFTANG1
 40
1.570796326794897
  9
$LOFTANG2
 40
1.570796326794897
  9
$LOFTMAG1
 40
0.0
  9
$LOFTMAG2
 40
0.0
  9
$LOFTPARAM
 70
     7
  9
$LOFTNORMALS
280
     1
  9
$LATITUDE
 40
37.795
  9
$LONGITUDE
 40
-122.394
  9
$NORTHDIRECTION
 40
0.0
  9
$TIMEZONE
 70
 -8000
  9
$LIGHTGLYPHDISPLAY
280
     1
  9
$TILEMODELIGHTSYNCH
280
     1
  9
$CMATERIAL
347
3C
  9
$SOLIDHIST
280
     1
  9
$SHOWHIST
280
     1
  9
$DWFFRAME
280
     2
  9
$DGNFRAME
280
     2
  9
$REALWORLDSCALE
290
     1
  9
$INTERFERECOLOR
 62
   256
  9
$CSHADOW
280
     0
  9
$SHADOWPLANELOCATION
 40
0.0
  0
ENDSEC
  0
SECTION
  2
CLASSES
  0
CLASS
  1
ACDBDICTIONARYWDFLT
  2
AcDbDictionaryWithDefault
  3
ObjectDBX Classes
 90
        0
 91
        4
280
     0
281
     0
  0
CLASS
  1
VISUALSTYLE
  2
AcDbVisualStyle
  3
ObjectDBX Classes
 90
     4095
 91
        4
280
     0
281
     0
  0
CLASS
  1
MATERIAL
  2
AcDbMaterial
  3
ObjectDBX Classes
 90
     1153
 91
        4
280
     0
281
     0
  0
CLASS
  1
SUN
  2
AcDbSun
  3
SCENEOE
 90
     1024
 91
        4
280
     0
281
     0
  0
ENDSEC
  0
SECTION
  2
TABLES
  0
TABLE
  2
VPORT
  5
8
330
0
100
AcDbSymbolTable
 70
     1
  0
VPORT
  5
29
330
8
100
AcDbSymbolTableRecord
100
AcDbViewportTableRecord
  2
*Active
 70
     0
 10
0.0
 20
0.0
 11
1.0
 21
1.0
 12
0.0
 22
0.0
 13
0.0
 23
0.0
 14
0.5
 24
0.5
 15
0.5
 25
0.5
 16
0.0
 26
0.0
 36
1.0
 17
63.499999984125
 27
-89.00059456108309
 37
0.0
 40
178.0011891221662
 41
0.7134783795241226
 42
50.0
 43
0.0
 44
0.0
 50
0.0
 51
0.0
 71
     0
 72
   100
 73
     1
 74
     3
 75
     0
 76
     0
 77
     0
 78
     0
281
     0
 65
     1
110
0.0
120
0.0
130
0.0
111
1.0
121
0.0
131
0.0
112
0.0
122
1.0
132
0.0
 79
     0
146
0.0
 60
     3
 61
     5
292
     1
282
     1
141
0.0
142
0.0
 63
   250
361
3F
  0
ENDTAB
  0
TABLE
  2
LTYPE
  5
5
330
0
100
AcDbSymbolTable
 70
     1
  0
LTYPE
  5
14
330
5
100
AcDbSymbolTableRecord
100
AcDbLinetypeTableRecord
  2
ByBlock
 70
     0
  3

 72
    65
 73
     0
 40
0.0
  0
LTYPE
  5
15
330
5
100
AcDbSymbolTableRecord
100
AcDbLinetypeTableRecord
  2
ByLayer
 70
     0
  3

 72
    65
 73
     0
 40
0.0
  0
LTYPE
  5
16
330
5
100
AcDbSymbolTableRecord
100
AcDbLinetypeTableRecord
  2
Continuous
 70
     0
  3
Solid line
 72
    65
 73
     0
 40
0.0
  0
ENDTAB
  0
TABLE
  2
LAYER
  5
2
330
0
100
AcDbSymbolTable
 70
     2
  0
LAYER
  5
10
330
2
100
AcDbSymbolTableRecord
100
AcDbLayerTableRecord
  2
0
 70
     0
 62
     7
  6
Continuous
370
    -3
390
F
347
3E
  0
LAYER
  5
40
330
2
100
AcDbSymbolTableRecord
100
AcDbLayerTableRecord
  2
_U+30EC_U+30A4_U+30E4_U+30FC 1
 70
     0
 62
     7
  6
Continuous
370
    -3
390
F
347
3E
  0
ENDTAB
  0
TABLE
  2
STYLE
  5
3
330
0
100
AcDbSymbolTable
 70
     1
  0
STYLE
  5
11
330
3
100
AcDbSymbolTableRecord
100
AcDbTextStyleTableRecord
  2
Standard
 70
     0
 40
0.0
 41
1.0
 50
0.0
 71
     0
 42
0.2
  3
txt
  4

  0
ENDTAB
  0
TABLE
  2
VIEW
  5
6
330
0
100
AcDbSymbolTable
 70
     0
  0
ENDTAB
  0
TABLE
  2
UCS
  5
7
330
0
100
AcDbSymbolTable
 70
     0
  0
ENDTAB
  0
TABLE
  2
APPID
  5
9
330
0
100
AcDbSymbolTable
 70
     1
  0
APPID
  5
12
330
9
100
AcDbSymbolTableRecord
100
AcDbRegAppTableRecord
  2
ACAD
 70
     0
  0
ENDTAB
  0
TABLE
  2
DIMSTYLE
  5
A
330
0
100
AcDbSymbolTable
 70
     1
100
AcDbDimStyleTable
  0
DIMSTYLE
105
27
330
A
100
AcDbSymbolTableRecord
100
AcDbDimStyleTableRecord
  2
Standard
 70
     0
178
     0
340
11
  0
ENDTAB
  0
TABLE
  2
BLOCK_RECORD
  5
1
330
0
100
AcDbSymbolTable
 70
     6
  0
BLOCK_RECORD
  5
1F
330
1
100
AcDbSymbolTableRecord
100
AcDbBlockTableRecord
  2
*Model_Space
340
22
 70
     0
280
     1
281
     0
  0
BLOCK_RECORD
  5
1B
330
1
100
AcDbSymbolTableRecord
100
AcDbBlockTableRecord
  2
*Paper_Space
340
1E
 70
     0
280
     1
281
     0
  0
BLOCK_RECORD
  5
23
330
1
100
AcDbSymbolTableRecord
100
AcDbBlockTableRecord
  2
*Paper_Space0
340
26
 70
     0
280
     1
281
     0
  0
BLOCK_RECORD
  5
51
330
1
100
AcDbSymbolTableRecord
100
AcDbBlockTableRecord
  2
block 2
340
0
102
{BLKREFS
331
52
102
}
 70
     0
280
     1
281
     0
  0
BLOCK_RECORD
  5
65
330
1
100
AcDbSymbolTableRecord
100
AcDbBlockTableRecord
  2
block 3
340
0
102
{BLKREFS
331
66
102
}
 70
     0
280
     1
281
     0
  0
BLOCK_RECORD
  5
9A
330
1
100
AcDbSymbolTableRecord
100
AcDbBlockTableRecord
  2
block 4
340
0
102
{BLKREFS
331
9B
102
}
 70
     0
280
     1
281
     0
  0
BLOCK_RECORD
  5
AC
330
1
100
AcDbSymbolTableRecord
100
AcDbBlockTableRecord
  2
block 5
340
0
102
{BLKREFS
331
AD
102
}
 70
     0
280
     1
281
     0
  0
BLOCK_RECORD
  5
BF
330
1
100
AcDbSymbolTableRecord
100
AcDbBlockTableRecord
  2
block 6
340
0
102
{BLKREFS
331
C0
102
}
 70
     0
280
     1
281
     0
  0
ENDTAB
  0
ENDSEC
  0
SECTION
  2
BLOCKS
  0
BLOCK
  5
20
330
1F
100
AcDbEntity
  8
0
100
AcDbBlockBegin
  2
*Model_Space
 70
     0
 10
0.0
 20
0.0
 30
0.0
  3
*Model_Space
  1

  0
ENDBLK
  5
21
330
1F
100
AcDbEntity
  8
0
100
AcDbBlockEnd
  0
BLOCK
  5
1C
330
1B
100
AcDbEntity
 67
     1
  8
0
100
AcDbBlockBegin
  2
*Paper_Space
 70
     0
 10
0.0
 20
0.0
 30
0.0
  3
*Paper_Space
  1

  0
ENDBLK
  5
1D
330
1B
100
AcDbEntity
 67
     1
  8
0
100
AcDbBlockEnd
  0
BLOCK
  5
24
330
23
100
AcDbEntity
  8
0
100
AcDbBlockBegin
  2
*Paper_Space0
 70
     0
 10
0.0
 20
0.0
 30
0.0
  3
*Paper_Space0
  1

  0
ENDBLK
  5
25
330
23
100
AcDbEntity
  8
0
100
AcDbBlockEnd
  0
BLOCK
  5
53
330
51
100
AcDbEntity
  8
0
100
AcDbBlockBegin
  2
block 2
 70
     0
 10
0.0
 20
0.0
 30
0.0
  3
block 2
  1

  0
SPLINE
  5
55
330
51
100
AcDbEntity
  8
_U+30EC_U+30A4_U+30E4_U+30FC 1
370
     0
100
AcDbSpline
210
0.0
220
0.0
230
1.0
 70
    11
 71
     3
 72
    44
 73
    40
 74
     0
 42
0.0000000001
 43
0.0000000001
 12
1.0
 22
0.0
 32
0.0
 13
1.0
 23
0.0
 33
0.0
 40
0.0
 40
0.0
 40
0.0
 40
0.0
 40
1.0
 40
1.0
 40
1.0
 40
2.0
 40
2.0
 40
2.0
 40
3.0
 40
3.0
 40
3.0
 40
4.0
 40
4.0
 40
4.0
 40
5.0
 40
5.0
 40
5.0
 40
6.0
 40
6.0
 40
6.0
 40
7.0
 40
7.0
 40
7.0
 40
8.0
 40
8.0
 40
8.0
 40
9.0
 40
9.0
 40
9.0
 40
10.0
 40
10.0
 40
10.0
 40
11.0
 40
11.0
 40
11.0
 40
12.0
 40
12.0
 40
12.0
 40
13.0
 40
13.0
 40
13.0
 40
13.0
 10
61.34647079629533
 20
-76.93380531930822
 30
0.0
 10
61.12874076162754
 20
-77.09262422117824
 30
0.0
 10
61.0357231835258
 20
-77.16669377411111
 30
0.0
 10
60.98680282763524
 20
-77.31035425584602
 30
0.0
 10
60.98680282763524
 20
-77.31035425584602
 30
0.0
 10
61.76539440730171
 20
-77.31035425584602
 30
0.0
 10
61.76539440730171
 20
-77.31035425584602
 30
0.0
 10
61.76539440730171
 20
-77.31035425584602
 30
0.0
 10
61.76539440730171
 20
-77.51568194676692
 30
0.0
 10
61.76539440730171
 20
-77.51568194676692
 30
0.0
 10
61.76539440730171
 20
-77.51568194676692
 30
0.0
 10
60.73737791450316
 20
-77.51568194676692
 30
0.0
 10
60.73737791450316
 20
-77.51568194676692
 30
0.0
 10
60.76907279296746
 20
-77.15808103539798
 30
0.0
 10
60.83452960718721
 20
-77.07987736788282
 30
0.0
 10
61.21969128243813
 20
-76.78153209886018
 30
0.0
 10
61.4756618769922
 20
-76.58275008936126
 30
0.0
 10
61.54111869121194
 20
-76.51488170830184
 30
0.0
 10
61.54111869121194
 20
-76.37742239844037
 30
0.0
 10
61.54111869121194
 20
-76.25891111374777
 30
0.0
 10
61.46911619557022
 20
-76.12799748530828
 30
0.0
 10
61.27240124336246
 20
-76.12799748530828
 30
0.0
 10
61.0122965342261
 20
-76.12799748530828
 30
0.0
 10
61.00368379551297
 20
-76.35847437327149
 30
0.0
 10
60.99954968093067
 20
-76.47491860067294
 30
0.0
 10
60.99954968093067
 20
-76.47491860067294
 30
0.0
 10
60.77527396484091
 20
-76.47491860067294
 30
0.0
 10
60.77527396484091
 20
-76.47491860067294
 30
0.0
 10
60.78388670355403
 20
-76.34779457726722
 30
0.0
 10
60.79456649955831
 20
-76.2358289739966
 30
0.0
 10
60.87483722436463
 20
-76.117317689304
 30
0.0
 10
60.98473577034409
 20
-75.95643173014284
 30
0.0
 10
61.17111543609612
 20
-75.92266979438739
 30
0.0
 10
61.28721515394903
 20
-75.92266979438739
 30
0.0
 10
61.56454534051164
 20
-75.92266979438739
 30
0.0
 10
61.77194008872368
 20
-76.10663789329973
 30
0.0
 10
61.77194008872368
 20
-76.37948945573152
 30
0.0
 10
61.77194008872368
 20
-76.6082437959521
 30
0.0
 10
61.65549586132224
 20
-76.7074625459273
 30
0.0
 10
61.34647079629533
 20
-76.93380531930822
 30
0.0
  0
HATCH
  5
56
330
51
100
AcDbEntity
  8
_U+30EC_U+30A4_U+30E4_U+30FC 1
 62
   179
420
  2234388
100
AcDbHatch
 10
0.0
 20
0.0
 30
0.0
210
0.0
220
0.0
230
1.0
  2
SOLID
 70
     1
 71
     0
 91
        1
 92
        1
 93
        1
 72
     4
 94
        3
 73
     0
 74
     1
 95
       44
 96
       40
 40
0.0
 40
0.0
 40
0.0
 40
0.0
 40
1.0
 40
1.0
 40
1.0
 40
2.0
 40
2.0
 40
2.0
 40
3.0
 40
3.0
 40
3.0
 40
4.0
 40
4.0
 40
4.0
 40
5.0
 40
5.0
 40
5.0
 40
6.0
 40
6.0
 40
6.0
 40
7.0
 40
7.0
 40
7.0
 40
8.0
 40
8.0
 40
8.0
 40
9.0
 40
9.0
 40
9.0
 40
10.0
 40
10.0
 40
10.0
 40
11.0
 40
11.0
 40
11.0
 40
12.0
 40
12.0
 40
12.0
 40
13.0
 40
13.0
 40
13.0
 40
13.0
 10
61.34647079629533
 20
-76.93380531930822
 10
61.12874076162754
 20
-77.09262422117824
 10
61.0357231835258
 20
-77.16669377411111
 10
60.98680282763524
 20
-77.31035425584602
 10
60.98680282763524
 20
-77.31035425584602
 10
61.76539440730171
 20
-77.31035425584602
 10
61.76539440730171
 20
-77.31035425584602
 10
61.76539440730171
 20
-77.31035425584602
 10
61.76539440730171
 20
-77.51568194676692
 10
61.76539440730171
 20
-77.51568194676692
 10
61.76539440730171
 20
-77.51568194676692
 10
60.73737791450316
 20
-77.51568194676692
 10
60.73737791450316
 20
-77.51568194676692
 10
60.76907279296746
 20
-77.15808103539798
 10
60.83452960718721
 20
-77.07987736788282
 10
61.21969128243813
 20
-76.78153209886018
 10
61.4756618769922
 20
-76.58275008936126
 10
61.54111869121194
 20
-76.51488170830184
 10
61.54111869121194
 20
-76.37742239844037
 10
61.54111869121194
 20
-76.25891111374777
 10
61.46911619557022
 20
-76.12799748530828
 10
61.27240124336246
 20
-76.12799748530828
 10
61.0122965342261
 20
-76.12799748530828
 10
61.00368379551297
 20
-76.35847437327149
 10
60.99954968093067
 20
-76.47491860067294
 10
60.99954968093067
 20
-76.47491860067294
 10
60.77527396484091
 20
-76.47491860067294
 10
60.77527396484091
 20
-76.47491860067294
 10
60.78388670355403
 20
-76.34779457726722
 10
60.79456649955831
 20
-76.2358289739966
 10
60.87483722436463
 20
-76.117317689304
 10
60.98473577034409
 20
-75.95643173014284
 10
61.17111543609612
 20
-75.92266979438739
 10
61.28721515394903
 20
-75.92266979438739
 10
61.56454534051164
 20
-75.92266979438739
 10
61.77194008872368
 20
-76.10663789329973
 10
61.77194008872368
 20
-76.37948945573152
 10
61.77194008872368
 20
-76.6082437959521
 10
61.65549586132224
 20
-76.7074625459273
 10
61.34647079629533
 20
-76.93380531930822
 97
        0
 97
        0
 75
     2
 76
     1
 98
        0
  0
SPLINE
  5
57
330
51
100
AcDbEntity
  8
_U+30EC_U+30A4_U+30E4_U+30FC 1
370
     0
100
AcDbSpline
210
0.0
220
0.0
230
1.0
 70
    11
 71
     3
 72
    62
 73
    58
 74
     0
 42
0.0000000001
 43
0.0000000001
 12
1.0
 22
0.0
 32
0.0
 13
1.0
 23
0.0
 33
0.0
 40
0.0
 40
0.0
 40
0.0
 40
0.0
 40
1.0
 40
1.0
 40
1.0
 40
2.0
 40
2.0
 40
2.0
 40
3.0
 40
3.0
 40
3.0
 40
4.0
 40
4.0
 40
4.0
 40
5.0
 40
5.0
 40
5.0
 40
6.0
 40
6.0
 40
6.0
 40
7.0
 40
7.0
 40
7.0
 40
8.0
 40
8.0
 40
8.0
 40
9.0
 40
9.0
 40
9.0
 40
10.0
 40
10.0
 40
10.0
 40
11.0
 40
11.0
 40
11.0
 40
12.0
 40
12.0
 40
12.0
 40
13.0
 40
13.0
 40
13.0
 40
14.0
 40
14.0
 40
14.0
 40
15.0
 40
15.0
 40
15.0
 40
16.0
 40
16.0
 40
16.0
 40
17.0
 40
17.0
 40
17.0
 40
18.0
 40
18.0
 40
18.0
 40
19.0
 40
19.0
 40
19.0
 40
19.0
 10
62.42202960679033
 20
-77.5663248504001
 30
0.0
 10
62.3266004618489
 20
-77.5663248504001
 30
0.0
 10
62.10887042718112
 20
-77.54530976794007
 30
0.0
 10
61.98381346106655
 20
-77.35927461173658
 30
0.0
 10
61.90974390813368
 20
-77.24696449891744
 30
0.0
 10
61.90560979355138
 20
-77.14774574894223
 30
0.0
 10
61.90147567896908
 20
-77.06299640000509
 30
0.0
 10
61.90147567896908
 20
-77.06299640000509
 30
0.0
 10
62.12161728047654
 20
-77.06299640000509
 30
0.0
 10
62.12161728047654
 20
-77.06299640000509
 30
0.0
 10
62.12368433776769
 20
-77.13706595293796
 30
0.0
 10
62.13401962422344
 20
-77.37167695548348
 30
0.0
 10
62.41755098265951
 20
-77.37167695548348
 30
0.0
 10
62.55501029252098
 20
-77.37167695548348
 30
0.0
 10
62.70762802251754
 20
-77.30208602668142
 30
0.0
 10
62.70762802251754
 20
-77.07367619600936
 30
0.0
 10
62.70762802251754
 20
-76.95723196860791
 30
0.0
 10
62.66938746263127
 20
-76.9086561222659
 30
0.0
 10
62.63769258416697
 20
-76.8769612438016
 30
0.0
 10
62.56362303123409
 20
-76.80289169086872
 30
0.0
 10
62.44717880383265
 20
-76.7901448375733
 30
0.0
 10
62.39240178561718
 20
-76.7901448375733
 30
0.0
 10
62.37310925089978
 20
-76.7901448375733
 30
0.0
 10
62.33728025785318
 20
-76.79221189486445
 30
0.0
 10
62.30971949397119
 20
-76.79634600944675
 30
0.0
 10
62.30971949397119
 20
-76.79634600944675
 30
0.0
 10
62.30971949397119
 20
-76.60169811453014
 30
0.0
 10
62.30971949397119
 20
-76.60169811453014
 30
0.0
 10
62.34796005385746
 20
-76.6082437959521
 30
0.0
 10
62.38999021877751
 20
-76.61031085324326
 30
0.0
 10
62.39653590019948
 20
-76.61031085324326
 30
0.0
 10
62.46199271441922
 20
-76.61031085324326
 30
0.0
 10
62.66077472391814
 20
-76.58895126123471
 30
0.0
 10
62.66077472391814
 20
-76.35227320139805
 30
0.0
 10
62.66077472391814
 20
-76.17450627435916
 30
0.0
 10
62.52986109547865
 20
-76.11938474659516
 30
0.0
 10
62.41961803995066
 20
-76.11938474659516
 30
0.0
 10
62.15537921623199
 20
-76.11938474659516
 30
0.0
 10
62.14676647751887
 20
-76.35227320139805
 30
0.0
 10
62.14263236293657
 20
-76.42393118749125
 30
0.0
 10
62.14263236293657
 20
-76.42393118749125
 30
0.0
 10
61.93937172930683
 20
-76.42393118749125
 30
0.0
 10
61.93937172930683
 20
-76.42393118749125
 30
0.0
 10
61.94798446801995
 20
-76.2992187309252
 30
0.0
 10
61.97554523190195
 20
-75.92266979438739
 30
0.0
 10
62.43236489324608
 20
-75.92266979438739
 30
0.0
 10
62.65664060933585
 20
-75.92266979438739
 30
0.0
 10
62.89779729330333
 20
-76.04979381779312
 30
0.0
 10
62.89779729330333
 20
-76.34572751997607
 30
0.0
 10
62.89779729330333
 20
-76.5321071857281
 30
0.0
 10
62.80271265791043
 20
-76.61444496782556
 30
0.0
 10
62.70314939838671
 20
-76.675767667463
 30
0.0
 10
62.76447209802416
 20
-76.703328431345
 30
0.0
 10
62.94637313964535
 20
-76.78359915615133
 30
0.0
 10
62.94637313964535
 20
-77.06092934271393
 30
0.0
 10
62.94637313964535
 20
-77.39923771936547
 30
0.0
 10
62.69901528380441
 20
-77.5663248504001
 30
0.0
 10
62.42202960679033
 20
-77.5663248504001
 30
0.0
  0
HATCH
  5
58
330
51
100
AcDbEntity
  8
_U+30EC_U+30A4_U+30E4_U+30FC 1
 62
   179
420
  2234388
100
AcDbHatch
 10
0.0
 20
0.0
 30
0.0
210
0.0
220
0.0
230
1.0
  2
SOLID
 70
     1
 71
     0
 91
        1
 92
        1
 93
        1
 72
     4
 94
        3
 73
     0
 74
     1
 95
       62
 96
       58
 40
0.0
 40
0.0
 40
0.0
 40
0.0
 40
1.0
 40
1.0
 40
1.0
 40
2.0
 40
2.0
 40
2.0
 40
3.0
 40
3.0
 40
3.0
 40
4.0
 40
4.0
 40
4.0
 40
5.0
 40
5.0
 40
5.0
 40
6.0
 40
6.0
 40
6.0
 40
7.0
 40
7.0
 40
7.0
 40
8.0
 40
8.0
 40
8.0
 40
9.0
 40
9.0
 40
9.0
 40
10.0
 40
10.0
 40
10.0
 40
11.0
 40
11.0
 40
11.0
 40
12.0
 40
12.0
 40
12.0
 40
13.0
 40
13.0
 40
13.0
 40
14.0
 40
14.0
 40
14.0
 40
15.0
 40
15.0
 40
15.0
 40
16.0
 40
16.0
 40
16.0
 40
17.0
 40
17.0
 40
17.0
 40
18.0
 40
18.0
 40
18.0
 40
19.0
 40
19.0
 40
19.0
 40
19.0
 10
62.42202960679033
 20
-77.5663248504001
 10
62.3266004618489
 20
-77.5663248504001
 10
62.10887042718112
 20
-77.54530976794007
 10
61.98381346106655
 20
-77.35927461173658
 10
61.90974390813368
 20
-77.24696449891744
 10
61.90560979355138
 20
-77.14774574894223
 10
61.90147567896908
 20
-77.06299640000509
 10
61.90147567896908
 20
-77.06299640000509
 10
62.12161728047654
 20
-77.06299640000509
 10
62.12161728047654
 20
-77.06299640000509
 10
62.12368433776769
 20
-77.13706595293796
 10
62.13401962422344
 20
-77.37167695548348
 10
62.41755098265951
 20
-77.37167695548348
 10
62.55501029252098
 20
-77.37167695548348
 10
62.70762802251754
 20
-77.30208602668142
 10
62.70762802251754
 20
-77.07367619600936
 10
62.70762802251754
 20
-76.95723196860791
 10
62.66938746263127
 20
-76.9086561222659
 10
62.63769258416697
 20
-76.8769612438016
 10
62.56362303123409
 20
-76.80289169086872
 10
62.44717880383265
 20
-76.7901448375733
 10
62.39240178561718
 20
-76.7901448375733
 10
62.37310925089978
 20
-76.7901448375733
 10
62.33728025785318
 20
-76.79221189486445
 10
62.30971949397119
 20
-76.79634600944675
 10
62.30971949397119
 20
-76.79634600944675
 10
62.30971949397119
 20
-76.60169811453014
 10
62.30971949397119
 20
-76.60169811453014
 10
62.34796005385746
 20
-76.6082437959521
 10
62.38999021877751
 20
-76.61031085324326
 10
62.39653590019948
 20
-76.61031085324326
 10
62.46199271441922
 20
-76.61031085324326
 10
62.66077472391814
 20
-76.58895126123471
 10
62.66077472391814
 20
-76.35227320139805
 10
62.66077472391814
 20
-76.17450627435916
 10
62.52986109547865
 20
-76.11938474659516
 10
62.41961803995066
 20
-76.11938474659516
 10
62.15537921623199
 20
-76.11938474659516
 10
62.14676647751887
 20
-76.35227320139805
 10
62.14263236293657
 20
-76.42393118749125
 10
62.14263236293657
 20
-76.42393118749125
 10
61.93937172930683
 20
-76.42393118749125
 10
61.93937172930683
 20
-76.42393118749125
 10
61.94798446801995
 20
-76.2992187309252
 10
61.97554523190195
 20
-75.92266979438739
 10
62.43236489324608
 20
-75.92266979438739
 10
62.65664060933585
 20
-75.92266979438739
 10
62.89779729330333
 20
-76.04979381779312
 10
62.89779729330333
 20
-76.34572751997607
 10
62.89779729330333
 20
-76.5321071857281
 10
62.80271265791043
 20
-76.61444496782556
 10
62.70314939838671
 20
-76.675767667463
 10
62.76447209802416
 20
-76.703328431345
 10
62.94637313964535
 20
-76.78359915615133
 10
62.94637313964535
 20
-77.06092934271393
 10
62.94637313964535
 20
-77.39923771936547
 10
62.69901528380441
 20
-77.5663248504001
 10
62.42202960679033
 20
-77.5663248504001
 97
        0
 97
        0
 75
     2
 76
     1
 98
        0
  0
ENDBLK
  5
54
330
51
100
AcDbEntity
  8
0
100
AcDbBlockEnd
  0
BLOCK
  5
67
330
65
100
AcDbEntity
  8
0
100
AcDbBlockBegin
  2
block 3
 70
     0
 10
0.0
 20
0.0
 30
0.0
  3
block 3
  1

  0
SPLINE
  5
69
330
65
100
AcDbEntity
  8
_U+30EC_U+30A4_U+30E4_U+30FC 1
370
     0
100
AcDbSpline
210
0.0
220
0.0
230
1.0
 70
    11
 71
     3
 72
    26
 73
    22
 74
     0
 42
0.0000000001
 43
0.0000000001
 12
1.0
 22
0.0
 32
0.0
 13
1.0
 23
0.0
 33
0.0
 40
0.0
 40
0.0
 40
0.0
 40
0.0
 40
1.0
 40
1.0
 40
1.0
 40
2.0
 40
2.0
 40
2.0
 40
3.0
 40
3.0
 40
3.0
 40
4.0
 40
4.0
 40
4.0
 40
5.0
 40
5.0
 40
5.0
 40
6.0
 40
6.0
 40
6.0
 40
7.0
 40
7.0
 40
7.0
 40
7.0
 10
53.35936142329211
 20
-100.5792181823205
 30
0.0
 10
53.35936142329211
 20
-100.5792181823205
 30
0.0
 10
53.35936142329211
 20
-99.4750650792979
 30
0.0
 10
53.35936142329211
 20
-99.4750650792979
 30
0.0
 10
53.35936142329211
 20
-99.4750650792979
 30
0.0
 10
53.02932127580517
 20
-99.4750650792979
 30
0.0
 10
53.02932127580517
 20
-99.4750650792979
 30
0.0
 10
53.02932127580517
 20
-99.4750650792979
 30
0.0
 10
53.02932127580517
 20
-99.32692597343217
 30
0.0
 10
53.02932127580517
 20
-99.32692597343217
 30
0.0
 10
53.36142848058326
 20
-99.31211206284559
 30
0.0
 10
53.40793726963413
 20
-99.14915904639327
 30
0.0
 10
53.43756509080728
 20
-99.03478187628298
 30
0.0
 10
53.43756509080728
 20
-99.03478187628298
 30
0.0
 10
53.58363713938187
 20
-99.03478187628298
 30
0.0
 10
53.58363713938187
 20
-99.03478187628298
 30
0.0
 10
53.58363713938187
 20
-99.03478187628298
 30
0.0
 10
53.58363713938187
 20
-100.5792181823205
 30
0.0
 10
53.58363713938187
 20
-100.5792181823205
 30
0.0
 10
53.58363713938187
 20
-100.5792181823205
 30
0.0
 10
53.35936142329211
 20
-100.5792181823205
 30
0.0
 10
53.35936142329211
 20
-100.5792181823205
 30
0.0
  0
HATCH
  5
6A
330
65
100
AcDbEntity
  8
_U+30EC_U+30A4_U+30E4_U+30FC 1
 62
   179
420
  2234388
100
AcDbHatch
 10
0.0
 20
0.0
 30
0.0
210
0.0
220
0.0
230
1.0
  2
SOLID
 70
     1
 71
     0
 91
        1
 92
        1
 93
        1
 72
     4
 94
        3
 73
     0
 74
     1
 95
       26
 96
       22
 40
0.0
 40
0.0
 40
0.0
 40
0.0
 40
1.0
 40
1.0
 40
1.0
 40
2.0
 40
2.0
 40
2.0
 40
3.0
 40
3.0
 40
3.0
 40
4.0
 40
4.0
 40
4.0
 40
5.0
 40
5.0
 40
5.0
 40
6.0
 40
6.0
 40
6.0
 40
7.0
 40
7.0
 40
7.0
 40
7.0
 10
53.35936142329211
 20
-100.5792181823205
 10
53.35936142329211
 20
-100.5792181823205
 10
53.35936142329211
 20
-99.4750650792979
 10
53.35936142329211
 20
-99.4750650792979
 10
53.35936142329211
 20
-99.4750650792979
 10
53.02932127580517
 20
-99.4750650792979
 10
53.02932127580517
 20
-99.4750650792979
 10
53.02932127580517
 20
-99.4750650792979
 10
53.02932127580517
 20
-99.32692597343217
 10
53.02932127580517
 20
-99.32692597343217
 10
53.36142848058326
 20
-99.31211206284559
 10
53.40793726963413
 20
-99.14915904639327
 10
53.43756509080728
 20
-99.03478187628298
 10
53.43756509080728
 20
-99.03478187628298
 10
53.58363713938187
 20
-99.03478187628298
 10
53.58363713938187
 20
-99.03478187628298
 10
53.58363713938187
 20
-99.03478187628298
 10
53.58363713938187
 20
-100.5792181823205
 10
53.58363713938187
 20
-100.5792181823205
 10
53.58363713938187
 20
-100.5792181823205
 10
53.35936142329211
 20
-100.5792181823205
 10
53.35936142329211
 20
-100.5792181823205
 97
        0
 97
        0
 75
     2
 76
     1
 98
        0
  0
SPLINE
  5
6B
330
65
100
AcDbEntity
  8
_U+30EC_U+30A4_U+30E4_U+30FC 1
370
     0
100
AcDbSpline
210
0.0
220
0.0
230
1.0
 70
    11
 71
     3
 72
    29
 73
    25
 74
     0
 42
0.0000000001
 43
0.0000000001
 12
1.0
 22
0.0
 32
0.0
 13
1.0
 23
0.0
 33
0.0
 40
0.0
 40
0.0
 40
0.0
 40
0.0
 40
1.0
 40
1.0
 40
1.0
 40
2.0
 40
2.0
 40
2.0
 40
3.0
 40
3.0
 40
3.0
 40
4.0
 40
4.0
 40
4.0
 40
5.0
 40
5.0
 40
5.0
 40
6.0
 40
6.0
 40
6.0
 40
7.0
 40
7.0
 40
7.0
 40
8.0
 40
8.0
 40
8.0
 40
8.0
 10
54.98269041594183
 20
-100.4014512552816
 30
0.0
 10
54.87451441770499
 20
-100.6109130607848
 30
0.0
 10
54.70122611479692
 20
-100.6298610859536
 30
0.0
 10
54.58478188739547
 20
-100.6298610859536
 30
0.0
 10
54.42389592823431
 20
-100.6298610859536
 30
0.0
 10
54.28230250379054
 20
-100.5833522969028
 30
0.0
 10
54.18721786839765
 20
-100.4014512552816
 30
0.0
 10
54.08352049429162
 20
-100.206803360365
 30
0.0
 10
54.06457246912275
 20
-99.97012530052831
 30
0.0
 10
54.06457246912275
 20
-99.80717228407599
 30
0.0
 10
54.06457246912275
 20
-99.66316729279255
 30
0.0
 10
54.08145343700047
 20
-99.41133081282078
 30
0.0
 10
54.18721786839765
 20
-99.21254880332187
 30
0.0
 10
54.29504935708596
 20
-99.00963267924065
 30
0.0
 10
54.45593531624713
 20
-98.98620602994096
 30
0.0
 10
54.58478188739547
 20
-98.98620602994096
 30
0.0
 10
54.74360078926549
 20
-98.98620602994096
 30
0.0
 10
54.88726127100041
 20
-99.03064776170068
 30
0.0
 10
54.98269041594183
 20
-99.21254880332187
 30
0.0
 10
55.08190916591703
 20
-99.40512964094734
 30
0.0
 10
55.10533581521673
 20
-99.6335394716194
 30
0.0
 10
55.10533581521673
 20
-99.80717228407599
 30
0.0
 10
55.10533581521673
 20
-99.97839352969291
 30
0.0
 10
55.08397622320818
 20
-100.2088704176561
 30
0.0
 10
54.98269041594183
 20
-100.4014512552816
 30
0.0
  0
SPLINE
  5
6C
330
65
100
AcDbEntity
  8
_U+30EC_U+30A4_U+30E4_U+30FC 1
370
     0
100
AcDbSpline
210
0.0
220
0.0
230
1.0
 70
    11
 71
     3
 72
    17
 73
    13
 74
     0
 42
0.0000000001
 43
0.0000000001
 12
1.0
 22
0.0
 32
0.0
 13
1.0
 23
0.0
 33
0.0
 40
0.0
 40
0.0
 40
0.0
 40
0.0
 40
1.0
 40
1.0
 40
1.0
 40
2.0
 40
2.0
 40
2.0
 40
3.0
 40
3.0
 40
3.0
 40
4.0
 40
4.0
 40
4.0
 40
4.0
 10
54.58478188739547
 20
-99.17878686756642
 30
0.0
 10
54.33535697426338
 20
-99.17878686756642
 30
0.0
 10
54.28850367566399
 20
-99.46231822600248
 30
0.0
 10
54.28850367566399
 20
-99.80717228407599
 30
0.0
 10
54.28850367566399
 20
-100.1265326355586
 30
0.0
 10
54.32467717825911
 20
-100.435213191037
 30
0.0
 10
54.58478188739547
 20
-100.435213191037
 30
0.0
 10
54.83248425278494
 20
-100.435213191037
 30
0.0
 10
54.88106009912696
 20
-100.1540933994407
 30
0.0
 10
54.88106009912696
 20
-99.80717228407599
 30
0.0
 10
54.88106009912696
 20
-99.4874674230448
 30
0.0
 10
54.84281953924069
 20
-99.17878686756642
 30
0.0
 10
54.58478188739547
 20
-99.17878686756642
 30
0.0
  0
HATCH
  5
6D
330
65
100
AcDbEntity
  8
_U+30EC_U+30A4_U+30E4_U+30FC 1
 62
   179
420
  2234388
100
AcDbHatch
 10
0.0
 20
0.0
 30
0.0
210
0.0
220
0.0
230
1.0
  2
SOLID
 70
     1
 71
     0
 91
        2
 92
        1
 93
        1
 72
     4
 94
        3
 73
     0
 74
     1
 95
       29
 96
       25
 40
0.0
 40
0.0
 40
0.0
 40
0.0
 40
1.0
 40
1.0
 40
1.0
 40
2.0
 40
2.0
 40
2.0
 40
3.0
 40
3.0
 40
3.0
 40
4.0
 40
4.0
 40
4.0
 40
5.0
 40
5.0
 40
5.0
 40
6.0
 40
6.0
 40
6.0
 40
7.0
 40
7.0
 40
7.0
 40
8.0
 40
8.0
 40
8.0
 40
8.0
 10
54.98269041594183
 20
-100.4014512552816
 10
54.87451441770499
 20
-100.6109130607848
 10
54.70122611479692
 20
-100.6298610859536
 10
54.58478188739547
 20
-100.6298610859536
 10
54.42389592823431
 20
-100.6298610859536
 10
54.28230250379054
 20
-100.5833522969028
 10
54.18721786839765
 20
-100.4014512552816
 10
54.08352049429162
 20
-100.206803360365
 10
54.06457246912275
 20
-99.97012530052831
 10
54.06457246912275
 20
-99.80717228407599
 10
54.06457246912275
 20
-99.66316729279255
 10
54.08145343700047
 20
-99.41133081282078
 10
54.18721786839765
 20
-99.21254880332187
 10
54.29504935708596
 20
-99.00963267924065
 10
54.45593531624713
 20
-98.98620602994096
 10
54.58478188739547
 20
-98.98620602994096
 10
54.74360078926549
 20
-98.98620602994096
 10
54.88726127100041
 20
-99.03064776170068
 10
54.98269041594183
 20
-99.21254880332187
 10
55.08190916591703
 20
-99.40512964094734
 10
55.10533581521673
 20
-99.6335394716194
 10
55.10533581521673
 20
-99.80717228407599
 10
55.10533581521673
 20
-99.97839352969291
 10
55.08397622320818
 20
-100.2088704176561
 10
54.98269041594183
 20
-100.4014512552816
 97
        0
 97
        0
 92
        1
 93
        1
 72
     4
 94
        3
 73
     0
 74
     1
 95
       17
 96
       13
 40
0.0
 40
0.0
 40
0.0
 40
0.0
 40
1.0
 40
1.0
 40
1.0
 40
2.0
 40
2.0
 40
2.0
 40
3.0
 40
3.0
 40
3.0
 40
4.0
 40
4.0
 40
4.0
 40
4.0
 10
54.58478188739547
 20
-99.17878686756642
 10
54.33535697426338
 20
-99.17878686756642
 10
54.28850367566399
 20
-99.46231822600248
 10
54.28850367566399
 20
-99.80717228407599
 10
54.28850367566399
 20
-100.1265326355586
 10
54.32467717825911
 20
-100.435213191037
 10
54.58478188739547
 20
-100.435213191037
 10
54.83248425278494
 20
-100.435213191037
 10
54.88106009912696
 20
-100.1540933994407
 10
54.88106009912696
 20
-99.80717228407599
 10
54.88106009912696
 20
-99.4874674230448
 10
54.84281953924069
 20
-99.17878686756642
 10
54.58478188739547
 20
-99.17878686756642
 97
        0
 97
        0
 75
     2
 76
     1
 98
        0
  0
ENDBLK
  5
68
330
65
100
AcDbEntity
  8
0
100
AcDbBlockEnd
  0
BLOCK
  5
9C
330
9A
100
AcDbEntity
  8
0
100
AcDbBlockBegin
  2
block 4
 70
     0
 10
0.0
 20
0.0
 30
0.0
  3
block 4
  1

  0
SPLINE
  5
9E
330
9A
100
AcDbEntity
  8
_U+30EC_U+30A4_U+30E4_U+30FC 1
370
     0
100
AcDbSpline
210
0.0
220
0.0
230
1.0
 70
    11
 71
     3
 72
    26
 73
    22
 74
     0
 42
0.0000000001
 43
0.0000000001
 12
1.0
 22
0.0
 32
0.0
 13
1.0
 23
0.0
 33
0.0
 40
0.0
 40
0.0
 40
0.0
 40
0.0
 40
1.0
 40
1.0
 40
1.0
 40
2.0
 40
2.0
 40
2.0
 40
3.0
 40
3.0
 40
3.0
 40
4.0
 40
4.0
 40
4.0
 40
5.0
 40
5.0
 40
5.0
 40
6.0
 40
6.0
 40
6.0
 40
7.0
 40
7.0
 40
7.0
 40
7.0
 10
76.68644746346727
 20
-89.42365449153299
 30
0.0
 10
76.68644746346727
 20
-89.42365449153299
 30
0.0
 10
75.5822943604447
 20
-89.42365449153299
 30
0.0
 10
75.5822943604447
 20
-89.42365449153299
 30
0.0
 10
75.5822943604447
 20
-89.42365449153299
 30
0.0
 10
75.5822943604447
 20
-89.75369463901991
 30
0.0
 10
75.5822943604447
 20
-89.75369463901991
 30
0.0
 10
75.5822943604447
 20
-89.75369463901991
 30
0.0
 10
75.43415525457897
 20
-89.75369463901991
 30
0.0
 10
75.43415525457897
 20
-89.75369463901991
 30
0.0
 10
75.41934134399239
 20
-89.42158743424183
 30
0.0
 10
75.25638832754008
 20
-89.37507864519095
 30
0.0
 10
75.14201115742978
 20
-89.3454508240178
 30
0.0
 10
75.14201115742978
 20
-89.3454508240178
 30
0.0
 10
75.14201115742978
 20
-89.19937877544322
 30
0.0
 10
75.14201115742978
 20
-89.19937877544322
 30
0.0
 10
75.14201115742978
 20
-89.19937877544322
 30
0.0
 10
76.68644746346727
 20
-89.19937877544322
 30
0.0
 10
76.68644746346727
 20
-89.19937877544322
 30
0.0
 10
76.68644746346727
 20
-89.19937877544322
 30
0.0
 10
76.68644746346727
 20
-89.42365449153299
 30
0.0
 10
76.68644746346727
 20
-89.42365449153299
 30
0.0
  0
HATCH
  5
9F
330
9A
100
AcDbEntity
  8
_U+30EC_U+30A4_U+30E4_U+30FC 1
 62
   179
420
  2234388
100
AcDbHatch
 10
0.0
 20
0.0
 30
0.0
210
0.0
220
0.0
230
1.0
  2
SOLID
 70
     1
 71
     0
 91
        1
 92
        1
 93
        1
 72
     4
 94
        3
 73
     0
 74
     1
 95
       26
 96
       22
 40
0.0
 40
0.0
 40
0.0
 40
0.0
 40
1.0
 40
1.0
 40
1.0
 40
2.0
 40
2.0
 40
2.0
 40
3.0
 40
3.0
 40
3.0
 40
4.0
 40
4.0
 40
4.0
 40
5.0
 40
5.0
 40
5.0
 40
6.0
 40
6.0
 40
6.0
 40
7.0
 40
7.0
 40
7.0
 40
7.0
 10
76.68644746346727
 20
-89.42365449153299
 10
76.68644746346727
 20
-89.42365449153299
 10
75.5822943604447
 20
-89.42365449153299
 10
75.5822943604447
 20
-89.42365449153299
 10
75.5822943604447
 20
-89.42365449153299
 10
75.5822943604447
 20
-89.75369463901991
 10
75.5822943604447
 20
-89.75369463901991
 10
75.5822943604447
 20
-89.75369463901991
 10
75.43415525457897
 20
-89.75369463901991
 10
75.43415525457897
 20
-89.75369463901991
 10
75.41934134399239
 20
-89.42158743424183
 10
75.25638832754008
 20
-89.37507864519095
 10
75.14201115742978
 20
-89.3454508240178
 10
75.14201115742978
 20
-89.3454508240178
 10
75.14201115742978
 20
-89.19937877544322
 10
75.14201115742978
 20
-89.19937877544322
 10
75.14201115742978
 20
-89.19937877544322
 10
76.68644746346727
 20
-89.19937877544322
 10
76.68644746346727
 20
-89.19937877544322
 10
76.68644746346727
 20
-89.19937877544322
 10
76.68644746346727
 20
-89.42365449153299
 10
76.68644746346727
 20
-89.42365449153299
 97
        0
 97
        0
 75
     2
 76
     1
 98
        0
  0
SPLINE
  5
A0
330
9A
100
AcDbEntity
  8
_U+30EC_U+30A4_U+30E4_U+30FC 1
370
     0
100
AcDbSpline
210
0.0
220
0.0
230
1.0
 70
    11
 71
     3
 72
    44
 73
    40
 74
     0
 42
0.0000000001
 43
0.0000000001
 12
1.0
 22
0.0
 32
0.0
 13
1.0
 23
0.0
 33
0.0
 40
0.0
 40
0.0
 40
0.0
 40
0.0
 40
1.0
 40
1.0
 40
1.0
 40
2.0
 40
2.0
 40
2.0
 40
3.0
 40
3.0
 40
3.0
 40
4.0
 40
4.0
 40
4.0
 40
5.0
 40
5.0
 40
5.0
 40
6.0
 40
6.0
 40
6.0
 40
7.0
 40
7.0
 40
7.0
 40
8.0
 40
8.0
 40
8.0
 40
9.0
 40
9.0
 40
9.0
 40
10.0
 40
10.0
 40
10.0
 40
11.0
 40
11.0
 40
11.0
 40
12.0
 40
12.0
 40
12.0
 40
13.0
 40
13.0
 40
13.0
 40
13.0
 10
76.10457083600858
 20
-88.10521644932787
 30
0.0
 10
76.2633897378786
 20
-88.32294648399565
 30
0.0
 10
76.33745929081147
 20
-88.4159640620974
 30
0.0
 10
76.48111977254639
 20
-88.46488441798795
 30
0.0
 10
76.48111977254639
 20
-88.46488441798795
 30
0.0
 10
76.48111977254639
 20
-87.68629283832149
 30
0.0
 10
76.48111977254639
 20
-87.68629283832149
 30
0.0
 10
76.48111977254639
 20
-87.68629283832149
 30
0.0
 10
76.68644746346727
 20
-87.68629283832149
 30
0.0
 10
76.68644746346727
 20
-87.68629283832149
 30
0.0
 10
76.68644746346727
 20
-87.68629283832149
 30
0.0
 10
76.68644746346727
 20
-88.71430933112003
 30
0.0
 10
76.68644746346727
 20
-88.71430933112003
 30
0.0
 10
76.32884655209834
 20
-88.68261445265574
 30
0.0
 10
76.25064288458317
 20
-88.617157638436
 30
0.0
 10
75.95229761556054
 20
-88.23199596318506
 30
0.0
 10
75.75351560606163
 20
-87.976025368631
 30
0.0
 10
75.6856472250022
 20
-87.91056855441126
 30
0.0
 10
75.54818791514073
 20
-87.91056855441126
 30
0.0
 10
75.42967663044814
 20
-87.91056855441126
 30
0.0
 10
75.29876300200864
 20
-87.98257105005297
 30
0.0
 10
75.29876300200864
 20
-88.17928600226074
 30
0.0
 10
75.29876300200864
 20
-88.4393907113971
 30
0.0
 10
75.52923988997186
 20
-88.44800345011022
 30
0.0
 10
75.6456841173733
 20
-88.45213756469252
 30
0.0
 10
75.6456841173733
 20
-88.45213756469252
 30
0.0
 10
75.6456841173733
 20
-88.67641328078228
 30
0.0
 10
75.6456841173733
 20
-88.67641328078228
 30
0.0
 10
75.51856009396758
 20
-88.66780054206916
 30
0.0
 10
75.40659449069696
 20
-88.65712074606489
 30
0.0
 10
75.28808320600437
 20
-88.57685002125856
 30
0.0
 10
75.12719724684321
 20
-88.4669514752791
 30
0.0
 10
75.09343531108776
 20
-88.28057180952709
 30
0.0
 10
75.09343531108776
 20
-88.16447209167417
 30
0.0
 10
75.09343531108776
 20
-87.88714190511155
 30
0.0
 10
75.27740341000009
 20
-87.67974715689951
 30
0.0
 10
75.55025497243189
 20
-87.67974715689951
 30
0.0
 10
75.77900931265248
 20
-87.67974715689951
 30
0.0
 10
75.87822806262767
 20
-87.79619138430095
 30
0.0
 10
76.10457083600858
 20
-88.10521644932787
 30
0.0
  0
HATCH
  5
A1
330
9A
100
AcDbEntity
  8
_U+30EC_U+30A4_U+30E4_U+30FC 1
 62
   179
420
  2234388
100
AcDbHatch
 10
0.0
 20
0.0
 30
0.0
210
0.0
220
0.0
230
1.0
  2
SOLID
 70
     1
 71
     0
 91
        1
 92
        1
 93
        1
 72
     4
 94
        3
 73
     0
 74
     1
 95
       44
 96
       40
 40
0.0
 40
0.0
 40
0.0
 40
0.0
 40
1.0
 40
1.0
 40
1.0
 40
2.0
 40
2.0
 40
2.0
 40
3.0
 40
3.0
 40
3.0
 40
4.0
 40
4.0
 40
4.0
 40
5.0
 40
5.0
 40
5.0
 40
6.0
 40
6.0
 40
6.0
 40
7.0
 40
7.0
 40
7.0
 40
8.0
 40
8.0
 40
8.0
 40
9.0
 40
9.0
 40
9.0
 40
10.0
 40
10.0
 40
10.0
 40
11.0
 40
11.0
 40
11.0
 40
12.0
 40
12.0
 40
12.0
 40
13.0
 40
13.0
 40
13.0
 40
13.0
 10
76.10457083600858
 20
-88.10521644932787
 10
76.2633897378786
 20
-88.32294648399565
 10
76.33745929081147
 20
-88.4159640620974
 10
76.48111977254639
 20
-88.46488441798795
 10
76.48111977254639
 20
-88.46488441798795
 10
76.48111977254639
 20
-87.68629283832149
 10
76.48111977254639
 20
-87.68629283832149
 10
76.48111977254639
 20
-87.68629283832149
 10
76.68644746346727
 20
-87.68629283832149
 10
76.68644746346727
 20
-87.68629283832149
 10
76.68644746346727
 20
-87.68629283832149
 10
76.68644746346727
 20
-88.71430933112003
 10
76.68644746346727
 20
-88.71430933112003
 10
76.32884655209834
 20
-88.68261445265574
 10
76.25064288458317
 20
-88.617157638436
 10
75.95229761556054
 20
-88.23199596318506
 10
75.75351560606163
 20
-87.976025368631
 10
75.6856472250022
 20
-87.91056855441126
 10
75.54818791514073
 20
-87.91056855441126
 10
75.42967663044814
 20
-87.91056855441126
 10
75.29876300200864
 20
-87.98257105005297
 10
75.29876300200864
 20
-88.17928600226074
 10
75.29876300200864
 20
-88.4393907113971
 10
75.52923988997186
 20
-88.44800345011022
 10
75.6456841173733
 20
-88.45213756469252
 10
75.6456841173733
 20
-88.45213756469252
 10
75.6456841173733
 20
-88.67641328078228
 10
75.6456841173733
 20
-88.67641328078228
 10
75.51856009396758
 20
-88.66780054206916
 10
75.40659449069696
 20
-88.65712074606489
 10
75.28808320600437
 20
-88.57685002125856
 10
75.12719724684321
 20
-88.4669514752791
 10
75.09343531108776
 20
-88.28057180952709
 10
75.09343531108776
 20
-88.16447209167417
 10
75.09343531108776
 20
-87.88714190511155
 10
75.27740341000009
 20
-87.67974715689951
 10
75.55025497243189
 20
-87.67974715689951
 10
75.77900931265248
 20
-87.67974715689951
 10
75.87822806262767
 20
-87.79619138430095
 10
76.10457083600858
 20
-88.10521644932787
 97
        0
 97
        0
 75
     2
 76
     1
 98
        0
  0
POLYLINE
  5
A2
330
9A
100
AcDbEntity
  8
_U+30EC_U+30A4_U+30E4_U+30FC 1
370
     0
100
AcDb2dPolyline
 66
     1
 10
0.0
 20
0.0
 30
0.0
  0
VERTEX
  5
A3
330
A2
100
AcDbEntity
  8
_U+30EC_U+30A4_U+30E4_U+30FC 1
370
     0
100
AcDbVertex
100
AcDb2dVertex
 10
76.68644746346727
 20
-87.46132810313468
 30
0.0
  0
VERTEX
  5
A4
330
A2
100
AcDbEntity
  8
_U+30EC_U+30A4_U+30E4_U+30FC 1
370
     0
100
AcDbVertex
100
AcDb2dVertex
 10
76.43461098349552
 20
-87.46132810313468
 30
0.0
  0
VERTEX
  5
A5
330
A2
100
AcDbEntity
  8
_U+30EC_U+30A4_U+30E4_U+30FC 1
370
     0
100
AcDbVertex
100
AcDb2dVertex
 10
76.43461098349552
 20
-87.2094916231629
 30
0.0
  0
VERTEX
  5
A6
330
A2
100
AcDbEntity
  8
_U+30EC_U+30A4_U+30E4_U+30FC 1
370
     0
100
AcDbVertex
100
AcDb2dVertex
 10
76.68644746346727
 20
-87.2094916231629
 30
0.0
  0
VERTEX
  5
A7
330
A2
100
AcDbEntity
  8
_U+30EC_U+30A4_U+30E4_U+30FC 1
370
     0
100
AcDbVertex
100
AcDb2dVertex
 10
76.68644746346727
 20
-87.46132810313468
 30
0.0
  0
SEQEND
  5
A8
330
A2
100
AcDbEntity
  8
_U+30EC_U+30A4_U+30E4_U+30FC 1
370
     0
  0
HATCH
  5
A9
330
9A
100
AcDbEntity
  8
_U+30EC_U+30A4_U+30E4_U+30FC 1
 62
   179
420
  2234388
100
AcDbHatch
 10
0.0
 20
0.0
 30
0.0
210
0.0
220
0.0
230
1.0
  2
SOLID
 70
     1
 71
     0
 91
        1
 92
        1
 93
        4
 72
     1
 10
76.68644746346727
 20
-87.46132810313468
 11
76.43461098349552
 21
-87.46132810313468
 72
     1
 10
76.43461098349552
 20
-87.46132810313468
 11
76.43461098349552
 21
-87.2094916231629
 72
     1
 10
76.43461098349552
 20
-87.2094916231629
 11
76.68644746346727
 21
-87.2094916231629
 72
     1
 10
76.68644746346727
 20
-87.2094916231629
 11
76.68644746346727
 21
-87.46132810313468
 97
        0
 75
     2
 76
     1
 98
        0
  0
SPLINE
  5
AA
330
9A
100
AcDbEntity
  8
_U+30EC_U+30A4_U+30E4_U+30FC 1
370
     0
100
AcDbSpline
210
0.0
220
0.0
230
1.0
 70
    11
 71
     3
 72
    53
 73
    49
 74
     0
 42
0.0000000001
 43
0.0000000001
 12
1.0
 22
0.0
 32
0.0
 13
1.0
 23
0.0
 33
0.0
 40
0.0
 40
0.0
 40
0.0
 40
0.0
 40
1.0
 40
1.0
 40
1.0
 40
2.0
 40
2.0
 40
2.0
 40
3.0
 40
3.0
 40
3.0
 40
4.0
 40
4.0
 40
4.0
 40
5.0
 40
5.0
 40
5.0
 40
6.0
 40
6.0
 40
6.0
 40
7.0
 40
7.0
 40
7.0
 40
8.0
 40
8.0
 40
8.0
 40
9.0
 40
9.0
 40
9.0
 40
10.0
 40
10.0
 40
10.0
 40
11.0
 40
11.0
 40
11.0
 40
12.0
 40
12.0
 40
12.0
 40
13.0
 40
13.0
 40
13.0
 40
14.0
 40
14.0
 40
14.0
 40
15.0
 40
15.0
 40
15.0
 40
16.0
 40
16.0
 40
16.0
 40
16.0
 10
76.73709036710045
 20
-86.4922227431339
 30
0.0
 10
76.73709036710045
 20
-86.57042641064906
 30
0.0
 10
76.72020939922272
 20
-86.67205672746394
 30
0.0
 10
76.65681964229414
 20
-86.7736870442788
 30
0.0
 10
76.54692109631466
 20
-86.94697534718686
 30
0.0
 10
76.41566295832665
 20
-86.96833493919542
 30
0.0
 10
76.30783146963833
 20
-86.9872829643643
 30
0.0
 10
76.30783146963833
 20
-86.9872829643643
 30
0.0
 10
76.30783146963833
 20
-86.76507430556568
 30
0.0
 10
76.30783146963833
 20
-86.76507430556568
 30
0.0
 10
76.50661347913724
 20
-86.7102972873502
 30
0.0
 10
76.5362413003104
 20
-86.58317326394449
 30
0.0
 10
76.5362413003104
 20
-86.49015568584274
 30
0.0
 10
76.5362413003104
 20
-86.35062931869012
 30
0.0
 10
76.43667804078667
 20
-86.19835609824209
 30
0.0
 10
76.2041340955323
 20
-86.19835609824209
 30
0.0
 10
75.94816350097824
 20
-86.19835609824209
 30
0.0
 10
75.87822806262767
 20
-86.37819008257212
 30
0.0
 10
75.87822806262767
 20
-86.49876842455586
 30
0.0
 10
75.87822806262767
 20
-86.53046330302017
 30
0.0
 10
75.87822806262767
 20
-86.67205672746394
 30
0.0
 10
76.00741914332454
 20
-86.76094019098338
 30
0.0
 10
76.00741914332454
 20
-86.76094019098338
 30
0.0
 10
75.98847111815566
 20
-86.93664006073112
 30
0.0
 10
75.98847111815566
 20
-86.93664006073112
 30
0.0
 10
75.98847111815566
 20
-86.93664006073112
 30
0.0
 10
75.14201115742978
 20
-86.81606171874738
 30
0.0
 10
75.14201115742978
 20
-86.81606171874738
 30
0.0
 10
75.14201115742978
 20
-86.81606171874738
 30
0.0
 10
75.14201115742978
 20
-86.03747013908091
 30
0.0
 10
75.14201115742978
 20
-86.03747013908091
 30
0.0
 10
75.14201115742978
 20
-86.03747013908091
 30
0.0
 10
75.33665905234639
 20
-86.03747013908091
 30
0.0
 10
75.33665905234639
 20
-86.03747013908091
 30
0.0
 10
75.33665905234639
 20
-86.03747013908091
 30
0.0
 10
75.33665905234639
 20
-86.65310870229506
 30
0.0
 10
75.33665905234639
 20
-86.65310870229506
 30
0.0
 10
75.33665905234639
 20
-86.65310870229506
 30
0.0
 10
75.75971677793507
 20
-86.7185655165148
 30
0.0
 10
75.75971677793507
 20
-86.7185655165148
 30
0.0
 10
75.72595484217963
 20
-86.65724281687736
 30
0.0
 10
75.6856472250022
 20
-86.57490503477989
 30
0.0
 10
75.6856472250022
 20
-86.4563937500873
 30
0.0
 10
75.6856472250022
 20
-86.20249021282439
 30
0.0
 10
75.87202689075421
 20
-85.9654676434392
 30
0.0
 10
76.18518607036343
 20
-85.9654676434392
 30
0.0
 10
76.50247936455494
 20
-85.9654676434392
 30
0.0
 10
76.73709036710045
 20
-86.18974335952896
 30
0.0
 10
76.73709036710045
 20
-86.4922227431339
 30
0.0
  0
HATCH
  5
AB
330
9A
100
AcDbEntity
  8
_U+30EC_U+30A4_U+30E4_U+30FC 1
 62
   179
420
  2234388
100
AcDbHatch
 10
0.0
 20
0.0
 30
0.0
210
0.0
220
0.0
230
1.0
  2
SOLID
 70
     1
 71
     0
 91
        1
 92
        1
 93
        1
 72
     4
 94
        3
 73
     0
 74
     1
 95
       53
 96
       49
 40
0.0
 40
0.0
 40
0.0
 40
0.0
 40
1.0
 40
1.0
 40
1.0
 40
2.0
 40
2.0
 40
2.0
 40
3.0
 40
3.0
 40
3.0
 40
4.0
 40
4.0
 40
4.0
 40
5.0
 40
5.0
 40
5.0
 40
6.0
 40
6.0
 40
6.0
 40
7.0
 40
7.0
 40
7.0
 40
8.0
 40
8.0
 40
8.0
 40
9.0
 40
9.0
 40
9.0
 40
10.0
 40
10.0
 40
10.0
 40
11.0
 40
11.0
 40
11.0
 40
12.0
 40
12.0
 40
12.0
 40
13.0
 40
13.0
 40
13.0
 40
14.0
 40
14.0
 40
14.0
 40
15.0
 40
15.0
 40
15.0
 40
16.0
 40
16.0
 40
16.0
 40
16.0
 10
76.73709036710045
 20
-86.4922227431339
 10
76.73709036710045
 20
-86.57042641064906
 10
76.72020939922272
 20
-86.67205672746394
 10
76.65681964229414
 20
-86.7736870442788
 10
76.54692109631466
 20
-86.94697534718686
 10
76.41566295832665
 20
-86.96833493919542
 10
76.30783146963833
 20
-86.9872829643643
 10
76.30783146963833
 20
-86.9872829643643
 10
76.30783146963833
 20
-86.76507430556568
 10
76.30783146963833
 20
-86.76507430556568
 10
76.50661347913724
 20
-86.7102972873502
 10
76.5362413003104
 20
-86.58317326394449
 10
76.5362413003104
 20
-86.49015568584274
 10
76.5362413003104
 20
-86.35062931869012
 10
76.43667804078667
 20
-86.19835609824209
 10
76.2041340955323
 20
-86.19835609824209
 10
75.94816350097824
 20
-86.19835609824209
 10
75.87822806262767
 20
-86.37819008257212
 10
75.87822806262767
 20
-86.49876842455586
 10
75.87822806262767
 20
-86.53046330302017
 10
75.87822806262767
 20
-86.67205672746394
 10
76.00741914332454
 20
-86.76094019098338
 10
76.00741914332454
 20
-86.76094019098338
 10
75.98847111815566
 20
-86.93664006073112
 10
75.98847111815566
 20
-86.93664006073112
 10
75.98847111815566
 20
-86.93664006073112
 10
75.14201115742978
 20
-86.81606171874738
 10
75.14201115742978
 20
-86.81606171874738
 10
75.14201115742978
 20
-86.81606171874738
 10
75.14201115742978
 20
-86.03747013908091
 10
75.14201115742978
 20
-86.03747013908091
 10
75.14201115742978
 20
-86.03747013908091
 10
75.33665905234639
 20
-86.03747013908091
 10
75.33665905234639
 20
-86.03747013908091
 10
75.33665905234639
 20
-86.03747013908091
 10
75.33665905234639
 20
-86.65310870229506
 10
75.33665905234639
 20
-86.65310870229506
 10
75.33665905234639
 20
-86.65310870229506
 10
75.75971677793507
 20
-86.7185655165148
 10
75.75971677793507
 20
-86.7185655165148
 10
75.72595484217963
 20
-86.65724281687736
 10
75.6856472250022
 20
-86.57490503477989
 10
75.6856472250022
 20
-86.4563937500873
 10
75.6856472250022
 20
-86.20249021282439
 10
75.87202689075421
 20
-85.9654676434392
 10
76.18518607036343
 20
-85.9654676434392
 10
76.50247936455494
 20
-85.9654676434392
 10
76.73709036710045
 20
-86.18974335952896
 10
76.73709036710045
 20
-86.4922227431339
 97
        0
 97
        0
 75
     2
 76
     1
 98
        0
  0
ENDBLK
  5
9D
330
9A
100
AcDbEntity
  8
0
100
AcDbBlockEnd
  0
BLOCK
  5
AE
330
AC
100
AcDbEntity
  8
0
100
AcDbBlockBegin
  2
block 5
 70
     0
 10
0.0
 20
0.0
 30
0.0
  3
block 5
  1

  0
SPLINE
  5
B0
330
AC
100
AcDbEntity
  8
_U+30EC_U+30A4_U+30E4_U+30FC 1
370
     0
100
AcDbSpline
210
0.0
220
0.0
230
1.0
 70
    11
 71
     3
 72
    29
 73
    25
 74
     0
 42
0.0000000001
 43
0.0000000001
 12
1.0
 22
0.0
 32
0.0
 13
1.0
 23
0.0
 33
0.0
 40
0.0
 40
0.0
 40
0.0
 40
0.0
 40
1.0
 40
1.0
 40
1.0
 40
2.0
 40
2.0
 40
2.0
 40
3.0
 40
3.0
 40
3.0
 40
4.0
 40
4.0
 40
4.0
 40
5.0
 40
5.0
 40
5.0
 40
6.0
 40
6.0
 40
6.0
 40
7.0
 40
7.0
 40
7.0
 40
8.0
 40
8.0
 40
8.0
 40
8.0
 10
76.50868053642839
 20
-79.13797741077107
 30
0.0
 10
76.71814234193158
 20
-79.2461534090079
 30
0.0
 10
76.73709036710045
 20
-79.41944171191598
 30
0.0
 10
76.73709036710045
 20
-79.53588593931742
 30
0.0
 10
76.73709036710045
 20
-79.69677189847859
 30
0.0
 10
76.69058157804957
 20
-79.83836532292236
 30
0.0
 10
76.50868053642839
 20
-79.93344995831525
 30
0.0
 10
76.31403264151177
 20
-80.03714733242127
 30
0.0
 10
76.07735458167511
 20
-80.05643986713868
 30
0.0
 10
75.91440156522279
 20
-80.05643986713868
 30
0.0
 10
75.77039657393935
 20
-80.05643986713868
 30
0.0
 10
75.51856009396758
 20
-80.03921438971243
 30
0.0
 10
75.31977808446867
 20
-79.93344995831525
 30
0.0
 10
75.11686196038745
 20
-79.82561846962693
 30
0.0
 10
75.09343531108776
 20
-79.66473251046577
 30
0.0
 10
75.09343531108776
 20
-79.53588593931742
 30
0.0
 10
75.09343531108776
 20
-79.3770670374474
 30
0.0
 10
75.13787704284748
 20
-79.23340655571249
 30
0.0
 10
75.31977808446867
 20
-79.13797741077107
 30
0.0
 10
75.51235892209414
 20
-79.03875866079586
 30
0.0
 10
75.7407687527662
 20
-79.01533201149617
 30
0.0
 10
75.91440156522279
 20
-79.01533201149617
 30
0.0
 10
76.08562281083971
 20
-79.01533201149617
 30
0.0
 10
76.31609969880293
 20
-79.03669160350472
 30
0.0
 10
76.50868053642839
 20
-79.13797741077107
 30
0.0
  0
SPLINE
  5
B1
330
AC
100
AcDbEntity
  8
_U+30EC_U+30A4_U+30E4_U+30FC 1
370
     0
100
AcDbSpline
210
0.0
220
0.0
230
1.0
 70
    11
 71
     3
 72
    17
 73
    13
 74
     0
 42
0.0000000001
 43
0.0000000001
 12
1.0
 22
0.0
 32
0.0
 13
1.0
 23
0.0
 33
0.0
 40
0.0
 40
0.0
 40
0.0
 40
0.0
 40
1.0
 40
1.0
 40
1.0
 40
2.0
 40
2.0
 40
2.0
 40
3.0
 40
3.0
 40
3.0
 40
4.0
 40
4.0
 40
4.0
 40
4.0
 10
75.28601614871322
 20
-79.53588593931742
 30
0.0
 10
75.28601614871322
 20
-79.78565536199804
 30
0.0
 10
75.56954750714928
 20
-79.8321641510489
 30
0.0
 10
75.91440156522279
 20
-79.8321641510489
 30
0.0
 10
76.23376191670545
 20
-79.8321641510489
 30
0.0
 10
76.54244247218384
 20
-79.79599064845378
 30
0.0
 10
76.54244247218384
 20
-79.53588593931742
 30
0.0
 10
76.54244247218384
 20
-79.28818357392795
 30
0.0
 10
76.26132268058745
 20
-79.23960772758593
 30
0.0
 10
75.91440156522279
 20
-79.23960772758593
 30
0.0
 10
75.5946967041916
 20
-79.23960772758593
 30
0.0
 10
75.28601614871322
 20
-79.27784828747221
 30
0.0
 10
75.28601614871322
 20
-79.53588593931742
 30
0.0
  0
HATCH
  5
B2
330
AC
100
AcDbEntity
  8
_U+30EC_U+30A4_U+30E4_U+30FC 1
 62
   179
420
  2234388
100
AcDbHatch
 10
0.0
 20
0.0
 30
0.0
210
0.0
220
0.0
230
1.0
  2
SOLID
 70
     1
 71
     0
 91
        2
 92
        1
 93
        1
 72
     4
 94
        3
 73
     0
 74
     1
 95
       29
 96
       25
 40
0.0
 40
0.0
 40
0.0
 40
0.0
 40
1.0
 40
1.0
 40
1.0
 40
2.0
 40
2.0
 40
2.0
 40
3.0
 40
3.0
 40
3.0
 40
4.0
 40
4.0
 40
4.0
 40
5.0
 40
5.0
 40
5.0
 40
6.0
 40
6.0
 40
6.0
 40
7.0
 40
7.0
 40
7.0
 40
8.0
 40
8.0
 40
8.0
 40
8.0
 10
76.50868053642839
 20
-79.13797741077107
 10
76.71814234193158
 20
-79.2461534090079
 10
76.73709036710045
 20
-79.41944171191598
 10
76.73709036710045
 20
-79.53588593931742
 10
76.73709036710045
 20
-79.69677189847859
 10
76.69058157804957
 20
-79.83836532292236
 10
76.50868053642839
 20
-79.93344995831525
 10
76.31403264151177
 20
-80.03714733242127
 10
76.07735458167511
 20
-80.05643986713868
 10
75.91440156522279
 20
-80.05643986713868
 10
75.77039657393935
 20
-80.05643986713868
 10
75.51856009396758
 20
-80.03921438971243
 10
75.31977808446867
 20
-79.93344995831525
 10
75.11686196038745
 20
-79.82561846962693
 10
75.09343531108776
 20
-79.66473251046577
 10
75.09343531108776
 20
-79.53588593931742
 10
75.09343531108776
 20
-79.3770670374474
 10
75.13787704284748
 20
-79.23340655571249
 10
75.31977808446867
 20
-79.13797741077107
 10
75.51235892209414
 20
-79.03875866079586
 10
75.7407687527662
 20
-79.01533201149617
 10
75.91440156522279
 20
-79.01533201149617
 10
76.08562281083971
 20
-79.01533201149617
 10
76.31609969880293
 20
-79.03669160350472
 10
76.50868053642839
 20
-79.13797741077107
 97
        0
 97
        0
 92
        1
 93
        1
 72
     4
 94
        3
 73
     0
 74
     1
 95
       17
 96
       13
 40
0.0
 40
0.0
 40
0.0
 40
0.0
 40
1.0
 40
1.0
 40
1.0
 40
2.0
 40
2.0
 40
2.0
 40
3.0
 40
3.0
 40
3.0
 40
4.0
 40
4.0
 40
4.0
 40
4.0
 10
75.28601614871322
 20
-79.53588593931742
 10
75.28601614871322
 20
-79.78565536199804
 10
75.56954750714928
 20
-79.8321641510489
 10
75.91440156522279
 20
-79.8321641510489
 10
76.23376191670545
 20
-79.8321641510489
 10
76.54244247218384
 20
-79.79599064845378
 10
76.54244247218384
 20
-79.53588593931742
 10
76.54244247218384
 20
-79.28818357392795
 10
76.26132268058745
 20
-79.23960772758593
 10
75.91440156522279
 20
-79.23960772758593
 10
75.5946967041916
 20
-79.23960772758593
 10
75.28601614871322
 20
-79.27784828747221
 10
75.28601614871322
 20
-79.53588593931742
 97
        0
 97
        0
 75
     2
 76
     1
 98
        0
  0
POLYLINE
  5
B3
330
AC
100
AcDbEntity
  8
_U+30EC_U+30A4_U+30E4_U+30FC 1
370
     0
100
AcDb2dPolyline
 66
     1
 10
0.0
 20
0.0
 30
0.0
  0
VERTEX
  5
B4
330
B3
100
AcDbEntity
  8
_U+30EC_U+30A4_U+30E4_U+30FC 1
370
     0
100
AcDbVertex
100
AcDb2dVertex
 10
76.68644746346727
 20
-78.79898001502248
 30
0.0
  0
VERTEX
  5
B5
330
B3
100
AcDbEntity
  8
_U+30EC_U+30A4_U+30E4_U+30FC 1
370
     0
100
AcDbVertex
100
AcDb2dVertex
 10
76.43461098349552
 20
-78.79898001502248
 30
0.0
  0
VERTEX
  5
B6
330
B3
100
AcDbEntity
  8
_U+30EC_U+30A4_U+30E4_U+30FC 1
370
     0
100
AcDbVertex
100
AcDb2dVertex
 10
76.43461098349552
 20
-78.54714353505072
 30
0.0
  0
VERTEX
  5
B7
330
B3
100
AcDbEntity
  8
_U+30EC_U+30A4_U+30E4_U+30FC 1
370
     0
100
AcDbVertex
100
AcDb2dVertex
 10
76.68644746346727
 20
-78.54714353505072
 30
0.0
  0
VERTEX
  5
B8
330
B3
100
AcDbEntity
  8
_U+30EC_U+30A4_U+30E4_U+30FC 1
370
     0
100
AcDbVertex
100
AcDb2dVertex
 10
76.68644746346727
 20
-78.79898001502248
 30
0.0
  0
SEQEND
  5
B9
330
B3
100
AcDbEntity
  8
_U+30EC_U+30A4_U+30E4_U+30FC 1
370
     0
  0
HATCH
  5
BA
330
AC
100
AcDbEntity
  8
_U+30EC_U+30A4_U+30E4_U+30FC 1
 62
   179
420
  2234388
100
AcDbHatch
 10
0.0
 20
0.0
 30
0.0
210
0.0
220
0.0
230
1.0
  2
SOLID
 70
     1
 71
     0
 91
        1
 92
        1
 93
        4
 72
     1
 10
76.68644746346727
 20
-78.79898001502248
 11
76.43461098349552
 21
-78.79898001502248
 72
     1
 10
76.43461098349552
 20
-78.79898001502248
 11
76.43461098349552
 21
-78.54714353505072
 72
     1
 10
76.43461098349552
 20
-78.54714353505072
 11
76.68644746346727
 21
-78.54714353505072
 72
     1
 10
76.68644746346727
 20
-78.54714353505072
 11
76.68644746346727
 21
-78.79898001502248
 97
        0
 75
     2
 76
     1
 98
        0
  0
SPLINE
  5
BB
330
AC
100
AcDbEntity
  8
_U+30EC_U+30A4_U+30E4_U+30FC 1
370
     0
100
AcDbSpline
210
0.0
220
0.0
230
1.0
 70
    11
 71
     3
 72
    29
 73
    25
 74
     0
 42
0.0000000001
 43
0.0000000001
 12
1.0
 22
0.0
 32
0.0
 13
1.0
 23
0.0
 33
0.0
 40
0.0
 40
0.0
 40
0.0
 40
0.0
 40
1.0
 40
1.0
 40
1.0
 40
2.0
 40
2.0
 40
2.0
 40
3.0
 40
3.0
 40
3.0
 40
4.0
 40
4.0
 40
4.0
 40
5.0
 40
5.0
 40
5.0
 40
6.0
 40
6.0
 40
6.0
 40
7.0
 40
7.0
 40
7.0
 40
8.0
 40
8.0
 40
8.0
 40
8.0
 10
76.73709036710045
 20
-77.81092662985283
 30
0.0
 10
76.73709036710045
 20
-78.07757702041117
 30
0.0
 10
76.59963105723898
 20
-78.33113604812556
 30
0.0
 10
76.25064288458317
 20
-78.33113604812556
 30
0.0
 10
75.99467229002911
 20
-78.33113604812556
 30
0.0
 10
75.89958765463622
 20
-78.18954262368179
 30
0.0
 10
75.83826495499878
 20
-78.08377819228461
 30
0.0
 10
75.77900931265248
 20
-78.20849064885066
 30
0.0
 10
75.66463214254217
 20
-78.28462725907468
 30
0.0
 10
75.50374618338101
 20
-78.28462725907468
 30
0.0
 10
75.22882756365807
 20
-78.28462725907468
 30
0.0
 10
75.09343531108776
 20
-78.08584524957577
 30
0.0
 10
75.09343531108776
 20
-77.81092662985283
 30
0.0
 10
75.09343531108776
 20
-77.52739527141676
 30
0.0
 10
75.2374403023712
 20
-77.33688149108245
 30
0.0
 10
75.50374618338101
 20
-77.33688149108245
 30
0.0
 10
75.66463214254217
 20
-77.33688149108245
 30
0.0
 10
75.77900931265248
 20
-77.41542966814615
 30
0.0
 10
75.83826495499878
 20
-77.54014212471219
 30
0.0
 10
75.88890785863194
 20
-77.45125866119274
 30
0.0
 10
75.98399249402483
 20
-77.29243975932273
 30
0.0
 10
76.24650877000087
 20
-77.29243975932273
 30
0.0
 10
76.62099064924753
 20
-77.29243975932273
 30
0.0
 10
76.73709036710045
 20
-77.57183700317648
 30
0.0
 10
76.73709036710045
 20
-77.81092662985283
 30
0.0
  0
SPLINE
  5
BC
330
AC
100
AcDbEntity
  8
_U+30EC_U+30A4_U+30E4_U+30FC 1
370
     0
100
AcDbSpline
210
0.0
220
0.0
230
1.0
 70
    11
 71
     3
 72
    17
 73
    13
 74
     0
 42
0.0000000001
 43
0.0000000001
 12
1.0
 22
0.0
 32
0.0
 13
1.0
 23
0.0
 33
0.0
 40
0.0
 40
0.0
 40
0.0
 40
0.0
 40
1.0
 40
1.0
 40
1.0
 40
2.0
 40
2.0
 40
2.0
 40
3.0
 40
3.0
 40
3.0
 40
4.0
 40
4.0
 40
4.0
 40
4.0
 10
75.28601614871322
 20
-77.81092662985283
 30
0.0
 10
75.28601614871322
 20
-77.97594670359629
 30
0.0
 10
75.38110078410612
 20
-78.06035154298492
 30
0.0
 10
75.51649303667644
 20
-78.06035154298492
 30
0.0
 10
75.63913843595132
 20
-78.06035154298492
 30
0.0
 10
75.75764972064393
 20
-77.98869355689172
 30
0.0
 10
75.75764972064393
 20
-77.81092662985283
 30
0.0
 10
75.75764972064393
 20
-77.63315970281394
 30
0.0
 10
75.63913843595132
 20
-77.56115720717222
 30
0.0
 10
75.51649303667644
 20
-77.56115720717222
 30
0.0
 10
75.38110078410612
 20
-77.56115720717222
 30
0.0
 10
75.28601614871322
 20
-77.64797361340051
 30
0.0
 10
75.28601614871322
 20
-77.81092662985283
 30
0.0
  0
SPLINE
  5
BD
330
AC
100
AcDbEntity
  8
_U+30EC_U+30A4_U+30E4_U+30FC 1
370
     0
100
AcDbSpline
210
0.0
220
0.0
230
1.0
 70
    11
 71
     3
 72
    17
 73
    13
 74
     0
 42
0.0000000001
 43
0.0000000001
 12
1.0
 22
0.0
 32
0.0
 13
1.0
 23
0.0
 33
0.0
 40
0.0
 40
0.0
 40
0.0
 40
0.0
 40
1.0
 40
1.0
 40
1.0
 40
2.0
 40
2.0
 40
2.0
 40
3.0
 40
3.0
 40
3.0
 40
4.0
 40
4.0
 40
4.0
 40
4.0
 10
75.9460964436871
 20
-77.81092662985283
 30
0.0
 10
75.9460964436871
 20
-77.95458711158774
 30
0.0
 10
76.03291284991539
 20
-78.10720484158432
 30
0.0
 10
76.2358289739966
 20
-78.10720484158432
 30
0.0
 10
76.44115666491749
 20
-78.10720484158432
 30
0.0
 10
76.54244247218384
 20
-77.98008081817859
 30
0.0
 10
76.54244247218384
 20
-77.81092662985283
 30
0.0
 10
76.54244247218384
 20
-77.62489147364934
 30
0.0
 10
76.41979707290895
 20
-77.51464841812134
 30
0.0
 10
76.24203014587005
 20
-77.51464841812134
 30
0.0
 10
76.02016599661997
 20
-77.51464841812134
 30
0.0
 10
75.9460964436871
 20
-77.67760143457366
 30
0.0
 10
75.9460964436871
 20
-77.81092662985283
 30
0.0
  0
HATCH
  5
BE
330
AC
100
AcDbEntity
  8
_U+30EC_U+30A4_U+30E4_U+30FC 1
 62
   179
420
  2234388
100
AcDbHatch
 10
0.0
 20
0.0
 30
0.0
210
0.0
220
0.0
230
1.0
  2
SOLID
 70
     1
 71
     0
 91
        3
 92
        1
 93
        1
 72
     4
 94
        3
 73
     0
 74
     1
 95
       29
 96
       25
 40
0.0
 40
0.0
 40
0.0
 40
0.0
 40
1.0
 40
1.0
 40
1.0
 40
2.0
 40
2.0
 40
2.0
 40
3.0
 40
3.0
 40
3.0
 40
4.0
 40
4.0
 40
4.0
 40
5.0
 40
5.0
 40
5.0
 40
6.0
 40
6.0
 40
6.0
 40
7.0
 40
7.0
 40
7.0
 40
8.0
 40
8.0
 40
8.0
 40
8.0
 10
76.73709036710045
 20
-77.81092662985283
 10
76.73709036710045
 20
-78.07757702041117
 10
76.59963105723898
 20
-78.33113604812556
 10
76.25064288458317
 20
-78.33113604812556
 10
75.99467229002911
 20
-78.33113604812556
 10
75.89958765463622
 20
-78.18954262368179
 10
75.83826495499878
 20
-78.08377819228461
 10
75.77900931265248
 20
-78.20849064885066
 10
75.66463214254217
 20
-78.28462725907468
 10
75.50374618338101
 20
-78.28462725907468
 10
75.22882756365807
 20
-78.28462725907468
 10
75.09343531108776
 20
-78.08584524957577
 10
75.09343531108776
 20
-77.81092662985283
 10
75.09343531108776
 20
-77.52739527141676
 10
75.2374403023712
 20
-77.33688149108245
 10
75.50374618338101
 20
-77.33688149108245
 10
75.66463214254217
 20
-77.33688149108245
 10
75.77900931265248
 20
-77.41542966814615
 10
75.83826495499878
 20
-77.54014212471219
 10
75.88890785863194
 20
-77.45125866119274
 10
75.98399249402483
 20
-77.29243975932273
 10
76.24650877000087
 20
-77.29243975932273
 10
76.62099064924753
 20
-77.29243975932273
 10
76.73709036710045
 20
-77.57183700317648
 10
76.73709036710045
 20
-77.81092662985283
 97
        0
 97
        0
 92
        1
 93
        1
 72
     4
 94
        3
 73
     0
 74
     1
 95
       17
 96
       13
 40
0.0
 40
0.0
 40
0.0
 40
0.0
 40
1.0
 40
1.0
 40
1.0
 40
2.0
 40
2.0
 40
2.0
 40
3.0
 40
3.0
 40
3.0
 40
4.0
 40
4.0
 40
4.0
 40
4.0
 10
75.28601614871322
 20
-77.81092662985283
 10
75.28601614871322
 20
-77.97594670359629
 10
75.38110078410612
 20
-78.06035154298492
 10
75.51649303667644
 20
-78.06035154298492
 10
75.63913843595132
 20
-78.06035154298492
 10
75.75764972064393
 20
-77.98869355689172
 10
75.75764972064393
 20
-77.81092662985283
 10
75.75764972064393
 20
-77.63315970281394
 10
75.63913843595132
 20
-77.56115720717222
 10
75.51649303667644
 20
-77.56115720717222
 10
75.38110078410612
 20
-77.56115720717222
 10
75.28601614871322
 20
-77.64797361340051
 10
75.28601614871322
 20
-77.81092662985283
 97
        0
 97
        0
 92
        1
 93
        1
 72
     4
 94
        3
 73
     0
 74
     1
 95
       17
 96
       13
 40
0.0
 40
0.0
 40
0.0
 40
0.0
 40
1.0
 40
1.0
 40
1.0
 40
2.0
 40
2.0
 40
2.0
 40
3.0
 40
3.0
 40
3.0
 40
4.0
 40
4.0
 40
4.0
 40
4.0
 10
75.9460964436871
 20
-77.81092662985283
 10
75.9460964436871
 20
-77.95458711158774
 10
76.03291284991539
 20
-78.10720484158432
 10
76.2358289739966
 20
-78.10720484158432
 10
76.44115666491749
 20
-78.10720484158432
 10
76.54244247218384
 20
-77.98008081817859
 10
76.54244247218384
 20
-77.81092662985283
 10
76.54244247218384
 20
-77.62489147364934
 10
76.41979707290895
 20
-77.51464841812134
 10
76.24203014587005
 20
-77.51464841812134
 10
76.02016599661997
 20
-77.51464841812134
 10
75.9460964436871
 20
-77.67760143457366
 10
75.9460964436871
 20
-77.81092662985283
 97
        0
 97
        0
 75
     2
 76
     1
 98
        0
  0
ENDBLK
  5
AF
330
AC
100
AcDbEntity
  8
0
100
AcDbBlockEnd
  0
BLOCK
  5
C1
330
BF
100
AcDbEntity
  8
0
100
AcDbBlockBegin
  2
block 6
 70
     0
 10
0.0
 20
0.0
 30
0.0
  3
block 6
  1

  0
SPLINE
  5
C3
330
BF
100
AcDbEntity
  8
_U+30EC_U+30A4_U+30E4_U+30FC 1
370
     0
100
AcDbSpline
210
0.0
220
0.0
230
1.0
 70
    11
 71
     3
 72
    62
 73
    58
 74
     0
 42
0.0000000001
 43
0.0000000001
 12
1.0
 22
0.0
 32
0.0
 13
1.0
 23
0.0
 33
0.0
 40
0.0
 40
0.0
 40
0.0
 40
0.0
 40
1.0
 40
1.0
 40
1.0
 40
2.0
 40
2.0
 40
2.0
 40
3.0
 40
3.0
 40
3.0
 40
4.0
 40
4.0
 40
4.0
 40
5.0
 40
5.0
 40
5.0
 40
6.0
 40
6.0
 40
6.0
 40
7.0
 40
7.0
 40
7.0
 40
8.0
 40
8.0
 40
8.0
 40
9.0
 40
9.0
 40
9.0
 40
10.0
 40
10.0
 40
10.0
 40
11.0
 40
11.0
 40
11.0
 40
12.0
 40
12.0
 40
12.0
 40
13.0
 40
13.0
 40
13.0
 40
14.0
 40
14.0
 40
14.0
 40
15.0
 40
15.0
 40
15.0
 40
16.0
 40
16.0
 40
16.0
 40
17.0
 40
17.0
 40
17.0
 40
18.0
 40
18.0
 40
18.0
 40
19.0
 40
19.0
 40
19.0
 40
19.0
 10
76.73709036710045
 20
-95.66720103945126
 30
0.0
 10
76.73709036710045
 20
-95.76263018439268
 30
0.0
 10
76.71607528464043
 20
-95.98036021906047
 30
0.0
 10
76.53004012843694
 20
-96.10541718517504
 30
0.0
 10
76.41773001561779
 20
-96.17948673810791
 30
0.0
 10
76.3185112656426
 20
-96.18362085269021
 30
0.0
 10
76.23376191670545
 20
-96.18775496727251
 30
0.0
 10
76.23376191670545
 20
-96.18775496727251
 30
0.0
 10
76.23376191670545
 20
-95.96761336576505
 30
0.0
 10
76.23376191670545
 20
-95.96761336576505
 30
0.0
 10
76.30783146963833
 20
-95.96554630847389
 30
0.0
 10
76.54244247218384
 20
-95.95521102201815
 30
0.0
 10
76.54244247218384
 20
-95.67167966358208
 30
0.0
 10
76.54244247218384
 20
-95.53422035372061
 30
0.0
 10
76.4728515433818
 20
-95.38160262372405
 30
0.0
 10
76.24444171270973
 20
-95.38160262372405
 30
0.0
 10
76.12799748530828
 20
-95.38160262372405
 30
0.0
 10
76.07942163896625
 20
-95.41984318361033
 30
0.0
 10
76.04772676050196
 20
-95.45153806207462
 30
0.0
 10
75.97365720756909
 20
-95.52560761500749
 30
0.0
 10
75.96091035427366
 20
-95.64205184240893
 30
0.0
 10
75.96091035427366
 20
-95.69682886062441
 30
0.0
 10
75.96091035427366
 20
-95.7161213953418
 30
0.0
 10
75.96297741156482
 20
-95.75195038838841
 30
0.0
 10
75.96711152614712
 20
-95.7795111522704
 30
0.0
 10
75.96711152614712
 20
-95.7795111522704
 30
0.0
 10
75.7724636312305
 20
-95.7795111522704
 30
0.0
 10
75.7724636312305
 20
-95.7795111522704
 30
0.0
 10
75.77900931265248
 20
-95.74127059238413
 30
0.0
 10
75.78107636994362
 20
-95.69924042746408
 30
0.0
 10
75.78107636994362
 20
-95.69269474604211
 30
0.0
 10
75.78107636994362
 20
-95.62723793182236
 30
0.0
 10
75.75971677793507
 20
-95.42845592232345
 30
0.0
 10
75.5230387180984
 20
-95.42845592232345
 30
0.0
 10
75.34527179105952
 20
-95.42845592232345
 30
0.0
 10
75.29015026329552
 20
-95.55936955076294
 30
0.0
 10
75.29015026329552
 20
-95.66961260629094
 30
0.0
 10
75.29015026329552
 20
-95.9338514300096
 30
0.0
 10
75.5230387180984
 20
-95.94246416872272
 30
0.0
 10
75.5946967041916
 20
-95.94659828330502
 30
0.0
 10
75.5946967041916
 20
-95.94659828330502
 30
0.0
 10
75.5946967041916
 20
-96.14985891693476
 30
0.0
 10
75.5946967041916
 20
-96.14985891693476
 30
0.0
 10
75.46998424762556
 20
-96.14124617822164
 30
0.0
 10
75.09343531108776
 20
-96.11368541433964
 30
0.0
 10
75.09343531108776
 20
-95.65686575299551
 30
0.0
 10
75.09343531108776
 20
-95.43259003690575
 30
0.0
 10
75.22055933449347
 20
-95.19143335293826
 30
0.0
 10
75.51649303667644
 20
-95.19143335293826
 30
0.0
 10
75.70287270242845
 20
-95.19143335293826
 30
0.0
 10
75.78521048452592
 20
-95.28651798833116
 30
0.0
 10
75.84653318416338
 20
-95.38608124785488
 30
0.0
 10
75.87409394804537
 20
-95.32475854821743
 30
0.0
 10
75.9543646728517
 20
-95.14285750659623
 30
0.0
 10
76.2316948594143
 20
-95.14285750659623
 30
0.0
 10
76.57000323606583
 20
-95.14285750659623
 30
0.0
 10
76.73709036710045
 20
-95.39021536243717
 30
0.0
 10
76.73709036710045
 20
-95.66720103945126
 30
0.0
  0
HATCH
  5
C4
330
BF
100
AcDbEntity
  8
_U+30EC_U+30A4_U+30E4_U+30FC 1
 62
   179
420
  2234388
100
AcDbHatch
 10
0.0
 20
0.0
 30
0.0
210
0.0
220
0.0
230
1.0
  2
SOLID
 70
     1
 71
     0
 91
        1
 92
        1
 93
        1
 72
     4
 94
        3
 73
     0
 74
     1
 95
       62
 96
       58
 40
0.0
 40
0.0
 40
0.0
 40
0.0
 40
1.0
 40
1.0
 40
1.0
 40
2.0
 40
2.0
 40
2.0
 40
3.0
 40
3.0
 40
3.0
 40
4.0
 40
4.0
 40
4.0
 40
5.0
 40
5.0
 40
5.0
 40
6.0
 40
6.0
 40
6.0
 40
7.0
 40
7.0
 40
7.0
 40
8.0
 40
8.0
 40
8.0
 40
9.0
 40
9.0
 40
9.0
 40
10.0
 40
10.0
 40
10.0
 40
11.0
 40
11.0
 40
11.0
 40
12.0
 40
12.0
 40
12.0
 40
13.0
 40
13.0
 40
13.0
 40
14.0
 40
14.0
 40
14.0
 40
15.0
 40
15.0
 40
15.0
 40
16.0
 40
16.0
 40
16.0
 40
17.0
 40
17.0
 40
17.0
 40
18.0
 40
18.0
 40
18.0
 40
19.0
 40
19.0
 40
19.0
 40
19.0
 10
76.73709036710045
 20
-95.66720103945126
 10
76.73709036710045
 20
-95.76263018439268
 10
76.71607528464043
 20
-95.98036021906047
 10
76.53004012843694
 20
-96.10541718517504
 10
76.41773001561779
 20
-96.17948673810791
 10
76.3185112656426
 20
-96.18362085269021
 10
76.23376191670545
 20
-96.18775496727251
 10
76.23376191670545
 20
-96.18775496727251
 10
76.23376191670545
 20
-95.96761336576505
 10
76.23376191670545
 20
-95.96761336576505
 10
76.30783146963833
 20
-95.96554630847389
 10
76.54244247218384
 20
-95.95521102201815
 10
76.54244247218384
 20
-95.67167966358208
 10
76.54244247218384
 20
-95.53422035372061
 10
76.4728515433818
 20
-95.38160262372405
 10
76.24444171270973
 20
-95.38160262372405
 10
76.12799748530828
 20
-95.38160262372405
 10
76.07942163896625
 20
-95.41984318361033
 10
76.04772676050196
 20
-95.45153806207462
 10
75.97365720756909
 20
-95.52560761500749
 10
75.96091035427366
 20
-95.64205184240893
 10
75.96091035427366
 20
-95.69682886062441
 10
75.96091035427366
 20
-95.7161213953418
 10
75.96297741156482
 20
-95.75195038838841
 10
75.96711152614712
 20
-95.7795111522704
 10
75.96711152614712
 20
-95.7795111522704
 10
75.7724636312305
 20
-95.7795111522704
 10
75.7724636312305
 20
-95.7795111522704
 10
75.77900931265248
 20
-95.74127059238413
 10
75.78107636994362
 20
-95.69924042746408
 10
75.78107636994362
 20
-95.69269474604211
 10
75.78107636994362
 20
-95.62723793182236
 10
75.75971677793507
 20
-95.42845592232345
 10
75.5230387180984
 20
-95.42845592232345
 10
75.34527179105952
 20
-95.42845592232345
 10
75.29015026329552
 20
-95.55936955076294
 10
75.29015026329552
 20
-95.66961260629094
 10
75.29015026329552
 20
-95.9338514300096
 10
75.5230387180984
 20
-95.94246416872272
 10
75.5946967041916
 20
-95.94659828330502
 10
75.5946967041916
 20
-95.94659828330502
 10
75.5946967041916
 20
-96.14985891693476
 10
75.5946967041916
 20
-96.14985891693476
 10
75.46998424762556
 20
-96.14124617822164
 10
75.09343531108776
 20
-96.11368541433964
 10
75.09343531108776
 20
-95.65686575299551
 10
75.09343531108776
 20
-95.43259003690575
 10
75.22055933449347
 20
-95.19143335293826
 10
75.51649303667644
 20
-95.19143335293826
 10
75.70287270242845
 20
-95.19143335293826
 10
75.78521048452592
 20
-95.28651798833116
 10
75.84653318416338
 20
-95.38608124785488
 10
75.87409394804537
 20
-95.32475854821743
 10
75.9543646728517
 20
-95.14285750659623
 10
76.2316948594143
 20
-95.14285750659623
 10
76.57000323606583
 20
-95.14285750659623
 10
76.73709036710045
 20
-95.39021536243717
 10
76.73709036710045
 20
-95.66720103945126
 97
        0
 97
        0
 75
     2
 76
     1
 98
        0
  0
ENDBLK
  5
C2
330
BF
100
AcDbEntity
  8
0
100
AcDbBlockEnd
  0
ENDSEC
  0
SECTION
  2
ENTITIES
  0
SPLINE
  5
41
330
1F
100
AcDbEntity
  8
_U+30EC_U+30A4_U+30E4_U+30FC 1
 62
   179
420
  2234388
370
     9
100
AcDbSpline
210
0.0
220
0.0
230
1.0
 70
    11
 71
     3
 72
    17
 73
    13
 74
     0
 42
0.0000000001
 43
0.0000000001
 12
1.0
 22
0.0
 32
0.0
 13
1.0
 23
0.0
 33
0.0
 40
0.0
 40
0.0
 40
0.0
 40
0.0
 40
1.0
 40
1.0
 40
1.0
 40
2.0
 40
2.0
 40
2.0
 40
3.0
 40
3.0
 40
3.0
 40
4.0
 40
4.0
 40
4.0
 40
4.0
 10
58.97985831858833
 20
-101.1759258080392
 30
0.0
 10
58.97985831858833
 20
-101.1207866413868
 30
0.0
 10
58.93508932977394
 20
-101.0759838636201
 30
0.0
 10
58.87995016451399
 20
-101.0759838636201
 30
0.0
 10
58.82484627703092
 20
-101.0759838636201
 30
0.0
 10
58.78004350039615
 20
-101.1207866413868
 30
0.0
 10
58.78004350039615
 20
-101.1759258080392
 30
0.0
 10
58.78004350039615
 20
-101.2310296969148
 30
0.0
 10
58.82484627703092
 20
-101.2758324746808
 30
0.0
 10
58.87995016451399
 20
-101.2758324746808
 30
0.0
 10
58.93508932977394
 20
-101.2758324746808
 30
0.0
 10
58.97985831858833
 20
-101.2310296969148
 30
0.0
 10
58.97985831858833
 20
-101.1759258080392
 30
0.0
  0
SPLINE
  5
42
330
1F
100
AcDbEntity
  8
_U+30EC_U+30A4_U+30E4_U+30FC 1
 62
   179
420
  2234388
370
     9
100
AcDbSpline
210
0.0
220
0.0
230
1.0
 70
    11
 71
     3
 72
    17
 73
    13
 74
     0
 42
0.0000000001
 43
0.0000000001
 12
1.0
 22
0.0
 32
0.0
 13
1.0
 23
0.0
 33
0.0
 40
0.0
 40
0.0
 40
0.0
 40
0.0
 40
1.0
 40
1.0
 40
1.0
 40
2.0
 40
2.0
 40
2.0
 40
3.0
 40
3.0
 40
3.0
 40
4.0
 40
4.0
 40
4.0
 40
4.0
 10
48.98047680595949
 20
-101.1759258080392
 30
0.0
 10
48.98047680595949
 20
-101.1207866413868
 30
0.0
 10
48.93567402932472
 20
-101.0759838636201
 30
0.0
 10
48.87986458630409
 20
-101.0759838636201
 30
0.0
 10
48.82476069882102
 20
-101.0759838636201
 30
0.0
 10
48.77995792218626
 20
-101.1207866413868
 30
0.0
 10
48.77995792218626
 20
-101.1759258080392
 30
0.0
 10
48.77995792218626
 20
-101.2310296969148
 30
0.0
 10
48.82476069882102
 20
-101.2758324746808
 30
0.0
 10
48.87986458630409
 20
-101.2758324746808
 30
0.0
 10
48.93567402932472
 20
-101.2758324746808
 30
0.0
 10
48.98047680595949
 20
-101.2310296969148
 30
0.0
 10
48.98047680595949
 20
-101.1759258080392
 30
0.0
  0
SPLINE
  5
43
330
1F
100
AcDbEntity
  8
_U+30EC_U+30A4_U+30E4_U+30FC 1
 62
   179
420
  2234388
370
     9
100
AcDbSpline
210
0.0
220
0.0
230
1.0
 70
    11
 71
     3
 72
    17
 73
    13
 74
     0
 42
0.0000000001
 43
0.0000000001
 12
1.0
 22
0.0
 32
0.0
 13
1.0
 23
0.0
 33
0.0
 40
0.0
 40
0.0
 40
0.0
 40
0.0
 40
1.0
 40
1.0
 40
1.0
 40
2.0
 40
2.0
 40
2.0
 40
3.0
 40
3.0
 40
3.0
 40
4.0
 40
4.0
 40
4.0
 40
4.0
 10
50.33232121591551
 20
-77.994898036057
 30
0.0
 10
50.27721732843244
 20
-77.994898036057
 30
0.0
 10
50.23241455179767
 20
-78.03966553604555
 30
0.0
 10
50.23241455179767
 20
-78.09480470269862
 30
0.0
 10
50.23241455179767
 20
-78.14990859157355
 30
0.0
 10
50.27721732843244
 20
-78.19471136934027
 30
0.0
 10
50.33232121591551
 20
-78.19471136934027
 30
0.0
 10
50.38746038117546
 20
-78.19471136934027
 30
0.0
 10
50.43222788003335
 20
-78.14990859157355
 30
0.0
 10
50.43222788003335
 20
-78.09480470269862
 30
0.0
 10
50.43222788003335
 20
-78.03966553604555
 30
0.0
 10
50.38746038117546
 20
-77.994898036057
 30
0.0
 10
50.33232121591551
 20
-77.994898036057
 30
0.0
  0
POLYLINE
  5
44
330
1F
100
AcDbEntity
  8
_U+30EC_U+30A4_U+30E4_U+30FC 1
 62
   179
420
  2234388
370
     9
100
AcDb2dPolyline
 66
     1
 10
0.0
 20
0.0
 30
0.0
  0
VERTEX
  5
45
330
44
100
AcDbEntity
  8
_U+30EC_U+30A4_U+30E4_U+30FC 1
 62
   179
420
  2234388
370
     9
100
AcDbVertex
100
AcDb2dVertex
 10
73.30129368548376
 20
-78.09480470269862
 30
0.0
  0
VERTEX
  5
46
330
44
100
AcDbEntity
  8
_U+30EC_U+30A4_U+30E4_U+30FC 1
 62
   179
420
  2234388
370
     9
100
AcDbVertex
100
AcDb2dVertex
 10
50.33232121591551
 20
-78.09480470269862
 30
0.0
  0
SEQEND
  5
47
330
44
100
AcDbEntity
  8
_U+30EC_U+30A4_U+30E4_U+30FC 1
 62
   179
420
  2234388
370
     9
  0
POLYLINE
  5
48
330
1F
100
AcDbEntity
  8
_U+30EC_U+30A4_U+30E4_U+30FC 1
 62
   179
420
  2234388
370
     9
100
AcDb2dPolyline
 66
     1
 10
0.0
 20
0.0
 30
0.0
  0
VERTEX
  5
49
330
48
100
AcDbEntity
  8
_U+30EC_U+30A4_U+30E4_U+30FC 1
 62
   179
420
  2234388
370
     9
100
AcDbVertex
100
AcDb2dVertex
 10
50.33232121591551
 20
-76.6347633141746
 30
0.0
  0
VERTEX
  5
4A
330
48
100
AcDbEntity
  8
_U+30EC_U+30A4_U+30E4_U+30FC 1
 62
   179
420
  2234388
370
     9
100
AcDbVertex
100
AcDb2dVertex
 10
50.33232121591551
 20
-79.09457692467085
 30
0.0
  0
SEQEND
  5
4B
330
48
100
AcDbEntity
  8
_U+30EC_U+30A4_U+30E4_U+30FC 1
 62
   179
420
  2234388
370
     9
  0
SPLINE
  5
4C
330
1F
100
AcDbEntity
  8
_U+30EC_U+30A4_U+30E4_U+30FC 1
 62
   179
420
  2234388
370
     9
100
AcDbSpline
210
0.0
220
0.0
230
1.0
 70
    11
 71
     3
 72
    17
 73
    13
 74
     0
 42
0.0000000001
 43
0.0000000001
 12
1.0
 22
0.0
 32
0.0
 13
1.0
 23
0.0
 33
0.0
 40
0.0
 40
0.0
 40
0.0
 40
0.0
 40
1.0
 40
1.0
 40
1.0
 40
2.0
 40
2.0
 40
2.0
 40
3.0
 40
3.0
 40
3.0
 40
4.0
 40
4.0
 40
4.0
 40
4.0
 10
73.30129368548376
 20
-77.994898036057
 30
0.0
 10
73.24619164835526
 20
-77.994898036057
 30
0.0
 10
73.20138887058854
 20
-78.03966553604555
 30
0.0
 10
73.20138887058854
 20
-78.09480470269862
 30
0.0
 10
73.20138887058854
 20
-78.14990859157355
 30
0.0
 10
73.24619164835526
 20
-78.19471136934027
 30
0.0
 10
73.30129368548376
 20
-78.19471136934027
 30
0.0
 10
73.3564328507437
 20
-78.19471136934027
 30
0.0
 10
73.4012003496016
 20
-78.14990859157355
 30
0.0
 10
73.4012003496016
 20
-78.09480470269862
 30
0.0
 10
73.4012003496016
 20
-78.03966553604555
 30
0.0
 10
73.3564328507437
 20
-77.994898036057
 30
0.0
 10
73.30129368548376
 20
-77.994898036057
 30
0.0
  0
POLYLINE
  5
4D
330
1F
100
AcDbEntity
  8
_U+30EC_U+30A4_U+30E4_U+30FC 1
 62
   179
420
  2234388
370
     9
100
AcDb2dPolyline
 66
     1
 10
0.0
 20
0.0
 30
0.0
  0
VERTEX
  5
4E
330
4D
100
AcDbEntity
  8
_U+30EC_U+30A4_U+30E4_U+30FC 1
 62
   179
420
  2234388
370
     9
100
AcDbVertex
100
AcDb2dVertex
 10
73.30129368548376
 20
-76.6347633141746
 30
0.0
  0
VERTEX
  5
4F
330
4D
100
AcDbEntity
  8
_U+30EC_U+30A4_U+30E4_U+30FC 1
 62
   179
420
  2234388
370
     9
100
AcDbVertex
100
AcDb2dVertex
 10
73.30129368548376
 20
-79.09457692467085
 30
0.0
  0
SEQEND
  5
50
330
4D
100
AcDbEntity
  8
_U+30EC_U+30A4_U+30E4_U+30FC 1
 62
   179
420
  2234388
370
     9
  0
INSERT
  5
52
330
1F
100
AcDbEntity
  8
_U+30EC_U+30A4_U+30E4_U+30FC 1
100
AcDbBlockReference
  2
block 2
 10
0.0
 20
0.0
 30
0.0
  0
POLYLINE
  5
59
330
1F
100
AcDbEntity
  8
_U+30EC_U+30A4_U+30E4_U+30FC 1
 62
   179
420
  2234388
370
     9
100
AcDb2dPolyline
 66
     1
 10
0.0
 20
0.0
 30
0.0
  0
VERTEX
  5
5A
330
59
100
AcDbEntity
  8
_U+30EC_U+30A4_U+30E4_U+30FC 1
 62
   179
420
  2234388
370
     9
100
AcDbVertex
100
AcDb2dVertex
 10
48.87986458630409
 20
-101.1759258080392
 30
0.0
  0
VERTEX
  5
5B
330
59
100
AcDbEntity
  8
_U+30EC_U+30A4_U+30E4_U+30FC 1
 62
   179
420
  2234388
370
     9
100
AcDbVertex
100
AcDb2dVertex
 10
58.87995016451399
 20
-101.1759258080392
 30
0.0
  0
SEQEND
  5
5C
330
59
100
AcDbEntity
  8
_U+30EC_U+30A4_U+30E4_U+30FC 1
 62
   179
420
  2234388
370
     9
  0
POLYLINE
  5
5D
330
1F
100
AcDbEntity
  8
_U+30EC_U+30A4_U+30E4_U+30FC 1
 62
   179
420
  2234388
370
     9
100
AcDb2dPolyline
 66
     1
 10
0.0
 20
0.0
 30
0.0
  0
VERTEX
  5
5E
330
5D
100
AcDbEntity
  8
_U+30EC_U+30A4_U+30E4_U+30FC 1
 62
   179
420
  2234388
370
     9
100
AcDbVertex
100
AcDb2dVertex
 10
48.87986458630409
 20
-98.71540664198808
 30
0.0
  0
VERTEX
  5
5F
330
5D
100
AcDbEntity
  8
_U+30EC_U+30A4_U+30E4_U+30FC 1
 62
   179
420
  2234388
370
     9
100
AcDbVertex
100
AcDb2dVertex
 10
48.87986458630409
 20
-102.1756627522336
 30
0.0
  0
SEQEND
  5
60
330
5D
100
AcDbEntity
  8
_U+30EC_U+30A4_U+30E4_U+30FC 1
 62
   179
420
  2234388
370
     9
  0
POLYLINE
  5
61
330
1F
100
AcDbEntity
  8
_U+30EC_U+30A4_U+30E4_U+30FC 1
 62
   179
420
  2234388
370
     9
100
AcDb2dPolyline
 66
     1
 10
0.0
 20
0.0
 30
0.0
  0
VERTEX
  5
62
330
61
100
AcDbEntity
  8
_U+30EC_U+30A4_U+30E4_U+30FC 1
 62
   179
420
  2234388
370
     9
100
AcDbVertex
100
AcDb2dVertex
 10
58.87995016451399
 20
-98.71540664198808
 30
0.0
  0
VERTEX
  5
63
330
61
100
AcDbEntity
  8
_U+30EC_U+30A4_U+30E4_U+30FC 1
 62
   179
420
  2234388
370
     9
100
AcDbVertex
100
AcDb2dVertex
 10
58.87995016451399
 20
-102.1756627522336
 30
0.0
  0
SEQEND
  5
64
330
61
100
AcDbEntity
  8
_U+30EC_U+30A4_U+30E4_U+30FC 1
 62
   179
420
  2234388
370
     9
  0
INSERT
  5
66
330
1F
100
AcDbEntity
  8
_U+30EC_U+30A4_U+30E4_U+30FC 1
100
AcDbBlockReference
  2
block 3
 10
0.0
 20
0.0
 30
0.0
  0
POLYLINE
  5
6E
330
1F
100
AcDbEntity
  8
_U+30EC_U+30A4_U+30E4_U+30FC 1
 62
   179
420
  2234388
370
    25
100
AcDb2dPolyline
 66
     1
 10
0.0
 20
0.0
 30
0.0
  0
VERTEX
  5
6F
330
6E
100
AcDbEntity
  8
_U+30EC_U+30A4_U+30E4_U+30FC 1
 62
   179
420
  2234388
370
    25
100
AcDbVertex
100
AcDb2dVertex
 10
73.33230285135932
 20
-81.67528747958104
 30
0.0
  0
VERTEX
  5
70
330
6E
100
AcDbEntity
  8
_U+30EC_U+30A4_U+30E4_U+30FC 1
 62
   179
420
  2234388
370
    25
100
AcDbVertex
100
AcDb2dVertex
 10
73.33230285135932
 20
-80.87532859089242
 30
0.0
  0
VERTEX
  5
71
330
6E
100
AcDbEntity
  8
_U+30EC_U+30A4_U+30E4_U+30FC 1
 62
   179
420
  2234388
370
    25
100
AcDbVertex
100
AcDb2dVertex
 10
50.33232121591551
 20
-80.87532859089242
 30
0.0
  0
VERTEX
  5
72
330
6E
100
AcDbEntity
  8
_U+30EC_U+30A4_U+30E4_U+30FC 1
 62
   179
420
  2234388
370
    25
100
AcDbVertex
100
AcDb2dVertex
 10
49.36493401837339
 20
-96.37518469812858
 30
0.0
  0
VERTEX
  5
73
330
6E
100
AcDbEntity
  8
_U+30EC_U+30A4_U+30E4_U+30FC 1
 62
   179
420
  2234388
370
    25
100
AcDbVertex
100
AcDb2dVertex
 10
48.86437764225476
 20
-96.37518469812858
 30
0.0
  0
VERTEX
  5
74
330
6E
100
AcDbEntity
  8
_U+30EC_U+30A4_U+30E4_U+30FC 1
 62
   179
420
  2234388
370
    25
100
AcDbVertex
100
AcDb2dVertex
 10
48.86437764225476
 20
-97.17510830903967
 30
0.0
  0
VERTEX
  5
75
330
6E
100
AcDbEntity
  8
_U+30EC_U+30A4_U+30E4_U+30FC 1
 62
   179
420
  2234388
370
    25
100
AcDbVertex
100
AcDb2dVertex
 10
58.86446322046465
 20
-97.17510830903967
 30
0.0
  0
VERTEX
  5
76
330
6E
100
AcDbEntity
  8
_U+30EC_U+30A4_U+30E4_U+30FC 1
 62
   179
420
  2234388
370
    25
100
AcDbVertex
100
AcDb2dVertex
 10
58.86446322046465
 20
-94.17512136534533
 30
0.0
  0
VERTEX
  5
77
330
6E
100
AcDbEntity
  8
_U+30EC_U+30A4_U+30E4_U+30FC 1
 62
   179
420
  2234388
370
    25
100
AcDbVertex
100
AcDb2dVertex
 10
54.86470554183936
 20
-94.17512136534533
 30
0.0
  0
VERTEX
  5
78
330
6E
100
AcDbEntity
  8
_U+30EC_U+30A4_U+30E4_U+30FC 1
 62
   179
420
  2234388
370
    25
100
AcDbVertex
100
AcDb2dVertex
 10
54.86470554183936
 20
-94.97508025403395
 30
0.0
  0
VERTEX
  5
79
330
6E
100
AcDbEntity
  8
_U+30EC_U+30A4_U+30E4_U+30FC 1
 62
   179
420
  2234388
370
    25
100
AcDbVertex
100
AcDb2dVertex
 10
58.06450435198442
 20
-94.97508025403395
 30
0.0
  0
VERTEX
  5
7A
330
6E
100
AcDbEntity
  8
_U+30EC_U+30A4_U+30E4_U+30FC 1
 62
   179
420
  2234388
370
    25
100
AcDbVertex
100
AcDb2dVertex
 10
58.06450435198442
 20
-96.37518469812858
 30
0.0
  0
VERTEX
  5
7B
330
6E
100
AcDbEntity
  8
_U+30EC_U+30A4_U+30E4_U+30FC 1
 62
   179
420
  2234388
370
    25
100
AcDbVertex
100
AcDb2dVertex
 10
50.16489288685363
 20
-96.37518469812858
 30
0.0
  0
VERTEX
  5
7C
330
6E
100
AcDbEntity
  8
_U+30EC_U+30A4_U+30E4_U+30FC 1
 62
   179
420
  2234388
370
    25
100
AcDbVertex
100
AcDb2dVertex
 10
50.71335648397226
 20
-87.41759247814545
 30
0.0
  0
VERTEX
  5
7D
330
6E
100
AcDbEntity
  8
_U+30EC_U+30A4_U+30E4_U+30FC 1
 62
   179
420
  2234388
370
    25
100
AcDbVertex
100
AcDb2dVertex
 10
51.45196729846207
 20
-86.67859358944136
 30
0.0
  0
VERTEX
  5
7E
330
6E
100
AcDbEntity
  8
_U+30EC_U+30A4_U+30E4_U+30FC 1
 62
   179
420
  2234388
370
    25
100
AcDbVertex
100
AcDb2dVertex
 10
50.80807731488907
 20
-86.03438608960266
 30
0.0
  0
VERTEX
  5
7F
330
6E
100
AcDbEntity
  8
_U+30EC_U+30A4_U+30E4_U+30FC 1
 62
   179
420
  2234388
370
    25
100
AcDbVertex
100
AcDb2dVertex
 10
51.07714091913579
 20
-81.67528747958104
 30
0.0
  0
VERTEX
  5
80
330
6E
100
AcDbEntity
  8
_U+30EC_U+30A4_U+30E4_U+30FC 1
 62
   179
420
  2234388
370
    25
100
AcDbVertex
100
AcDb2dVertex
 10
73.33230285135932
 20
-81.67528747958104
 30
0.0
  0
SEQEND
  5
81
330
6E
100
AcDbEntity
  8
_U+30EC_U+30A4_U+30E4_U+30FC 1
 62
   179
420
  2234388
370
    25
  0
SPLINE
  5
82
330
1F
100
AcDbEntity
  8
_U+30EC_U+30A4_U+30E4_U+30FC 1
 62
   179
420
  2234388
370
     9
100
AcDbSpline
210
0.0
220
0.0
230
1.0
 70
    11
 71
     3
 72
    17
 73
    13
 74
     0
 42
0.0000000001
 43
0.0000000001
 12
1.0
 22
0.0
 32
0.0
 13
1.0
 23
0.0
 33
0.0
 40
0.0
 40
0.0
 40
0.0
 40
0.0
 40
1.0
 40
1.0
 40
1.0
 40
2.0
 40
2.0
 40
2.0
 40
3.0
 40
3.0
 40
3.0
 40
4.0
 40
4.0
 40
4.0
 40
4.0
 10
77.23282552962647
 20
-97.17510830903967
 30
0.0
 10
77.23282552962647
 20
-97.23024747569276
 30
0.0
 10
77.27762830626124
 20
-97.27501497568132
 30
0.0
 10
77.3327321937443
 20
-97.27501497568132
 30
0.0
 10
77.38787135900425
 20
-97.27501497568132
 30
0.0
 10
77.43263885786214
 20
-97.23024747569276
 30
0.0
 10
77.43263885786214
 20
-97.17510830903967
 30
0.0
 10
77.43263885786214
 20
-97.12000442016476
 30
0.0
 10
77.38787135900425
 20
-97.07520164239804
 30
0.0
 10
77.3327321937443
 20
-97.07520164239804
 30
0.0
 10
77.27762830626124
 20
-97.07520164239804
 30
0.0
 10
77.23282552962647
 20
-97.12000442016476
 30
0.0
 10
77.23282552962647
 20
-97.17510830903967
 30
0.0
  0
SPLINE
  5
83
330
1F
100
AcDbEntity
  8
_U+30EC_U+30A4_U+30E4_U+30FC 1
 62
   179
420
  2234388
370
     9
100
AcDbSpline
210
0.0
220
0.0
230
1.0
 70
    11
 71
     3
 72
    17
 73
    13
 74
     0
 42
0.0000000001
 43
0.0000000001
 12
1.0
 22
0.0
 32
0.0
 13
1.0
 23
0.0
 33
0.0
 40
0.0
 40
0.0
 40
0.0
 40
0.0
 40
1.0
 40
1.0
 40
1.0
 40
2.0
 40
2.0
 40
2.0
 40
3.0
 40
3.0
 40
3.0
 40
4.0
 40
4.0
 40
4.0
 40
4.0
 10
77.23282552962647
 20
-80.87222414644857
 30
0.0
 10
77.23282552962647
 20
-80.92736331310165
 30
0.0
 10
77.27762830626124
 20
-80.97213081309022
 30
0.0
 10
77.3327321937443
 20
-80.97213081309022
 30
0.0
 10
77.38787135900425
 20
-80.97213081309022
 30
0.0
 10
77.43263885786214
 20
-80.92736331310165
 30
0.0
 10
77.43263885786214
 20
-80.87222414644857
 30
0.0
 10
77.43263885786214
 20
-80.81641470201814
 30
0.0
 10
77.38787135900425
 20
-80.77164720202926
 30
0.0
 10
77.3327321937443
 20
-80.77164720202926
 30
0.0
 10
77.27762830626124
 20
-80.77164720202926
 30
0.0
 10
77.23282552962647
 20
-80.81641470201814
 30
0.0
 10
77.23282552962647
 20
-80.87222414644857
 30
0.0
  0
POLYLINE
  5
84
330
1F
100
AcDbEntity
  8
_U+30EC_U+30A4_U+30E4_U+30FC 1
 62
   179
420
  2234388
370
     9
100
AcDb2dPolyline
 66
     1
 10
0.0
 20
0.0
 30
0.0
  0
VERTEX
  5
85
330
84
100
AcDbEntity
  8
_U+30EC_U+30A4_U+30E4_U+30FC 1
 62
   179
420
  2234388
370
     9
100
AcDbVertex
100
AcDb2dVertex
 10
77.3327321937443
 20
-77.10501609183501
 30
0.0
  0
VERTEX
  5
86
330
84
100
AcDbEntity
  8
_U+30EC_U+30A4_U+30E4_U+30FC 1
 62
   179
420
  2234388
370
     9
100
AcDbVertex
100
AcDb2dVertex
 10
77.3327321937443
 20
-97.17510830903967
 30
0.0
  0
SEQEND
  5
87
330
84
100
AcDbEntity
  8
_U+30EC_U+30A4_U+30E4_U+30FC 1
 62
   179
420
  2234388
370
     9
  0
POLYLINE
  5
88
330
1F
100
AcDbEntity
  8
_U+30EC_U+30A4_U+30E4_U+30FC 1
 62
   179
420
  2234388
370
     9
100
AcDb2dPolyline
 66
     1
 10
0.0
 20
0.0
 30
0.0
  0
VERTEX
  5
89
330
88
100
AcDbEntity
  8
_U+30EC_U+30A4_U+30E4_U+30FC 1
 62
   179
420
  2234388
370
     9
100
AcDbVertex
100
AcDb2dVertex
 10
60.16395540953407
 20
-97.17510830903967
 30
0.0
  0
VERTEX
  5
8A
330
88
100
AcDbEntity
  8
_U+30EC_U+30A4_U+30E4_U+30FC 1
 62
   179
420
  2234388
370
     9
100
AcDbVertex
100
AcDb2dVertex
 10
78.33250439046022
 20
-97.17510830903967
 30
0.0
  0
SEQEND
  5
8B
330
88
100
AcDbEntity
  8
_U+30EC_U+30A4_U+30E4_U+30FC 1
 62
   179
420
  2234388
370
     9
  0
SPLINE
  5
8C
330
1F
100
AcDbEntity
  8
_U+30EC_U+30A4_U+30E4_U+30FC 1
 62
   179
420
  2234388
370
     9
100
AcDbSpline
210
0.0
220
0.0
230
1.0
 70
    11
 71
     3
 72
    17
 73
    13
 74
     0
 42
0.0000000001
 43
0.0000000001
 12
1.0
 22
0.0
 32
0.0
 13
1.0
 23
0.0
 33
0.0
 40
0.0
 40
0.0
 40
0.0
 40
0.0
 40
1.0
 40
1.0
 40
1.0
 40
2.0
 40
2.0
 40
2.0
 40
3.0
 40
3.0
 40
3.0
 40
4.0
 40
4.0
 40
4.0
 40
4.0
 10
77.23282552962647
 20
-94.17512136534533
 30
0.0
 10
77.23282552962647
 20
-94.23026053199777
 30
0.0
 10
77.27762830626124
 20
-94.27502803198698
 30
0.0
 10
77.3327321937443
 20
-94.27502803198698
 30
0.0
 10
77.38787135900425
 20
-94.27502803198698
 30
0.0
 10
77.43263885786214
 20
-94.23026053199777
 30
0.0
 10
77.43263885786214
 20
-94.17512136534533
 30
0.0
 10
77.43263885786214
 20
-94.12001747646978
 30
0.0
 10
77.38787135900425
 20
-94.0752146987037
 30
0.0
 10
77.3327321937443
 20
-94.0752146987037
 30
0.0
 10
77.27762830626124
 20
-94.0752146987037
 30
0.0
 10
77.23282552962647
 20
-94.12001747646978
 30
0.0
 10
77.23282552962647
 20
-94.17512136534533
 30
0.0
  0
POLYLINE
  5
8D
330
1F
100
AcDbEntity
  8
_U+30EC_U+30A4_U+30E4_U+30FC 1
 62
   179
420
  2234388
370
     9
100
AcDb2dPolyline
 66
     1
 10
0.0
 20
0.0
 30
0.0
  0
VERTEX
  5
8E
330
8D
100
AcDbEntity
  8
_U+30EC_U+30A4_U+30E4_U+30FC 1
 62
   179
420
  2234388
370
     9
100
AcDbVertex
100
AcDb2dVertex
 10
60.16395540953407
 20
-94.17512136534533
 30
0.0
  0
VERTEX
  5
8F
330
8D
100
AcDbEntity
  8
_U+30EC_U+30A4_U+30E4_U+30FC 1
 62
   179
420
  2234388
370
     9
100
AcDbVertex
100
AcDb2dVertex
 10
78.33250439046022
 20
-94.17512136534533
 30
0.0
  0
SEQEND
  5
90
330
8D
100
AcDbEntity
  8
_U+30EC_U+30A4_U+30E4_U+30FC 1
 62
   179
420
  2234388
370
     9
  0
POLYLINE
  5
91
330
1F
100
AcDbEntity
  8
_U+30EC_U+30A4_U+30E4_U+30FC 1
 62
   179
420
  2234388
370
     9
100
AcDb2dPolyline
 66
     1
 10
0.0
 20
0.0
 30
0.0
  0
VERTEX
  5
92
330
91
100
AcDbEntity
  8
_U+30EC_U+30A4_U+30E4_U+30FC 1
 62
   179
420
  2234388
370
     9
100
AcDbVertex
100
AcDb2dVertex
 10
75.87272611988105
 20
-80.87532859089242
 30
0.0
  0
VERTEX
  5
93
330
91
100
AcDbEntity
  8
_U+30EC_U+30A4_U+30E4_U+30FC 1
 62
   179
420
  2234388
370
     9
100
AcDbVertex
100
AcDb2dVertex
 10
78.33250439046022
 20
-80.87532859089242
 30
0.0
  0
SEQEND
  5
94
330
91
100
AcDbEntity
  8
_U+30EC_U+30A4_U+30E4_U+30FC 1
 62
   179
420
  2234388
370
     9
  0
SPLINE
  5
95
330
1F
100
AcDbEntity
  8
_U+30EC_U+30A4_U+30E4_U+30FC 1
 62
   179
420
  2234388
370
     9
100
AcDbSpline
210
0.0
220
0.0
230
1.0
 70
    11
 71
     3
 72
    17
 73
    13
 74
     0
 42
0.0000000001
 43
0.0000000001
 12
1.0
 22
0.0
 32
0.0
 13
1.0
 23
0.0
 33
0.0
 40
0.0
 40
0.0
 40
0.0
 40
0.0
 40
1.0
 40
1.0
 40
1.0
 40
2.0
 40
2.0
 40
2.0
 40
3.0
 40
3.0
 40
3.0
 40
4.0
 40
4.0
 40
4.0
 40
4.0
 10
77.23282552962647
 20
-81.67218303513752
 30
0.0
 10
77.23282552962647
 20
-81.72732220179027
 30
0.0
 10
77.27762830626124
 20
-81.77208970177915
 30
0.0
 10
77.3327321937443
 20
-81.77208970177915
 30
0.0
 10
77.38787135900425
 20
-81.77208970177915
 30
0.0
 10
77.43263885786214
 20
-81.72732220179027
 30
0.0
 10
77.43263885786214
 20
-81.67218303513752
 30
0.0
 10
77.43263885786214
 20
-81.61637359070708
 30
0.0
 10
77.38787135900425
 20
-81.5716060907182
 30
0.0
 10
77.3327321937443
 20
-81.5716060907182
 30
0.0
 10
77.27762830626124
 20
-81.5716060907182
 30
0.0
 10
77.23282552962647
 20
-81.61637359070708
 30
0.0
 10
77.23282552962647
 20
-81.67218303513752
 30
0.0
  0
POLYLINE
  5
96
330
1F
100
AcDbEntity
  8
_U+30EC_U+30A4_U+30E4_U+30FC 1
 62
   179
420
  2234388
370
     9
100
AcDb2dPolyline
 66
     1
 10
0.0
 20
0.0
 30
0.0
  0
VERTEX
  5
97
330
96
100
AcDbEntity
  8
_U+30EC_U+30A4_U+30E4_U+30FC 1
 62
   179
420
  2234388
370
     9
100
AcDbVertex
100
AcDb2dVertex
 10
75.87272611988105
 20
-81.67528747958104
 30
0.0
  0
VERTEX
  5
98
330
96
100
AcDbEntity
  8
_U+30EC_U+30A4_U+30E4_U+30FC 1
 62
   179
420
  2234388
370
     9
100
AcDbVertex
100
AcDb2dVertex
 10
78.33250439046022
 20
-81.67528747958104
 30
0.0
  0
SEQEND
  5
99
330
96
100
AcDbEntity
  8
_U+30EC_U+30A4_U+30E4_U+30FC 1
 62
   179
420
  2234388
370
     9
  0
INSERT
  5
9B
330
1F
100
AcDbEntity
  8
_U+30EC_U+30A4_U+30E4_U+30FC 1
100
AcDbBlockReference
  2
block 4
 10
0.0
 20
0.0
 30
0.0
  0
INSERT
  5
AD
330
1F
100
AcDbEntity
  8
_U+30EC_U+30A4_U+30E4_U+30FC 1
100
AcDbBlockReference
  2
block 5
 10
0.0
 20
0.0
 30
0.0
  0
INSERT
  5
C0
330
1F
100
AcDbEntity
  8
_U+30EC_U+30A4_U+30E4_U+30FC 1
100
AcDbBlockReference
  2
block 6
 10
0.0
 20
0.0
 30
0.0
  0
ENDSEC
  0
SECTION
  2
OBJECTS
  0
DICTIONARY
  5
C
330
0
100
AcDbDictionary
281
     1
  3
ACAD_GROUP
350
D
  3
ACAD_LAYOUT
350
1A
  3
ACAD_MATERIAL
350
3B
  3
ACAD_MLEADERSTYLE
350
C6
  3
ACAD_MLINESTYLE
350
17
  3
ACAD_PLOTSETTINGS
350
19
  3
ACAD_PLOTSTYLENAME
350
E
  3
ACAD_TABLESTYLE
350
C5
  3
ACAD_VISUALSTYLE
350
2A
  0
SUN
  5
3F
330
29
100
AcDbSun
 90
        1
290
     0
 63
     7
421
 16777215
 40
1.0
291
     1
 91
  2455826
 92
 54000000
292
     0
 70
     2
 71
   256
280
     1
  0
DICTIONARY
  5
D
102
{ACAD_REACTORS
330
C
102
}
330
C
100
AcDbDictionary
281
     1
  0
DICTIONARY
  5
1A
102
{ACAD_REACTORS
330
C
102
}
330
C
100
AcDbDictionary
281
     1
  3
Layout1
350
1E
  3
Layout2
350
26
  3
Model
350
22
  0
DICTIONARY
  5
3B
102
{ACAD_REACTORS
330
C
102
}
330
C
100
AcDbDictionary
281
     1
  3
ByBlock
350
3D
  3
ByLayer
350
3C
  3
Global
350
3E
  0
DICTIONARY
  5
C6
102
{ACAD_REACTORS
330
C
102
}
330
C
100
AcDbDictionary
281
     1
  0
DICTIONARY
  5
17
102
{ACAD_REACTORS
330
C
102
}
330
C
100
AcDbDictionary
281
     1
  3
Standard
350
18
  0
DICTIONARY
  5
19
102
{ACAD_REACTORS
330
C
102
}
330
C
100
AcDbDictionary
281
     1
  0
ACDBDICTIONARYWDFLT
  5
E
102
{ACAD_REACTORS
330
C
102
}
330
C
100
AcDbDictionary
281
     1
  3
Normal
350
F
100
AcDbDictionaryWithDefault
340
F
  0
DICTIONARY
  5
C5
102
{ACAD_REACTORS
330
C
102
}
330
C
100
AcDbDictionary
281
     1
  0
DICTIONARY
  5
2A
102
{ACAD_REACTORS
330
C
102
}
330
C
100
AcDbDictionary
281
     1
  3
2dWireframe
350
2F
  3
3D Hidden
350
31
  3
3dWireframe
350
30
  3
Basic
350
32
  3
Brighten
350
36
  3
ColorChange
350
3A
  3
Conceptual
350
34
  3
Dim
350
35
  3
Facepattern
350
39
  3
Flat
350
2B
  3
FlatWithEdges
350
2C
  3
Gouraud
350
2D
  3
GouraudWithEdges
350
2E
  3
Linepattern
350
38
  3
Realistic
350
33
  3
Thicken
350
37
  0
LAYOUT
  5
1E
102
{ACAD_REACTORS
330
1A
102
}
330
1A
100
AcDbPlotSettings
  1

  2
none_device
  4

  6

 40
0.0
 41
0.0
 42
0.0
 43
0.0
 44
0.0
 45
0.0
 46
0.0
 47
0.0
 48
0.0
 49
0.0
140
0.0
141
0.0
142
1.0
143
1.0
 70
   688
 72
     0
 73
     0
 74
     5
  7

 75
    16
 76
     0
 77
     2
 78
   300
147
1.0
148
0.0
149
0.0
100
AcDbLayout
  1
Layout1
 70
     1
 71
     1
 10
0.0
 20
0.0
 11
12.0
 21
9.0
 12
0.0
 22
0.0
 32
0.0
 14
1.000000000000000E+20
 24
1.000000000000000E+20
 34
1.000000000000000E+20
 15
-1.000000000000000E+20
 25
-1.000000000000000E+20
 35
-1.000000000000000E+20
146
0.0
 13
0.0
 23
0.0
 33
0.0
 16
1.0
 26
0.0
 36
0.0
 17
0.0
 27
1.0
 37
0.0
 76
     0
330
1B
  0
LAYOUT
  5
26
102
{ACAD_REACTORS
330
1A
102
}
330
1A
100
AcDbPlotSettings
  1

  2
none_device
  4

  6

 40
0.0
 41
0.0
 42
0.0
 43
0.0
 44
0.0
 45
0.0
 46
0.0
 47
0.0
 48
0.0
 49
0.0
140
0.0
141
0.0
142
1.0
143
1.0
 70
   688
 72
     0
 73
     0
 74
     5
  7

 75
    16
 76
     0
 77
     2
 78
   300
147
1.0
148
0.0
149
0.0
100
AcDbLayout
  1
Layout2
 70
     1
 71
     2
 10
0.0
 20
0.0
 11
0.0
 21
0.0
 12
0.0
 22
0.0
 32
0.0
 14
0.0
 24
0.0
 34
0.0
 15
0.0
 25
0.0
 35
0.0
146
0.0
 13
0.0
 23
0.0
 33
0.0
 16
1.0
 26
0.0
 36
0.0
 17
0.0
 27
1.0
 37
0.0
 76
     0
330
23
  0
LAYOUT
  5
22
102
{ACAD_REACTORS
330
1A
102
}
330
1A
100
AcDbPlotSettings
  1

  2
none_device
  4

  6

 40
0.0
 41
0.0
 42
0.0
 43
0.0
 44
0.0
 45
0.0
 46
0.0
 47
0.0
 48
0.0
 49
0.0
140
0.0
141
0.0
142
1.0
143
1.0
 70
  1712
 72
     0
 73
     0
 74
     0
  7

 75
     0
 76
     0
 77
     2
 78
   300
147
1.0
148
0.0
149
0.0
100
AcDbLayout
  1
Model
 70
     1
 71
     0
 10
0.0
 20
0.0
 11
12.0
 21
9.0
 12
0.0
 22
0.0
 32
0.0
 14
1.000000000000000E+20
 24
1.000000000000000E+20
 34
1.000000000000000E+20
 15
-1.000000000000000E+20
 25
-1.000000000000000E+20
 35
-1.000000000000000E+20
146
0.0
 13
0.0
 23
0.0
 33
0.0
 16
1.0
 26
0.0
 36
0.0
 17
0.0
 27
1.0
 37
0.0
 76
     0
330
1F
331
29
  0
MATERIAL
  5
3D
102
{ACAD_REACTORS
330
3B
102
}
330
3B
100
AcDbMaterial
  1
ByBlock
 72
     1
 94
      127
  0
MATERIAL
  5
3C
102
{ACAD_REACTORS
330
3B
102
}
330
3B
100
AcDbMaterial
  1
ByLayer
 72
     1
 94
      127
  0
MATERIAL
  5
3E
102
{ACAD_REACTORS
330
3B
102
}
330
3B
100
AcDbMaterial
  1
Global
 72
     1
 94
      127
  0
MLINESTYLE
  5
18
102
{ACAD_REACTORS
330
17
102
}
330
17
100
AcDbMlineStyle
  2
Standard
 70
     0
  3

 62
   256
 51
90.0
 52
90.0
 71
     2
 49
0.5
 62
   256
  6
BYLAYER
 49
-0.5
 62
   256
  6
BYLAYER
  0
ACDBPLACEHOLDER
  5
F
102
{ACAD_REACTORS
330
E
102
}
330
E
  0
VISUALSTYLE
  5
2F
102
{ACAD_REACTORS
330
2A
102
}
330
2A
100
AcDbVisualStyle
  2
2dWireframe
 70
     4
177
     2
291
     0
 71
     0
176
     1
 72
     2
176
     1
 73
     0
176
     1
 90
        0
176
     1
 40
-0.6
176
     1
 41
-30.0
176
     1
 62
     5
 63
     7
421
 16777215
176
     1
 74
     1
176
     1
 91
        4
176
     1
 64
     7
176
     1
 65
   257
176
     1
 75
     1
176
     1
175
     1
176
     1
 42
1.0
176
     1
 92
        0
176
     1
 66
   257
176
     1
 43
1.0
176
     1
 76
     1
176
     1
 77
     6
176
     1
 78
     2
176
     1
 67
     7
176
     1
 79
     5
176
     1
170
     0
176
     1
171
     0
176
     1
290
     0
176
     1
 93
        1
176
     1
 44
0.0
176
     1
173
     0
176
     1
  0
VISUALSTYLE
  5
31
102
{ACAD_REACTORS
330
2A
102
}
330
2A
100
AcDbVisualStyle
  2
3D Hidden
 70
     6
177
     2
291
     0
 71
     1
176
     1
 72
     2
176
     1
 73
     2
176
     1
 90
        0
176
     1
 40
-0.6
176
     1
 41
-30.0
176
     1
 62
     5
 63
     7
421
 16777215
176
     1
 74
     2
176
     1
 91
        2
176
     1
 64
     7
176
     1
 65
   257
176
     1
 75
     2
176
     1
175
     1
176
     1
 42
40.0
176
     1
 92
        0
176
     1
 66
   257
176
     1
 43
1.0
176
     1
 76
     1
176
     1
 77
     6
176
     1
 78
     2
176
     1
 67
     7
176
     1
 79
     3
176
     1
170
     0
176
     1
171
     0
176
     1
290
     0
176
     1
 93
        1
176
     1
 44
0.0
176
     1
173
     0
176
     1
  0
VISUALSTYLE
  5
30
102
{ACAD_REACTORS
330
2A
102
}
330
2A
100
AcDbVisualStyle
  2
3dWireframe
 70
     5
177
     2
291
     0
 71
     0
176
     1
 72
     2
176
     1
 73
     0
176
     1
 90
        0
176
     1
 40
-0.6
176
     1
 41
-30.0
176
     1
 62
     5
 63
     7
421
 16777215
176
     1
 74
     1
176
     1
 91
        4
176
     1
 64
     7
176
     1
 65
   257
176
     1
 75
     1
176
     1
175
     1
176
     1
 42
1.0
176
     1
 92
        0
176
     1
 66
   257
176
     1
 43
1.0
176
     1
 76
     1
176
     1
 77
     6
176
     1
 78
     2
176
     1
 67
     7
176
     1
 79
     5
176
     1
170
     0
176
     1
171
     0
176
     1
290
     0
176
     1
 93
        1
176
     1
 44
0.0
176
     1
173
     0
176
     1
  0
VISUALSTYLE
  5
32
102
{ACAD_REACTORS
330
2A
102
}
330
2A
100
AcDbVisualStyle
  2
Basic
 70
     7
177
     2
291
     1
 71
     1
176
     1
 72
     0
176
     1
 73
     1
176
     1
 90
        0
176
     1
 40
-0.6
176
     1
 41
-30.0
176
     1
 62
     5
 63
     7
421
 16777215
176
     1
 74
     0
176
     1
 91
        4
176
     1
 64
     7
176
     1
 65
   257
176
     1
 75
     1
176
     1
175
     1
176
     1
 42
1.0
176
     1
 92
        8
176
     1
 66
     7
176
     1
 43
1.0
176
     1
 76
     1
176
     1
 77
     6
176
     1
 78
     2
176
     1
 67
     7
176
     1
 79
     5
176
     1
170
     0
176
     1
171
     0
176
     1
290
     0
176
     1
 93
        1
176
     1
 44
0.0
176
     1
173
     0
176
     1
  0
VISUALSTYLE
  5
36
102
{ACAD_REACTORS
330
2A
102
}
330
2A
100
AcDbVisualStyle
  2
Brighten
 70
    12
177
     2
291
     1
 71
     2
176
     1
 72
     2
176
     1
 73
     0
176
     1
 90
        0
176
     1
 40
-0.6
176
     1
 41
-30.0
176
     1
 62
     5
 63
     7
421
 16777215
176
     1
 74
     1
176
     1
 91
        4
176
     1
 64
     7
176
     1
 65
   257
176
     1
 75
     1
176
     1
175
     1
176
     1
 42
1.0
176
     1
 92
        8
176
     1
 66
     7
176
     1
 43
1.0
176
     1
 76
     1
176
     1
 77
     6
176
     1
 78
     2
176
     1
 67
     7
176
     1
 79
     5
176
     1
170
     0
176
     1
171
     0
176
     1
290
     0
176
     1
 93
        1
176
     1
 44
50.0
176
     1
173
     0
176
     1
  0
VISUALSTYLE
  5
3A
102
{ACAD_REACTORS
330
2A
102
}
330
2A
100
AcDbVisualStyle
  2
ColorChange
 70
    16
177
     2
291
     1
 71
     2
176
     1
 72
     2
176
     1
 73
     3
176
     1
 90
        0
176
     1
 40
-0.6
176
     1
 41
-30.0
176
     1
 62
     5
 63
     8
421
  8421504
176
     1
 74
     1
176
     1
 91
        4
176
     1
 64
     7
176
     1
 65
   257
176
     1
 75
     1
176
     1
175
     1
176
     1
 42
1.0
176
     1
 92
        8
176
     1
 66
     8
424
  8421504
176
     1
 43
1.0
176
     1
 76
     1
176
     1
 77
     6
176
     1
 78
     2
176
     1
 67
     7
176
     1
 79
     5
176
     1
170
     0
176
     1
171
     0
176
     1
290
     0
176
     1
 93
        1
176
     1
 44
0.0
176
     1
173
     0
176
     1
  0
VISUALSTYLE
  5
34
102
{ACAD_REACTORS
330
2A
102
}
330
2A
100
AcDbVisualStyle
  2
Conceptual
 70
     9
177
     2
291
     0
 71
     3
176
     1
 72
     2
176
     1
 73
     0
176
     1
 90
        0
176
     1
 40
-0.6
176
     1
 41
-30.0
176
     1
 62
     5
 63
     7
421
 16777215
176
     1
 74
     2
176
     1
 91
        2
176
     1
 64
     7
176
     1
 65
   257
176
     1
 75
     1
176
     1
175
     1
176
     1
 42
40.0
176
     1
 92
        8
176
     1
 66
     7
176
     1
 43
1.0
176
     1
 76
     1
176
     1
 77
     6
176
     1
 78
     2
176
     1
 67
     7
176
     1
 79
     3
176
     1
170
     0
176
     1
171
     0
176
     1
290
     0
176
     1
 93
        1
176
     1
 44
0.0
176
     1
173
     0
176
     1
  0
VISUALSTYLE
  5
35
102
{ACAD_REACTORS
330
2A
102
}
330
2A
100
AcDbVisualStyle
  2
Dim
 70
    11
177
     2
291
     1
 71
     2
176
     1
 72
     2
176
     1
 73
     0
176
     1
 90
        0
176
     1
 40
-0.6
176
     1
 41
-30.0
176
     1
 62
     5
 63
     7
421
 16777215
176
     1
 74
     1
176
     1
 91
        4
176
     1
 64
     7
176
     1
 65
   257
176
     1
 75
     1
176
     1
175
     1
176
     1
 42
1.0
176
     1
 92
        8
176
     1
 66
     7
176
     1
 43
1.0
176
     1
 76
     1
176
     1
 77
     6
176
     1
 78
     2
176
     1
 67
     7
176
     1
 79
     5
176
     1
170
     0
176
     1
171
     0
176
     1
290
     0
176
     1
 93
        1
176
     1
 44
-50.0
176
     1
173
     0
176
     1
  0
VISUALSTYLE
  5
39
102
{ACAD_REACTORS
330
2A
102
}
330
2A
100
AcDbVisualStyle
  2
Facepattern
 70
    15
177
     2
291
     1
 71
     2
176
     1
 72
     2
176
     1
 73
     0
176
     1
 90
        0
176
     1
 40
-0.6
176
     1
 41
-30.0
176
     1
 62
     5
 63
     7
421
 16777215
176
     1
 74
     1
176
     1
 91
        4
176
     1
 64
     7
176
     1
 65
   257
176
     1
 75
     1
176
     1
175
     1
176
     1
 42
1.0
176
     1
 92
        8
176
     1
 66
     7
176
     1
 43
1.0
176
     1
 76
     1
176
     1
 77
     6
176
     1
 78
     2
176
     1
 67
     7
176
     1
 79
     5
176
     1
170
     0
176
     1
171
     0
176
     1
290
     0
176
     1
 93
        1
176
     1
 44
0.0
176
     1
173
     0
176
     1
  0
VISUALSTYLE
  5
2B
102
{ACAD_REACTORS
330
2A
102
}
330
2A
100
AcDbVisualStyle
  2
Flat
 70
     0
177
     2
291
     1
 71
     2
176
     1
 72
     1
176
     1
 73
     1
176
     1
 90
        2
176
     1
 40
-0.6
176
     1
 41
30.0
176
     1
 62
     5
 63
     7
421
 16777215
176
     1
 74
     0
176
     1
 91
        4
176
     1
 64
     7
176
     1
 65
   257
176
     1
 75
     1
176
     1
175
     1
176
     1
 42
1.0
176
     1
 92
        8
176
     1
 66
     7
176
     1
 43
1.0
176
     1
 76
     1
176
     1
 77
     6
176
     1
 78
     2
176
     1
 67
     7
176
     1
 79
     5
176
     1
170
     0
176
     1
171
     0
176
     1
290
     0
176
     1
 93
       13
176
     1
 44
0.0
176
     1
173
     0
176
     1
  0
VISUALSTYLE
  5
2C
102
{ACAD_REACTORS
330
2A
102
}
330
2A
100
AcDbVisualStyle
  2
FlatWithEdges
 70
     1
177
     2
291
     1
 71
     2
176
     1
 72
     1
176
     1
 73
     1
176
     1
 90
        2
176
     1
 40
-0.6
176
     1
 41
30.0
176
     1
 62
     5
 63
     7
421
 16777215
176
     1
 74
     1
176
     1
 91
        4
176
     1
 64
     7
176
     1
 65
   257
176
     1
 75
     1
176
     1
175
     1
176
     1
 42
1.0
176
     1
 92
        0
176
     1
 66
   257
176
     1
 43
1.0
176
     1
 76
     1
176
     1
 77
     6
176
     1
 78
     2
176
     1
 67
     7
176
     1
 79
     5
176
     1
170
     0
176
     1
171
     0
176
     1
290
     0
176
     1
 93
       13
176
     1
 44
0.0
176
     1
173
     0
176
     1
  0
VISUALSTYLE
  5
2D
102
{ACAD_REACTORS
330
2A
102
}
330
2A
100
AcDbVisualStyle
  2
Gouraud
 70
     2
177
     2
291
     1
 71
     2
176
     1
 72
     2
176
     1
 73
     1
176
     1
 90
        2
176
     1
 40
-0.6
176
     1
 41
30.0
176
     1
 62
     5
 63
     7
421
 16777215
176
     1
 74
     0
176
     1
 91
        4
176
     1
 64
     7
176
     1
 65
   257
176
     1
 75
     1
176
     1
175
     1
176
     1
 42
1.0
176
     1
 92
        0
176
     1
 66
     7
176
     1
 43
1.0
176
     1
 76
     1
176
     1
 77
     6
176
     1
 78
     2
176
     1
 67
     7
176
     1
 79
     5
176
     1
170
     0
176
     1
171
     0
176
     1
290
     0
176
     1
 93
       13
176
     1
 44
0.0
176
     1
173
     0
176
     1
  0
VISUALSTYLE
  5
2E
102
{ACAD_REACTORS
330
2A
102
}
330
2A
100
AcDbVisualStyle
  2
GouraudWithEdges
 70
     3
177
     2
291
     1
 71
     2
176
     1
 72
     2
176
     1
 73
     1
176
     1
 90
        2
176
     1
 40
-0.6
176
     1
 41
30.0
176
     1
 62
     5
 63
     7
421
 16777215
176
     1
 74
     1
176
     1
 91
        4
176
     1
 64
     7
176
     1
 65
   257
176
     1
 75
     1
176
     1
175
     1
176
     1
 42
1.0
176
     1
 92
        0
176
     1
 66
   257
176
     1
 43
1.0
176
     1
 76
     1
176
     1
 77
     6
176
     1
 78
     2
176
     1
 67
     7
176
     1
 79
     5
176
     1
170
     0
176
     1
171
     0
176
     1
290
     0
176
     1
 93
       13
176
     1
 44
0.0
176
     1
173
     0
176
     1
  0
VISUALSTYLE
  5
38
102
{ACAD_REACTORS
330
2A
102
}
330
2A
100
AcDbVisualStyle
  2
Linepattern
 70
    14
177
     2
291
     1
 71
     2
176
     1
 72
     2
176
     1
 73
     0
176
     1
 90
        0
176
     1
 40
-0.6
176
     1
 41
-30.0
176
     1
 62
     5
 63
     7
421
 16777215
176
     1
 74
     1
176
     1
 91
        4
176
     1
 64
     7
176
     1
 65
   257
176
     1
 75
     7
176
     1
175
     7
176
     1
 42
1.0
176
     1
 92
        8
176
     1
 66
     7
176
     1
 43
1.0
176
     1
 76
     1
176
     1
 77
     6
176
     1
 78
     2
176
     1
 67
     7
176
     1
 79
     5
176
     1
170
     0
176
     1
171
     0
176
     1
290
     0
176
     1
 93
        1
176
     1
 44
0.0
176
     1
173
     0
176
     1
  0
VISUALSTYLE
  5
33
102
{ACAD_REACTORS
330
2A
102
}
330
2A
100
AcDbVisualStyle
  2
Realistic
 70
     8
177
     2
291
     0
 71
     2
176
     1
 72
     2
176
     1
 73
     0
176
     1
 90
        0
176
     1
 40
-0.6
176
     1
 41
-30.0
176
     1
 62
     5
 63
     7
421
 16777215
176
     1
 74
     1
176
     1
 91
        0
176
     1
 64
     7
176
     1
 65
   257
176
     1
 75
     1
176
     1
175
     1
176
     1
 42
1.0
176
     1
 92
        8
176
     1
 66
     8
424
  7895160
176
     1
 43
1.0
176
     1
 76
     1
176
     1
 77
     6
176
     1
 78
     2
176
     1
 67
     7
176
     1
 79
     5
176
     1
170
     0
176
     1
171
     0
176
     1
290
     0
176
     1
 93
       13
176
     1
 44
0.0
176
     1
173
     0
176
     1
  0
VISUALSTYLE
  5
37
102
{ACAD_REACTORS
330
2A
102
}
330
2A
100
AcDbVisualStyle
  2
Thicken
 70
    13
177
     2
291
     1
 71
     2
176
     1
 72
     2
176
     1
 73
     0
176
     1
 90
        0
176
     1
 40
-0.6
176
     1
 41
-30.0
176
     1
 62
     5
 63
     7
421
 16777215
176
     1
 74
     1
176
     1
 91
        4
176
     1
 64
     7
176
     1
 65
   257
176
     1
 75
     1
176
     1
175
     1
176
     1
 42
1.0
176
     1
 92
       12
176
     1
 66
     7
176
     1
 43
1.0
176
     1
 76
     1
176
     1
 77
     6
176
     1
 78
     2
176
     1
 67
     7
176
     1
 79
     5
176
     1
170
     0
176
     1
171
     0
176
     1
290
     0
176
     1
 93
        1
176
     1
 44
0.0
176
     1
173
     0
176
     1
  0
ENDSEC
  0
EOF
