  0
SECTION
  2
HEADER
  9
$ACADVER
  1
AC1024
  9
$ACADMAINTVER
 70
     6
  9
$DWGCODEPAGE
  3
UNDEFINED
  9
$INSBASE
 10
0.0
 20
0.0
 30
0.0
  9
$EXTMIN
 10
1.000000000000000E+20
 20
1.000000000000000E+20
 30
1.000000000000000E+20
  9
$EXTMAX
 10
-1.000000000000000E+20
 20
-1.000000000000000E+20
 30
-1.000000000000000E+20
  9
$LIMMIN
 10
0.0
 20
0.0
  9
$LIMMAX
 10
12.0
 20
9.0
  9
$ORTHOMODE
 70
     0
  9
$REGENMODE
 70
     1
  9
$FILLMODE
 70
     1
  9
$QTEXTMODE
 70
     0
  9
$MIRRTEXT
 70
     1
  9
$LTSCALE
 40
1.0
  9
$ATTMODE
 70
     1
  9
$TEXTSIZE
 40
0.2
  9
$TRACEWID
 40
0.05
  9
$TEXTSTYLE
  7
Standard
  9
$CLAYER
  8
0
  9
$CELTYPE
  6
ByLayer
  9
$CECOLOR
 62
   256
  9
$CELTSCALE
 40
1.0
  9
$DISPSILH
 70
     0
  9
$DIMSCALE
 40
1.0
  9
$DIMASZ
 40
0.18
  9
$DIMEXO
 40
0.0625
  9
$DIMDLI
 40
0.38
  9
$DIMRND
 40
0.0
  9
$DIMDLE
 40
0.0
  9
$DIMEXE
 40
0.18
  9
$DIMTP
 40
0.0
  9
$DIMTM
 40
0.0
  9
$DIMTXT
 40
0.18
  9
$DIMCEN
 40
0.09
  9
$DIMTSZ
 40
0.0
  9
$DIMTOL
 70
     0
  9
$DIMLIM
 70
     0
  9
$DIMTIH
 70
     1
  9
$DIMTOH
 70
     1
  9
$DIMSE1
 70
     0
  9
$DIMSE2
 70
     0
  9
$DIMTAD
 70
     0
  9
$DIMZIN
 70
     0
  9
$DIMBLK
  1

  9
$DIMASO
 70
     1
  9
$DIMSHO
 70
     1
  9
$DIMPOST
  1

  9
$DIMAPOST
  1

  9
$DIMALT
 70
     0
  9
$DIMALTD
 70
     2
  9
$DIMALTF
 40
25.4
  9
$DIMLFAC
 40
1.0
  9
$DIMTOFL
 70
     0
  9
$DIMTVP
 40
0.0
  9
$DIMTIX
 70
     0
  9
$DIMSOXD
 70
     0
  9
$DIMSAH
 70
     0
  9
$DIMBLK1
  1

  9
$DIMBLK2
  1

  9
$DIMSTYLE
  2
Standard
  9
$DIMCLRD
 70
     0
  9
$DIMCLRE
 70
     0
  9
$DIMCLRT
 70
     0
  9
$DIMTFAC
 40
1.0
  9
$DIMGAP
 40
0.09
  9
$DIMJUST
 70
     0
  9
$DIMSD1
 70
     0
  9
$DIMSD2
 70
     0
  9
$DIMTOLJ
 70
     1
  9
$DIMTZIN
 70
     0
  9
$DIMALTZ
 70
     0
  9
$DIMALTTZ
 70
     0
  9
$DIMUPT
 70
     0
  9
$DIMDEC
 70
     4
  9
$DIMTDEC
 70
     4
  9
$DIMALTU
 70
     2
  9
$DIMALTTD
 70
     2
  9
$DIMTXSTY
  7
Standard
  9
$DIMAUNIT
 70
     0
  9
$DIMADEC
 70
     0
  9
$DIMALTRND
 40
0.0
  9
$DIMAZIN
 70
     0
  9
$DIMDSEP
 70
    46
  9
$DIMATFIT
 70
     3
  9
$DIMFRAC
 70
     0
  9
$DIMLDRBLK
  1

  9
$DIMLUNIT
 70
     2
  9
$DIMLWD
 70
    -2
  9
$DIMLWE
 70
    -2
  9
$DIMTMOVE
 70
     0
  9
$DIMFXL
 40
1.0
  9
$DIMFXLON
 70
     0
  9
$DIMJOGANG
 40
0.7853981633974483
  9
$DIMTFILL
 70
     0
  9
$DIMTFILLCLR
 70
     0
  9
$DIMARCSYM
 70
     0
  9
$DIMLTYPE
  6

  9
$DIMLTEX1
  6

  9
$DIMLTEX2
  6

  9
$DIMTXTDIRECTION
 70
     0
  9
$LUNITS
 70
     2
  9
$LUPREC
 70
     4
  9
$SKETCHINC
 40
0.1
  9
$FILLETRAD
 40
0.5
  9
$AUNITS
 70
     0
  9
$AUPREC
 70
     0
  9
$MENU
  1
.
  9
$ELEVATION
 40
0.0
  9
$PELEVATION
 40
0.0
  9
$THICKNESS
 40
0.0
  9
$LIMCHECK
 70
     0
  9
$CHAMFERA
 40
0.5
  9
$CHAMFERB
 40
0.5
  9
$CHAMFERC
 40
1.0
  9
$CHAMFERD
 40
0.0
  9
$SKPOLY
 70
     0
  9
$TDCREATE
 40
2457917.588599525
  9
$TDUCREATE
 40
2457917.213599537
  9
$TDUPDATE
 40
2457917.588599525
  9
$TDUUPDATE
 40
2457917.213599537
  9
$TDINDWG
 40
0.0000000116
  9
$TDUSRTIMER
 40
0.0000000116
  9
$USRTIMER
 70
     1
  9
$ANGBASE
 50
0.0
  9
$ANGDIR
 70
     0
  9
$PDMODE
 70
     0
  9
$PDSIZE
 40
0.0
  9
$PLINEWID
 40
0.0
  9
$SPLFRAME
 70
     0
  9
$SPLINETYPE
 70
     6
  9
$SPLINESEGS
 70
     8
  9
$HANDSEED
  5
C6
  9
$SURFTAB1
 70
     6
  9
$SURFTAB2
 70
     6
  9
$SURFTYPE
 70
     6
  9
$SURFU
 70
     6
  9
$SURFV
 70
     6
  9
$UCSBASE
  2

  9
$UCSNAME
  2

  9
$UCSORG
 10
0.0
 20
0.0
 30
0.0
  9
$UCSXDIR
 10
1.0
 20
0.0
 30
0.0
  9
$UCSYDIR
 10
0.0
 20
1.0
 30
0.0
  9
$UCSORTHOREF
  2

  9
$UCSORTHOVIEW
 70
     0
  9
$UCSORGTOP
 10
0.0
 20
0.0
 30
0.0
  9
$UCSORGBOTTOM
 10
0.0
 20
0.0
 30
0.0
  9
$UCSORGLEFT
 10
0.0
 20
0.0
 30
0.0
  9
$UCSORGRIGHT
 10
0.0
 20
0.0
 30
0.0
  9
$UCSORGFRONT
 10
0.0
 20
0.0
 30
0.0
  9
$UCSORGBACK
 10
0.0
 20
0.0
 30
0.0
  9
$PUCSBASE
  2

  9
$PUCSNAME
  2

  9
$PUCSORG
 10
0.0
 20
0.0
 30
0.0
  9
$PUCSXDIR
 10
1.0
 20
0.0
 30
0.0
  9
$PUCSYDIR
 10
0.0
 20
1.0
 30
0.0
  9
$PUCSORTHOREF
  2

  9
$PUCSORTHOVIEW
 70
     0
  9
$PUCSORGTOP
 10
0.0
 20
0.0
 30
0.0
  9
$PUCSORGBOTTOM
 10
0.0
 20
0.0
 30
0.0
  9
$PUCSORGLEFT
 10
0.0
 20
0.0
 30
0.0
  9
$PUCSORGRIGHT
 10
0.0
 20
0.0
 30
0.0
  9
$PUCSORGFRONT
 10
0.0
 20
0.0
 30
0.0
  9
$PUCSORGBACK
 10
0.0
 20
0.0
 30
0.0
  9
$USERI1
 70
     0
  9
$USERI2
 70
     0
  9
$USERI3
 70
     0
  9
$USERI4
 70
     0
  9
$USERI5
 70
     0
  9
$USERR1
 40
0.0
  9
$USERR2
 40
0.0
  9
$USERR3
 40
0.0
  9
$USERR4
 40
0.0
  9
$USERR5
 40
0.0
  9
$WORLDVIEW
 70
     1
  9
$SHADEDGE
 70
     3
  9
$SHADEDIF
 70
    70
  9
$TILEMODE
 70
     1
  9
$MAXACTVP
 70
    64
  9
$PINSBASE
 10
0.0
 20
0.0
 30
0.0
  9
$PLIMCHECK
 70
     0
  9
$PEXTMIN
 10
1.000000000000000E+20
 20
1.000000000000000E+20
 30
1.000000000000000E+20
  9
$PEXTMAX
 10
-1.000000000000000E+20
 20
-1.000000000000000E+20
 30
-1.000000000000000E+20
  9
$PLIMMIN
 10
0.0
 20
0.0
  9
$PLIMMAX
 10
12.0
 20
9.0
  9
$UNITMODE
 70
     0
  9
$VISRETAIN
 70
     1
  9
$PLINEGEN
 70
     0
  9
$PSLTSCALE
 70
     1
  9
$TREEDEPTH
 70
  3020
  9
$CMLSTYLE
  2
Standard
  9
$CMLJUST
 70
     0
  9
$CMLSCALE
 40
1.0
  9
$PROXYGRAPHICS
 70
     1
  9
$MEASUREMENT
 70
     0
  9
$CELWEIGHT
370
    -1
  9
$ENDCAPS
280
     0
  9
$JOINSTYLE
280
     0
  9
$LWDISPLAY
290
     1
  9
$INSUNITS
 70
     1
  9
$HYPERLINKBASE
  1

  9
$STYLESHEET
  1

  9
$XEDIT
290
     1
  9
$CEPSNTYPE
380
     0
  9
$PSTYLEMODE
290
     1
  9
$FINGERPRINTGUID
  2
{ECFAD587-5F7F-19DA-E0D9-93AE6C88C8E9}
  9
$VERSIONGUID
  2
{FAEB1C32-E019-11D5-929B-00C0DF256EC4}
  9
$EXTNAMES
290
     1
  9
$PSVPSCALE
 40
0.0
  9
$OLESTARTUP
290
     0
  9
$SORTENTS
280
   127
  9
$INDEXCTL
280
     0
  9
$HIDETEXT
280
     1
  9
$XCLIPFRAME
280
     2
  9
$HALOGAP
280
     0
  9
$OBSCOLOR
 70
   257
  9
$OBSLTYPE
280
     0
  9
$INTERSECTIONDISPLAY
280
     0
  9
$INTERSECTIONCOLOR
 70
   257
  9
$DIMASSOC
280
     2
  9
$PROJECTNAME
  1

  9
$CAMERADISPLAY
290
     0
  9
$LENSLENGTH
 40
50.0
  9
$CAMERAHEIGHT
 40
0.0
  9
$STEPSPERSEC
 40
2.0
  9
$STEPSIZE
 40
6.0
  9
$3DDWFPREC
 40
2.0
  9
$PSOLWIDTH
 40
0.25
  9
$PSOLHEIGHT
 40
4.0
  9
$LOFTANG1
 40
1.570796326794897
  9
$LOFTANG2
 40
1.570796326794897
  9
$LOFTMAG1
 40
0.0
  9
$LOFTMAG2
 40
0.0
  9
$LOFTPARAM
 70
     7
  9
$LOFTNORMALS
280
     1
  9
$LATITUDE
 40
37.795
  9
$LONGITUDE
 40
-122.394
  9
$NORTHDIRECTION
 40
0.0
  9
$TIMEZONE
 70
 -8000
  9
$LIGHTGLYPHDISPLAY
280
     1
  9
$TILEMODELIGHTSYNCH
280
     1
  9
$CMATERIAL
347
3C
  9
$SOLIDHIST
280
     1
  9
$SHOWHIST
280
     1
  9
$DWFFRAME
280
     2
  9
$DGNFRAME
280
     2
  9
$REALWORLDSCALE
290
     1
  9
$INTERFERECOLOR
 62
   256
  9
$CSHADOW
280
     0
  9
$SHADOWPLANELOCATION
 40
0.0
  0
ENDSEC
  0
SECTION
  2
CLASSES
  0
CLASS
  1
ACDBDICTIONARYWDFLT
  2
AcDbDictionaryWithDefault
  3
ObjectDBX Classes
 90
        0
 91
        4
280
     0
281
     0
  0
CLASS
  1
VISUALSTYLE
  2
AcDbVisualStyle
  3
ObjectDBX Classes
 90
     4095
 91
        4
280
     0
281
     0
  0
CLASS
  1
MATERIAL
  2
AcDbMaterial
  3
ObjectDBX Classes
 90
     1153
 91
        4
280
     0
281
     0
  0
CLASS
  1
SUN
  2
AcDbSun
  3
SCENEOE
 90
     1024
 91
        4
280
     0
281
     0
  0
ENDSEC
  0
SECTION
  2
TABLES
  0
TABLE
  2
VPORT
  5
8
330
0
100
AcDbSymbolTable
 70
     1
  0
VPORT
  5
29
330
8
100
AcDbSymbolTableRecord
100
AcDbViewportTableRecord
  2
*Active
 70
     0
 10
0.0
 20
0.0
 11
1.0
 21
1.0
 12
0.0
 22
0.0
 13
0.0
 23
0.0
 14
0.5
 24
0.5
 15
0.5
 25
0.5
 16
0.0
 26
0.0
 36
1.0
 17
63.499999984125
 27
-89.00059456108309
 37
0.0
 40
178.0011891221662
 41
0.7134783795241226
 42
50.0
 43
0.0
 44
0.0
 50
0.0
 51
0.0
 71
     0
 72
   100
 73
     1
 74
     3
 75
     0
 76
     0
 77
     0
 78
     0
281
     0
 65
     1
110
0.0
120
0.0
130
0.0
111
1.0
121
0.0
131
0.0
112
0.0
122
1.0
132
0.0
 79
     0
146
0.0
 60
     3
 61
     5
292
     1
282
     1
141
0.0
142
0.0
 63
   250
361
3F
  0
ENDTAB
  0
TABLE
  2
LTYPE
  5
5
330
0
100
AcDbSymbolTable
 70
     1
  0
LTYPE
  5
14
330
5
100
AcDbSymbolTableRecord
100
AcDbLinetypeTableRecord
  2
ByBlock
 70
     0
  3

 72
    65
 73
     0
 40
0.0
  0
LTYPE
  5
15
330
5
100
AcDbSymbolTableRecord
100
AcDbLinetypeTableRecord
  2
ByLayer
 70
     0
  3

 72
    65
 73
     0
 40
0.0
  0
LTYPE
  5
16
330
5
100
AcDbSymbolTableRecord
100
AcDbLinetypeTableRecord
  2
Continuous
 70
     0
  3
Solid line
 72
    65
 73
     0
 40
0.0
  0
ENDTAB
  0
TABLE
  2
LAYER
  5
2
330
0
100
AcDbSymbolTable
 70
     2
  0
LAYER
  5
10
330
2
100
AcDbSymbolTableRecord
100
AcDbLayerTableRecord
  2
0
 70
     0
 62
     7
  6
Continuous
370
    -3
390
F
347
3E
  0
LAYER
  5
40
330
2
100
AcDbSymbolTableRecord
100
AcDbLayerTableRecord
  2
_U+30EC_U+30A4_U+30E4_U+30FC 1
 70
     0
 62
     7
  6
Continuous
370
    -3
390
F
347
3E
  0
ENDTAB
  0
TABLE
  2
STYLE
  5
3
330
0
100
AcDbSymbolTable
 70
     1
  0
STYLE
  5
11
330
3
100
AcDbSymbolTableRecord
100
AcDbTextStyleTableRecord
  2
Standard
 70
     0
 40
0.0
 41
1.0
 50
0.0
 71
     0
 42
0.2
  3
txt
  4

  0
ENDTAB
  0
TABLE
  2
VIEW
  5
6
330
0
100
AcDbSymbolTable
 70
     0
  0
ENDTAB
  0
TABLE
  2
UCS
  5
7
330
0
100
AcDbSymbolTable
 70
     0
  0
ENDTAB
  0
TABLE
  2
APPID
  5
9
330
0
100
AcDbSymbolTable
 70
     1
  0
APPID
  5
12
330
9
100
AcDbSymbolTableRecord
100
AcDbRegAppTableRecord
  2
ACAD
 70
     0
  0
ENDTAB
  0
TABLE
  2
DIMSTYLE
  5
A
330
0
100
AcDbSymbolTable
 70
     1
100
AcDbDimStyleTable
  0
DIMSTYLE
105
27
330
A
100
AcDbSymbolTableRecord
100
AcDbDimStyleTableRecord
  2
Standard
 70
     0
178
     0
340
11
  0
ENDTAB
  0
TABLE
  2
BLOCK_RECORD
  5
1
330
0
100
AcDbSymbolTable
 70
     6
  0
BLOCK_RECORD
  5
1F
330
1
100
AcDbSymbolTableRecord
100
AcDbBlockTableRecord
  2
*Model_Space
340
22
 70
     0
280
     1
281
     0
  0
BLOCK_RECORD
  5
1B
330
1
100
AcDbSymbolTableRecord
100
AcDbBlockTableRecord
  2
*Paper_Space
340
1E
 70
     0
280
     1
281
     0
  0
BLOCK_RECORD
  5
23
330
1
100
AcDbSymbolTableRecord
100
AcDbBlockTableRecord
  2
*Paper_Space0
340
26
 70
     0
280
     1
281
     0
  0
BLOCK_RECORD
  5
5B
330
1
100
AcDbSymbolTableRecord
100
AcDbBlockTableRecord
  2
block 2
340
0
102
{BLKREFS
331
5C
102
}
 70
     0
280
     1
281
     0
  0
BLOCK_RECORD
  5
6C
330
1
100
AcDbSymbolTableRecord
100
AcDbBlockTableRecord
  2
block 3
340
0
102
{BLKREFS
331
6D
102
}
 70
     0
280
     1
281
     0
  0
BLOCK_RECORD
  5
7F
330
1
100
AcDbSymbolTableRecord
100
AcDbBlockTableRecord
  2
block 4
340
0
102
{BLKREFS
331
80
102
}
 70
     0
280
     1
281
     0
  0
BLOCK_RECORD
  5
91
330
1
100
AcDbSymbolTableRecord
100
AcDbBlockTableRecord
  2
block 5
340
0
102
{BLKREFS
331
92
102
}
 70
     0
280
     1
281
     0
  0
BLOCK_RECORD
  5
BC
330
1
100
AcDbSymbolTableRecord
100
AcDbBlockTableRecord
  2
block 6
340
0
102
{BLKREFS
331
BD
102
}
 70
     0
280
     1
281
     0
  0
ENDTAB
  0
ENDSEC
  0
SECTION
  2
BLOCKS
  0
BLOCK
  5
20
330
1F
100
AcDbEntity
  8
0
100
AcDbBlockBegin
  2
*Model_Space
 70
     0
 10
0.0
 20
0.0
 30
0.0
  3
*Model_Space
  1

  0
ENDBLK
  5
21
330
1F
100
AcDbEntity
  8
0
100
AcDbBlockEnd
  0
BLOCK
  5
1C
330
1B
100
AcDbEntity
 67
     1
  8
0
100
AcDbBlockBegin
  2
*Paper_Space
 70
     0
 10
0.0
 20
0.0
 30
0.0
  3
*Paper_Space
  1

  0
ENDBLK
  5
1D
330
1B
100
AcDbEntity
 67
     1
  8
0
100
AcDbBlockEnd
  0
BLOCK
  5
24
330
23
100
AcDbEntity
  8
0
100
AcDbBlockBegin
  2
*Paper_Space0
 70
     0
 10
0.0
 20
0.0
 30
0.0
  3
*Paper_Space0
  1

  0
ENDBLK
  5
25
330
23
100
AcDbEntity
  8
0
100
AcDbBlockEnd
  0
BLOCK
  5
5D
330
5B
100
AcDbEntity
  8
0
100
AcDbBlockBegin
  2
block 2
 70
     0
 10
0.0
 20
0.0
 30
0.0
  3
block 2
  1

  0
SPLINE
  5
5F
330
5B
100
AcDbEntity
  8
_U+30EC_U+30A4_U+30E4_U+30FC 1
370
     0
100
AcDbSpline
210
0.0
220
0.0
230
1.0
 70
    11
 71
     3
 72
    32
 73
    28
 74
     0
 42
0.0000000001
 43
0.0000000001
 12
1.0
 22
0.0
 32
0.0
 13
1.0
 23
0.0
 33
0.0
 40
0.0
 40
0.0
 40
0.0
 40
0.0
 40
1.0
 40
1.0
 40
1.0
 40
2.0
 40
2.0
 40
2.0
 40
3.0
 40
3.0
 40
3.0
 40
4.0
 40
4.0
 40
4.0
 40
5.0
 40
5.0
 40
5.0
 40
6.0
 40
6.0
 40
6.0
 40
7.0
 40
7.0
 40
7.0
 40
8.0
 40
8.0
 40
8.0
 40
9.0
 40
9.0
 40
9.0
 40
9.0
 10
76.59480792355963
 20
-88.98612736490625
 30
0.0
 10
76.59480792355963
 20
-89.15941566781432
 30
0.0
 10
76.52521699475759
 20
-89.40505097591263
 30
0.0
 10
76.1931097899795
 20
-89.44294702625038
 30
0.0
 10
76.1931097899795
 20
-89.44294702625038
 30
0.0
 10
76.1931097899795
 20
-89.22935110616488
 30
0.0
 10
76.1931097899795
 20
-89.22935110616488
 30
0.0
 10
76.2523654323258
 20
-89.21867131016062
 30
0.0
 10
76.39981551909449
 20
-89.18697643169631
 30
0.0
 10
76.39981551909449
 20
-88.9840603076151
 30
0.0
 10
76.39981551909449
 20
-88.69191621046592
 30
0.0
 10
76.06977537160756
 20
-88.65402016012817
 30
0.0
 10
75.86513669978372
 20
-88.64127330683274
 30
0.0
 10
75.94506291504152
 20
-88.73222382764334
 30
0.0
 10
76.00225150009666
 20
-88.79974769915424
 30
0.0
 10
76.00225150009666
 20
-88.98164874077543
 30
0.0
 10
76.00225150009666
 20
-89.16148272510547
 30
0.0
 10
75.89683157824801
 20
-89.46430661825893
 30
0.0
 10
75.49031031098853
 20
-89.46430661825893
 30
0.0
 10
75.1712944690544
 20
-89.46430661825893
 30
0.0
 10
74.95080835799841
 20
-89.26518009921149
 30
0.0
 10
74.95080835799841
 20
-88.94788680501998
 30
0.0
 10
74.95080835799841
 20
-88.4338785586207
 30
0.0
 10
75.50546873112364
 20
-88.42319876261642
 30
0.0
 10
75.71906465120912
 20
-88.42319876261642
 30
0.0
 10
75.94919702962382
 20
-88.42319876261642
 30
0.0
 10
76.59480792355963
 20
-88.44249129733383
 30
0.0
 10
76.59480792355963
 20
-88.98612736490625
 30
0.0
  0
SPLINE
  5
60
330
5B
100
AcDbEntity
  8
_U+30EC_U+30A4_U+30E4_U+30FC 1
370
     0
100
AcDbSpline
210
0.0
220
0.0
230
1.0
 70
    11
 71
     3
 72
    17
 73
    13
 74
     0
 42
0.0000000001
 43
0.0000000001
 12
1.0
 22
0.0
 32
0.0
 13
1.0
 23
0.0
 33
0.0
 40
0.0
 40
0.0
 40
0.0
 40
0.0
 40
1.0
 40
1.0
 40
1.0
 40
2.0
 40
2.0
 40
2.0
 40
3.0
 40
3.0
 40
3.0
 40
4.0
 40
4.0
 40
4.0
 40
4.0
 10
75.14373370517241
 20
-88.94581974772883
 30
0.0
 10
75.14373370517241
 20
-89.06433103242142
 30
0.0
 10
75.20092229022755
 20
-89.24003090216917
 30
0.0
 10
75.48617619640623
 20
-89.24003090216917
 30
0.0
 10
75.71286347933568
 20
-89.24003090216917
 30
0.0
 10
75.80794811472857
 20
-89.10016002546801
 30
0.0
 10
75.80794811472857
 20
-88.9647677728977
 30
0.0
 10
75.80794811472857
 20
-88.70259600647019
 30
0.0
 10
75.59848630922538
 20
-88.66435544658391
 30
0.0
 10
75.48204208182393
 20
-88.66435544658391
 30
0.0
 10
75.3063422120762
 20
-88.66435544658391
 30
0.0
 10
75.14373370517241
 20
-88.75978459152533
 30
0.0
 10
75.14373370517241
 20
-88.94581974772883
 30
0.0
  0
HATCH
  5
61
330
5B
100
AcDbEntity
  8
_U+30EC_U+30A4_U+30E4_U+30FC 1
 62
   179
420
  2234388
100
AcDbHatch
 10
0.0
 20
0.0
 30
0.0
210
0.0
220
0.0
230
1.0
  2
SOLID
 70
     1
 71
     0
 91
        2
 92
        1
 93
        1
 72
     4
 94
        3
 73
     0
 74
     1
 95
       32
 96
       28
 40
0.0
 40
0.0
 40
0.0
 40
0.0
 40
1.0
 40
1.0
 40
1.0
 40
2.0
 40
2.0
 40
2.0
 40
3.0
 40
3.0
 40
3.0
 40
4.0
 40
4.0
 40
4.0
 40
5.0
 40
5.0
 40
5.0
 40
6.0
 40
6.0
 40
6.0
 40
7.0
 40
7.0
 40
7.0
 40
8.0
 40
8.0
 40
8.0
 40
9.0
 40
9.0
 40
9.0
 40
9.0
 10
76.59480792355963
 20
-88.98612736490625
 10
76.59480792355963
 20
-89.15941566781432
 10
76.52521699475759
 20
-89.40505097591263
 10
76.1931097899795
 20
-89.44294702625038
 10
76.1931097899795
 20
-89.44294702625038
 10
76.1931097899795
 20
-89.22935110616488
 10
76.1931097899795
 20
-89.22935110616488
 10
76.2523654323258
 20
-89.21867131016062
 10
76.39981551909449
 20
-89.18697643169631
 10
76.39981551909449
 20
-88.9840603076151
 10
76.39981551909449
 20
-88.69191621046592
 10
76.06977537160756
 20
-88.65402016012817
 10
75.86513669978372
 20
-88.64127330683274
 10
75.94506291504152
 20
-88.73222382764334
 10
76.00225150009666
 20
-88.79974769915424
 10
76.00225150009666
 20
-88.98164874077543
 10
76.00225150009666
 20
-89.16148272510547
 10
75.89683157824801
 20
-89.46430661825893
 10
75.49031031098853
 20
-89.46430661825893
 10
75.1712944690544
 20
-89.46430661825893
 10
74.95080835799841
 20
-89.26518009921149
 10
74.95080835799841
 20
-88.94788680501998
 10
74.95080835799841
 20
-88.4338785586207
 10
75.50546873112364
 20
-88.42319876261642
 10
75.71906465120912
 20
-88.42319876261642
 10
75.94919702962382
 20
-88.42319876261642
 10
76.59480792355963
 20
-88.44249129733383
 10
76.59480792355963
 20
-88.98612736490625
 97
        0
 97
        0
 92
        1
 93
        1
 72
     4
 94
        3
 73
     0
 74
     1
 95
       17
 96
       13
 40
0.0
 40
0.0
 40
0.0
 40
0.0
 40
1.0
 40
1.0
 40
1.0
 40
2.0
 40
2.0
 40
2.0
 40
3.0
 40
3.0
 40
3.0
 40
4.0
 40
4.0
 40
4.0
 40
4.0
 10
75.14373370517241
 20
-88.94581974772883
 10
75.14373370517241
 20
-89.06433103242142
 10
75.20092229022755
 20
-89.24003090216917
 10
75.48617619640623
 20
-89.24003090216917
 10
75.71286347933568
 20
-89.24003090216917
 10
75.80794811472857
 20
-89.10016002546801
 10
75.80794811472857
 20
-88.9647677728977
 10
75.80794811472857
 20
-88.70259600647019
 10
75.59848630922538
 20
-88.66435544658391
 10
75.48204208182393
 20
-88.66435544658391
 10
75.3063422120762
 20
-88.66435544658391
 10
75.14373370517241
 20
-88.75978459152533
 10
75.14373370517241
 20
-88.94581974772883
 97
        0
 97
        0
 75
     2
 76
     1
 98
        0
  0
POLYLINE
  5
62
330
5B
100
AcDbEntity
  8
_U+30EC_U+30A4_U+30E4_U+30FC 1
370
     0
100
AcDb2dPolyline
 66
     1
 10
0.0
 20
0.0
 30
0.0
  0
VERTEX
  5
63
330
62
100
AcDbEntity
  8
_U+30EC_U+30A4_U+30E4_U+30FC 1
370
     0
100
AcDbVertex
100
AcDb2dVertex
 10
76.54382051037794
 20
-88.20684676614273
 30
0.0
  0
VERTEX
  5
64
330
62
100
AcDbEntity
  8
_U+30EC_U+30A4_U+30E4_U+30FC 1
370
     0
100
AcDbVertex
100
AcDb2dVertex
 10
76.2923285399547
 20
-88.20684676614273
 30
0.0
  0
VERTEX
  5
65
330
62
100
AcDbEntity
  8
_U+30EC_U+30A4_U+30E4_U+30FC 1
370
     0
100
AcDbVertex
100
AcDb2dVertex
 10
76.2923285399547
 20
-87.95501028617097
 30
0.0
  0
VERTEX
  5
66
330
62
100
AcDbEntity
  8
_U+30EC_U+30A4_U+30E4_U+30FC 1
370
     0
100
AcDbVertex
100
AcDb2dVertex
 10
76.54382051037794
 20
-87.95501028617097
 30
0.0
  0
VERTEX
  5
67
330
62
100
AcDbEntity
  8
_U+30EC_U+30A4_U+30E4_U+30FC 1
370
     0
100
AcDbVertex
100
AcDb2dVertex
 10
76.54382051037794
 20
-88.20684676614273
 30
0.0
  0
SEQEND
  5
68
330
62
100
AcDbEntity
  8
_U+30EC_U+30A4_U+30E4_U+30FC 1
370
     0
  0
HATCH
  5
69
330
5B
100
AcDbEntity
  8
_U+30EC_U+30A4_U+30E4_U+30FC 1
 62
   179
420
  2234388
100
AcDbHatch
 10
0.0
 20
0.0
 30
0.0
210
0.0
220
0.0
230
1.0
  2
SOLID
 70
     1
 71
     0
 91
        1
 92
        1
 93
        4
 72
     1
 10
76.54382051037794
 20
-88.20684676614273
 11
76.2923285399547
 21
-88.20684676614273
 72
     1
 10
76.2923285399547
 20
-88.20684676614273
 11
76.2923285399547
 21
-87.95501028617097
 72
     1
 10
76.2923285399547
 20
-87.95501028617097
 11
76.54382051037794
 21
-87.95501028617097
 72
     1
 10
76.54382051037794
 20
-87.95501028617097
 11
76.54382051037794
 21
-88.20684676614273
 97
        0
 75
     2
 76
     1
 98
        0
  0
SPLINE
  5
6A
330
5B
100
AcDbEntity
  8
_U+30EC_U+30A4_U+30E4_U+30FC 1
370
     0
100
AcDbSpline
210
0.0
220
0.0
230
1.0
 70
    11
 71
     3
 72
    53
 73
    49
 74
     0
 42
0.0000000001
 43
0.0000000001
 12
1.0
 22
0.0
 32
0.0
 13
1.0
 23
0.0
 33
0.0
 40
0.0
 40
0.0
 40
0.0
 40
0.0
 40
1.0
 40
1.0
 40
1.0
 40
2.0
 40
2.0
 40
2.0
 40
3.0
 40
3.0
 40
3.0
 40
4.0
 40
4.0
 40
4.0
 40
5.0
 40
5.0
 40
5.0
 40
6.0
 40
6.0
 40
6.0
 40
7.0
 40
7.0
 40
7.0
 40
8.0
 40
8.0
 40
8.0
 40
9.0
 40
9.0
 40
9.0
 40
10.0
 40
10.0
 40
10.0
 40
11.0
 40
11.0
 40
11.0
 40
12.0
 40
12.0
 40
12.0
 40
13.0
 40
13.0
 40
13.0
 40
14.0
 40
14.0
 40
14.0
 40
15.0
 40
15.0
 40
15.0
 40
16.0
 40
16.0
 40
16.0
 40
16.0
 10
76.59480792355963
 20
-87.23774140614196
 30
0.0
 10
76.59480792355963
 20
-87.31594507365713
 30
0.0
 10
76.57758244613339
 20
-87.417575390472
 30
0.0
 10
76.51419268920479
 20
-87.51920570728687
 30
0.0
 10
76.40463865277384
 20
-87.69249401019493
 30
0.0
 10
76.2730360052373
 20
-87.71385360220349
 30
0.0
 10
76.16554902609751
 20
-87.73280162737235
 30
0.0
 10
76.16554902609751
 20
-87.73280162737235
 30
0.0
 10
76.16554902609751
 20
-87.51059296857375
 30
0.0
 10
76.16554902609751
 20
-87.51059296857375
 30
0.0
 10
76.3639865260479
 20
-87.45581595035827
 30
0.0
 10
76.39361434722105
 20
-87.32869192695256
 30
0.0
 10
76.39361434722105
 20
-87.23567434885081
 30
0.0
 10
76.39361434722105
 20
-87.0961479816982
 30
0.0
 10
76.29439559724585
 20
-86.94387476125014
 30
0.0
 10
76.06150714244296
 20
-86.94387476125014
 30
0.0
 10
75.80588105743742
 20
-86.94387476125014
 30
0.0
 10
75.73560110953832
 20
-87.12370874558019
 30
0.0
 10
75.73560110953832
 20
-87.24428708756393
 30
0.0
 10
75.73560110953832
 20
-87.27598196602823
 30
0.0
 10
75.73560110953832
 20
-87.417575390472
 30
0.0
 10
75.86513669978372
 20
-87.50645885399145
 30
0.0
 10
75.86513669978372
 20
-87.50645885399145
 30
0.0
 10
75.84584416506632
 20
-87.68215872373919
 30
0.0
 10
75.84584416506632
 20
-87.68215872373919
 30
0.0
 10
75.84584416506632
 20
-87.68215872373919
 30
0.0
 10
74.99972871388896
 20
-87.56158038175545
 30
0.0
 10
74.99972871388896
 20
-87.56158038175545
 30
0.0
 10
74.99972871388896
 20
-87.56158038175545
 30
0.0
 10
74.99972871388896
 20
-86.78298880208898
 30
0.0
 10
74.99972871388896
 20
-86.78298880208898
 30
0.0
 10
74.99972871388896
 20
-86.78298880208898
 30
0.0
 10
75.19403209925706
 20
-86.78298880208898
 30
0.0
 10
75.19403209925706
 20
-86.78298880208898
 30
0.0
 10
75.19403209925706
 20
-86.78298880208898
 30
0.0
 10
75.19403209925706
 20
-87.39862736530313
 30
0.0
 10
75.19403209925706
 20
-87.39862736530313
 30
0.0
 10
75.19403209925706
 20
-87.39862736530313
 30
0.0
 10
75.61708982484573
 20
-87.46408417952287
 30
0.0
 10
75.61708982484573
 20
-87.46408417952287
 30
0.0
 10
75.58332788909028
 20
-87.40276147988543
 30
0.0
 10
75.54336478146138
 20
-87.32042369778796
 30
0.0
 10
75.54336478146138
 20
-87.20191241309536
 30
0.0
 10
75.54336478146138
 20
-86.94800887583244
 30
0.0
 10
75.72939993766488
 20
-86.71098630644725
 30
0.0
 10
76.0429036268226
 20
-86.71098630644725
 30
0.0
 10
76.3598524114656
 20
-86.71098630644725
 30
0.0
 10
76.59480792355963
 20
-86.93526202253702
 30
0.0
 10
76.59480792355963
 20
-87.23774140614196
 30
0.0
  0
HATCH
  5
6B
330
5B
100
AcDbEntity
  8
_U+30EC_U+30A4_U+30E4_U+30FC 1
 62
   179
420
  2234388
100
AcDbHatch
 10
0.0
 20
0.0
 30
0.0
210
0.0
220
0.0
230
1.0
  2
SOLID
 70
     1
 71
     0
 91
        1
 92
        1
 93
        1
 72
     4
 94
        3
 73
     0
 74
     1
 95
       53
 96
       49
 40
0.0
 40
0.0
 40
0.0
 40
0.0
 40
1.0
 40
1.0
 40
1.0
 40
2.0
 40
2.0
 40
2.0
 40
3.0
 40
3.0
 40
3.0
 40
4.0
 40
4.0
 40
4.0
 40
5.0
 40
5.0
 40
5.0
 40
6.0
 40
6.0
 40
6.0
 40
7.0
 40
7.0
 40
7.0
 40
8.0
 40
8.0
 40
8.0
 40
9.0
 40
9.0
 40
9.0
 40
10.0
 40
10.0
 40
10.0
 40
11.0
 40
11.0
 40
11.0
 40
12.0
 40
12.0
 40
12.0
 40
13.0
 40
13.0
 40
13.0
 40
14.0
 40
14.0
 40
14.0
 40
15.0
 40
15.0
 40
15.0
 40
16.0
 40
16.0
 40
16.0
 40
16.0
 10
76.59480792355963
 20
-87.23774140614196
 10
76.59480792355963
 20
-87.31594507365713
 10
76.57758244613339
 20
-87.417575390472
 10
76.51419268920479
 20
-87.51920570728687
 10
76.40463865277384
 20
-87.69249401019493
 10
76.2730360052373
 20
-87.71385360220349
 10
76.16554902609751
 20
-87.73280162737235
 10
76.16554902609751
 20
-87.73280162737235
 10
76.16554902609751
 20
-87.51059296857375
 10
76.16554902609751
 20
-87.51059296857375
 10
76.3639865260479
 20
-87.45581595035827
 10
76.39361434722105
 20
-87.32869192695256
 10
76.39361434722105
 20
-87.23567434885081
 10
76.39361434722105
 20
-87.0961479816982
 10
76.29439559724585
 20
-86.94387476125014
 10
76.06150714244296
 20
-86.94387476125014
 10
75.80588105743742
 20
-86.94387476125014
 10
75.73560110953832
 20
-87.12370874558019
 10
75.73560110953832
 20
-87.24428708756393
 10
75.73560110953832
 20
-87.27598196602823
 10
75.73560110953832
 20
-87.417575390472
 10
75.86513669978372
 20
-87.50645885399145
 10
75.86513669978372
 20
-87.50645885399145
 10
75.84584416506632
 20
-87.68215872373919
 10
75.84584416506632
 20
-87.68215872373919
 10
75.84584416506632
 20
-87.68215872373919
 10
74.99972871388896
 20
-87.56158038175545
 10
74.99972871388896
 20
-87.56158038175545
 10
74.99972871388896
 20
-87.56158038175545
 10
74.99972871388896
 20
-86.78298880208898
 10
74.99972871388896
 20
-86.78298880208898
 10
74.99972871388896
 20
-86.78298880208898
 10
75.19403209925706
 20
-86.78298880208898
 10
75.19403209925706
 20
-86.78298880208898
 10
75.19403209925706
 20
-86.78298880208898
 10
75.19403209925706
 20
-87.39862736530313
 10
75.19403209925706
 20
-87.39862736530313
 10
75.19403209925706
 20
-87.39862736530313
 10
75.61708982484573
 20
-87.46408417952287
 10
75.61708982484573
 20
-87.46408417952287
 10
75.58332788909028
 20
-87.40276147988543
 10
75.54336478146138
 20
-87.32042369778796
 10
75.54336478146138
 20
-87.20191241309536
 10
75.54336478146138
 20
-86.94800887583244
 10
75.72939993766488
 20
-86.71098630644725
 10
76.0429036268226
 20
-86.71098630644725
 10
76.3598524114656
 20
-86.71098630644725
 10
76.59480792355963
 20
-86.93526202253702
 10
76.59480792355963
 20
-87.23774140614196
 97
        0
 97
        0
 75
     2
 76
     1
 98
        0
  0
ENDBLK
  5
5E
330
5B
100
AcDbEntity
  8
0
100
AcDbBlockEnd
  0
BLOCK
  5
6E
330
6C
100
AcDbEntity
  8
0
100
AcDbBlockBegin
  2
block 3
 70
     0
 10
0.0
 20
0.0
 30
0.0
  3
block 3
  1

  0
SPLINE
  5
70
330
6C
100
AcDbEntity
  8
_U+30EC_U+30A4_U+30E4_U+30FC 1
370
     0
100
AcDbSpline
210
0.0
220
0.0
230
1.0
 70
    11
 71
     3
 72
    29
 73
    25
 74
     0
 42
0.0000000001
 43
0.0000000001
 12
1.0
 22
0.0
 32
0.0
 13
1.0
 23
0.0
 33
0.0
 40
0.0
 40
0.0
 40
0.0
 40
0.0
 40
1.0
 40
1.0
 40
1.0
 40
2.0
 40
2.0
 40
2.0
 40
3.0
 40
3.0
 40
3.0
 40
4.0
 40
4.0
 40
4.0
 40
5.0
 40
5.0
 40
5.0
 40
6.0
 40
6.0
 40
6.0
 40
7.0
 40
7.0
 40
7.0
 40
8.0
 40
8.0
 40
8.0
 40
8.0
 10
76.36605358333905
 20
-80.79575735827329
 30
0.0
 10
76.57551538884223
 20
-80.90393335651014
 30
0.0
 10
76.59480792355963
 20
-81.0772216594182
 30
0.0
 10
76.59480792355963
 20
-81.19366588681964
 30
0.0
 10
76.59480792355963
 20
-81.35455184598081
 30
0.0
 10
76.54795462496024
 20
-81.49614527042458
 30
0.0
 10
76.36605358333905
 20
-81.59122990581747
 30
0.0
 10
76.17175019797095
 20
-81.69492727992349
 30
0.0
 10
75.93472762858576
 20
-81.7142198146409
 30
0.0
 10
75.77211912168197
 20
-81.7142198146409
 30
0.0
 10
75.62811413039853
 20
-81.7142198146409
 30
0.0
 10
75.37593314087825
 20
-81.69699433721465
 30
0.0
 10
75.17749564092786
 20
-81.59122990581747
 30
0.0
 10
74.9742350072981
 20
-81.48339841712915
 30
0.0
 10
74.95080835799841
 20
-81.32251245796799
 30
0.0
 10
74.95080835799841
 20
-81.19366588681964
 30
0.0
 10
74.95080835799841
 20
-81.03484698494962
 30
0.0
 10
74.99559459930666
 20
-80.89118650321471
 30
0.0
 10
75.17749564092786
 20
-80.79575735827329
 30
0.0
 10
75.36973196900479
 20
-80.69653860829808
 30
0.0
 10
75.59848630922538
 20
-80.67311195899839
 30
0.0
 10
75.77211912168197
 20
-80.67311195899839
 30
0.0
 10
75.94299585775036
 20
-80.67311195899839
 30
0.0
 10
76.17381725526211
 20
-80.69447155100694
 30
0.0
 10
76.36605358333905
 20
-80.79575735827329
 30
0.0
  0
SPLINE
  5
71
330
6C
100
AcDbEntity
  8
_U+30EC_U+30A4_U+30E4_U+30FC 1
370
     0
100
AcDbSpline
210
0.0
220
0.0
230
1.0
 70
    11
 71
     3
 72
    17
 73
    13
 74
     0
 42
0.0000000001
 43
0.0000000001
 12
1.0
 22
0.0
 32
0.0
 13
1.0
 23
0.0
 33
0.0
 40
0.0
 40
0.0
 40
0.0
 40
0.0
 40
1.0
 40
1.0
 40
1.0
 40
2.0
 40
2.0
 40
2.0
 40
3.0
 40
3.0
 40
3.0
 40
4.0
 40
4.0
 40
4.0
 40
4.0
 10
75.14373370517241
 20
-81.19366588681964
 30
0.0
 10
75.14373370517241
 20
-81.44343530950026
 30
0.0
 10
75.42692055405993
 20
-81.48994409855113
 30
0.0
 10
75.77211912168197
 20
-81.48994409855113
 30
0.0
 10
76.09113496361611
 20
-81.48994409855113
 30
0.0
 10
76.39981551909449
 20
-81.453770595956
 30
0.0
 10
76.39981551909449
 20
-81.19366588681964
 30
0.0
 10
76.39981551909449
 20
-80.94596352143017
 30
0.0
 10
76.1186957274981
 20
-80.89738767508815
 30
0.0
 10
75.77211912168197
 20
-80.89738767508815
 30
0.0
 10
75.45241426065078
 20
-80.89738767508815
 30
0.0
 10
75.14373370517241
 20
-80.93562823497443
 30
0.0
 10
75.14373370517241
 20
-81.19366588681964
 30
0.0
  0
HATCH
  5
72
330
6C
100
AcDbEntity
  8
_U+30EC_U+30A4_U+30E4_U+30FC 1
 62
   179
420
  2234388
100
AcDbHatch
 10
0.0
 20
0.0
 30
0.0
210
0.0
220
0.0
230
1.0
  2
SOLID
 70
     1
 71
     0
 91
        2
 92
        1
 93
        1
 72
     4
 94
        3
 73
     0
 74
     1
 95
       29
 96
       25
 40
0.0
 40
0.0
 40
0.0
 40
0.0
 40
1.0
 40
1.0
 40
1.0
 40
2.0
 40
2.0
 40
2.0
 40
3.0
 40
3.0
 40
3.0
 40
4.0
 40
4.0
 40
4.0
 40
5.0
 40
5.0
 40
5.0
 40
6.0
 40
6.0
 40
6.0
 40
7.0
 40
7.0
 40
7.0
 40
8.0
 40
8.0
 40
8.0
 40
8.0
 10
76.36605358333905
 20
-80.79575735827329
 10
76.57551538884223
 20
-80.90393335651014
 10
76.59480792355963
 20
-81.0772216594182
 10
76.59480792355963
 20
-81.19366588681964
 10
76.59480792355963
 20
-81.35455184598081
 10
76.54795462496024
 20
-81.49614527042458
 10
76.36605358333905
 20
-81.59122990581747
 10
76.17175019797095
 20
-81.69492727992349
 10
75.93472762858576
 20
-81.7142198146409
 10
75.77211912168197
 20
-81.7142198146409
 10
75.62811413039853
 20
-81.7142198146409
 10
75.37593314087825
 20
-81.69699433721465
 10
75.17749564092786
 20
-81.59122990581747
 10
74.9742350072981
 20
-81.48339841712915
 10
74.95080835799841
 20
-81.32251245796799
 10
74.95080835799841
 20
-81.19366588681964
 10
74.95080835799841
 20
-81.03484698494962
 10
74.99559459930666
 20
-80.89118650321471
 10
75.17749564092786
 20
-80.79575735827329
 10
75.36973196900479
 20
-80.69653860829808
 10
75.59848630922538
 20
-80.67311195899839
 10
75.77211912168197
 20
-80.67311195899839
 10
75.94299585775036
 20
-80.67311195899839
 10
76.17381725526211
 20
-80.69447155100694
 10
76.36605358333905
 20
-80.79575735827329
 97
        0
 97
        0
 92
        1
 93
        1
 72
     4
 94
        3
 73
     0
 74
     1
 95
       17
 96
       13
 40
0.0
 40
0.0
 40
0.0
 40
0.0
 40
1.0
 40
1.0
 40
1.0
 40
2.0
 40
2.0
 40
2.0
 40
3.0
 40
3.0
 40
3.0
 40
4.0
 40
4.0
 40
4.0
 40
4.0
 10
75.14373370517241
 20
-81.19366588681964
 10
75.14373370517241
 20
-81.44343530950026
 10
75.42692055405993
 20
-81.48994409855113
 10
75.77211912168197
 20
-81.48994409855113
 10
76.09113496361611
 20
-81.48994409855113
 10
76.39981551909449
 20
-81.453770595956
 10
76.39981551909449
 20
-81.19366588681964
 10
76.39981551909449
 20
-80.94596352143017
 10
76.1186957274981
 20
-80.89738767508815
 10
75.77211912168197
 20
-80.89738767508815
 10
75.45241426065078
 20
-80.89738767508815
 10
75.14373370517241
 20
-80.93562823497443
 10
75.14373370517241
 20
-81.19366588681964
 97
        0
 97
        0
 75
     2
 76
     1
 98
        0
  0
POLYLINE
  5
73
330
6C
100
AcDbEntity
  8
_U+30EC_U+30A4_U+30E4_U+30FC 1
370
     0
100
AcDb2dPolyline
 66
     1
 10
0.0
 20
0.0
 30
0.0
  0
VERTEX
  5
74
330
73
100
AcDbEntity
  8
_U+30EC_U+30A4_U+30E4_U+30FC 1
370
     0
100
AcDbVertex
100
AcDb2dVertex
 10
76.54382051037794
 20
-80.4567599625247
 30
0.0
  0
VERTEX
  5
75
330
73
100
AcDbEntity
  8
_U+30EC_U+30A4_U+30E4_U+30FC 1
370
     0
100
AcDbVertex
100
AcDb2dVertex
 10
76.2923285399547
 20
-80.4567599625247
 30
0.0
  0
VERTEX
  5
76
330
73
100
AcDbEntity
  8
_U+30EC_U+30A4_U+30E4_U+30FC 1
370
     0
100
AcDbVertex
100
AcDb2dVertex
 10
76.2923285399547
 20
-80.20492348255294
 30
0.0
  0
VERTEX
  5
77
330
73
100
AcDbEntity
  8
_U+30EC_U+30A4_U+30E4_U+30FC 1
370
     0
100
AcDbVertex
100
AcDb2dVertex
 10
76.54382051037794
 20
-80.20492348255294
 30
0.0
  0
VERTEX
  5
78
330
73
100
AcDbEntity
  8
_U+30EC_U+30A4_U+30E4_U+30FC 1
370
     0
100
AcDbVertex
100
AcDb2dVertex
 10
76.54382051037794
 20
-80.4567599625247
 30
0.0
  0
SEQEND
  5
79
330
73
100
AcDbEntity
  8
_U+30EC_U+30A4_U+30E4_U+30FC 1
370
     0
  0
HATCH
  5
7A
330
6C
100
AcDbEntity
  8
_U+30EC_U+30A4_U+30E4_U+30FC 1
 62
   179
420
  2234388
100
AcDbHatch
 10
0.0
 20
0.0
 30
0.0
210
0.0
220
0.0
230
1.0
  2
SOLID
 70
     1
 71
     0
 91
        1
 92
        1
 93
        4
 72
     1
 10
76.54382051037794
 20
-80.4567599625247
 11
76.2923285399547
 21
-80.4567599625247
 72
     1
 10
76.2923285399547
 20
-80.4567599625247
 11
76.2923285399547
 21
-80.20492348255294
 72
     1
 10
76.2923285399547
 20
-80.20492348255294
 11
76.54382051037794
 21
-80.20492348255294
 72
     1
 10
76.54382051037794
 20
-80.20492348255294
 11
76.54382051037794
 21
-80.4567599625247
 97
        0
 75
     2
 76
     1
 98
        0
  0
SPLINE
  5
7B
330
6C
100
AcDbEntity
  8
_U+30EC_U+30A4_U+30E4_U+30FC 1
370
     0
100
AcDbSpline
210
0.0
220
0.0
230
1.0
 70
    11
 71
     3
 72
    29
 73
    25
 74
     0
 42
0.0000000001
 43
0.0000000001
 12
1.0
 22
0.0
 32
0.0
 13
1.0
 23
0.0
 33
0.0
 40
0.0
 40
0.0
 40
0.0
 40
0.0
 40
1.0
 40
1.0
 40
1.0
 40
2.0
 40
2.0
 40
2.0
 40
3.0
 40
3.0
 40
3.0
 40
4.0
 40
4.0
 40
4.0
 40
5.0
 40
5.0
 40
5.0
 40
6.0
 40
6.0
 40
6.0
 40
7.0
 40
7.0
 40
7.0
 40
8.0
 40
8.0
 40
8.0
 40
8.0
 10
76.59480792355963
 20
-79.46870657735505
 30
0.0
 10
76.59480792355963
 20
-79.73535696791339
 30
0.0
 10
76.45700410414965
 20
-79.98891599562778
 30
0.0
 10
76.10836044104236
 20
-79.98891599562778
 30
0.0
 10
75.85204533693977
 20
-79.98891599562778
 30
0.0
 10
75.75696070154687
 20
-79.84732257118401
 30
0.0
 10
75.69563800190943
 20
-79.74155813978683
 30
0.0
 10
75.63638235956313
 20
-79.86627059635288
 30
0.0
 10
75.52200518945284
 20
-79.9424072065769
 30
0.0
 10
75.36146373984019
 20
-79.9424072065769
 30
0.0
 10
75.08654512011725
 20
-79.9424072065769
 30
0.0
 10
74.95080835799841
 20
-79.74362519707799
 30
0.0
 10
74.95080835799841
 20
-79.46870657735505
 30
0.0
 10
74.95080835799841
 20
-79.18517521891899
 30
0.0
 10
75.09481334928185
 20
-78.99466143858467
 30
0.0
 10
75.36146373984019
 20
-78.99466143858467
 30
0.0
 10
75.52200518945284
 20
-78.99466143858467
 30
0.0
 10
75.63638235956313
 20
-79.07320961564837
 30
0.0
 10
75.69563800190943
 20
-79.19792207221441
 30
0.0
 10
75.74662541509113
 20
-79.10903860869496
 30
0.0
 10
75.84171005048402
 20
-78.95021970682495
 30
0.0
 10
76.10422632646006
 20
-78.95021970682495
 30
0.0
 10
76.47836369615818
 20
-78.95021970682495
 30
0.0
 10
76.59480792355963
 20
-79.2296169506787
 30
0.0
 10
76.59480792355963
 20
-79.46870657735505
 30
0.0
  0
SPLINE
  5
7C
330
6C
100
AcDbEntity
  8
_U+30EC_U+30A4_U+30E4_U+30FC 1
370
     0
100
AcDbSpline
210
0.0
220
0.0
230
1.0
 70
    11
 71
     3
 72
    17
 73
    13
 74
     0
 42
0.0000000001
 43
0.0000000001
 12
1.0
 22
0.0
 32
0.0
 13
1.0
 23
0.0
 33
0.0
 40
0.0
 40
0.0
 40
0.0
 40
0.0
 40
1.0
 40
1.0
 40
1.0
 40
2.0
 40
2.0
 40
2.0
 40
3.0
 40
3.0
 40
3.0
 40
4.0
 40
4.0
 40
4.0
 40
4.0
 10
75.14373370517241
 20
-79.46870657735505
 30
0.0
 10
75.14373370517241
 20
-79.63372665109851
 30
0.0
 10
75.2388183405653
 20
-79.71813149048714
 30
0.0
 10
75.37386608358709
 20
-79.71813149048714
 30
0.0
 10
75.49651148286199
 20
-79.71813149048714
 30
0.0
 10
75.61502276755458
 20
-79.64647350439394
 30
0.0
 10
75.61502276755458
 20
-79.46870657735505
 30
0.0
 10
75.61502276755458
 20
-79.29093965031616
 30
0.0
 10
75.49651148286199
 20
-79.21893715467444
 30
0.0
 10
75.37386608358709
 20
-79.21893715467444
 30
0.0
 10
75.2388183405653
 20
-79.21893715467444
 30
0.0
 10
75.14373370517241
 20
-79.30575356090273
 30
0.0
 10
75.14373370517241
 20
-79.46870657735505
 30
0.0
  0
SPLINE
  5
7D
330
6C
100
AcDbEntity
  8
_U+30EC_U+30A4_U+30E4_U+30FC 1
370
     0
100
AcDbSpline
210
0.0
220
0.0
230
1.0
 70
    11
 71
     3
 72
    17
 73
    13
 74
     0
 42
0.0000000001
 43
0.0000000001
 12
1.0
 22
0.0
 32
0.0
 13
1.0
 23
0.0
 33
0.0
 40
0.0
 40
0.0
 40
0.0
 40
0.0
 40
1.0
 40
1.0
 40
1.0
 40
2.0
 40
2.0
 40
2.0
 40
3.0
 40
3.0
 40
3.0
 40
4.0
 40
4.0
 40
4.0
 40
4.0
 10
75.80381400014628
 20
-79.46870657735505
 30
0.0
 10
75.80381400014628
 20
-79.61236705908996
 30
0.0
 10
75.89063040637457
 20
-79.76498478908654
 30
0.0
 10
76.09320202090726
 20
-79.76498478908654
 30
0.0
 10
76.29852971182815
 20
-79.76498478908654
 30
0.0
 10
76.39981551909449
 20
-79.63786076568081
 30
0.0
 10
76.39981551909449
 20
-79.46870657735505
 30
0.0
 10
76.39981551909449
 20
-79.28267142115156
 30
0.0
 10
76.2771701198196
 20
-79.17242836562356
 30
0.0
 10
76.09940319278071
 20
-79.17242836562356
 30
0.0
 10
75.87753904353062
 20
-79.17242836562356
 30
0.0
 10
75.80381400014628
 20
-79.33538138207588
 30
0.0
 10
75.80381400014628
 20
-79.46870657735505
 30
0.0
  0
HATCH
  5
7E
330
6C
100
AcDbEntity
  8
_U+30EC_U+30A4_U+30E4_U+30FC 1
 62
   179
420
  2234388
100
AcDbHatch
 10
0.0
 20
0.0
 30
0.0
210
0.0
220
0.0
230
1.0
  2
SOLID
 70
     1
 71
     0
 91
        3
 92
        1
 93
        1
 72
     4
 94
        3
 73
     0
 74
     1
 95
       29
 96
       25
 40
0.0
 40
0.0
 40
0.0
 40
0.0
 40
1.0
 40
1.0
 40
1.0
 40
2.0
 40
2.0
 40
2.0
 40
3.0
 40
3.0
 40
3.0
 40
4.0
 40
4.0
 40
4.0
 40
5.0
 40
5.0
 40
5.0
 40
6.0
 40
6.0
 40
6.0
 40
7.0
 40
7.0
 40
7.0
 40
8.0
 40
8.0
 40
8.0
 40
8.0
 10
76.59480792355963
 20
-79.46870657735505
 10
76.59480792355963
 20
-79.73535696791339
 10
76.45700410414965
 20
-79.98891599562778
 10
76.10836044104236
 20
-79.98891599562778
 10
75.85204533693977
 20
-79.98891599562778
 10
75.75696070154687
 20
-79.84732257118401
 10
75.69563800190943
 20
-79.74155813978683
 10
75.63638235956313
 20
-79.86627059635288
 10
75.52200518945284
 20
-79.9424072065769
 10
75.36146373984019
 20
-79.9424072065769
 10
75.08654512011725
 20
-79.9424072065769
 10
74.95080835799841
 20
-79.74362519707799
 10
74.95080835799841
 20
-79.46870657735505
 10
74.95080835799841
 20
-79.18517521891899
 10
75.09481334928185
 20
-78.99466143858467
 10
75.36146373984019
 20
-78.99466143858467
 10
75.52200518945284
 20
-78.99466143858467
 10
75.63638235956313
 20
-79.07320961564837
 10
75.69563800190943
 20
-79.19792207221441
 10
75.74662541509113
 20
-79.10903860869496
 10
75.84171005048402
 20
-78.95021970682495
 10
76.10422632646006
 20
-78.95021970682495
 10
76.47836369615818
 20
-78.95021970682495
 10
76.59480792355963
 20
-79.2296169506787
 10
76.59480792355963
 20
-79.46870657735505
 97
        0
 97
        0
 92
        1
 93
        1
 72
     4
 94
        3
 73
     0
 74
     1
 95
       17
 96
       13
 40
0.0
 40
0.0
 40
0.0
 40
0.0
 40
1.0
 40
1.0
 40
1.0
 40
2.0
 40
2.0
 40
2.0
 40
3.0
 40
3.0
 40
3.0
 40
4.0
 40
4.0
 40
4.0
 40
4.0
 10
75.14373370517241
 20
-79.46870657735505
 10
75.14373370517241
 20
-79.63372665109851
 10
75.2388183405653
 20
-79.71813149048714
 10
75.37386608358709
 20
-79.71813149048714
 10
75.49651148286199
 20
-79.71813149048714
 10
75.61502276755458
 20
-79.64647350439394
 10
75.61502276755458
 20
-79.46870657735505
 10
75.61502276755458
 20
-79.29093965031616
 10
75.49651148286199
 20
-79.21893715467444
 10
75.37386608358709
 20
-79.21893715467444
 10
75.2388183405653
 20
-79.21893715467444
 10
75.14373370517241
 20
-79.30575356090273
 10
75.14373370517241
 20
-79.46870657735505
 97
        0
 97
        0
 92
        1
 93
        1
 72
     4
 94
        3
 73
     0
 74
     1
 95
       17
 96
       13
 40
0.0
 40
0.0
 40
0.0
 40
0.0
 40
1.0
 40
1.0
 40
1.0
 40
2.0
 40
2.0
 40
2.0
 40
3.0
 40
3.0
 40
3.0
 40
4.0
 40
4.0
 40
4.0
 40
4.0
 10
75.80381400014628
 20
-79.46870657735505
 10
75.80381400014628
 20
-79.61236705908996
 10
75.89063040637457
 20
-79.76498478908654
 10
76.09320202090726
 20
-79.76498478908654
 10
76.29852971182815
 20
-79.76498478908654
 10
76.39981551909449
 20
-79.63786076568081
 10
76.39981551909449
 20
-79.46870657735505
 10
76.39981551909449
 20
-79.28267142115156
 10
76.2771701198196
 20
-79.17242836562356
 10
76.09940319278071
 20
-79.17242836562356
 10
75.87753904353062
 20
-79.17242836562356
 10
75.80381400014628
 20
-79.33538138207588
 10
75.80381400014628
 20
-79.46870657735505
 97
        0
 97
        0
 75
     2
 76
     1
 98
        0
  0
ENDBLK
  5
6F
330
6C
100
AcDbEntity
  8
0
100
AcDbBlockEnd
  0
BLOCK
  5
81
330
7F
100
AcDbEntity
  8
0
100
AcDbBlockBegin
  2
block 4
 70
     0
 10
0.0
 20
0.0
 30
0.0
  3
block 4
  1

  0
SPLINE
  5
83
330
7F
100
AcDbEntity
  8
_U+30EC_U+30A4_U+30E4_U+30FC 1
370
     0
100
AcDbSpline
210
0.0
220
0.0
230
1.0
 70
    11
 71
     3
 72
    62
 73
    58
 74
     0
 42
0.0000000001
 43
0.0000000001
 12
1.0
 22
0.0
 32
0.0
 13
1.0
 23
0.0
 33
0.0
 40
0.0
 40
0.0
 40
0.0
 40
0.0
 40
1.0
 40
1.0
 40
1.0
 40
2.0
 40
2.0
 40
2.0
 40
3.0
 40
3.0
 40
3.0
 40
4.0
 40
4.0
 40
4.0
 40
5.0
 40
5.0
 40
5.0
 40
6.0
 40
6.0
 40
6.0
 40
7.0
 40
7.0
 40
7.0
 40
8.0
 40
8.0
 40
8.0
 40
9.0
 40
9.0
 40
9.0
 40
10.0
 40
10.0
 40
10.0
 40
11.0
 40
11.0
 40
11.0
 40
12.0
 40
12.0
 40
12.0
 40
13.0
 40
13.0
 40
13.0
 40
14.0
 40
14.0
 40
14.0
 40
15.0
 40
15.0
 40
15.0
 40
16.0
 40
16.0
 40
16.0
 40
17.0
 40
17.0
 40
17.0
 40
18.0
 40
18.0
 40
18.0
 40
19.0
 40
19.0
 40
19.0
 40
19.0
 10
76.59480792355963
 20
-94.32361380020382
 30
0.0
 10
76.59480792355963
 20
-94.41904294514525
 30
0.0
 10
76.57344833155109
 20
-94.63677297981303
 30
0.0
 10
76.38741317534759
 20
-94.7618299459276
 30
0.0
 10
76.27510306252844
 20
-94.83589949886047
 30
0.0
 10
76.17588431255325
 20
-94.84003361344277
 30
0.0
 10
76.09113496361611
 20
-94.84416772802507
 30
0.0
 10
76.09113496361611
 20
-94.84416772802507
 30
0.0
 10
76.09113496361611
 20
-94.6240261265176
 30
0.0
 10
76.09113496361611
 20
-94.6240261265176
 30
0.0
 10
76.16554902609751
 20
-94.62195906922646
 30
0.0
 10
76.39981551909449
 20
-94.6116237827707
 30
0.0
 10
76.39981551909449
 20
-94.32809242433464
 30
0.0
 10
76.39981551909449
 20
-94.19063311447317
 30
0.0
 10
76.33022459029245
 20
-94.03801538447661
 30
0.0
 10
76.10215926916891
 20
-94.03801538447661
 30
0.0
 10
75.98571504176746
 20
-94.03801538447661
 30
0.0
 10
75.93679468587692
 20
-94.07625594436288
 30
0.0
 10
75.90509980741261
 20
-94.10795082282718
 30
0.0
 10
75.83137476402827
 20
-94.18202037576006
 30
0.0
 10
75.81828340118432
 20
-94.2984646031615
 30
0.0
 10
75.81828340118432
 20
-94.35324162137697
 30
0.0
 10
75.81828340118432
 20
-94.37253415609437
 30
0.0
 10
75.82035045847547
 20
-94.40836314914097
 30
0.0
 10
75.82448457305777
 20
-94.43592391302296
 30
0.0
 10
75.82448457305777
 20
-94.43592391302296
 30
0.0
 10
75.63018118768969
 20
-94.43592391302296
 30
0.0
 10
75.63018118768969
 20
-94.43592391302296
 30
0.0
 10
75.63638235956313
 20
-94.3976833531367
 30
0.0
 10
75.63844941685429
 20
-94.35565318821665
 30
0.0
 10
75.63844941685429
 20
-94.34910750679467
 30
0.0
 10
75.63844941685429
 20
-94.28365069257492
 30
0.0
 10
75.61708982484573
 20
-94.08486868307601
 30
0.0
 10
75.3807562745576
 20
-94.08486868307601
 30
0.0
 10
75.2029893475187
 20
-94.08486868307601
 30
0.0
 10
75.14786781975471
 20
-94.2157823115155
 30
0.0
 10
75.14786781975471
 20
-94.3260253670435
 30
0.0
 10
75.14786781975471
 20
-94.59026419076216
 30
0.0
 10
75.3807562745576
 20
-94.59887692947528
 30
0.0
 10
75.45241426065078
 20
-94.60301104405758
 30
0.0
 10
75.45241426065078
 20
-94.60301104405758
 30
0.0
 10
75.45241426065078
 20
-94.80627167768732
 30
0.0
 10
75.45241426065078
 20
-94.80627167768732
 30
0.0
 10
75.32770180408474
 20
-94.7976589389742
 30
0.0
 10
74.95080835799841
 20
-94.7700981750922
 30
0.0
 10
74.95080835799841
 20
-94.31327851374807
 30
0.0
 10
74.95080835799841
 20
-94.08900279765831
 30
0.0
 10
75.07827689095265
 20
-93.84784611369082
 30
0.0
 10
75.37386608358709
 20
-93.84784611369082
 30
0.0
 10
75.56059025888763
 20
-93.84784611369082
 30
0.0
 10
75.64258353143659
 20
-93.94293074908371
 30
0.0
 10
75.70390623107403
 20
-94.04249400860743
 30
0.0
 10
75.73146699495602
 20
-93.98117130896999
 30
0.0
 10
75.81208222931087
 20
-93.7992702673488
 30
0.0
 10
76.08906790632496
 20
-93.7992702673488
 30
0.0
 10
76.4273762829765
 20
-93.7992702673488
 30
0.0
 10
76.59480792355963
 20
-94.04662812318973
 30
0.0
 10
76.59480792355963
 20
-94.32361380020382
 30
0.0
  0
HATCH
  5
84
330
7F
100
AcDbEntity
  8
_U+30EC_U+30A4_U+30E4_U+30FC 1
 62
   179
420
  2234388
100
AcDbHatch
 10
0.0
 20
0.0
 30
0.0
210
0.0
220
0.0
230
1.0
  2
SOLID
 70
     1
 71
     0
 91
        1
 92
        1
 93
        1
 72
     4
 94
        3
 73
     0
 74
     1
 95
       62
 96
       58
 40
0.0
 40
0.0
 40
0.0
 40
0.0
 40
1.0
 40
1.0
 40
1.0
 40
2.0
 40
2.0
 40
2.0
 40
3.0
 40
3.0
 40
3.0
 40
4.0
 40
4.0
 40
4.0
 40
5.0
 40
5.0
 40
5.0
 40
6.0
 40
6.0
 40
6.0
 40
7.0
 40
7.0
 40
7.0
 40
8.0
 40
8.0
 40
8.0
 40
9.0
 40
9.0
 40
9.0
 40
10.0
 40
10.0
 40
10.0
 40
11.0
 40
11.0
 40
11.0
 40
12.0
 40
12.0
 40
12.0
 40
13.0
 40
13.0
 40
13.0
 40
14.0
 40
14.0
 40
14.0
 40
15.0
 40
15.0
 40
15.0
 40
16.0
 40
16.0
 40
16.0
 40
17.0
 40
17.0
 40
17.0
 40
18.0
 40
18.0
 40
18.0
 40
19.0
 40
19.0
 40
19.0
 40
19.0
 10
76.59480792355963
 20
-94.32361380020382
 10
76.59480792355963
 20
-94.41904294514525
 10
76.57344833155109
 20
-94.63677297981303
 10
76.38741317534759
 20
-94.7618299459276
 10
76.27510306252844
 20
-94.83589949886047
 10
76.17588431255325
 20
-94.84003361344277
 10
76.09113496361611
 20
-94.84416772802507
 10
76.09113496361611
 20
-94.84416772802507
 10
76.09113496361611
 20
-94.6240261265176
 10
76.09113496361611
 20
-94.6240261265176
 10
76.16554902609751
 20
-94.62195906922646
 10
76.39981551909449
 20
-94.6116237827707
 10
76.39981551909449
 20
-94.32809242433464
 10
76.39981551909449
 20
-94.19063311447317
 10
76.33022459029245
 20
-94.03801538447661
 10
76.10215926916891
 20
-94.03801538447661
 10
75.98571504176746
 20
-94.03801538447661
 10
75.93679468587692
 20
-94.07625594436288
 10
75.90509980741261
 20
-94.10795082282718
 10
75.83137476402827
 20
-94.18202037576006
 10
75.81828340118432
 20
-94.2984646031615
 10
75.81828340118432
 20
-94.35324162137697
 10
75.81828340118432
 20
-94.37253415609437
 10
75.82035045847547
 20
-94.40836314914097
 10
75.82448457305777
 20
-94.43592391302296
 10
75.82448457305777
 20
-94.43592391302296
 10
75.63018118768969
 20
-94.43592391302296
 10
75.63018118768969
 20
-94.43592391302296
 10
75.63638235956313
 20
-94.3976833531367
 10
75.63844941685429
 20
-94.35565318821665
 10
75.63844941685429
 20
-94.34910750679467
 10
75.63844941685429
 20
-94.28365069257492
 10
75.61708982484573
 20
-94.08486868307601
 10
75.3807562745576
 20
-94.08486868307601
 10
75.2029893475187
 20
-94.08486868307601
 10
75.14786781975471
 20
-94.2157823115155
 10
75.14786781975471
 20
-94.3260253670435
 10
75.14786781975471
 20
-94.59026419076216
 10
75.3807562745576
 20
-94.59887692947528
 10
75.45241426065078
 20
-94.60301104405758
 10
75.45241426065078
 20
-94.60301104405758
 10
75.45241426065078
 20
-94.80627167768732
 10
75.45241426065078
 20
-94.80627167768732
 10
75.32770180408474
 20
-94.7976589389742
 10
74.95080835799841
 20
-94.7700981750922
 10
74.95080835799841
 20
-94.31327851374807
 10
74.95080835799841
 20
-94.08900279765831
 10
75.07827689095265
 20
-93.84784611369082
 10
75.37386608358709
 20
-93.84784611369082
 10
75.56059025888763
 20
-93.84784611369082
 10
75.64258353143659
 20
-93.94293074908371
 10
75.70390623107403
 20
-94.04249400860743
 10
75.73146699495602
 20
-93.98117130896999
 10
75.81208222931087
 20
-93.7992702673488
 10
76.08906790632496
 20
-93.7992702673488
 10
76.4273762829765
 20
-93.7992702673488
 10
76.59480792355963
 20
-94.04662812318973
 10
76.59480792355963
 20
-94.32361380020382
 97
        0
 97
        0
 75
     2
 76
     1
 98
        0
  0
ENDBLK
  5
82
330
7F
100
AcDbEntity
  8
0
100
AcDbBlockEnd
  0
BLOCK
  5
93
330
91
100
AcDbEntity
  8
0
100
AcDbBlockBegin
  2
block 5
 70
     0
 10
0.0
 20
0.0
 30
0.0
  3
block 5
  1

  0
SPLINE
  5
95
330
91
100
AcDbEntity
  8
_U+30EC_U+30A4_U+30E4_U+30FC 1
370
     0
100
AcDbSpline
210
0.0
220
0.0
230
1.0
 70
    11
 71
     3
 72
    26
 73
    22
 74
     0
 42
0.0000000001
 43
0.0000000001
 12
1.0
 22
0.0
 32
0.0
 13
1.0
 23
0.0
 33
0.0
 40
0.0
 40
0.0
 40
0.0
 40
0.0
 40
1.0
 40
1.0
 40
1.0
 40
2.0
 40
2.0
 40
2.0
 40
3.0
 40
3.0
 40
3.0
 40
4.0
 40
4.0
 40
4.0
 40
5.0
 40
5.0
 40
5.0
 40
6.0
 40
6.0
 40
6.0
 40
7.0
 40
7.0
 40
7.0
 40
7.0
 10
53.2248304445931
 20
-99.23597545262156
 30
0.0
 10
53.2248304445931
 20
-99.23597545262156
 30
0.0
 10
53.2248304445931
 20
-98.13182234959899
 30
0.0
 10
53.2248304445931
 20
-98.13182234959899
 30
0.0
 10
53.2248304445931
 20
-98.13182234959899
 30
0.0
 10
52.89479029710617
 20
-98.13182234959899
 30
0.0
 10
52.89479029710617
 20
-98.13182234959899
 30
0.0
 10
52.89479029710617
 20
-98.13182234959899
 30
0.0
 10
52.89479029710617
 20
-97.98368324373325
 30
0.0
 10
52.89479029710617
 20
-97.98368324373325
 30
0.0
 10
53.22689750188425
 20
-97.96886933314667
 30
0.0
 10
53.27340629093512
 20
-97.80591631669436
 30
0.0
 10
53.30303411210827
 20
-97.69153914658406
 30
0.0
 10
53.30303411210827
 20
-97.69153914658406
 30
0.0
 10
53.44910616068287
 20
-97.69153914658406
 30
0.0
 10
53.44910616068287
 20
-97.69153914658406
 30
0.0
 10
53.44910616068287
 20
-97.69153914658406
 30
0.0
 10
53.44910616068287
 20
-99.23597545262156
 30
0.0
 10
53.44910616068287
 20
-99.23597545262156
 30
0.0
 10
53.44910616068287
 20
-99.23597545262156
 30
0.0
 10
53.2248304445931
 20
-99.23597545262156
 30
0.0
 10
53.2248304445931
 20
-99.23597545262156
 30
0.0
  0
HATCH
  5
96
330
91
100
AcDbEntity
  8
_U+30EC_U+30A4_U+30E4_U+30FC 1
 62
   179
420
  2234388
100
AcDbHatch
 10
0.0
 20
0.0
 30
0.0
210
0.0
220
0.0
230
1.0
  2
SOLID
 70
     1
 71
     0
 91
        1
 92
        1
 93
        1
 72
     4
 94
        3
 73
     0
 74
     1
 95
       26
 96
       22
 40
0.0
 40
0.0
 40
0.0
 40
0.0
 40
1.0
 40
1.0
 40
1.0
 40
2.0
 40
2.0
 40
2.0
 40
3.0
 40
3.0
 40
3.0
 40
4.0
 40
4.0
 40
4.0
 40
5.0
 40
5.0
 40
5.0
 40
6.0
 40
6.0
 40
6.0
 40
7.0
 40
7.0
 40
7.0
 40
7.0
 10
53.2248304445931
 20
-99.23597545262156
 10
53.2248304445931
 20
-99.23597545262156
 10
53.2248304445931
 20
-98.13182234959899
 10
53.2248304445931
 20
-98.13182234959899
 10
53.2248304445931
 20
-98.13182234959899
 10
52.89479029710617
 20
-98.13182234959899
 10
52.89479029710617
 20
-98.13182234959899
 10
52.89479029710617
 20
-98.13182234959899
 10
52.89479029710617
 20
-97.98368324373325
 10
52.89479029710617
 20
-97.98368324373325
 10
53.22689750188425
 20
-97.96886933314667
 10
53.27340629093512
 20
-97.80591631669436
 10
53.30303411210827
 20
-97.69153914658406
 10
53.30303411210827
 20
-97.69153914658406
 10
53.44910616068287
 20
-97.69153914658406
 10
53.44910616068287
 20
-97.69153914658406
 10
53.44910616068287
 20
-97.69153914658406
 10
53.44910616068287
 20
-99.23597545262156
 10
53.44910616068287
 20
-99.23597545262156
 10
53.44910616068287
 20
-99.23597545262156
 10
53.2248304445931
 20
-99.23597545262156
 10
53.2248304445931
 20
-99.23597545262156
 97
        0
 97
        0
 75
     2
 76
     1
 98
        0
  0
SPLINE
  5
97
330
91
100
AcDbEntity
  8
_U+30EC_U+30A4_U+30E4_U+30FC 1
370
     0
100
AcDbSpline
210
0.0
220
0.0
230
1.0
 70
    11
 71
     3
 72
    29
 73
    25
 74
     0
 42
0.0000000001
 43
0.0000000001
 12
1.0
 22
0.0
 32
0.0
 13
1.0
 23
0.0
 33
0.0
 40
0.0
 40
0.0
 40
0.0
 40
0.0
 40
1.0
 40
1.0
 40
1.0
 40
2.0
 40
2.0
 40
2.0
 40
3.0
 40
3.0
 40
3.0
 40
4.0
 40
4.0
 40
4.0
 40
5.0
 40
5.0
 40
5.0
 40
6.0
 40
6.0
 40
6.0
 40
7.0
 40
7.0
 40
7.0
 40
8.0
 40
8.0
 40
8.0
 40
8.0
 10
54.84815943724282
 20
-99.05820852558267
 30
0.0
 10
54.73998343900598
 20
-99.26767033108587
 30
0.0
 10
54.56669513609791
 20
-99.28661835625473
 30
0.0
 10
54.45025090869647
 20
-99.28661835625473
 30
0.0
 10
54.2893649495353
 20
-99.28661835625473
 30
0.0
 10
54.14777152509154
 20
-99.24010956720386
 30
0.0
 10
54.05268688969863
 20
-99.05820852558267
 30
0.0
 10
53.94898951559261
 20
-98.86356063066606
 30
0.0
 10
53.93004149042374
 20
-98.6268825708294
 30
0.0
 10
53.93004149042374
 20
-98.46392955437707
 30
0.0
 10
53.93004149042374
 20
-98.31992456309364
 30
0.0
 10
53.94692245830147
 20
-98.06808808312186
 30
0.0
 10
54.05268688969863
 20
-97.86930607362295
 30
0.0
 10
54.16051837838695
 20
-97.66638994954174
 30
0.0
 10
54.32140433754812
 20
-97.64296330024204
 30
0.0
 10
54.45025090869647
 20
-97.64296330024204
 30
0.0
 10
54.60906981056649
 20
-97.64296330024204
 30
0.0
 10
54.7527302923014
 20
-97.68740503200176
 30
0.0
 10
54.84815943724282
 20
-97.86930607362295
 30
0.0
 10
54.94737818721802
 20
-98.06188691124842
 30
0.0
 10
54.97080483651771
 20
-98.29029674192049
 30
0.0
 10
54.97080483651771
 20
-98.46392955437707
 30
0.0
 10
54.97080483651771
 20
-98.635150799994
 30
0.0
 10
54.94944524450917
 20
-98.86562768795721
 30
0.0
 10
54.84815943724282
 20
-99.05820852558267
 30
0.0
  0
SPLINE
  5
98
330
91
100
AcDbEntity
  8
_U+30EC_U+30A4_U+30E4_U+30FC 1
370
     0
100
AcDbSpline
210
0.0
220
0.0
230
1.0
 70
    11
 71
     3
 72
    17
 73
    13
 74
     0
 42
0.0000000001
 43
0.0000000001
 12
1.0
 22
0.0
 32
0.0
 13
1.0
 23
0.0
 33
0.0
 40
0.0
 40
0.0
 40
0.0
 40
0.0
 40
1.0
 40
1.0
 40
1.0
 40
2.0
 40
2.0
 40
2.0
 40
3.0
 40
3.0
 40
3.0
 40
4.0
 40
4.0
 40
4.0
 40
4.0
 10
54.45025090869647
 20
-97.8355441378675
 30
0.0
 10
54.20082599556438
 20
-97.8355441378675
 30
0.0
 10
54.15397269696498
 20
-98.11907549630357
 30
0.0
 10
54.15397269696498
 20
-98.46392955437707
 30
0.0
 10
54.15397269696498
 20
-98.78328990585973
 30
0.0
 10
54.1901461995601
 20
-99.09197046133812
 30
0.0
 10
54.45025090869647
 20
-99.09197046133812
 30
0.0
 10
54.69795327408593
 20
-99.09197046133812
 30
0.0
 10
54.74652912042795
 20
-98.81085066974174
 30
0.0
 10
54.74652912042795
 20
-98.46392955437707
 30
0.0
 10
54.74652912042795
 20
-98.14422469334589
 30
0.0
 10
54.70828856054168
 20
-97.8355441378675
 30
0.0
 10
54.45025090869647
 20
-97.8355441378675
 30
0.0
  0
HATCH
  5
99
330
91
100
AcDbEntity
  8
_U+30EC_U+30A4_U+30E4_U+30FC 1
 62
   179
420
  2234388
100
AcDbHatch
 10
0.0
 20
0.0
 30
0.0
210
0.0
220
0.0
230
1.0
  2
SOLID
 70
     1
 71
     0
 91
        2
 92
        1
 93
        1
 72
     4
 94
        3
 73
     0
 74
     1
 95
       29
 96
       25
 40
0.0
 40
0.0
 40
0.0
 40
0.0
 40
1.0
 40
1.0
 40
1.0
 40
2.0
 40
2.0
 40
2.0
 40
3.0
 40
3.0
 40
3.0
 40
4.0
 40
4.0
 40
4.0
 40
5.0
 40
5.0
 40
5.0
 40
6.0
 40
6.0
 40
6.0
 40
7.0
 40
7.0
 40
7.0
 40
8.0
 40
8.0
 40
8.0
 40
8.0
 10
54.84815943724282
 20
-99.05820852558267
 10
54.73998343900598
 20
-99.26767033108587
 10
54.56669513609791
 20
-99.28661835625473
 10
54.45025090869647
 20
-99.28661835625473
 10
54.2893649495353
 20
-99.28661835625473
 10
54.14777152509154
 20
-99.24010956720386
 10
54.05268688969863
 20
-99.05820852558267
 10
53.94898951559261
 20
-98.86356063066606
 10
53.93004149042374
 20
-98.6268825708294
 10
53.93004149042374
 20
-98.46392955437707
 10
53.93004149042374
 20
-98.31992456309364
 10
53.94692245830147
 20
-98.06808808312186
 10
54.05268688969863
 20
-97.86930607362295
 10
54.16051837838695
 20
-97.66638994954174
 10
54.32140433754812
 20
-97.64296330024204
 10
54.45025090869647
 20
-97.64296330024204
 10
54.60906981056649
 20
-97.64296330024204
 10
54.7527302923014
 20
-97.68740503200176
 10
54.84815943724282
 20
-97.86930607362295
 10
54.94737818721802
 20
-98.06188691124842
 10
54.97080483651771
 20
-98.29029674192049
 10
54.97080483651771
 20
-98.46392955437707
 10
54.97080483651771
 20
-98.635150799994
 10
54.94944524450917
 20
-98.86562768795721
 10
54.84815943724282
 20
-99.05820852558267
 97
        0
 97
        0
 92
        1
 93
        1
 72
     4
 94
        3
 73
     0
 74
     1
 95
       17
 96
       13
 40
0.0
 40
0.0
 40
0.0
 40
0.0
 40
1.0
 40
1.0
 40
1.0
 40
2.0
 40
2.0
 40
2.0
 40
3.0
 40
3.0
 40
3.0
 40
4.0
 40
4.0
 40
4.0
 40
4.0
 10
54.45025090869647
 20
-97.8355441378675
 10
54.20082599556438
 20
-97.8355441378675
 10
54.15397269696498
 20
-98.11907549630357
 10
54.15397269696498
 20
-98.46392955437707
 10
54.15397269696498
 20
-98.78328990585973
 10
54.1901461995601
 20
-99.09197046133812
 10
54.45025090869647
 20
-99.09197046133812
 10
54.69795327408593
 20
-99.09197046133812
 10
54.74652912042795
 20
-98.81085066974174
 10
54.74652912042795
 20
-98.46392955437707
 10
54.74652912042795
 20
-98.14422469334589
 10
54.70828856054168
 20
-97.8355441378675
 10
54.45025090869647
 20
-97.8355441378675
 97
        0
 97
        0
 75
     2
 76
     1
 98
        0
  0
ENDBLK
  5
94
330
91
100
AcDbEntity
  8
0
100
AcDbBlockEnd
  0
BLOCK
  5
BE
330
BC
100
AcDbEntity
  8
0
100
AcDbBlockBegin
  2
block 6
 70
     0
 10
0.0
 20
0.0
 30
0.0
  3
block 6
  1

  0
SPLINE
  5
C0
330
BC
100
AcDbEntity
  8
_U+30EC_U+30A4_U+30E4_U+30FC 1
370
     0
100
AcDbSpline
210
0.0
220
0.0
230
1.0
 70
    11
 71
     3
 72
    44
 73
    40
 74
     0
 42
0.0000000001
 43
0.0000000001
 12
1.0
 22
0.0
 32
0.0
 13
1.0
 23
0.0
 33
0.0
 40
0.0
 40
0.0
 40
0.0
 40
0.0
 40
1.0
 40
1.0
 40
1.0
 40
2.0
 40
2.0
 40
2.0
 40
3.0
 40
3.0
 40
3.0
 40
4.0
 40
4.0
 40
4.0
 40
5.0
 40
5.0
 40
5.0
 40
6.0
 40
6.0
 40
6.0
 40
7.0
 40
7.0
 40
7.0
 40
8.0
 40
8.0
 40
8.0
 40
9.0
 40
9.0
 40
9.0
 40
10.0
 40
10.0
 40
10.0
 40
11.0
 40
11.0
 40
11.0
 40
12.0
 40
12.0
 40
12.0
 40
13.0
 40
13.0
 40
13.0
 40
13.0
 10
61.20436060752878
 20
-78.59124075726191
 30
0.0
 10
60.98663057286098
 20
-78.75005965913194
 30
0.0
 10
60.89361299475924
 20
-78.8241292120648
 30
0.0
 10
60.84469263886869
 20
-78.96778969379972
 30
0.0
 10
60.84469263886869
 20
-78.96778969379972
 30
0.0
 10
61.62328421853515
 20
-78.96778969379972
 30
0.0
 10
61.62328421853515
 20
-78.96778969379972
 30
0.0
 10
61.62328421853515
 20
-78.96778969379972
 30
0.0
 10
61.62328421853515
 20
-79.17311738472061
 30
0.0
 10
61.62328421853515
 20
-79.17311738472061
 30
0.0
 10
61.62328421853515
 20
-79.17311738472061
 30
0.0
 10
60.5952677257366
 20
-79.17311738472061
 30
0.0
 10
60.5952677257366
 20
-79.17311738472061
 30
0.0
 10
60.6269626042009
 20
-78.81551647335168
 30
0.0
 10
60.69241941842065
 20
-78.73731280583651
 30
0.0
 10
61.07758109367158
 20
-78.43896753681388
 30
0.0
 10
61.33355168822564
 20
-78.24018552731496
 30
0.0
 10
61.39900850244539
 20
-78.17231714625554
 30
0.0
 10
61.39900850244539
 20
-78.03485783639407
 30
0.0
 10
61.39900850244539
 20
-77.91634655170147
 30
0.0
 10
61.32700600680367
 20
-77.78543292326198
 30
0.0
 10
61.1302910545959
 20
-77.78543292326198
 30
0.0
 10
60.87018634545954
 20
-77.78543292326198
 30
0.0
 10
60.86157360674642
 20
-78.0159098112252
 30
0.0
 10
60.85743949216412
 20
-78.13235403862663
 30
0.0
 10
60.85743949216412
 20
-78.13235403862663
 30
0.0
 10
60.63316377607435
 20
-78.13235403862663
 30
0.0
 10
60.63316377607435
 20
-78.13235403862663
 30
0.0
 10
60.64177651478747
 20
-78.00523001522092
 30
0.0
 10
60.65245631079175
 20
-77.8932644119503
 30
0.0
 10
60.73272703559807
 20
-77.77475312725771
 30
0.0
 10
60.84262558157754
 20
-77.61386716809653
 30
0.0
 10
61.02900524732956
 20
-77.58010523234108
 30
0.0
 10
61.14510496518248
 20
-77.58010523234108
 30
0.0
 10
61.42243515174509
 20
-77.58010523234108
 30
0.0
 10
61.62982989995713
 20
-77.76407333125343
 30
0.0
 10
61.62982989995713
 20
-78.03692489368521
 30
0.0
 10
61.62982989995713
 20
-78.2656792339058
 30
0.0
 10
61.51338567255569
 20
-78.36489798388101
 30
0.0
 10
61.20436060752878
 20
-78.59124075726191
 30
0.0
  0
HATCH
  5
C1
330
BC
100
AcDbEntity
  8
_U+30EC_U+30A4_U+30E4_U+30FC 1
 62
   179
420
  2234388
100
AcDbHatch
 10
0.0
 20
0.0
 30
0.0
210
0.0
220
0.0
230
1.0
  2
SOLID
 70
     1
 71
     0
 91
        1
 92
        1
 93
        1
 72
     4
 94
        3
 73
     0
 74
     1
 95
       44
 96
       40
 40
0.0
 40
0.0
 40
0.0
 40
0.0
 40
1.0
 40
1.0
 40
1.0
 40
2.0
 40
2.0
 40
2.0
 40
3.0
 40
3.0
 40
3.0
 40
4.0
 40
4.0
 40
4.0
 40
5.0
 40
5.0
 40
5.0
 40
6.0
 40
6.0
 40
6.0
 40
7.0
 40
7.0
 40
7.0
 40
8.0
 40
8.0
 40
8.0
 40
9.0
 40
9.0
 40
9.0
 40
10.0
 40
10.0
 40
10.0
 40
11.0
 40
11.0
 40
11.0
 40
12.0
 40
12.0
 40
12.0
 40
13.0
 40
13.0
 40
13.0
 40
13.0
 10
61.20436060752878
 20
-78.59124075726191
 10
60.98663057286098
 20
-78.75005965913194
 10
60.89361299475924
 20
-78.8241292120648
 10
60.84469263886869
 20
-78.96778969379972
 10
60.84469263886869
 20
-78.96778969379972
 10
61.62328421853515
 20
-78.96778969379972
 10
61.62328421853515
 20
-78.96778969379972
 10
61.62328421853515
 20
-78.96778969379972
 10
61.62328421853515
 20
-79.17311738472061
 10
61.62328421853515
 20
-79.17311738472061
 10
61.62328421853515
 20
-79.17311738472061
 10
60.5952677257366
 20
-79.17311738472061
 10
60.5952677257366
 20
-79.17311738472061
 10
60.6269626042009
 20
-78.81551647335168
 10
60.69241941842065
 20
-78.73731280583651
 10
61.07758109367158
 20
-78.43896753681388
 10
61.33355168822564
 20
-78.24018552731496
 10
61.39900850244539
 20
-78.17231714625554
 10
61.39900850244539
 20
-78.03485783639407
 10
61.39900850244539
 20
-77.91634655170147
 10
61.32700600680367
 20
-77.78543292326198
 10
61.1302910545959
 20
-77.78543292326198
 10
60.87018634545954
 20
-77.78543292326198
 10
60.86157360674642
 20
-78.0159098112252
 10
60.85743949216412
 20
-78.13235403862663
 10
60.85743949216412
 20
-78.13235403862663
 10
60.63316377607435
 20
-78.13235403862663
 10
60.63316377607435
 20
-78.13235403862663
 10
60.64177651478747
 20
-78.00523001522092
 10
60.65245631079175
 20
-77.8932644119503
 10
60.73272703559807
 20
-77.77475312725771
 10
60.84262558157754
 20
-77.61386716809653
 10
61.02900524732956
 20
-77.58010523234108
 10
61.14510496518248
 20
-77.58010523234108
 10
61.42243515174509
 20
-77.58010523234108
 10
61.62982989995713
 20
-77.76407333125343
 10
61.62982989995713
 20
-78.03692489368521
 10
61.62982989995713
 20
-78.2656792339058
 10
61.51338567255569
 20
-78.36489798388101
 10
61.20436060752878
 20
-78.59124075726191
 97
        0
 97
        0
 75
     2
 76
     1
 98
        0
  0
SPLINE
  5
C2
330
BC
100
AcDbEntity
  8
_U+30EC_U+30A4_U+30E4_U+30FC 1
370
     0
100
AcDbSpline
210
0.0
220
0.0
230
1.0
 70
    11
 71
     3
 72
    62
 73
    58
 74
     0
 42
0.0000000001
 43
0.0000000001
 12
1.0
 22
0.0
 32
0.0
 13
1.0
 23
0.0
 33
0.0
 40
0.0
 40
0.0
 40
0.0
 40
0.0
 40
1.0
 40
1.0
 40
1.0
 40
2.0
 40
2.0
 40
2.0
 40
3.0
 40
3.0
 40
3.0
 40
4.0
 40
4.0
 40
4.0
 40
5.0
 40
5.0
 40
5.0
 40
6.0
 40
6.0
 40
6.0
 40
7.0
 40
7.0
 40
7.0
 40
8.0
 40
8.0
 40
8.0
 40
9.0
 40
9.0
 40
9.0
 40
10.0
 40
10.0
 40
10.0
 40
11.0
 40
11.0
 40
11.0
 40
12.0
 40
12.0
 40
12.0
 40
13.0
 40
13.0
 40
13.0
 40
14.0
 40
14.0
 40
14.0
 40
15.0
 40
15.0
 40
15.0
 40
16.0
 40
16.0
 40
16.0
 40
17.0
 40
17.0
 40
17.0
 40
18.0
 40
18.0
 40
18.0
 40
19.0
 40
19.0
 40
19.0
 40
19.0
 10
62.27991941802377
 20
-79.22376028835379
 30
0.0
 10
62.18449027308235
 20
-79.22376028835379
 30
0.0
 10
61.96676023841457
 20
-79.20274520589376
 30
0.0
 10
61.84170327229999
 20
-79.01671004969027
 30
0.0
 10
61.76763371936712
 20
-78.90439993687113
 30
0.0
 10
61.76349960478482
 20
-78.80518118689594
 30
0.0
 10
61.75936549020252
 20
-78.72043183795878
 30
0.0
 10
61.75936549020252
 20
-78.72043183795878
 30
0.0
 10
61.97950709170999
 20
-78.72043183795878
 30
0.0
 10
61.97950709170999
 20
-78.72043183795878
 30
0.0
 10
61.98157414900114
 20
-78.79450139089165
 30
0.0
 10
61.99190943545689
 20
-79.02911239343717
 30
0.0
 10
62.27544079389295
 20
-79.02911239343717
 30
0.0
 10
62.41290010375442
 20
-79.02911239343717
 30
0.0
 10
62.56551783375098
 20
-78.95952146463512
 30
0.0
 10
62.56551783375098
 20
-78.73111163396305
 30
0.0
 10
62.56551783375098
 20
-78.61466740656161
 30
0.0
 10
62.52727727386471
 20
-78.56609156021959
 30
0.0
 10
62.49558239540041
 20
-78.5343966817553
 30
0.0
 10
62.42151284246754
 20
-78.46032712882243
 30
0.0
 10
62.3050686150661
 20
-78.447580275527
 30
0.0
 10
62.25029159685062
 20
-78.447580275527
 30
0.0
 10
62.23099906213322
 20
-78.447580275527
 30
0.0
 10
62.19517006908663
 20
-78.44964733281815
 30
0.0
 10
62.16760930520463
 20
-78.45378144740044
 30
0.0
 10
62.16760930520463
 20
-78.45378144740044
 30
0.0
 10
62.16760930520463
 20
-78.25913355248383
 30
0.0
 10
62.16760930520463
 20
-78.25913355248383
 30
0.0
 10
62.2058498650909
 20
-78.2656792339058
 30
0.0
 10
62.24788003001095
 20
-78.26774629119696
 30
0.0
 10
62.25442571143292
 20
-78.26774629119696
 30
0.0
 10
62.31988252565267
 20
-78.26774629119696
 30
0.0
 10
62.51866453515159
 20
-78.2463866991884
 30
0.0
 10
62.51866453515159
 20
-78.00970863935174
 30
0.0
 10
62.51866453515159
 20
-77.83194171231285
 30
0.0
 10
62.38775090671209
 20
-77.77682018454885
 30
0.0
 10
62.2775078511841
 20
-77.77682018454885
 30
0.0
 10
62.01326902746543
 20
-77.77682018454885
 30
0.0
 10
62.00465628875231
 20
-78.00970863935174
 30
0.0
 10
62.00052217417001
 20
-78.08136662544494
 30
0.0
 10
62.00052217417001
 20
-78.08136662544494
 30
0.0
 10
61.79726154054027
 20
-78.08136662544494
 30
0.0
 10
61.79726154054027
 20
-78.08136662544494
 30
0.0
 10
61.80587427925339
 20
-77.9566541688789
 30
0.0
 10
61.8334350431354
 20
-77.58010523234108
 30
0.0
 10
62.29025470447952
 20
-77.58010523234108
 30
0.0
 10
62.51453042056929
 20
-77.58010523234108
 30
0.0
 10
62.75568710453678
 20
-77.70722925574681
 30
0.0
 10
62.75568710453678
 20
-78.00316295792977
 30
0.0
 10
62.75568710453678
 20
-78.18954262368179
 30
0.0
 10
62.66060246914388
 20
-78.27188040577926
 30
0.0
 10
62.56103920962016
 20
-78.3332031054167
 30
0.0
 10
62.62236190925761
 20
-78.36076386929871
 30
0.0
 10
62.8042629508788
 20
-78.44103459410502
 30
0.0
 10
62.8042629508788
 20
-78.71836478066763
 30
0.0
 10
62.8042629508788
 20
-79.05667315731917
 30
0.0
 10
62.55690509503786
 20
-79.22376028835379
 30
0.0
 10
62.27991941802377
 20
-79.22376028835379
 30
0.0
  0
HATCH
  5
C3
330
BC
100
AcDbEntity
  8
_U+30EC_U+30A4_U+30E4_U+30FC 1
 62
   179
420
  2234388
100
AcDbHatch
 10
0.0
 20
0.0
 30
0.0
210
0.0
220
0.0
230
1.0
  2
SOLID
 70
     1
 71
     0
 91
        1
 92
        1
 93
        1
 72
     4
 94
        3
 73
     0
 74
     1
 95
       62
 96
       58
 40
0.0
 40
0.0
 40
0.0
 40
0.0
 40
1.0
 40
1.0
 40
1.0
 40
2.0
 40
2.0
 40
2.0
 40
3.0
 40
3.0
 40
3.0
 40
4.0
 40
4.0
 40
4.0
 40
5.0
 40
5.0
 40
5.0
 40
6.0
 40
6.0
 40
6.0
 40
7.0
 40
7.0
 40
7.0
 40
8.0
 40
8.0
 40
8.0
 40
9.0
 40
9.0
 40
9.0
 40
10.0
 40
10.0
 40
10.0
 40
11.0
 40
11.0
 40
11.0
 40
12.0
 40
12.0
 40
12.0
 40
13.0
 40
13.0
 40
13.0
 40
14.0
 40
14.0
 40
14.0
 40
15.0
 40
15.0
 40
15.0
 40
16.0
 40
16.0
 40
16.0
 40
17.0
 40
17.0
 40
17.0
 40
18.0
 40
18.0
 40
18.0
 40
19.0
 40
19.0
 40
19.0
 40
19.0
 10
62.27991941802377
 20
-79.22376028835379
 10
62.18449027308235
 20
-79.22376028835379
 10
61.96676023841457
 20
-79.20274520589376
 10
61.84170327229999
 20
-79.01671004969027
 10
61.76763371936712
 20
-78.90439993687113
 10
61.76349960478482
 20
-78.80518118689594
 10
61.75936549020252
 20
-78.72043183795878
 10
61.75936549020252
 20
-78.72043183795878
 10
61.97950709170999
 20
-78.72043183795878
 10
61.97950709170999
 20
-78.72043183795878
 10
61.98157414900114
 20
-78.79450139089165
 10
61.99190943545689
 20
-79.02911239343717
 10
62.27544079389295
 20
-79.02911239343717
 10
62.41290010375442
 20
-79.02911239343717
 10
62.56551783375098
 20
-78.95952146463512
 10
62.56551783375098
 20
-78.73111163396305
 10
62.56551783375098
 20
-78.61466740656161
 10
62.52727727386471
 20
-78.56609156021959
 10
62.49558239540041
 20
-78.5343966817553
 10
62.42151284246754
 20
-78.46032712882243
 10
62.3050686150661
 20
-78.447580275527
 10
62.25029159685062
 20
-78.447580275527
 10
62.23099906213322
 20
-78.447580275527
 10
62.19517006908663
 20
-78.44964733281815
 10
62.16760930520463
 20
-78.45378144740044
 10
62.16760930520463
 20
-78.45378144740044
 10
62.16760930520463
 20
-78.25913355248383
 10
62.16760930520463
 20
-78.25913355248383
 10
62.2058498650909
 20
-78.2656792339058
 10
62.24788003001095
 20
-78.26774629119696
 10
62.25442571143292
 20
-78.26774629119696
 10
62.31988252565267
 20
-78.26774629119696
 10
62.51866453515159
 20
-78.2463866991884
 10
62.51866453515159
 20
-78.00970863935174
 10
62.51866453515159
 20
-77.83194171231285
 10
62.38775090671209
 20
-77.77682018454885
 10
62.2775078511841
 20
-77.77682018454885
 10
62.01326902746543
 20
-77.77682018454885
 10
62.00465628875231
 20
-78.00970863935174
 10
62.00052217417001
 20
-78.08136662544494
 10
62.00052217417001
 20
-78.08136662544494
 10
61.79726154054027
 20
-78.08136662544494
 10
61.79726154054027
 20
-78.08136662544494
 10
61.80587427925339
 20
-77.9566541688789
 10
61.8334350431354
 20
-77.58010523234108
 10
62.29025470447952
 20
-77.58010523234108
 10
62.51453042056929
 20
-77.58010523234108
 10
62.75568710453678
 20
-77.70722925574681
 10
62.75568710453678
 20
-78.00316295792977
 10
62.75568710453678
 20
-78.18954262368179
 10
62.66060246914388
 20
-78.27188040577926
 10
62.56103920962016
 20
-78.3332031054167
 10
62.62236190925761
 20
-78.36076386929871
 10
62.8042629508788
 20
-78.44103459410502
 10
62.8042629508788
 20
-78.71836478066763
 10
62.8042629508788
 20
-79.05667315731917
 10
62.55690509503786
 20
-79.22376028835379
 10
62.27991941802377
 20
-79.22376028835379
 97
        0
 97
        0
 75
     2
 76
     1
 98
        0
  0
ENDBLK
  5
BF
330
BC
100
AcDbEntity
  8
0
100
AcDbBlockEnd
  0
ENDSEC
  0
SECTION
  2
ENTITIES
  0
SPLINE
  5
41
330
1F
100
AcDbEntity
  8
_U+30EC_U+30A4_U+30E4_U+30FC 1
 62
   179
420
  2234388
370
     9
100
AcDbSpline
210
0.0
220
0.0
230
1.0
 70
    11
 71
     3
 72
    17
 73
    13
 74
     0
 42
0.0000000001
 43
0.0000000001
 12
1.0
 22
0.0
 32
0.0
 13
1.0
 23
0.0
 33
0.0
 40
0.0
 40
0.0
 40
0.0
 40
0.0
 40
1.0
 40
1.0
 40
1.0
 40
2.0
 40
2.0
 40
2.0
 40
3.0
 40
3.0
 40
3.0
 40
4.0
 40
4.0
 40
4.0
 40
4.0
 10
59.00500988354568
 20
-99.83300664170855
 30
0.0
 10
59.00500988354568
 20
-99.777902752833
 30
0.0
 10
58.96020710691091
 20
-99.73309997506692
 30
0.0
 10
58.90510321942784
 20
-99.73309997506692
 30
0.0
 10
58.85031683193667
 20
-99.73309997506692
 30
0.0
 10
58.80519655531
 20
-99.777902752833
 30
0.0
 10
58.80519655531
 20
-99.83300664170855
 30
0.0
 10
58.80519655531
 20
-99.88814580836099
 30
0.0
 10
58.85031683193667
 20
-99.9329133083502
 30
0.0
 10
58.90510321942784
 20
-99.9329133083502
 30
0.0
 10
58.96020710691091
 20
-99.9329133083502
 30
0.0
 10
59.00500988354568
 20
-99.88814580836099
 30
0.0
 10
59.00500988354568
 20
-99.83300664170855
 30
0.0
  0
SPLINE
  5
42
330
1F
100
AcDbEntity
  8
_U+30EC_U+30A4_U+30E4_U+30FC 1
 62
   179
420
  2234388
370
     9
100
AcDbSpline
210
0.0
220
0.0
230
1.0
 70
    11
 71
     3
 72
    17
 73
    13
 74
     0
 42
0.0000000001
 43
0.0000000001
 12
1.0
 22
0.0
 32
0.0
 13
1.0
 23
0.0
 33
0.0
 40
0.0
 40
0.0
 40
0.0
 40
0.0
 40
1.0
 40
1.0
 40
1.0
 40
2.0
 40
2.0
 40
2.0
 40
3.0
 40
3.0
 40
3.0
 40
4.0
 40
4.0
 40
4.0
 40
4.0
 10
49.00580624975773
 20
-99.83300664170855
 30
0.0
 10
49.00580624975773
 20
-99.777902752833
 30
0.0
 10
48.96100347312296
 20
-99.73309997506692
 30
0.0
 10
48.90519403010234
 20
-99.73309997506692
 30
0.0
 10
48.85009014261926
 20
-99.73309997506692
 30
0.0
 10
48.8052873659845
 20
-99.777902752833
 30
0.0
 10
48.8052873659845
 20
-99.83300664170855
 30
0.0
 10
48.8052873659845
 20
-99.88814580836099
 30
0.0
 10
48.85009014261926
 20
-99.9329133083502
 30
0.0
 10
48.90519403010234
 20
-99.9329133083502
 30
0.0
 10
48.96100347312296
 20
-99.9329133083502
 30
0.0
 10
49.00580624975773
 20
-99.88814580836099
 30
0.0
 10
49.00580624975773
 20
-99.83300664170855
 30
0.0
  0
SPLINE
  5
43
330
1F
100
AcDbEntity
  8
_U+30EC_U+30A4_U+30E4_U+30FC 1
 62
   179
420
  2234388
370
     9
100
AcDbSpline
210
0.0
220
0.0
230
1.0
 70
    11
 71
     3
 72
    17
 73
    13
 74
     0
 42
0.0000000001
 43
0.0000000001
 12
1.0
 22
0.0
 32
0.0
 13
1.0
 23
0.0
 33
0.0
 40
0.0
 40
0.0
 40
0.0
 40
0.0
 40
1.0
 40
1.0
 40
1.0
 40
2.0
 40
2.0
 40
2.0
 40
3.0
 40
3.0
 40
3.0
 40
4.0
 40
4.0
 40
4.0
 40
4.0
 10
77.09019747770965
 20
-95.83257719826432
 30
0.0
 10
77.09019747770965
 20
-95.88768108713923
 30
0.0
 10
77.13500025434442
 20
-95.93248386490595
 30
0.0
 10
77.19010414182749
 20
-95.93248386490595
 30
0.0
 10
77.24524330708743
 20
-95.93248386490595
 30
0.0
 10
77.29001080594533
 20
-95.88768108713923
 30
0.0
 10
77.29001080594533
 20
-95.83257719826432
 30
0.0
 10
77.29001080594533
 20
-95.77743803161124
 30
0.0
 10
77.24524330708743
 20
-95.73267053162267
 30
0.0
 10
77.19010414182749
 20
-95.73267053162267
 30
0.0
 10
77.13500025434442
 20
-95.73267053162267
 30
0.0
 10
77.09019747770965
 20
-95.77743803161124
 30
0.0
 10
77.09019747770965
 20
-95.83257719826432
 30
0.0
  0
SPLINE
  5
44
330
1F
100
AcDbEntity
  8
_U+30EC_U+30A4_U+30E4_U+30FC 1
 62
   179
420
  2234388
370
     9
100
AcDbSpline
210
0.0
220
0.0
230
1.0
 70
    11
 71
     3
 72
    17
 73
    13
 74
     0
 42
0.0000000001
 43
0.0000000001
 12
1.0
 22
0.0
 32
0.0
 13
1.0
 23
0.0
 33
0.0
 40
0.0
 40
0.0
 40
0.0
 40
0.0
 40
1.0
 40
1.0
 40
1.0
 40
2.0
 40
2.0
 40
2.0
 40
3.0
 40
3.0
 40
3.0
 40
4.0
 40
4.0
 40
4.0
 40
4.0
 10
77.09019747770965
 20
-82.52967997936756
 30
0.0
 10
77.09019747770965
 20
-82.5847838682428
 30
0.0
 10
77.13500025434442
 20
-82.62958664600919
 30
0.0
 10
77.19010414182749
 20
-82.62958664600919
 30
0.0
 10
77.24524330708743
 20
-82.62958664600919
 30
0.0
 10
77.29001080594533
 20
-82.5847838682428
 30
0.0
 10
77.29001080594533
 20
-82.52967997936756
 30
0.0
 10
77.29001080594533
 20
-82.4738705349371
 30
0.0
 10
77.24524330708743
 20
-82.42906775717039
 30
0.0
 10
77.19010414182749
 20
-82.42906775717039
 30
0.0
 10
77.13500025434442
 20
-82.42906775717039
 30
0.0
 10
77.09019747770965
 20
-82.4738705349371
 30
0.0
 10
77.09019747770965
 20
-82.52967997936756
 30
0.0
  0
POLYLINE
  5
45
330
1F
100
AcDbEntity
  8
_U+30EC_U+30A4_U+30E4_U+30FC 1
 62
   179
420
  2234388
370
     9
100
AcDb2dPolyline
 66
     1
 10
0.0
 20
0.0
 30
0.0
  0
VERTEX
  5
46
330
45
100
AcDbEntity
  8
_U+30EC_U+30A4_U+30E4_U+30FC 1
 62
   179
420
  2234388
370
     9
100
AcDbVertex
100
AcDb2dVertex
 10
77.19010414182749
 20
-78.76211914697622
 30
0.0
  0
VERTEX
  5
47
330
45
100
AcDbEntity
  8
_U+30EC_U+30A4_U+30E4_U+30FC 1
 62
   179
420
  2234388
370
     9
100
AcDbVertex
100
AcDb2dVertex
 10
77.19010414182749
 20
-95.83257719826432
 30
0.0
  0
SEQEND
  5
48
330
45
100
AcDbEntity
  8
_U+30EC_U+30A4_U+30E4_U+30FC 1
 62
   179
420
  2234388
370
     9
  0
POLYLINE
  5
49
330
1F
100
AcDbEntity
  8
_U+30EC_U+30A4_U+30E4_U+30FC 1
 62
   179
420
  2234388
370
     9
100
AcDb2dPolyline
 66
     1
 10
0.0
 20
0.0
 30
0.0
  0
VERTEX
  5
4A
330
49
100
AcDbEntity
  8
_U+30EC_U+30A4_U+30E4_U+30FC 1
 62
   179
420
  2234388
370
     9
100
AcDbVertex
100
AcDb2dVertex
 10
60.03974235714745
 20
-95.83257719826432
 30
0.0
  0
VERTEX
  5
4B
330
49
100
AcDbEntity
  8
_U+30EC_U+30A4_U+30E4_U+30FC 1
 62
   179
420
  2234388
370
     9
100
AcDbVertex
100
AcDb2dVertex
 10
78.1898763385434
 20
-95.83257719826432
 30
0.0
  0
SEQEND
  5
4C
330
49
100
AcDbEntity
  8
_U+30EC_U+30A4_U+30E4_U+30FC 1
 62
   179
420
  2234388
370
     9
  0
SPLINE
  5
4D
330
1F
100
AcDbEntity
  8
_U+30EC_U+30A4_U+30E4_U+30FC 1
 62
   179
420
  2234388
370
     9
100
AcDbSpline
210
0.0
220
0.0
230
1.0
 70
    11
 71
     3
 72
    17
 73
    13
 74
     0
 42
0.0000000001
 43
0.0000000001
 12
1.0
 22
0.0
 32
0.0
 13
1.0
 23
0.0
 33
0.0
 40
0.0
 40
0.0
 40
0.0
 40
0.0
 40
1.0
 40
1.0
 40
1.0
 40
2.0
 40
2.0
 40
2.0
 40
3.0
 40
3.0
 40
3.0
 40
4.0
 40
4.0
 40
4.0
 40
4.0
 10
77.09019747770965
 20
-92.83259025456933
 30
0.0
 10
77.09019747770965
 20
-92.88769414344489
 30
0.0
 10
77.13500025434442
 20
-92.93249692121161
 30
0.0
 10
77.19010414182749
 20
-92.93249692121161
 30
0.0
 10
77.24524330708743
 20
-92.93249692121161
 30
0.0
 10
77.29001080594533
 20
-92.88769414344489
 30
0.0
 10
77.29001080594533
 20
-92.83259025456933
 30
0.0
 10
77.29001080594533
 20
-92.77745108791689
 30
0.0
 10
77.24524330708743
 20
-92.7326835879277
 30
0.0
 10
77.19010414182749
 20
-92.7326835879277
 30
0.0
 10
77.13500025434442
 20
-92.7326835879277
 30
0.0
 10
77.09019747770965
 20
-92.77745108791689
 30
0.0
 10
77.09019747770965
 20
-92.83259025456933
 30
0.0
  0
POLYLINE
  5
4E
330
1F
100
AcDbEntity
  8
_U+30EC_U+30A4_U+30E4_U+30FC 1
 62
   179
420
  2234388
370
     9
100
AcDb2dPolyline
 66
     1
 10
0.0
 20
0.0
 30
0.0
  0
VERTEX
  5
4F
330
4E
100
AcDbEntity
  8
_U+30EC_U+30A4_U+30E4_U+30FC 1
 62
   179
420
  2234388
370
     9
100
AcDbVertex
100
AcDb2dVertex
 10
60.03974235714745
 20
-92.83259025456933
 30
0.0
  0
VERTEX
  5
50
330
4E
100
AcDbEntity
  8
_U+30EC_U+30A4_U+30E4_U+30FC 1
 62
   179
420
  2234388
370
     9
100
AcDbVertex
100
AcDb2dVertex
 10
78.1898763385434
 20
-92.83259025456933
 30
0.0
  0
SEQEND
  5
51
330
4E
100
AcDbEntity
  8
_U+30EC_U+30A4_U+30E4_U+30FC 1
 62
   179
420
  2234388
370
     9
  0
POLYLINE
  5
52
330
1F
100
AcDbEntity
  8
_U+30EC_U+30A4_U+30E4_U+30FC 1
 62
   179
420
  2234388
370
     9
100
AcDb2dPolyline
 66
     1
 10
0.0
 20
0.0
 30
0.0
  0
VERTEX
  5
53
330
52
100
AcDbEntity
  8
_U+30EC_U+30A4_U+30E4_U+30FC 1
 62
   179
420
  2234388
370
     9
100
AcDbVertex
100
AcDb2dVertex
 10
75.73009998106735
 20
-82.53243164603364
 30
0.0
  0
VERTEX
  5
54
330
52
100
AcDbEntity
  8
_U+30EC_U+30A4_U+30E4_U+30FC 1
 62
   179
420
  2234388
370
     9
100
AcDbVertex
100
AcDb2dVertex
 10
78.1898763385434
 20
-82.53243164603364
 30
0.0
  0
SEQEND
  5
55
330
52
100
AcDbEntity
  8
_U+30EC_U+30A4_U+30E4_U+30FC 1
 62
   179
420
  2234388
370
     9
  0
SPLINE
  5
56
330
1F
100
AcDbEntity
  8
_U+30EC_U+30A4_U+30E4_U+30FC 1
 62
   179
420
  2234388
370
     9
100
AcDbSpline
210
0.0
220
0.0
230
1.0
 70
    11
 71
     3
 72
    17
 73
    13
 74
     0
 42
0.0000000001
 43
0.0000000001
 12
1.0
 22
0.0
 32
0.0
 13
1.0
 23
0.0
 33
0.0
 40
0.0
 40
0.0
 40
0.0
 40
0.0
 40
1.0
 40
1.0
 40
1.0
 40
2.0
 40
2.0
 40
2.0
 40
3.0
 40
3.0
 40
3.0
 40
4.0
 40
4.0
 40
4.0
 40
4.0
 10
77.09019747770965
 20
-83.32963886805649
 30
0.0
 10
77.09019747770965
 20
-83.38474275693173
 30
0.0
 10
77.13500025434442
 20
-83.42954553469814
 30
0.0
 10
77.19010414182749
 20
-83.42954553469814
 30
0.0
 10
77.24524330708743
 20
-83.42954553469814
 30
0.0
 10
77.29001080594533
 20
-83.38474275693173
 30
0.0
 10
77.29001080594533
 20
-83.32963886805649
 30
0.0
 10
77.29001080594533
 20
-83.27382942362605
 30
0.0
 10
77.24524330708743
 20
-83.22902664585934
 30
0.0
 10
77.19010414182749
 20
-83.22902664585934
 30
0.0
 10
77.13500025434442
 20
-83.22902664585934
 30
0.0
 10
77.09019747770965
 20
-83.27382942362605
 30
0.0
 10
77.09019747770965
 20
-83.32963886805649
 30
0.0
  0
POLYLINE
  5
57
330
1F
100
AcDbEntity
  8
_U+30EC_U+30A4_U+30E4_U+30FC 1
 62
   179
420
  2234388
370
     9
100
AcDb2dPolyline
 66
     1
 10
0.0
 20
0.0
 30
0.0
  0
VERTEX
  5
58
330
57
100
AcDbEntity
  8
_U+30EC_U+30A4_U+30E4_U+30FC 1
 62
   179
420
  2234388
370
     9
100
AcDbVertex
100
AcDb2dVertex
 10
75.73009998106735
 20
-83.33239053472259
 30
0.0
  0
VERTEX
  5
59
330
57
100
AcDbEntity
  8
_U+30EC_U+30A4_U+30E4_U+30FC 1
 62
   179
420
  2234388
370
     9
100
AcDbVertex
100
AcDb2dVertex
 10
78.1898763385434
 20
-83.33239053472259
 30
0.0
  0
SEQEND
  5
5A
330
57
100
AcDbEntity
  8
_U+30EC_U+30A4_U+30E4_U+30FC 1
 62
   179
420
  2234388
370
     9
  0
INSERT
  5
5C
330
1F
100
AcDbEntity
  8
_U+30EC_U+30A4_U+30E4_U+30FC 1
100
AcDbBlockReference
  2
block 2
 10
0.0
 20
0.0
 30
0.0
  0
INSERT
  5
6D
330
1F
100
AcDbEntity
  8
_U+30EC_U+30A4_U+30E4_U+30FC 1
100
AcDbBlockReference
  2
block 3
 10
0.0
 20
0.0
 30
0.0
  0
INSERT
  5
80
330
1F
100
AcDbEntity
  8
_U+30EC_U+30A4_U+30E4_U+30FC 1
100
AcDbBlockReference
  2
block 4
 10
0.0
 20
0.0
 30
0.0
  0
POLYLINE
  5
85
330
1F
100
AcDbEntity
  8
_U+30EC_U+30A4_U+30E4_U+30FC 1
 62
   179
420
  2234388
370
     9
100
AcDb2dPolyline
 66
     1
 10
0.0
 20
0.0
 30
0.0
  0
VERTEX
  5
86
330
85
100
AcDbEntity
  8
_U+30EC_U+30A4_U+30E4_U+30FC 1
 62
   179
420
  2234388
370
     9
100
AcDbVertex
100
AcDb2dVertex
 10
48.90519403010234
 20
-99.83300664170855
 30
0.0
  0
VERTEX
  5
87
330
85
100
AcDbEntity
  8
_U+30EC_U+30A4_U+30E4_U+30FC 1
 62
   179
420
  2234388
370
     9
100
AcDbVertex
100
AcDb2dVertex
 10
58.90510321942784
 20
-99.83300664170855
 30
0.0
  0
SEQEND
  5
88
330
85
100
AcDbEntity
  8
_U+30EC_U+30A4_U+30E4_U+30FC 1
 62
   179
420
  2234388
370
     9
  0
POLYLINE
  5
89
330
1F
100
AcDbEntity
  8
_U+30EC_U+30A4_U+30E4_U+30FC 1
 62
   179
420
  2234388
370
     9
100
AcDb2dPolyline
 66
     1
 10
0.0
 20
0.0
 30
0.0
  0
VERTEX
  5
8A
330
89
100
AcDbEntity
  8
_U+30EC_U+30A4_U+30E4_U+30FC 1
 62
   179
420
  2234388
370
     9
100
AcDbVertex
100
AcDb2dVertex
 10
48.90519403010234
 20
-97.37252275343495
 30
0.0
  0
VERTEX
  5
8B
330
89
100
AcDbEntity
  8
_U+30EC_U+30A4_U+30E4_U+30FC 1
 62
   179
420
  2234388
370
     9
100
AcDbVertex
100
AcDb2dVertex
 10
48.90519403010234
 20
-100.8327788636805
 30
0.0
  0
SEQEND
  5
8C
330
89
100
AcDbEntity
  8
_U+30EC_U+30A4_U+30E4_U+30FC 1
 62
   179
420
  2234388
370
     9
  0
POLYLINE
  5
8D
330
1F
100
AcDbEntity
  8
_U+30EC_U+30A4_U+30E4_U+30FC 1
 62
   179
420
  2234388
370
     9
100
AcDb2dPolyline
 66
     1
 10
0.0
 20
0.0
 30
0.0
  0
VERTEX
  5
8E
330
8D
100
AcDbEntity
  8
_U+30EC_U+30A4_U+30E4_U+30FC 1
 62
   179
420
  2234388
370
     9
100
AcDbVertex
100
AcDb2dVertex
 10
58.90527960831223
 20
-97.37252275343495
 30
0.0
  0
VERTEX
  5
8F
330
8D
100
AcDbEntity
  8
_U+30EC_U+30A4_U+30E4_U+30FC 1
 62
   179
420
  2234388
370
     9
100
AcDbVertex
100
AcDb2dVertex
 10
58.90527960831223
 20
-100.8327788636805
 30
0.0
  0
SEQEND
  5
90
330
8D
100
AcDbEntity
  8
_U+30EC_U+30A4_U+30E4_U+30FC 1
 62
   179
420
  2234388
370
     9
  0
INSERT
  5
92
330
1F
100
AcDbEntity
  8
_U+30EC_U+30A4_U+30E4_U+30FC 1
100
AcDbBlockReference
  2
block 5
 10
0.0
 20
0.0
 30
0.0
  0
POLYLINE
  5
9A
330
1F
100
AcDbEntity
  8
_U+30EC_U+30A4_U+30E4_U+30FC 1
 62
   179
420
  2234388
370
    25
100
AcDb2dPolyline
 66
     1
 10
0.0
 20
0.0
 30
0.0
  0
VERTEX
  5
9B
330
9A
100
AcDbEntity
  8
_U+30EC_U+30A4_U+30E4_U+30FC 1
 62
   179
420
  2234388
370
    25
100
AcDbVertex
100
AcDb2dVertex
 10
73.1896747994425
 20
-83.33239053472259
 30
0.0
  0
VERTEX
  5
9C
330
9A
100
AcDbEntity
  8
_U+30EC_U+30A4_U+30E4_U+30FC 1
 62
   179
420
  2234388
370
    25
100
AcDbVertex
100
AcDb2dVertex
 10
73.1896747994425
 20
-82.53243164603364
 30
0.0
  0
VERTEX
  5
9D
330
9A
100
AcDbEntity
  8
_U+30EC_U+30A4_U+30E4_U+30FC 1
 62
   179
420
  2234388
370
    25
100
AcDbVertex
100
AcDb2dVertex
 10
50.18969443189718
 20
-82.53243164603364
 30
0.0
  0
VERTEX
  5
9E
330
9A
100
AcDbEntity
  8
_U+30EC_U+30A4_U+30E4_U+30FC 1
 62
   179
420
  2234388
370
    25
100
AcDbVertex
100
AcDb2dVertex
 10
49.39008707328723
 20
-95.03261830957504
 30
0.0
  0
VERTEX
  5
9F
330
9A
100
AcDbEntity
  8
_U+30EC_U+30A4_U+30E4_U+30FC 1
 62
   179
420
  2234388
370
    25
100
AcDbVertex
100
AcDb2dVertex
 10
48.88970832111092
 20
-95.03261830957504
 30
0.0
  0
VERTEX
  5
A0
330
9A
100
AcDbEntity
  8
_U+30EC_U+30A4_U+30E4_U+30FC 1
 62
   179
420
  2234388
370
    25
100
AcDbVertex
100
AcDb2dVertex
 10
48.88970832111092
 20
-95.83257719826432
 30
0.0
  0
VERTEX
  5
A1
330
9A
100
AcDbEntity
  8
_U+30EC_U+30A4_U+30E4_U+30FC 1
 62
   179
420
  2234388
370
    25
100
AcDbVertex
100
AcDb2dVertex
 10
58.88975738648601
 20
-95.83257719826432
 30
0.0
  0
VERTEX
  5
A2
330
9A
100
AcDbEntity
  8
_U+30EC_U+30A4_U+30E4_U+30FC 1
 62
   179
420
  2234388
370
    25
100
AcDbVertex
100
AcDb2dVertex
 10
58.88975738648601
 20
-92.83259025456933
 30
0.0
  0
VERTEX
  5
A3
330
9A
100
AcDbEntity
  8
_U+30EC_U+30A4_U+30E4_U+30FC 1
 62
   179
420
  2234388
370
    25
100
AcDbVertex
100
AcDb2dVertex
 10
54.88985721075419
 20
-92.83259025456933
 30
0.0
  0
VERTEX
  5
A4
330
9A
100
AcDbEntity
  8
_U+30EC_U+30A4_U+30E4_U+30FC 1
 62
   179
420
  2234388
370
    25
100
AcDbVertex
100
AcDb2dVertex
 10
54.88985721075419
 20
-93.63251386548107
 30
0.0
  0
VERTEX
  5
A5
330
9A
100
AcDbEntity
  8
_U+30EC_U+30A4_U+30E4_U+30FC 1
 62
   179
420
  2234388
370
    25
100
AcDbVertex
100
AcDb2dVertex
 10
58.08983379578265
 20
-93.63251386548107
 30
0.0
  0
VERTEX
  5
A6
330
9A
100
AcDbEntity
  8
_U+30EC_U+30A4_U+30E4_U+30FC 1
 62
   179
420
  2234388
370
    25
100
AcDbVertex
100
AcDb2dVertex
 10
58.08983379578265
 20
-95.03261830957504
 30
0.0
  0
VERTEX
  5
A7
330
9A
100
AcDbEntity
  8
_U+30EC_U+30A4_U+30E4_U+30FC 1
 62
   179
420
  2234388
370
    25
100
AcDbVertex
100
AcDb2dVertex
 10
50.19004720967462
 20
-95.03261830957504
 30
0.0
  0
VERTEX
  5
A8
330
9A
100
AcDbEntity
  8
_U+30EC_U+30A4_U+30E4_U+30FC 1
 62
   179
420
  2234388
370
    25
100
AcDbVertex
100
AcDb2dVertex
 10
50.59743370915192
 20
-89.07466025550914
 30
0.0
  0
VERTEX
  5
A9
330
9A
100
AcDbEntity
  8
_U+30EC_U+30A4_U+30E4_U+30FC 1
 62
   179
420
  2234388
370
    25
100
AcDbVertex
100
AcDb2dVertex
 10
51.33586943161056
 20
-88.33604942236035
 30
0.0
  0
VERTEX
  5
AA
330
9A
100
AcDbEntity
  8
_U+30EC_U+30A4_U+30E4_U+30FC 1
 62
   179
420
  2234388
370
    25
100
AcDbVertex
100
AcDb2dVertex
 10
50.69197815118434
 20
-87.69180664474379
 30
0.0
  0
VERTEX
  5
AB
330
9A
100
AcDbEntity
  8
_U+30EC_U+30A4_U+30E4_U+30FC 1
 62
   179
420
  2234388
370
    25
100
AcDbVertex
100
AcDb2dVertex
 10
50.99000481024771
 20
-83.33239053472259
 30
0.0
  0
VERTEX
  5
AC
330
9A
100
AcDbEntity
  8
_U+30EC_U+30A4_U+30E4_U+30FC 1
 62
   179
420
  2234388
370
    25
100
AcDbVertex
100
AcDb2dVertex
 10
73.1896747994425
 20
-83.33239053472259
 30
0.0
  0
SEQEND
  5
AD
330
9A
100
AcDbEntity
  8
_U+30EC_U+30A4_U+30E4_U+30FC 1
 62
   179
420
  2234388
370
    25
  0
SPLINE
  5
AE
330
1F
100
AcDbEntity
  8
_U+30EC_U+30A4_U+30E4_U+30FC 1
 62
   179
420
  2234388
370
     9
100
AcDbSpline
210
0.0
220
0.0
230
1.0
 70
    11
 71
     3
 72
    17
 73
    13
 74
     0
 42
0.0000000001
 43
0.0000000001
 12
1.0
 22
0.0
 32
0.0
 13
1.0
 23
0.0
 33
0.0
 40
0.0
 40
0.0
 40
0.0
 40
0.0
 40
1.0
 40
1.0
 40
1.0
 40
2.0
 40
2.0
 40
2.0
 40
3.0
 40
3.0
 40
3.0
 40
4.0
 40
4.0
 40
4.0
 40
4.0
 10
50.18986955288309
 20
-79.65231859119812
 30
0.0
 10
50.13476566540002
 20
-79.65231859119812
 30
0.0
 10
50.08996288876525
 20
-79.69712136896453
 30
0.0
 10
50.08996288876525
 20
-79.75222525783977
 30
0.0
 10
50.08996288876525
 20
-79.80736442449252
 30
0.0
 10
50.13476566540002
 20
-79.8521319244814
 30
0.0
 10
50.18986955288309
 20
-79.8521319244814
 30
0.0
 10
50.24500871814303
 20
-79.8521319244814
 30
0.0
 10
50.28977621700092
 20
-79.80736442449252
 30
0.0
 10
50.28977621700092
 20
-79.75222525783977
 30
0.0
 10
50.28977621700092
 20
-79.69712136896453
 30
0.0
 10
50.24500871814303
 20
-79.65231859119812
 30
0.0
 10
50.18986955288309
 20
-79.65231859119812
 30
0.0
  0
POLYLINE
  5
AF
330
1F
100
AcDbEntity
  8
_U+30EC_U+30A4_U+30E4_U+30FC 1
 62
   179
420
  2234388
370
     9
100
AcDb2dPolyline
 66
     1
 10
0.0
 20
0.0
 30
0.0
  0
VERTEX
  5
B0
330
AF
100
AcDbEntity
  8
_U+30EC_U+30A4_U+30E4_U+30FC 1
 62
   179
420
  2234388
370
     9
100
AcDbVertex
100
AcDb2dVertex
 10
73.1593711891045
 20
-79.75222525783977
 30
0.0
  0
VERTEX
  5
B1
330
AF
100
AcDbEntity
  8
_U+30EC_U+30A4_U+30E4_U+30FC 1
 62
   179
420
  2234388
370
     9
100
AcDbVertex
100
AcDb2dVertex
 10
50.18986955288309
 20
-79.75222525783977
 30
0.0
  0
SEQEND
  5
B2
330
AF
100
AcDbEntity
  8
_U+30EC_U+30A4_U+30E4_U+30FC 1
 62
   179
420
  2234388
370
     9
  0
POLYLINE
  5
B3
330
1F
100
AcDbEntity
  8
_U+30EC_U+30A4_U+30E4_U+30FC 1
 62
   179
420
  2234388
370
     9
100
AcDb2dPolyline
 66
     1
 10
0.0
 20
0.0
 30
0.0
  0
VERTEX
  5
B4
330
B3
100
AcDbEntity
  8
_U+30EC_U+30A4_U+30E4_U+30FC 1
 62
   179
420
  2234388
370
     9
100
AcDbVertex
100
AcDb2dVertex
 10
50.18986955288309
 20
-78.29221914709358
 30
0.0
  0
VERTEX
  5
B5
330
B3
100
AcDbEntity
  8
_U+30EC_U+30A4_U+30E4_U+30FC 1
 62
   179
420
  2234388
370
     9
100
AcDbVertex
100
AcDb2dVertex
 10
50.18986955288309
 20
-80.75199747981199
 30
0.0
  0
SEQEND
  5
B6
330
B3
100
AcDbEntity
  8
_U+30EC_U+30A4_U+30E4_U+30FC 1
 62
   179
420
  2234388
370
     9
  0
SPLINE
  5
B7
330
1F
100
AcDbEntity
  8
_U+30EC_U+30A4_U+30E4_U+30FC 1
 62
   179
420
  2234388
370
     9
100
AcDbSpline
210
0.0
220
0.0
230
1.0
 70
    11
 71
     3
 72
    17
 73
    13
 74
     0
 42
0.0000000001
 43
0.0000000001
 12
1.0
 22
0.0
 32
0.0
 13
1.0
 23
0.0
 33
0.0
 40
0.0
 40
0.0
 40
0.0
 40
0.0
 40
1.0
 40
1.0
 40
1.0
 40
2.0
 40
2.0
 40
2.0
 40
3.0
 40
3.0
 40
3.0
 40
4.0
 40
4.0
 40
4.0
 40
4.0
 10
73.1593711891045
 20
-79.65231859119812
 30
0.0
 10
73.10423202384455
 20
-79.65231859119812
 30
0.0
 10
73.05946452498667
 20
-79.69712136896453
 30
0.0
 10
73.05946452498667
 20
-79.75222525783977
 30
0.0
 10
73.05946452498667
 20
-79.80736442449252
 30
0.0
 10
73.10423202384455
 20
-79.8521319244814
 30
0.0
 10
73.1593711891045
 20
-79.8521319244814
 30
0.0
 10
73.21447507658758
 20
-79.8521319244814
 30
0.0
 10
73.25927785322234
 20
-79.80736442449252
 30
0.0
 10
73.25927785322234
 20
-79.75222525783977
 30
0.0
 10
73.25927785322234
 20
-79.69712136896453
 30
0.0
 10
73.21447507658758
 20
-79.65231859119812
 30
0.0
 10
73.1593711891045
 20
-79.65231859119812
 30
0.0
  0
POLYLINE
  5
B8
330
1F
100
AcDbEntity
  8
_U+30EC_U+30A4_U+30E4_U+30FC 1
 62
   179
420
  2234388
370
     9
100
AcDb2dPolyline
 66
     1
 10
0.0
 20
0.0
 30
0.0
  0
VERTEX
  5
B9
330
B8
100
AcDbEntity
  8
_U+30EC_U+30A4_U+30E4_U+30FC 1
 62
   179
420
  2234388
370
     9
100
AcDbVertex
100
AcDb2dVertex
 10
73.1593711891045
 20
-78.29221914709358
 30
0.0
  0
VERTEX
  5
BA
330
B8
100
AcDbEntity
  8
_U+30EC_U+30A4_U+30E4_U+30FC 1
 62
   179
420
  2234388
370
     9
100
AcDbVertex
100
AcDb2dVertex
 10
73.1593711891045
 20
-80.75199747981199
 30
0.0
  0
SEQEND
  5
BB
330
B8
100
AcDbEntity
  8
_U+30EC_U+30A4_U+30E4_U+30FC 1
 62
   179
420
  2234388
370
     9
  0
INSERT
  5
BD
330
1F
100
AcDbEntity
  8
_U+30EC_U+30A4_U+30E4_U+30FC 1
100
AcDbBlockReference
  2
block 6
 10
0.0
 20
0.0
 30
0.0
  0
ENDSEC
  0
SECTION
  2
OBJECTS
  0
DICTIONARY
  5
C
330
0
100
AcDbDictionary
281
     1
  3
ACAD_GROUP
350
D
  3
ACAD_LAYOUT
350
1A
  3
ACAD_MATERIAL
350
3B
  3
ACAD_MLEADERSTYLE
350
C5
  3
ACAD_MLINESTYLE
350
17
  3
ACAD_PLOTSETTINGS
350
19
  3
ACAD_PLOTSTYLENAME
350
E
  3
ACAD_TABLESTYLE
350
C4
  3
ACAD_VISUALSTYLE
350
2A
  0
SUN
  5
3F
330
29
100
AcDbSun
 90
        1
290
     0
 63
     7
421
 16777215
 40
1.0
291
     1
 91
  2455826
 92
 54000000
292
     0
 70
     2
 71
   256
280
     1
  0
DICTIONARY
  5
D
102
{ACAD_REACTORS
330
C
102
}
330
C
100
AcDbDictionary
281
     1
  0
DICTIONARY
  5
1A
102
{ACAD_REACTORS
330
C
102
}
330
C
100
AcDbDictionary
281
     1
  3
Layout1
350
1E
  3
Layout2
350
26
  3
Model
350
22
  0
DICTIONARY
  5
3B
102
{ACAD_REACTORS
330
C
102
}
330
C
100
AcDbDictionary
281
     1
  3
ByBlock
350
3D
  3
ByLayer
350
3C
  3
Global
350
3E
  0
DICTIONARY
  5
C5
102
{ACAD_REACTORS
330
C
102
}
330
C
100
AcDbDictionary
281
     1
  0
DICTIONARY
  5
17
102
{ACAD_REACTORS
330
C
102
}
330
C
100
AcDbDictionary
281
     1
  3
Standard
350
18
  0
DICTIONARY
  5
19
102
{ACAD_REACTORS
330
C
102
}
330
C
100
AcDbDictionary
281
     1
  0
ACDBDICTIONARYWDFLT
  5
E
102
{ACAD_REACTORS
330
C
102
}
330
C
100
AcDbDictionary
281
     1
  3
Normal
350
F
100
AcDbDictionaryWithDefault
340
F
  0
DICTIONARY
  5
C4
102
{ACAD_REACTORS
330
C
102
}
330
C
100
AcDbDictionary
281
     1
  0
DICTIONARY
  5
2A
102
{ACAD_REACTORS
330
C
102
}
330
C
100
AcDbDictionary
281
     1
  3
2dWireframe
350
2F
  3
3D Hidden
350
31
  3
3dWireframe
350
30
  3
Basic
350
32
  3
Brighten
350
36
  3
ColorChange
350
3A
  3
Conceptual
350
34
  3
Dim
350
35
  3
Facepattern
350
39
  3
Flat
350
2B
  3
FlatWithEdges
350
2C
  3
Gouraud
350
2D
  3
GouraudWithEdges
350
2E
  3
Linepattern
350
38
  3
Realistic
350
33
  3
Thicken
350
37
  0
LAYOUT
  5
1E
102
{ACAD_REACTORS
330
1A
102
}
330
1A
100
AcDbPlotSettings
  1

  2
none_device
  4

  6

 40
0.0
 41
0.0
 42
0.0
 43
0.0
 44
0.0
 45
0.0
 46
0.0
 47
0.0
 48
0.0
 49
0.0
140
0.0
141
0.0
142
1.0
143
1.0
 70
   688
 72
     0
 73
     0
 74
     5
  7

 75
    16
 76
     0
 77
     2
 78
   300
147
1.0
148
0.0
149
0.0
100
AcDbLayout
  1
Layout1
 70
     1
 71
     1
 10
0.0
 20
0.0
 11
12.0
 21
9.0
 12
0.0
 22
0.0
 32
0.0
 14
1.000000000000000E+20
 24
1.000000000000000E+20
 34
1.000000000000000E+20
 15
-1.000000000000000E+20
 25
-1.000000000000000E+20
 35
-1.000000000000000E+20
146
0.0
 13
0.0
 23
0.0
 33
0.0
 16
1.0
 26
0.0
 36
0.0
 17
0.0
 27
1.0
 37
0.0
 76
     0
330
1B
  0
LAYOUT
  5
26
102
{ACAD_REACTORS
330
1A
102
}
330
1A
100
AcDbPlotSettings
  1

  2
none_device
  4

  6

 40
0.0
 41
0.0
 42
0.0
 43
0.0
 44
0.0
 45
0.0
 46
0.0
 47
0.0
 48
0.0
 49
0.0
140
0.0
141
0.0
142
1.0
143
1.0
 70
   688
 72
     0
 73
     0
 74
     5
  7

 75
    16
 76
     0
 77
     2
 78
   300
147
1.0
148
0.0
149
0.0
100
AcDbLayout
  1
Layout2
 70
     1
 71
     2
 10
0.0
 20
0.0
 11
0.0
 21
0.0
 12
0.0
 22
0.0
 32
0.0
 14
0.0
 24
0.0
 34
0.0
 15
0.0
 25
0.0
 35
0.0
146
0.0
 13
0.0
 23
0.0
 33
0.0
 16
1.0
 26
0.0
 36
0.0
 17
0.0
 27
1.0
 37
0.0
 76
     0
330
23
  0
LAYOUT
  5
22
102
{ACAD_REACTORS
330
1A
102
}
330
1A
100
AcDbPlotSettings
  1

  2
none_device
  4

  6

 40
0.0
 41
0.0
 42
0.0
 43
0.0
 44
0.0
 45
0.0
 46
0.0
 47
0.0
 48
0.0
 49
0.0
140
0.0
141
0.0
142
1.0
143
1.0
 70
  1712
 72
     0
 73
     0
 74
     0
  7

 75
     0
 76
     0
 77
     2
 78
   300
147
1.0
148
0.0
149
0.0
100
AcDbLayout
  1
Model
 70
     1
 71
     0
 10
0.0
 20
0.0
 11
12.0
 21
9.0
 12
0.0
 22
0.0
 32
0.0
 14
1.000000000000000E+20
 24
1.000000000000000E+20
 34
1.000000000000000E+20
 15
-1.000000000000000E+20
 25
-1.000000000000000E+20
 35
-1.000000000000000E+20
146
0.0
 13
0.0
 23
0.0
 33
0.0
 16
1.0
 26
0.0
 36
0.0
 17
0.0
 27
1.0
 37
0.0
 76
     0
330
1F
331
29
  0
MATERIAL
  5
3D
102
{ACAD_REACTORS
330
3B
102
}
330
3B
100
AcDbMaterial
  1
ByBlock
 72
     1
 94
      127
  0
MATERIAL
  5
3C
102
{ACAD_REACTORS
330
3B
102
}
330
3B
100
AcDbMaterial
  1
ByLayer
 72
     1
 94
      127
  0
MATERIAL
  5
3E
102
{ACAD_REACTORS
330
3B
102
}
330
3B
100
AcDbMaterial
  1
Global
 72
     1
 94
      127
  0
MLINESTYLE
  5
18
102
{ACAD_REACTORS
330
17
102
}
330
17
100
AcDbMlineStyle
  2
Standard
 70
     0
  3

 62
   256
 51
90.0
 52
90.0
 71
     2
 49
0.5
 62
   256
  6
BYLAYER
 49
-0.5
 62
   256
  6
BYLAYER
  0
ACDBPLACEHOLDER
  5
F
102
{ACAD_REACTORS
330
E
102
}
330
E
  0
VISUALSTYLE
  5
2F
102
{ACAD_REACTORS
330
2A
102
}
330
2A
100
AcDbVisualStyle
  2
2dWireframe
 70
     4
177
     2
291
     0
 71
     0
176
     1
 72
     2
176
     1
 73
     0
176
     1
 90
        0
176
     1
 40
-0.6
176
     1
 41
-30.0
176
     1
 62
     5
 63
     7
421
 16777215
176
     1
 74
     1
176
     1
 91
        4
176
     1
 64
     7
176
     1
 65
   257
176
     1
 75
     1
176
     1
175
     1
176
     1
 42
1.0
176
     1
 92
        0
176
     1
 66
   257
176
     1
 43
1.0
176
     1
 76
     1
176
     1
 77
     6
176
     1
 78
     2
176
     1
 67
     7
176
     1
 79
     5
176
     1
170
     0
176
     1
171
     0
176
     1
290
     0
176
     1
 93
        1
176
     1
 44
0.0
176
     1
173
     0
176
     1
  0
VISUALSTYLE
  5
31
102
{ACAD_REACTORS
330
2A
102
}
330
2A
100
AcDbVisualStyle
  2
3D Hidden
 70
     6
177
     2
291
     0
 71
     1
176
     1
 72
     2
176
     1
 73
     2
176
     1
 90
        0
176
     1
 40
-0.6
176
     1
 41
-30.0
176
     1
 62
     5
 63
     7
421
 16777215
176
     1
 74
     2
176
     1
 91
        2
176
     1
 64
     7
176
     1
 65
   257
176
     1
 75
     2
176
     1
175
     1
176
     1
 42
40.0
176
     1
 92
        0
176
     1
 66
   257
176
     1
 43
1.0
176
     1
 76
     1
176
     1
 77
     6
176
     1
 78
     2
176
     1
 67
     7
176
     1
 79
     3
176
     1
170
     0
176
     1
171
     0
176
     1
290
     0
176
     1
 93
        1
176
     1
 44
0.0
176
     1
173
     0
176
     1
  0
VISUALSTYLE
  5
30
102
{ACAD_REACTORS
330
2A
102
}
330
2A
100
AcDbVisualStyle
  2
3dWireframe
 70
     5
177
     2
291
     0
 71
     0
176
     1
 72
     2
176
     1
 73
     0
176
     1
 90
        0
176
     1
 40
-0.6
176
     1
 41
-30.0
176
     1
 62
     5
 63
     7
421
 16777215
176
     1
 74
     1
176
     1
 91
        4
176
     1
 64
     7
176
     1
 65
   257
176
     1
 75
     1
176
     1
175
     1
176
     1
 42
1.0
176
     1
 92
        0
176
     1
 66
   257
176
     1
 43
1.0
176
     1
 76
     1
176
     1
 77
     6
176
     1
 78
     2
176
     1
 67
     7
176
     1
 79
     5
176
     1
170
     0
176
     1
171
     0
176
     1
290
     0
176
     1
 93
        1
176
     1
 44
0.0
176
     1
173
     0
176
     1
  0
VISUALSTYLE
  5
32
102
{ACAD_REACTORS
330
2A
102
}
330
2A
100
AcDbVisualStyle
  2
Basic
 70
     7
177
     2
291
     1
 71
     1
176
     1
 72
     0
176
     1
 73
     1
176
     1
 90
        0
176
     1
 40
-0.6
176
     1
 41
-30.0
176
     1
 62
     5
 63
     7
421
 16777215
176
     1
 74
     0
176
     1
 91
        4
176
     1
 64
     7
176
     1
 65
   257
176
     1
 75
     1
176
     1
175
     1
176
     1
 42
1.0
176
     1
 92
        8
176
     1
 66
     7
176
     1
 43
1.0
176
     1
 76
     1
176
     1
 77
     6
176
     1
 78
     2
176
     1
 67
     7
176
     1
 79
     5
176
     1
170
     0
176
     1
171
     0
176
     1
290
     0
176
     1
 93
        1
176
     1
 44
0.0
176
     1
173
     0
176
     1
  0
VISUALSTYLE
  5
36
102
{ACAD_REACTORS
330
2A
102
}
330
2A
100
AcDbVisualStyle
  2
Brighten
 70
    12
177
     2
291
     1
 71
     2
176
     1
 72
     2
176
     1
 73
     0
176
     1
 90
        0
176
     1
 40
-0.6
176
     1
 41
-30.0
176
     1
 62
     5
 63
     7
421
 16777215
176
     1
 74
     1
176
     1
 91
        4
176
     1
 64
     7
176
     1
 65
   257
176
     1
 75
     1
176
     1
175
     1
176
     1
 42
1.0
176
     1
 92
        8
176
     1
 66
     7
176
     1
 43
1.0
176
     1
 76
     1
176
     1
 77
     6
176
     1
 78
     2
176
     1
 67
     7
176
     1
 79
     5
176
     1
170
     0
176
     1
171
     0
176
     1
290
     0
176
     1
 93
        1
176
     1
 44
50.0
176
     1
173
     0
176
     1
  0
VISUALSTYLE
  5
3A
102
{ACAD_REACTORS
330
2A
102
}
330
2A
100
AcDbVisualStyle
  2
ColorChange
 70
    16
177
     2
291
     1
 71
     2
176
     1
 72
     2
176
     1
 73
     3
176
     1
 90
        0
176
     1
 40
-0.6
176
     1
 41
-30.0
176
     1
 62
     5
 63
     8
421
  8421504
176
     1
 74
     1
176
     1
 91
        4
176
     1
 64
     7
176
     1
 65
   257
176
     1
 75
     1
176
     1
175
     1
176
     1
 42
1.0
176
     1
 92
        8
176
     1
 66
     8
424
  8421504
176
     1
 43
1.0
176
     1
 76
     1
176
     1
 77
     6
176
     1
 78
     2
176
     1
 67
     7
176
     1
 79
     5
176
     1
170
     0
176
     1
171
     0
176
     1
290
     0
176
     1
 93
        1
176
     1
 44
0.0
176
     1
173
     0
176
     1
  0
VISUALSTYLE
  5
34
102
{ACAD_REACTORS
330
2A
102
}
330
2A
100
AcDbVisualStyle
  2
Conceptual
 70
     9
177
     2
291
     0
 71
     3
176
     1
 72
     2
176
     1
 73
     0
176
     1
 90
        0
176
     1
 40
-0.6
176
     1
 41
-30.0
176
     1
 62
     5
 63
     7
421
 16777215
176
     1
 74
     2
176
     1
 91
        2
176
     1
 64
     7
176
     1
 65
   257
176
     1
 75
     1
176
     1
175
     1
176
     1
 42
40.0
176
     1
 92
        8
176
     1
 66
     7
176
     1
 43
1.0
176
     1
 76
     1
176
     1
 77
     6
176
     1
 78
     2
176
     1
 67
     7
176
     1
 79
     3
176
     1
170
     0
176
     1
171
     0
176
     1
290
     0
176
     1
 93
        1
176
     1
 44
0.0
176
     1
173
     0
176
     1
  0
VISUALSTYLE
  5
35
102
{ACAD_REACTORS
330
2A
102
}
330
2A
100
AcDbVisualStyle
  2
Dim
 70
    11
177
     2
291
     1
 71
     2
176
     1
 72
     2
176
     1
 73
     0
176
     1
 90
        0
176
     1
 40
-0.6
176
     1
 41
-30.0
176
     1
 62
     5
 63
     7
421
 16777215
176
     1
 74
     1
176
     1
 91
        4
176
     1
 64
     7
176
     1
 65
   257
176
     1
 75
     1
176
     1
175
     1
176
     1
 42
1.0
176
     1
 92
        8
176
     1
 66
     7
176
     1
 43
1.0
176
     1
 76
     1
176
     1
 77
     6
176
     1
 78
     2
176
     1
 67
     7
176
     1
 79
     5
176
     1
170
     0
176
     1
171
     0
176
     1
290
     0
176
     1
 93
        1
176
     1
 44
-50.0
176
     1
173
     0
176
     1
  0
VISUALSTYLE
  5
39
102
{ACAD_REACTORS
330
2A
102
}
330
2A
100
AcDbVisualStyle
  2
Facepattern
 70
    15
177
     2
291
     1
 71
     2
176
     1
 72
     2
176
     1
 73
     0
176
     1
 90
        0
176
     1
 40
-0.6
176
     1
 41
-30.0
176
     1
 62
     5
 63
     7
421
 16777215
176
     1
 74
     1
176
     1
 91
        4
176
     1
 64
     7
176
     1
 65
   257
176
     1
 75
     1
176
     1
175
     1
176
     1
 42
1.0
176
     1
 92
        8
176
     1
 66
     7
176
     1
 43
1.0
176
     1
 76
     1
176
     1
 77
     6
176
     1
 78
     2
176
     1
 67
     7
176
     1
 79
     5
176
     1
170
     0
176
     1
171
     0
176
     1
290
     0
176
     1
 93
        1
176
     1
 44
0.0
176
     1
173
     0
176
     1
  0
VISUALSTYLE
  5
2B
102
{ACAD_REACTORS
330
2A
102
}
330
2A
100
AcDbVisualStyle
  2
Flat
 70
     0
177
     2
291
     1
 71
     2
176
     1
 72
     1
176
     1
 73
     1
176
     1
 90
        2
176
     1
 40
-0.6
176
     1
 41
30.0
176
     1
 62
     5
 63
     7
421
 16777215
176
     1
 74
     0
176
     1
 91
        4
176
     1
 64
     7
176
     1
 65
   257
176
     1
 75
     1
176
     1
175
     1
176
     1
 42
1.0
176
     1
 92
        8
176
     1
 66
     7
176
     1
 43
1.0
176
     1
 76
     1
176
     1
 77
     6
176
     1
 78
     2
176
     1
 67
     7
176
     1
 79
     5
176
     1
170
     0
176
     1
171
     0
176
     1
290
     0
176
     1
 93
       13
176
     1
 44
0.0
176
     1
173
     0
176
     1
  0
VISUALSTYLE
  5
2C
102
{ACAD_REACTORS
330
2A
102
}
330
2A
100
AcDbVisualStyle
  2
FlatWithEdges
 70
     1
177
     2
291
     1
 71
     2
176
     1
 72
     1
176
     1
 73
     1
176
     1
 90
        2
176
     1
 40
-0.6
176
     1
 41
30.0
176
     1
 62
     5
 63
     7
421
 16777215
176
     1
 74
     1
176
     1
 91
        4
176
     1
 64
     7
176
     1
 65
   257
176
     1
 75
     1
176
     1
175
     1
176
     1
 42
1.0
176
     1
 92
        0
176
     1
 66
   257
176
     1
 43
1.0
176
     1
 76
     1
176
     1
 77
     6
176
     1
 78
     2
176
     1
 67
     7
176
     1
 79
     5
176
     1
170
     0
176
     1
171
     0
176
     1
290
     0
176
     1
 93
       13
176
     1
 44
0.0
176
     1
173
     0
176
     1
  0
VISUALSTYLE
  5
2D
102
{ACAD_REACTORS
330
2A
102
}
330
2A
100
AcDbVisualStyle
  2
Gouraud
 70
     2
177
     2
291
     1
 71
     2
176
     1
 72
     2
176
     1
 73
     1
176
     1
 90
        2
176
     1
 40
-0.6
176
     1
 41
30.0
176
     1
 62
     5
 63
     7
421
 16777215
176
     1
 74
     0
176
     1
 91
        4
176
     1
 64
     7
176
     1
 65
   257
176
     1
 75
     1
176
     1
175
     1
176
     1
 42
1.0
176
     1
 92
        0
176
     1
 66
     7
176
     1
 43
1.0
176
     1
 76
     1
176
     1
 77
     6
176
     1
 78
     2
176
     1
 67
     7
176
     1
 79
     5
176
     1
170
     0
176
     1
171
     0
176
     1
290
     0
176
     1
 93
       13
176
     1
 44
0.0
176
     1
173
     0
176
     1
  0
VISUALSTYLE
  5
2E
102
{ACAD_REACTORS
330
2A
102
}
330
2A
100
AcDbVisualStyle
  2
GouraudWithEdges
 70
     3
177
     2
291
     1
 71
     2
176
     1
 72
     2
176
     1
 73
     1
176
     1
 90
        2
176
     1
 40
-0.6
176
     1
 41
30.0
176
     1
 62
     5
 63
     7
421
 16777215
176
     1
 74
     1
176
     1
 91
        4
176
     1
 64
     7
176
     1
 65
   257
176
     1
 75
     1
176
     1
175
     1
176
     1
 42
1.0
176
     1
 92
        0
176
     1
 66
   257
176
     1
 43
1.0
176
     1
 76
     1
176
     1
 77
     6
176
     1
 78
     2
176
     1
 67
     7
176
     1
 79
     5
176
     1
170
     0
176
     1
171
     0
176
     1
290
     0
176
     1
 93
       13
176
     1
 44
0.0
176
     1
173
     0
176
     1
  0
VISUALSTYLE
  5
38
102
{ACAD_REACTORS
330
2A
102
}
330
2A
100
AcDbVisualStyle
  2
Linepattern
 70
    14
177
     2
291
     1
 71
     2
176
     1
 72
     2
176
     1
 73
     0
176
     1
 90
        0
176
     1
 40
-0.6
176
     1
 41
-30.0
176
     1
 62
     5
 63
     7
421
 16777215
176
     1
 74
     1
176
     1
 91
        4
176
     1
 64
     7
176
     1
 65
   257
176
     1
 75
     7
176
     1
175
     7
176
     1
 42
1.0
176
     1
 92
        8
176
     1
 66
     7
176
     1
 43
1.0
176
     1
 76
     1
176
     1
 77
     6
176
     1
 78
     2
176
     1
 67
     7
176
     1
 79
     5
176
     1
170
     0
176
     1
171
     0
176
     1
290
     0
176
     1
 93
        1
176
     1
 44
0.0
176
     1
173
     0
176
     1
  0
VISUALSTYLE
  5
33
102
{ACAD_REACTORS
330
2A
102
}
330
2A
100
AcDbVisualStyle
  2
Realistic
 70
     8
177
     2
291
     0
 71
     2
176
     1
 72
     2
176
     1
 73
     0
176
     1
 90
        0
176
     1
 40
-0.6
176
     1
 41
-30.0
176
     1
 62
     5
 63
     7
421
 16777215
176
     1
 74
     1
176
     1
 91
        0
176
     1
 64
     7
176
     1
 65
   257
176
     1
 75
     1
176
     1
175
     1
176
     1
 42
1.0
176
     1
 92
        8
176
     1
 66
     8
424
  7895160
176
     1
 43
1.0
176
     1
 76
     1
176
     1
 77
     6
176
     1
 78
     2
176
     1
 67
     7
176
     1
 79
     5
176
     1
170
     0
176
     1
171
     0
176
     1
290
     0
176
     1
 93
       13
176
     1
 44
0.0
176
     1
173
     0
176
     1
  0
VISUALSTYLE
  5
37
102
{ACAD_REACTORS
330
2A
102
}
330
2A
100
AcDbVisualStyle
  2
Thicken
 70
    13
177
     2
291
     1
 71
     2
176
     1
 72
     2
176
     1
 73
     0
176
     1
 90
        0
176
     1
 40
-0.6
176
     1
 41
-30.0
176
     1
 62
     5
 63
     7
421
 16777215
176
     1
 74
     1
176
     1
 91
        4
176
     1
 64
     7
176
     1
 65
   257
176
     1
 75
     1
176
     1
175
     1
176
     1
 42
1.0
176
     1
 92
       12
176
     1
 66
     7
176
     1
 43
1.0
176
     1
 76
     1
176
     1
 77
     6
176
     1
 78
     2
176
     1
 67
     7
176
     1
 79
     5
176
     1
170
     0
176
     1
171
     0
176
     1
290
     0
176
     1
 93
        1
176
     1
 44
0.0
176
     1
173
     0
176
     1
  0
ENDSEC
  0
EOF
