  0
SECTION
  2
HEADER
  9
$ACADVER
  1
AC1024
  9
$ACADMAINTVER
 70
     6
  9
$DWGCODEPAGE
  3
UNDEFINED
  9
$INSBASE
 10
0.0
 20
0.0
 30
0.0
  9
$EXTMIN
 10
1.000000000000000E+20
 20
1.000000000000000E+20
 30
1.000000000000000E+20
  9
$EXTMAX
 10
-1.000000000000000E+20
 20
-1.000000000000000E+20
 30
-1.000000000000000E+20
  9
$LIMMIN
 10
0.0
 20
0.0
  9
$LIMMAX
 10
12.0
 20
9.0
  9
$ORTHOMODE
 70
     0
  9
$REGENMODE
 70
     1
  9
$FILLMODE
 70
     1
  9
$QTEXTMODE
 70
     0
  9
$MIRRTEXT
 70
     1
  9
$LTSCALE
 40
1.0
  9
$ATTMODE
 70
     1
  9
$TEXTSIZE
 40
0.2
  9
$TRACEWID
 40
0.05
  9
$TEXTSTYLE
  7
Standard
  9
$CLAYER
  8
0
  9
$CELTYPE
  6
ByLayer
  9
$CECOLOR
 62
   256
  9
$CELTSCALE
 40
1.0
  9
$DISPSILH
 70
     0
  9
$DIMSCALE
 40
1.0
  9
$DIMASZ
 40
0.18
  9
$DIMEXO
 40
0.0625
  9
$DIMDLI
 40
0.38
  9
$DIMRND
 40
0.0
  9
$DIMDLE
 40
0.0
  9
$DIMEXE
 40
0.18
  9
$DIMTP
 40
0.0
  9
$DIMTM
 40
0.0
  9
$DIMTXT
 40
0.18
  9
$DIMCEN
 40
0.09
  9
$DIMTSZ
 40
0.0
  9
$DIMTOL
 70
     0
  9
$DIMLIM
 70
     0
  9
$DIMTIH
 70
     1
  9
$DIMTOH
 70
     1
  9
$DIMSE1
 70
     0
  9
$DIMSE2
 70
     0
  9
$DIMTAD
 70
     0
  9
$DIMZIN
 70
     0
  9
$DIMBLK
  1

  9
$DIMASO
 70
     1
  9
$DIMSHO
 70
     1
  9
$DIMPOST
  1

  9
$DIMAPOST
  1

  9
$DIMALT
 70
     0
  9
$DIMALTD
 70
     2
  9
$DIMALTF
 40
25.4
  9
$DIMLFAC
 40
1.0
  9
$DIMTOFL
 70
     0
  9
$DIMTVP
 40
0.0
  9
$DIMTIX
 70
     0
  9
$DIMSOXD
 70
     0
  9
$DIMSAH
 70
     0
  9
$DIMBLK1
  1

  9
$DIMBLK2
  1

  9
$DIMSTYLE
  2
Standard
  9
$DIMCLRD
 70
     0
  9
$DIMCLRE
 70
     0
  9
$DIMCLRT
 70
     0
  9
$DIMTFAC
 40
1.0
  9
$DIMGAP
 40
0.09
  9
$DIMJUST
 70
     0
  9
$DIMSD1
 70
     0
  9
$DIMSD2
 70
     0
  9
$DIMTOLJ
 70
     1
  9
$DIMTZIN
 70
     0
  9
$DIMALTZ
 70
     0
  9
$DIMALTTZ
 70
     0
  9
$DIMUPT
 70
     0
  9
$DIMDEC
 70
     4
  9
$DIMTDEC
 70
     4
  9
$DIMALTU
 70
     2
  9
$DIMALTTD
 70
     2
  9
$DIMTXSTY
  7
Standard
  9
$DIMAUNIT
 70
     0
  9
$DIMADEC
 70
     0
  9
$DIMALTRND
 40
0.0
  9
$DIMAZIN
 70
     0
  9
$DIMDSEP
 70
    46
  9
$DIMATFIT
 70
     3
  9
$DIMFRAC
 70
     0
  9
$DIMLDRBLK
  1

  9
$DIMLUNIT
 70
     2
  9
$DIMLWD
 70
    -2
  9
$DIMLWE
 70
    -2
  9
$DIMTMOVE
 70
     0
  9
$DIMFXL
 40
1.0
  9
$DIMFXLON
 70
     0
  9
$DIMJOGANG
 40
0.7853981633974483
  9
$DIMTFILL
 70
     0
  9
$DIMTFILLCLR
 70
     0
  9
$DIMARCSYM
 70
     0
  9
$DIMLTYPE
  6

  9
$DIMLTEX1
  6

  9
$DIMLTEX2
  6

  9
$DIMTXTDIRECTION
 70
     0
  9
$LUNITS
 70
     2
  9
$LUPREC
 70
     4
  9
$SKETCHINC
 40
0.1
  9
$FILLETRAD
 40
0.5
  9
$AUNITS
 70
     0
  9
$AUPREC
 70
     0
  9
$MENU
  1
.
  9
$ELEVATION
 40
0.0
  9
$PELEVATION
 40
0.0
  9
$THICKNESS
 40
0.0
  9
$LIMCHECK
 70
     0
  9
$CHAMFERA
 40
0.5
  9
$CHAMFERB
 40
0.5
  9
$CHAMFERC
 40
1.0
  9
$CHAMFERD
 40
0.0
  9
$SKPOLY
 70
     0
  9
$TDCREATE
 40
2457917.588576389
  9
$TDUCREATE
 40
2457917.213576389
  9
$TDUPDATE
 40
2457917.588576389
  9
$TDUUPDATE
 40
2457917.213576389
  9
$TDINDWG
 40
0.0000000116
  9
$TDUSRTIMER
 40
0.0000000116
  9
$USRTIMER
 70
     1
  9
$ANGBASE
 50
0.0
  9
$ANGDIR
 70
     0
  9
$PDMODE
 70
     0
  9
$PDSIZE
 40
0.0
  9
$PLINEWID
 40
0.0
  9
$SPLFRAME
 70
     0
  9
$SPLINETYPE
 70
     6
  9
$SPLINESEGS
 70
     8
  9
$HANDSEED
  5
102
  9
$SURFTAB1
 70
     6
  9
$SURFTAB2
 70
     6
  9
$SURFTYPE
 70
     6
  9
$SURFU
 70
     6
  9
$SURFV
 70
     6
  9
$UCSBASE
  2

  9
$UCSNAME
  2

  9
$UCSORG
 10
0.0
 20
0.0
 30
0.0
  9
$UCSXDIR
 10
1.0
 20
0.0
 30
0.0
  9
$UCSYDIR
 10
0.0
 20
1.0
 30
0.0
  9
$UCSORTHOREF
  2

  9
$UCSORTHOVIEW
 70
     0
  9
$UCSORGTOP
 10
0.0
 20
0.0
 30
0.0
  9
$UCSORGBOTTOM
 10
0.0
 20
0.0
 30
0.0
  9
$UCSORGLEFT
 10
0.0
 20
0.0
 30
0.0
  9
$UCSORGRIGHT
 10
0.0
 20
0.0
 30
0.0
  9
$UCSORGFRONT
 10
0.0
 20
0.0
 30
0.0
  9
$UCSORGBACK
 10
0.0
 20
0.0
 30
0.0
  9
$PUCSBASE
  2

  9
$PUCSNAME
  2

  9
$PUCSORG
 10
0.0
 20
0.0
 30
0.0
  9
$PUCSXDIR
 10
1.0
 20
0.0
 30
0.0
  9
$PUCSYDIR
 10
0.0
 20
1.0
 30
0.0
  9
$PUCSORTHOREF
  2

  9
$PUCSORTHOVIEW
 70
     0
  9
$PUCSORGTOP
 10
0.0
 20
0.0
 30
0.0
  9
$PUCSORGBOTTOM
 10
0.0
 20
0.0
 30
0.0
  9
$PUCSORGLEFT
 10
0.0
 20
0.0
 30
0.0
  9
$PUCSORGRIGHT
 10
0.0
 20
0.0
 30
0.0
  9
$PUCSORGFRONT
 10
0.0
 20
0.0
 30
0.0
  9
$PUCSORGBACK
 10
0.0
 20
0.0
 30
0.0
  9
$USERI1
 70
     0
  9
$USERI2
 70
     0
  9
$USERI3
 70
     0
  9
$USERI4
 70
     0
  9
$USERI5
 70
     0
  9
$USERR1
 40
0.0
  9
$USERR2
 40
0.0
  9
$USERR3
 40
0.0
  9
$USERR4
 40
0.0
  9
$USERR5
 40
0.0
  9
$WORLDVIEW
 70
     1
  9
$SHADEDGE
 70
     3
  9
$SHADEDIF
 70
    70
  9
$TILEMODE
 70
     1
  9
$MAXACTVP
 70
    64
  9
$PINSBASE
 10
0.0
 20
0.0
 30
0.0
  9
$PLIMCHECK
 70
     0
  9
$PEXTMIN
 10
1.000000000000000E+20
 20
1.000000000000000E+20
 30
1.000000000000000E+20
  9
$PEXTMAX
 10
-1.000000000000000E+20
 20
-1.000000000000000E+20
 30
-1.000000000000000E+20
  9
$PLIMMIN
 10
0.0
 20
0.0
  9
$PLIMMAX
 10
12.0
 20
9.0
  9
$UNITMODE
 70
     0
  9
$VISRETAIN
 70
     1
  9
$PLINEGEN
 70
     0
  9
$PSLTSCALE
 70
     1
  9
$TREEDEPTH
 70
  3020
  9
$CMLSTYLE
  2
Standard
  9
$CMLJUST
 70
     0
  9
$CMLSCALE
 40
1.0
  9
$PROXYGRAPHICS
 70
     1
  9
$MEASUREMENT
 70
     0
  9
$CELWEIGHT
370
    -1
  9
$ENDCAPS
280
     0
  9
$JOINSTYLE
280
     0
  9
$LWDISPLAY
290
     1
  9
$INSUNITS
 70
     1
  9
$HYPERLINKBASE
  1

  9
$STYLESHEET
  1

  9
$XEDIT
290
     1
  9
$CEPSNTYPE
380
     0
  9
$PSTYLEMODE
290
     1
  9
$FINGERPRINTGUID
  2
{73481D28-3E29-E8B2-62E9-3FCF2B1F52D8}
  9
$VERSIONGUID
  2
{FAEB1C32-E019-11D5-929B-00C0DF256EC4}
  9
$EXTNAMES
290
     1
  9
$PSVPSCALE
 40
0.0
  9
$OLESTARTUP
290
     0
  9
$SORTENTS
280
   127
  9
$INDEXCTL
280
     0
  9
$HIDETEXT
280
     1
  9
$XCLIPFRAME
280
     2
  9
$HALOGAP
280
     0
  9
$OBSCOLOR
 70
   257
  9
$OBSLTYPE
280
     0
  9
$INTERSECTIONDISPLAY
280
     0
  9
$INTERSECTIONCOLOR
 70
   257
  9
$DIMASSOC
280
     2
  9
$PROJECTNAME
  1

  9
$CAMERADISPLAY
290
     0
  9
$LENSLENGTH
 40
50.0
  9
$CAMERAHEIGHT
 40
0.0
  9
$STEPSPERSEC
 40
2.0
  9
$STEPSIZE
 40
6.0
  9
$3DDWFPREC
 40
2.0
  9
$PSOLWIDTH
 40
0.25
  9
$PSOLHEIGHT
 40
4.0
  9
$LOFTANG1
 40
1.570796326794897
  9
$LOFTANG2
 40
1.570796326794897
  9
$LOFTMAG1
 40
0.0
  9
$LOFTMAG2
 40
0.0
  9
$LOFTPARAM
 70
     7
  9
$LOFTNORMALS
280
     1
  9
$LATITUDE
 40
37.795
  9
$LONGITUDE
 40
-122.394
  9
$NORTHDIRECTION
 40
0.0
  9
$TIMEZONE
 70
 -8000
  9
$LIGHTGLYPHDISPLAY
280
     1
  9
$TILEMODELIGHTSYNCH
280
     1
  9
$CMATERIAL
347
3C
  9
$SOLIDHIST
280
     1
  9
$SHOWHIST
280
     1
  9
$DWFFRAME
280
     2
  9
$DGNFRAME
280
     2
  9
$REALWORLDSCALE
290
     1
  9
$INTERFERECOLOR
 62
   256
  9
$CSHADOW
280
     0
  9
$SHADOWPLANELOCATION
 40
0.0
  0
ENDSEC
  0
SECTION
  2
CLASSES
  0
CLASS
  1
ACDBDICTIONARYWDFLT
  2
AcDbDictionaryWithDefault
  3
ObjectDBX Classes
 90
        0
 91
        4
280
     0
281
     0
  0
CLASS
  1
VISUALSTYLE
  2
AcDbVisualStyle
  3
ObjectDBX Classes
 90
     4095
 91
        4
280
     0
281
     0
  0
CLASS
  1
MATERIAL
  2
AcDbMaterial
  3
ObjectDBX Classes
 90
     1153
 91
        4
280
     0
281
     0
  0
CLASS
  1
SUN
  2
AcDbSun
  3
SCENEOE
 90
     1024
 91
        4
280
     0
281
     0
  0
ENDSEC
  0
SECTION
  2
TABLES
  0
TABLE
  2
VPORT
  5
8
330
0
100
AcDbSymbolTable
 70
     1
  0
VPORT
  5
29
330
8
100
AcDbSymbolTableRecord
100
AcDbViewportTableRecord
  2
*Active
 70
     0
 10
0.0
 20
0.0
 11
1.0
 21
1.0
 12
0.0
 22
0.0
 13
0.0
 23
0.0
 14
0.5
 24
0.5
 15
0.5
 25
0.5
 16
0.0
 26
0.0
 36
1.0
 17
63.499999984125
 27
-89.00059456108309
 37
0.0
 40
178.0011891221662
 41
0.7134783795241226
 42
50.0
 43
0.0
 44
0.0
 50
0.0
 51
0.0
 71
     0
 72
   100
 73
     1
 74
     3
 75
     0
 76
     0
 77
     0
 78
     0
281
     0
 65
     1
110
0.0
120
0.0
130
0.0
111
1.0
121
0.0
131
0.0
112
0.0
122
1.0
132
0.0
 79
     0
146
0.0
 60
     3
 61
     5
292
     1
282
     1
141
0.0
142
0.0
 63
   250
361
3F
  0
ENDTAB
  0
TABLE
  2
LTYPE
  5
5
330
0
100
AcDbSymbolTable
 70
     1
  0
LTYPE
  5
14
330
5
100
AcDbSymbolTableRecord
100
AcDbLinetypeTableRecord
  2
ByBlock
 70
     0
  3

 72
    65
 73
     0
 40
0.0
  0
LTYPE
  5
15
330
5
100
AcDbSymbolTableRecord
100
AcDbLinetypeTableRecord
  2
ByLayer
 70
     0
  3

 72
    65
 73
     0
 40
0.0
  0
LTYPE
  5
16
330
5
100
AcDbSymbolTableRecord
100
AcDbLinetypeTableRecord
  2
Continuous
 70
     0
  3
Solid line
 72
    65
 73
     0
 40
0.0
  0
ENDTAB
  0
TABLE
  2
LAYER
  5
2
330
0
100
AcDbSymbolTable
 70
     2
  0
LAYER
  5
10
330
2
100
AcDbSymbolTableRecord
100
AcDbLayerTableRecord
  2
0
 70
     0
 62
     7
  6
Continuous
370
    -3
390
F
347
3E
  0
LAYER
  5
40
330
2
100
AcDbSymbolTableRecord
100
AcDbLayerTableRecord
  2
_U+30EC_U+30A4_U+30E4_U+30FC 1
 70
     0
 62
     7
  6
Continuous
370
    -3
390
F
347
3E
  0
ENDTAB
  0
TABLE
  2
STYLE
  5
3
330
0
100
AcDbSymbolTable
 70
     1
  0
STYLE
  5
11
330
3
100
AcDbSymbolTableRecord
100
AcDbTextStyleTableRecord
  2
Standard
 70
     0
 40
0.0
 41
1.0
 50
0.0
 71
     0
 42
0.2
  3
txt
  4

  0
ENDTAB
  0
TABLE
  2
VIEW
  5
6
330
0
100
AcDbSymbolTable
 70
     0
  0
ENDTAB
  0
TABLE
  2
UCS
  5
7
330
0
100
AcDbSymbolTable
 70
     0
  0
ENDTAB
  0
TABLE
  2
APPID
  5
9
330
0
100
AcDbSymbolTable
 70
     1
  0
APPID
  5
12
330
9
100
AcDbSymbolTableRecord
100
AcDbRegAppTableRecord
  2
ACAD
 70
     0
  0
ENDTAB
  0
TABLE
  2
DIMSTYLE
  5
A
330
0
100
AcDbSymbolTable
 70
     1
100
AcDbDimStyleTable
  0
DIMSTYLE
105
27
330
A
100
AcDbSymbolTableRecord
100
AcDbDimStyleTableRecord
  2
Standard
 70
     0
178
     0
340
11
  0
ENDTAB
  0
TABLE
  2
BLOCK_RECORD
  5
1
330
0
100
AcDbSymbolTable
 70
    12
  0
BLOCK_RECORD
  5
1F
330
1
100
AcDbSymbolTableRecord
100
AcDbBlockTableRecord
  2
*Model_Space
340
22
 70
     0
280
     1
281
     0
  0
BLOCK_RECORD
  5
1B
330
1
100
AcDbSymbolTableRecord
100
AcDbBlockTableRecord
  2
*Paper_Space
340
1E
 70
     0
280
     1
281
     0
  0
BLOCK_RECORD
  5
23
330
1
100
AcDbSymbolTableRecord
100
AcDbBlockTableRecord
  2
*Paper_Space0
340
26
 70
     0
280
     1
281
     0
  0
BLOCK_RECORD
  5
41
330
1
100
AcDbSymbolTableRecord
100
AcDbBlockTableRecord
  2
block 2
340
0
102
{BLKREFS
331
42
102
}
 70
     0
280
     1
281
     0
  0
BLOCK_RECORD
  5
7D
330
1
100
AcDbSymbolTableRecord
100
AcDbBlockTableRecord
  2
block 3
340
0
102
{BLKREFS
331
7E
102
}
 70
     0
280
     1
281
     0
  0
BLOCK_RECORD
  5
91
330
1
100
AcDbSymbolTableRecord
100
AcDbBlockTableRecord
  2
block 4
340
0
102
{BLKREFS
331
92
102
}
 70
     0
280
     1
281
     0
  0
BLOCK_RECORD
  5
97
330
1
100
AcDbSymbolTableRecord
100
AcDbBlockTableRecord
  2
block 5
340
0
102
{BLKREFS
331
98
102
}
 70
     0
280
     1
281
     0
  0
BLOCK_RECORD
  5
A7
330
1
100
AcDbSymbolTableRecord
100
AcDbBlockTableRecord
  2
block 6
340
0
102
{BLKREFS
331
A8
102
}
 70
     0
280
     1
281
     0
  0
BLOCK_RECORD
  5
AF
330
1
100
AcDbSymbolTableRecord
100
AcDbBlockTableRecord
  2
block 7
340
0
102
{BLKREFS
331
B0
102
}
 70
     0
280
     1
281
     0
  0
BLOCK_RECORD
  5
BF
330
1
100
AcDbSymbolTableRecord
100
AcDbBlockTableRecord
  2
block 8
340
0
102
{BLKREFS
331
C0
102
}
 70
     0
280
     1
281
     0
  0
BLOCK_RECORD
  5
C7
330
1
100
AcDbSymbolTableRecord
100
AcDbBlockTableRecord
  2
block 9
340
0
102
{BLKREFS
331
C8
102
}
 70
     0
280
     1
281
     0
  0
BLOCK_RECORD
  5
DB
330
1
100
AcDbSymbolTableRecord
100
AcDbBlockTableRecord
  2
block 10
340
0
102
{BLKREFS
331
DC
102
}
 70
     0
280
     1
281
     0
  0
BLOCK_RECORD
  5
EB
330
1
100
AcDbSymbolTableRecord
100
AcDbBlockTableRecord
  2
block 11
340
0
102
{BLKREFS
331
EC
102
}
 70
     0
280
     1
281
     0
  0
BLOCK_RECORD
  5
F7
330
1
100
AcDbSymbolTableRecord
100
AcDbBlockTableRecord
  2
block 12
340
0
102
{BLKREFS
331
F8
102
}
 70
     0
280
     1
281
     0
  0
ENDTAB
  0
ENDSEC
  0
SECTION
  2
BLOCKS
  0
BLOCK
  5
20
330
1F
100
AcDbEntity
  8
0
100
AcDbBlockBegin
  2
*Model_Space
 70
     0
 10
0.0
 20
0.0
 30
0.0
  3
*Model_Space
  1

  0
ENDBLK
  5
21
330
1F
100
AcDbEntity
  8
0
100
AcDbBlockEnd
  0
BLOCK
  5
1C
330
1B
100
AcDbEntity
 67
     1
  8
0
100
AcDbBlockBegin
  2
*Paper_Space
 70
     0
 10
0.0
 20
0.0
 30
0.0
  3
*Paper_Space
  1

  0
ENDBLK
  5
1D
330
1B
100
AcDbEntity
 67
     1
  8
0
100
AcDbBlockEnd
  0
BLOCK
  5
24
330
23
100
AcDbEntity
  8
0
100
AcDbBlockBegin
  2
*Paper_Space0
 70
     0
 10
0.0
 20
0.0
 30
0.0
  3
*Paper_Space0
  1

  0
ENDBLK
  5
25
330
23
100
AcDbEntity
  8
0
100
AcDbBlockEnd
  0
BLOCK
  5
43
330
41
100
AcDbEntity
  8
0
100
AcDbBlockBegin
  2
block 2
 70
     0
 10
0.0
 20
0.0
 30
0.0
  3
block 2
  1

  0
POLYLINE
  5
45
330
41
100
AcDbEntity
  8
_U+30EC_U+30A4_U+30E4_U+30FC 1
 62
   179
420
  2234388
370
    25
100
AcDb2dPolyline
 66
     1
 10
0.0
 20
0.0
 30
0.0
  0
VERTEX
  5
46
330
45
100
AcDbEntity
  8
_U+30EC_U+30A4_U+30E4_U+30FC 1
 62
   179
420
  2234388
370
    25
100
AcDbVertex
100
AcDb2dVertex
 10
54.95046443143019
 20
-101.4963185857368
 30
0.0
  0
VERTEX
  5
47
330
45
100
AcDbEntity
  8
_U+30EC_U+30A4_U+30E4_U+30FC 1
 62
   179
420
  2234388
370
    25
100
AcDbVertex
100
AcDb2dVertex
 10
57.95045276329025
 20
-101.4963185857368
 30
0.0
  0
SEQEND
  5
48
330
45
100
AcDbEntity
  8
_U+30EC_U+30A4_U+30E4_U+30FC 1
 62
   179
420
  2234388
370
    25
  0
POLYLINE
  5
49
330
41
100
AcDbEntity
  8
_U+30EC_U+30A4_U+30E4_U+30FC 1
 62
   179
420
  2234388
370
    25
100
AcDb2dPolyline
 66
     1
 10
0.0
 20
0.0
 30
0.0
  0
VERTEX
  5
4A
330
49
100
AcDbEntity
  8
_U+30EC_U+30A4_U+30E4_U+30FC 1
 62
   179
420
  2234388
370
    25
100
AcDbVertex
100
AcDb2dVertex
 10
77.950446066874
 20
-74.49640081470926
 30
0.0
  0
VERTEX
  5
4B
330
49
100
AcDbEntity
  8
_U+30EC_U+30A4_U+30E4_U+30FC 1
 62
   179
420
  2234388
370
    25
100
AcDbVertex
100
AcDb2dVertex
 10
77.950446066874
 20
-75.49617303668148
 30
0.0
  0
SEQEND
  5
4C
330
49
100
AcDbEntity
  8
_U+30EC_U+30A4_U+30E4_U+30FC 1
 62
   179
420
  2234388
370
    25
  0
POLYLINE
  5
4D
330
41
100
AcDbEntity
  8
_U+30EC_U+30A4_U+30E4_U+30FC 1
 62
   179
420
  2234388
370
    25
100
AcDb2dPolyline
 66
     1
 10
0.0
 20
0.0
 30
0.0
  0
VERTEX
  5
4E
330
4D
100
AcDbEntity
  8
_U+30EC_U+30A4_U+30E4_U+30FC 1
 62
   179
420
  2234388
370
    25
100
AcDbVertex
100
AcDb2dVertex
 10
43.95028915651249
 20
-75.49617303668148
 30
0.0
  0
VERTEX
  5
4F
330
4D
100
AcDbEntity
  8
_U+30EC_U+30A4_U+30E4_U+30FC 1
 62
   179
420
  2234388
370
    25
100
AcDbVertex
100
AcDb2dVertex
 10
77.950446066874
 20
-75.49617303668148
 30
0.0
  0
SEQEND
  5
50
330
4D
100
AcDbEntity
  8
_U+30EC_U+30A4_U+30E4_U+30FC 1
 62
   179
420
  2234388
370
    25
  0
POLYLINE
  5
51
330
41
100
AcDbEntity
  8
_U+30EC_U+30A4_U+30E4_U+30FC 1
 62
   179
420
  2234388
370
    25
100
AcDb2dPolyline
 66
     1
 10
0.0
 20
0.0
 30
0.0
  0
VERTEX
  5
52
330
51
100
AcDbEntity
  8
_U+30EC_U+30A4_U+30E4_U+30FC 1
 62
   179
420
  2234388
370
    25
100
AcDbVertex
100
AcDb2dVertex
 10
42.95051695979658
 20
-104.6961188627151
 30
0.0
  0
VERTEX
  5
53
330
51
100
AcDbEntity
  8
_U+30EC_U+30A4_U+30E4_U+30FC 1
 62
   179
420
  2234388
370
    25
100
AcDbVertex
100
AcDb2dVertex
 10
57.95045276329025
 20
-104.6961188627151
 30
0.0
  0
SEQEND
  5
54
330
51
100
AcDbEntity
  8
_U+30EC_U+30A4_U+30E4_U+30FC 1
 62
   179
420
  2234388
370
    25
  0
POLYLINE
  5
55
330
41
100
AcDbEntity
  8
_U+30EC_U+30A4_U+30E4_U+30FC 1
 62
   179
420
  2234388
370
    25
100
AcDb2dPolyline
 66
     1
 10
0.0
 20
0.0
 30
0.0
  0
VERTEX
  5
56
330
55
100
AcDbEntity
  8
_U+30EC_U+30A4_U+30E4_U+30FC 1
 62
   179
420
  2234388
370
    25
100
AcDbVertex
100
AcDb2dVertex
 10
42.95051695979658
 20
-74.49640081470926
 30
0.0
  0
VERTEX
  5
57
330
55
100
AcDbEntity
  8
_U+30EC_U+30A4_U+30E4_U+30FC 1
 62
   179
420
  2234388
370
    25
100
AcDbVertex
100
AcDb2dVertex
 10
77.950446066874
 20
-74.49640081470926
 30
0.0
  0
SEQEND
  5
58
330
55
100
AcDbEntity
  8
_U+30EC_U+30A4_U+30E4_U+30FC 1
 62
   179
420
  2234388
370
    25
  0
POLYLINE
  5
59
330
41
100
AcDbEntity
  8
_U+30EC_U+30A4_U+30E4_U+30FC 1
 62
   179
420
  2234388
370
    25
100
AcDb2dPolyline
 66
     1
 10
0.0
 20
0.0
 30
0.0
  0
VERTEX
  5
5A
330
59
100
AcDbEntity
  8
_U+30EC_U+30A4_U+30E4_U+30FC 1
 62
   179
420
  2234388
370
    25
100
AcDbVertex
100
AcDb2dVertex
 10
57.95045276329025
 20
-101.4963185857368
 30
0.0
  0
VERTEX
  5
5B
330
59
100
AcDbEntity
  8
_U+30EC_U+30A4_U+30E4_U+30FC 1
 62
   179
420
  2234388
370
    25
100
AcDbVertex
100
AcDb2dVertex
 10
57.95045276329025
 20
-104.6961188627151
 30
0.0
  0
SEQEND
  5
5C
330
59
100
AcDbEntity
  8
_U+30EC_U+30A4_U+30E4_U+30FC 1
 62
   179
420
  2234388
370
    25
  0
POLYLINE
  5
5D
330
41
100
AcDbEntity
  8
_U+30EC_U+30A4_U+30E4_U+30FC 1
 62
   179
420
  2234388
370
    25
100
AcDb2dPolyline
 66
     1
 10
0.0
 20
0.0
 30
0.0
  0
VERTEX
  5
5E
330
5D
100
AcDbEntity
  8
_U+30EC_U+30A4_U+30E4_U+30FC 1
 62
   179
420
  2234388
370
    25
100
AcDbVertex
100
AcDb2dVertex
 10
54.95046443143019
 20
-102.4960555299319
 30
0.0
  0
VERTEX
  5
5F
330
5D
100
AcDbEntity
  8
_U+30EC_U+30A4_U+30E4_U+30FC 1
 62
   179
420
  2234388
370
    25
100
AcDbVertex
100
AcDb2dVertex
 10
56.95071438039957
 20
-102.4960555299319
 30
0.0
  0
SEQEND
  5
60
330
5D
100
AcDbEntity
  8
_U+30EC_U+30A4_U+30E4_U+30FC 1
 62
   179
420
  2234388
370
    25
  0
POLYLINE
  5
61
330
41
100
AcDbEntity
  8
_U+30EC_U+30A4_U+30E4_U+30FC 1
 62
   179
420
  2234388
370
    25
100
AcDb2dPolyline
 66
     1
 10
0.0
 20
0.0
 30
0.0
  0
VERTEX
  5
62
330
61
100
AcDbEntity
  8
_U+30EC_U+30A4_U+30E4_U+30FC 1
 62
   179
420
  2234388
370
    25
100
AcDbVertex
100
AcDb2dVertex
 10
54.95046443143019
 20
-101.4963185857368
 30
0.0
  0
VERTEX
  5
63
330
61
100
AcDbEntity
  8
_U+30EC_U+30A4_U+30E4_U+30FC 1
 62
   179
420
  2234388
370
    25
100
AcDbVertex
100
AcDb2dVertex
 10
54.95046443143019
 20
-102.4960555299319
 30
0.0
  0
SEQEND
  5
64
330
61
100
AcDbEntity
  8
_U+30EC_U+30A4_U+30E4_U+30FC 1
 62
   179
420
  2234388
370
    25
  0
POLYLINE
  5
65
330
41
100
AcDbEntity
  8
_U+30EC_U+30A4_U+30E4_U+30FC 1
 62
   179
420
  2234388
370
    25
100
AcDb2dPolyline
 66
     1
 10
0.0
 20
0.0
 30
0.0
  0
VERTEX
  5
66
330
65
100
AcDbEntity
  8
_U+30EC_U+30A4_U+30E4_U+30FC 1
 62
   179
420
  2234388
370
    25
100
AcDbVertex
100
AcDb2dVertex
 10
43.95028915651249
 20
-103.6963466407425
 30
0.0
  0
VERTEX
  5
67
330
65
100
AcDbEntity
  8
_U+30EC_U+30A4_U+30E4_U+30FC 1
 62
   179
420
  2234388
370
    25
100
AcDbVertex
100
AcDb2dVertex
 10
56.95071438039957
 20
-103.6963466407425
 30
0.0
  0
SEQEND
  5
68
330
65
100
AcDbEntity
  8
_U+30EC_U+30A4_U+30E4_U+30FC 1
 62
   179
420
  2234388
370
    25
  0
POLYLINE
  5
69
330
41
100
AcDbEntity
  8
_U+30EC_U+30A4_U+30E4_U+30FC 1
 62
   179
420
  2234388
370
    25
100
AcDb2dPolyline
 66
     1
 10
0.0
 20
0.0
 30
0.0
  0
VERTEX
  5
6A
330
69
100
AcDbEntity
  8
_U+30EC_U+30A4_U+30E4_U+30FC 1
 62
   179
420
  2234388
370
    25
100
AcDbVertex
100
AcDb2dVertex
 10
56.95071438039957
 20
-102.4960555299319
 30
0.0
  0
VERTEX
  5
6B
330
69
100
AcDbEntity
  8
_U+30EC_U+30A4_U+30E4_U+30FC 1
 62
   179
420
  2234388
370
    25
100
AcDbVertex
100
AcDb2dVertex
 10
56.95071438039957
 20
-103.6963466407425
 30
0.0
  0
SEQEND
  5
6C
330
69
100
AcDbEntity
  8
_U+30EC_U+30A4_U+30E4_U+30FC 1
 62
   179
420
  2234388
370
    25
  0
POLYLINE
  5
6D
330
41
100
AcDbEntity
  8
_U+30EC_U+30A4_U+30E4_U+30FC 1
 62
   179
420
  2234388
370
    25
100
AcDb2dPolyline
 66
     1
 10
0.0
 20
0.0
 30
0.0
  0
VERTEX
  5
6E
330
6D
100
AcDbEntity
  8
_U+30EC_U+30A4_U+30E4_U+30FC 1
 62
   179
420
  2234388
370
    25
100
AcDbVertex
100
AcDb2dVertex
 10
42.95051695979658
 20
-74.49640081470926
 30
0.0
  0
VERTEX
  5
6F
330
6D
100
AcDbEntity
  8
_U+30EC_U+30A4_U+30E4_U+30FC 1
 62
   179
420
  2234388
370
    25
100
AcDbVertex
100
AcDb2dVertex
 10
42.95051695979658
 20
-104.4963055294312
 30
0.0
  0
SEQEND
  5
70
330
6D
100
AcDbEntity
  8
_U+30EC_U+30A4_U+30E4_U+30FC 1
 62
   179
420
  2234388
370
    25
  0
POLYLINE
  5
71
330
41
100
AcDbEntity
  8
_U+30EC_U+30A4_U+30E4_U+30FC 1
 62
   179
420
  2234388
370
    25
100
AcDb2dPolyline
 66
     1
 10
0.0
 20
0.0
 30
0.0
  0
VERTEX
  5
72
330
71
100
AcDbEntity
  8
_U+30EC_U+30A4_U+30E4_U+30FC 1
 62
   179
420
  2234388
370
    25
100
AcDbVertex
100
AcDb2dVertex
 10
43.95028915651249
 20
-75.49617303668148
 30
0.0
  0
VERTEX
  5
73
330
71
100
AcDbEntity
  8
_U+30EC_U+30A4_U+30E4_U+30FC 1
 62
   179
420
  2234388
370
    25
100
AcDbVertex
100
AcDb2dVertex
 10
43.95028915651249
 20
-103.4958277519037
 30
0.0
  0
SEQEND
  5
74
330
71
100
AcDbEntity
  8
_U+30EC_U+30A4_U+30E4_U+30FC 1
 62
   179
420
  2234388
370
    25
  0
SPLINE
  5
75
330
41
100
AcDbEntity
  8
_U+30EC_U+30A4_U+30E4_U+30FC 1
 62
   179
420
  2234388
370
     9
100
AcDbSpline
210
0.0
220
0.0
230
1.0
 70
    11
 71
     3
 72
    17
 73
    13
 74
     0
 42
0.0000000001
 43
0.0000000001
 12
1.0
 22
0.0
 32
0.0
 13
1.0
 23
0.0
 33
0.0
 40
0.0
 40
0.0
 40
0.0
 40
0.0
 40
1.0
 40
1.0
 40
1.0
 40
2.0
 40
2.0
 40
2.0
 40
3.0
 40
3.0
 40
3.0
 40
4.0
 40
4.0
 40
4.0
 40
4.0
 10
78.05035273099183
 20
-70.49597137126501
 30
0.0
 10
78.05035273099183
 20
-70.44083220461194
 30
0.0
 10
78.00558523213395
 20
-70.39606470462306
 30
0.0
 10
77.950446066874
 20
-70.39606470462306
 30
0.0
 10
77.89534217939092
 20
-70.39606470462306
 30
0.0
 10
77.85053940275617
 20
-70.44083220461194
 30
0.0
 10
77.85053940275617
 20
-70.49597137126501
 30
0.0
 10
77.85053940275617
 20
-70.55107526013994
 30
0.0
 10
77.89534217939092
 20
-70.59587803790666
 30
0.0
 10
77.950446066874
 20
-70.59587803790666
 30
0.0
 10
78.00558523213395
 20
-70.59587803790666
 30
0.0
 10
78.05035273099183
 20
-70.55107526013994
 30
0.0
 10
78.05035273099183
 20
-70.49597137126501
 30
0.0
  0
SPLINE
  5
76
330
41
100
AcDbEntity
  8
_U+30EC_U+30A4_U+30E4_U+30FC 1
 62
   179
420
  2234388
370
     9
100
AcDbSpline
210
0.0
220
0.0
230
1.0
 70
    11
 71
     3
 72
    17
 73
    13
 74
     0
 42
0.0000000001
 43
0.0000000001
 12
1.0
 22
0.0
 32
0.0
 13
1.0
 23
0.0
 33
0.0
 40
0.0
 40
0.0
 40
0.0
 40
0.0
 40
1.0
 40
1.0
 40
1.0
 40
2.0
 40
2.0
 40
2.0
 40
3.0
 40
3.0
 40
3.0
 40
4.0
 40
4.0
 40
4.0
 40
4.0
 10
82.05011386837656
 20
-74.49640081470926
 30
0.0
 10
82.05011386837656
 20
-74.44059137027882
 30
0.0
 10
82.00534429675825
 20
-74.3957885925121
 30
0.0
 10
81.95020513149831
 20
-74.3957885925121
 30
0.0
 10
81.89510124401524
 20
-74.3957885925121
 30
0.0
 10
81.85029846738047
 20
-74.44059137027882
 30
0.0
 10
81.85029846738047
 20
-74.49640081470926
 30
0.0
 10
81.85029846738047
 20
-74.5515047035845
 30
0.0
 10
81.89510124401524
 20
-74.5963074813509
 30
0.0
 10
81.95020513149831
 20
-74.5963074813509
 30
0.0
 10
82.00534429675825
 20
-74.5963074813509
 30
0.0
 10
82.05011386837656
 20
-74.5515047035845
 30
0.0
 10
82.05011386837656
 20
-74.49640081470926
 30
0.0
  0
SPLINE
  5
77
330
41
100
AcDbEntity
  8
_U+30EC_U+30A4_U+30E4_U+30FC 1
 62
   179
420
  2234388
370
     9
100
AcDbSpline
210
0.0
220
0.0
230
1.0
 70
    11
 71
     3
 72
    17
 73
    13
 74
     0
 42
0.0000000001
 43
0.0000000001
 12
1.0
 22
0.0
 32
0.0
 13
1.0
 23
0.0
 33
0.0
 40
0.0
 40
0.0
 40
0.0
 40
0.0
 40
1.0
 40
1.0
 40
1.0
 40
2.0
 40
2.0
 40
2.0
 40
3.0
 40
3.0
 40
3.0
 40
4.0
 40
4.0
 40
4.0
 40
4.0
 10
58.05035796345643
 20
-108.6958780283813
 30
0.0
 10
58.05035796345643
 20
-108.6407388617289
 30
0.0
 10
58.00559046459855
 20
-108.5959713617397
 30
0.0
 10
57.95045276329025
 20
-108.5959713617397
 30
0.0
 10
57.89534741185552
 20
-108.5959713617397
 30
0.0
 10
57.85054463522076
 20
-108.6407388617289
 30
0.0
 10
57.85054463522076
 20
-108.6958780283813
 30
0.0
 10
57.85054463522076
 20
-108.7509819172569
 30
0.0
 10
57.89534741185552
 20
-108.795784695023
 30
0.0
 10
57.95045276329025
 20
-108.795784695023
 30
0.0
 10
58.00559046459855
 20
-108.795784695023
 30
0.0
 10
58.05035796345643
 20
-108.7509819172569
 30
0.0
 10
58.05035796345643
 20
-108.6958780283813
 30
0.0
  0
SPLINE
  5
78
330
41
100
AcDbEntity
  8
_U+30EC_U+30A4_U+30E4_U+30FC 1
 62
   179
420
  2234388
370
     9
100
AcDbSpline
210
0.0
220
0.0
230
1.0
 70
    11
 71
     3
 72
    17
 73
    13
 74
     0
 42
0.0000000001
 43
0.0000000001
 12
1.0
 22
0.0
 32
0.0
 13
1.0
 23
0.0
 33
0.0
 40
0.0
 40
0.0
 40
0.0
 40
0.0
 40
1.0
 40
1.0
 40
1.0
 40
2.0
 40
2.0
 40
2.0
 40
3.0
 40
3.0
 40
3.0
 40
4.0
 40
4.0
 40
4.0
 40
4.0
 10
82.05011386837656
 20
-75.49617303668148
 30
0.0
 10
82.05011386837656
 20
-75.44103387002873
 30
0.0
 10
82.00534429675825
 20
-75.39626637003984
 30
0.0
 10
81.95020513149831
 20
-75.39626637003984
 30
0.0
 10
81.89510124401524
 20
-75.39626637003984
 30
0.0
 10
81.85029846738047
 20
-75.44103387002873
 30
0.0
 10
81.85029846738047
 20
-75.49617303668148
 30
0.0
 10
81.85029846738047
 20
-75.55127692555672
 30
0.0
 10
81.89510124401524
 20
-75.59607970332313
 30
0.0
 10
81.95020513149831
 20
-75.59607970332313
 30
0.0
 10
82.00534429675825
 20
-75.59607970332313
 30
0.0
 10
82.05011386837656
 20
-75.55127692555672
 30
0.0
 10
82.05011386837656
 20
-75.49617303668148
 30
0.0
  0
SPLINE
  5
79
330
41
100
AcDbEntity
  8
_U+30EC_U+30A4_U+30E4_U+30FC 1
 62
   179
420
  2234388
370
     9
100
AcDbSpline
210
0.0
220
0.0
230
1.0
 70
    11
 71
     3
 72
    17
 73
    13
 74
     0
 42
0.0000000001
 43
0.0000000001
 12
1.0
 22
0.0
 32
0.0
 13
1.0
 23
0.0
 33
0.0
 40
0.0
 40
0.0
 40
0.0
 40
0.0
 40
1.0
 40
1.0
 40
1.0
 40
2.0
 40
2.0
 40
2.0
 40
3.0
 40
3.0
 40
3.0
 40
4.0
 40
4.0
 40
4.0
 40
4.0
 10
43.05042362391441
 20
-108.6958780283813
 30
0.0
 10
43.05042362391441
 20
-108.6407388617289
 30
0.0
 10
43.00565612505653
 20
-108.5959713617397
 30
0.0
 10
42.95051695979658
 20
-108.5959713617397
 30
0.0
 10
42.89541307231351
 20
-108.5959713617397
 30
0.0
 10
42.85061029567874
 20
-108.6407388617289
 30
0.0
 10
42.85061029567874
 20
-108.6958780283813
 30
0.0
 10
42.85061029567874
 20
-108.7509819172569
 30
0.0
 10
42.89541307231351
 20
-108.795784695023
 30
0.0
 10
42.95051695979658
 20
-108.795784695023
 30
0.0
 10
43.00565612505653
 20
-108.795784695023
 30
0.0
 10
43.05042362391441
 20
-108.7509819172569
 30
0.0
 10
43.05042362391441
 20
-108.6958780283813
 30
0.0
  0
SPLINE
  5
7A
330
41
100
AcDbEntity
  8
_U+30EC_U+30A4_U+30E4_U+30FC 1
 62
   179
420
  2234388
370
     9
100
AcDbSpline
210
0.0
220
0.0
230
1.0
 70
    11
 71
     3
 72
    17
 73
    13
 74
     0
 42
0.0000000001
 43
0.0000000001
 12
1.0
 22
0.0
 32
0.0
 13
1.0
 23
0.0
 33
0.0
 40
0.0
 40
0.0
 40
0.0
 40
0.0
 40
1.0
 40
1.0
 40
1.0
 40
2.0
 40
2.0
 40
2.0
 40
3.0
 40
3.0
 40
3.0
 40
4.0
 40
4.0
 40
4.0
 40
4.0
 10
43.05042362391441
 20
-70.49597137126501
 30
0.0
 10
43.05042362391441
 20
-70.44083220461194
 30
0.0
 10
43.00565612505653
 20
-70.39606470462306
 30
0.0
 10
42.95051695979658
 20
-70.39606470462306
 30
0.0
 10
42.89541307231351
 20
-70.39606470462306
 30
0.0
 10
42.85061029567874
 20
-70.44083220461194
 30
0.0
 10
42.85061029567874
 20
-70.49597137126501
 30
0.0
 10
42.85061029567874
 20
-70.55107526013994
 30
0.0
 10
42.89541307231351
 20
-70.59587803790666
 30
0.0
 10
42.95051695979658
 20
-70.59587803790666
 30
0.0
 10
43.00565612505653
 20
-70.59587803790666
 30
0.0
 10
43.05042362391441
 20
-70.55107526013994
 30
0.0
 10
43.05042362391441
 20
-70.49597137126501
 30
0.0
  0
SPLINE
  5
7B
330
41
100
AcDbEntity
  8
_U+30EC_U+30A4_U+30E4_U+30FC 1
 62
   179
420
  2234388
370
     9
100
AcDbSpline
210
0.0
220
0.0
230
1.0
 70
    11
 71
     3
 72
    17
 73
    13
 74
     0
 42
0.0000000001
 43
0.0000000001
 12
1.0
 22
0.0
 32
0.0
 13
1.0
 23
0.0
 33
0.0
 40
0.0
 40
0.0
 40
0.0
 40
0.0
 40
1.0
 40
1.0
 40
1.0
 40
2.0
 40
2.0
 40
2.0
 40
3.0
 40
3.0
 40
3.0
 40
4.0
 40
4.0
 40
4.0
 40
4.0
 10
82.05011386837656
 20
-101.4963185857368
 30
0.0
 10
82.05011386837656
 20
-101.4405091413064
 30
0.0
 10
82.00534429675825
 20
-101.3964119190952
 30
0.0
 10
81.95020513149831
 20
-101.3964119190952
 30
0.0
 10
81.89510124401524
 20
-101.3964119190952
 30
0.0
 10
81.85029846738047
 20
-101.4405091413064
 30
0.0
 10
81.85029846738047
 20
-101.4963185857368
 30
0.0
 10
81.85029846738047
 20
-101.5514224746124
 30
0.0
 10
81.89510124401524
 20
-101.5962252523785
 30
0.0
 10
81.95020513149831
 20
-101.5962252523785
 30
0.0
 10
82.00534429675825
 20
-101.5962252523785
 30
0.0
 10
82.05011386837656
 20
-101.5514224746124
 30
0.0
 10
82.05011386837656
 20
-101.4963185857368
 30
0.0
  0
SPLINE
  5
7C
330
41
100
AcDbEntity
  8
_U+30EC_U+30A4_U+30E4_U+30FC 1
 62
   179
420
  2234388
370
     9
100
AcDbSpline
210
0.0
220
0.0
230
1.0
 70
    11
 71
     3
 72
    17
 73
    13
 74
     0
 42
0.0000000001
 43
0.0000000001
 12
1.0
 22
0.0
 32
0.0
 13
1.0
 23
0.0
 33
0.0
 40
0.0
 40
0.0
 40
0.0
 40
0.0
 40
1.0
 40
1.0
 40
1.0
 40
2.0
 40
2.0
 40
2.0
 40
3.0
 40
3.0
 40
3.0
 40
4.0
 40
4.0
 40
4.0
 40
4.0
 10
82.05011386837656
 20
-104.6961188627151
 30
0.0
 10
82.05011386837656
 20
-104.640979696062
 30
0.0
 10
82.00534429675825
 20
-104.5962121960735
 30
0.0
 10
81.95020513149831
 20
-104.5962121960735
 30
0.0
 10
81.89510124401524
 20
-104.5962121960735
 30
0.0
 10
81.85029846738047
 20
-104.640979696062
 30
0.0
 10
81.85029846738047
 20
-104.6961188627151
 30
0.0
 10
81.85029846738047
 20
-104.75122275159
 30
0.0
 10
81.89510124401524
 20
-104.7960255293567
 30
0.0
 10
81.95020513149831
 20
-104.7960255293567
 30
0.0
 10
82.00534429675825
 20
-104.7960255293567
 30
0.0
 10
82.05011386837656
 20
-104.75122275159
 30
0.0
 10
82.05011386837656
 20
-104.6961188627151
 30
0.0
  0
INSERT
  5
7E
330
41
100
AcDbEntity
  8
_U+30EC_U+30A4_U+30E4_U+30FC 1
100
AcDbBlockReference
  2
block 3
 10
0.0
 20
0.0
 30
0.0
  0
INSERT
  5
98
330
41
100
AcDbEntity
  8
_U+30EC_U+30A4_U+30E4_U+30FC 1
100
AcDbBlockReference
  2
block 5
 10
0.0
 20
0.0
 30
0.0
  0
INSERT
  5
B0
330
41
100
AcDbEntity
  8
_U+30EC_U+30A4_U+30E4_U+30FC 1
100
AcDbBlockReference
  2
block 7
 10
0.0
 20
0.0
 30
0.0
  0
INSERT
  5
C8
330
41
100
AcDbEntity
  8
_U+30EC_U+30A4_U+30E4_U+30FC 1
100
AcDbBlockReference
  2
block 9
 10
0.0
 20
0.0
 30
0.0
  0
INSERT
  5
EC
330
41
100
AcDbEntity
  8
_U+30EC_U+30A4_U+30E4_U+30FC 1
100
AcDbBlockReference
  2
block 11
 10
0.0
 20
0.0
 30
0.0
  0
ENDBLK
  5
44
330
41
100
AcDbEntity
  8
0
100
AcDbBlockEnd
  0
BLOCK
  5
7F
330
7D
100
AcDbEntity
  8
0
100
AcDbBlockBegin
  2
block 3
 70
     0
 10
0.0
 20
0.0
 30
0.0
  3
block 3
  1

  0
POLYLINE
  5
81
330
7D
100
AcDbEntity
  8
_U+30EC_U+30A4_U+30E4_U+30FC 1
 62
   179
420
  2234388
370
     9
100
AcDb2dPolyline
 66
     1
 10
0.0
 20
0.0
 30
0.0
  0
VERTEX
  5
82
330
81
100
AcDbEntity
  8
_U+30EC_U+30A4_U+30E4_U+30FC 1
 62
   179
420
  2234388
370
     9
100
AcDbVertex
100
AcDb2dVertex
 10
81.95020513149831
 20
-74.49640081470926
 30
0.0
  0
VERTEX
  5
83
330
81
100
AcDbEntity
  8
_U+30EC_U+30A4_U+30E4_U+30FC 1
 62
   179
420
  2234388
370
     9
100
AcDbVertex
100
AcDb2dVertex
 10
81.95020513149831
 20
-73.49595831495937
 30
0.0
  0
SEQEND
  5
84
330
81
100
AcDbEntity
  8
_U+30EC_U+30A4_U+30E4_U+30FC 1
 62
   179
420
  2234388
370
     9
  0
POLYLINE
  5
85
330
7D
100
AcDbEntity
  8
_U+30EC_U+30A4_U+30E4_U+30FC 1
 62
   179
420
  2234388
370
     9
100
AcDb2dPolyline
 66
     1
 10
0.0
 20
0.0
 30
0.0
  0
VERTEX
  5
86
330
85
100
AcDbEntity
  8
_U+30EC_U+30A4_U+30E4_U+30FC 1
 62
   179
420
  2234388
370
     9
100
AcDbVertex
100
AcDb2dVertex
 10
81.95020513149831
 20
-74.49640081470926
 30
0.0
  0
VERTEX
  5
87
330
85
100
AcDbEntity
  8
_U+30EC_U+30A4_U+30E4_U+30FC 1
 62
   179
420
  2234388
370
     9
100
AcDbVertex
100
AcDb2dVertex
 10
81.95020513149831
 20
-75.49617303668148
 30
0.0
  0
SEQEND
  5
88
330
85
100
AcDbEntity
  8
_U+30EC_U+30A4_U+30E4_U+30FC 1
 62
   179
420
  2234388
370
     9
  0
POLYLINE
  5
89
330
7D
100
AcDbEntity
  8
_U+30EC_U+30A4_U+30E4_U+30FC 1
 62
   179
420
  2234388
370
     9
100
AcDb2dPolyline
 66
     1
 10
0.0
 20
0.0
 30
0.0
  0
VERTEX
  5
8A
330
89
100
AcDbEntity
  8
_U+30EC_U+30A4_U+30E4_U+30FC 1
 62
   179
420
  2234388
370
     9
100
AcDbVertex
100
AcDb2dVertex
 10
80.49016377985818
 20
-74.49640081470926
 30
0.0
  0
VERTEX
  5
8B
330
89
100
AcDbEntity
  8
_U+30EC_U+30A4_U+30E4_U+30FC 1
 62
   179
420
  2234388
370
     9
100
AcDbVertex
100
AcDb2dVertex
 10
82.94997732821422
 20
-74.49640081470926
 30
0.0
  0
SEQEND
  5
8C
330
89
100
AcDbEntity
  8
_U+30EC_U+30A4_U+30E4_U+30FC 1
 62
   179
420
  2234388
370
     9
  0
POLYLINE
  5
8D
330
7D
100
AcDbEntity
  8
_U+30EC_U+30A4_U+30E4_U+30FC 1
 62
   179
420
  2234388
370
     9
100
AcDb2dPolyline
 66
     1
 10
0.0
 20
0.0
 30
0.0
  0
VERTEX
  5
8E
330
8D
100
AcDbEntity
  8
_U+30EC_U+30A4_U+30E4_U+30FC 1
 62
   179
420
  2234388
370
     9
100
AcDbVertex
100
AcDb2dVertex
 10
80.49016377985818
 20
-75.49617303668148
 30
0.0
  0
VERTEX
  5
8F
330
8D
100
AcDbEntity
  8
_U+30EC_U+30A4_U+30E4_U+30FC 1
 62
   179
420
  2234388
370
     9
100
AcDbVertex
100
AcDb2dVertex
 10
82.94997732821422
 20
-75.49617303668148
 30
0.0
  0
SEQEND
  5
90
330
8D
100
AcDbEntity
  8
_U+30EC_U+30A4_U+30E4_U+30FC 1
 62
   179
420
  2234388
370
     9
  0
INSERT
  5
92
330
7D
100
AcDbEntity
  8
_U+30EC_U+30A4_U+30E4_U+30FC 1
100
AcDbBlockReference
  2
block 4
 10
0.0
 20
0.0
 30
0.0
  0
ENDBLK
  5
80
330
7D
100
AcDbEntity
  8
0
100
AcDbBlockEnd
  0
BLOCK
  5
93
330
91
100
AcDbEntity
  8
0
100
AcDbBlockBegin
  2
block 4
 70
     0
 10
0.0
 20
0.0
 30
0.0
  3
block 4
  1

  0
SPLINE
  5
95
330
91
100
AcDbEntity
  8
_U+30EC_U+30A4_U+30E4_U+30FC 1
370
     0
100
AcDbSpline
210
0.0
220
0.0
230
1.0
 70
    11
 71
     3
 72
    26
 73
    22
 74
     0
 42
0.0000000001
 43
0.0000000001
 12
1.0
 22
0.0
 32
0.0
 13
1.0
 23
0.0
 33
0.0
 40
0.0
 40
0.0
 40
0.0
 40
0.0
 40
1.0
 40
1.0
 40
1.0
 40
2.0
 40
2.0
 40
2.0
 40
3.0
 40
3.0
 40
3.0
 40
4.0
 40
4.0
 40
4.0
 40
5.0
 40
5.0
 40
5.0
 40
6.0
 40
6.0
 40
6.0
 40
7.0
 40
7.0
 40
7.0
 40
7.0
 10
81.30666501873584
 20
-75.11445039354778
 30
0.0
 10
81.30666501873584
 20
-75.11445039354778
 30
0.0
 10
80.20251191571326
 20
-75.11445039354778
 30
0.0
 10
80.20251191571326
 20
-75.11445039354778
 30
0.0
 10
80.20251191571326
 20
-75.11445039354778
 30
0.0
 10
80.20251191571326
 20
-75.46688366168884
 30
0.0
 10
80.20251191571326
 20
-75.46688366168884
 30
0.0
 10
80.20251191571326
 20
-75.46688366168884
 30
0.0
 10
80.05437280984752
 20
-75.46688366168884
 30
0.0
 10
80.05437280984752
 20
-75.46688366168884
 30
0.0
 10
80.03955889926095
 20
-75.1120388267081
 30
0.0
 10
79.87660588280863
 20
-75.0624294517205
 30
0.0
 10
79.76222871269833
 20
-75.03073457325621
 30
0.0
 10
79.76222871269833
 20
-75.03073457325621
 30
0.0
 10
79.76222871269833
 20
-74.87467174777439
 30
0.0
 10
79.76222871269833
 20
-74.87467174777439
 30
0.0
 10
79.76222871269833
 20
-74.87467174777439
 30
0.0
 10
81.30666501873584
 20
-74.87467174777439
 30
0.0
 10
81.30666501873584
 20
-74.87467174777439
 30
0.0
 10
81.30666501873584
 20
-74.87467174777439
 30
0.0
 10
81.30666501873584
 20
-75.11445039354778
 30
0.0
 10
81.30666501873584
 20
-75.11445039354778
 30
0.0
  0
HATCH
  5
96
330
91
100
AcDbEntity
  8
_U+30EC_U+30A4_U+30E4_U+30FC 1
 62
   179
420
  2234388
100
AcDbHatch
 10
0.0
 20
0.0
 30
0.0
210
0.0
220
0.0
230
1.0
  2
SOLID
 70
     1
 71
     0
 91
        1
 92
        1
 93
        1
 72
     4
 94
        3
 73
     0
 74
     1
 95
       26
 96
       22
 40
0.0
 40
0.0
 40
0.0
 40
0.0
 40
1.0
 40
1.0
 40
1.0
 40
2.0
 40
2.0
 40
2.0
 40
3.0
 40
3.0
 40
3.0
 40
4.0
 40
4.0
 40
4.0
 40
5.0
 40
5.0
 40
5.0
 40
6.0
 40
6.0
 40
6.0
 40
7.0
 40
7.0
 40
7.0
 40
7.0
 10
81.30666501873584
 20
-75.11445039354778
 10
81.30666501873584
 20
-75.11445039354778
 10
80.20251191571326
 20
-75.11445039354778
 10
80.20251191571326
 20
-75.11445039354778
 10
80.20251191571326
 20
-75.11445039354778
 10
80.20251191571326
 20
-75.46688366168884
 10
80.20251191571326
 20
-75.46688366168884
 10
80.20251191571326
 20
-75.46688366168884
 10
80.05437280984752
 20
-75.46688366168884
 10
80.05437280984752
 20
-75.46688366168884
 10
80.03955889926095
 20
-75.1120388267081
 10
79.87660588280863
 20
-75.0624294517205
 10
79.76222871269833
 20
-75.03073457325621
 10
79.76222871269833
 20
-75.03073457325621
 10
79.76222871269833
 20
-74.87467174777439
 10
79.76222871269833
 20
-74.87467174777439
 10
79.76222871269833
 20
-74.87467174777439
 10
81.30666501873584
 20
-74.87467174777439
 10
81.30666501873584
 20
-74.87467174777439
 10
81.30666501873584
 20
-74.87467174777439
 10
81.30666501873584
 20
-75.11445039354778
 10
81.30666501873584
 20
-75.11445039354778
 97
        0
 97
        0
 75
     2
 76
     1
 98
        0
  0
ENDBLK
  5
94
330
91
100
AcDbEntity
  8
0
100
AcDbBlockEnd
  0
BLOCK
  5
99
330
97
100
AcDbEntity
  8
0
100
AcDbBlockBegin
  2
block 5
 70
     0
 10
0.0
 20
0.0
 30
0.0
  3
block 5
  1

  0
POLYLINE
  5
9B
330
97
100
AcDbEntity
  8
_U+30EC_U+30A4_U+30E4_U+30FC 1
 62
   179
420
  2234388
370
     9
100
AcDb2dPolyline
 66
     1
 10
0.0
 20
0.0
 30
0.0
  0
VERTEX
  5
9C
330
9B
100
AcDbEntity
  8
_U+30EC_U+30A4_U+30E4_U+30FC 1
 62
   179
420
  2234388
370
     9
100
AcDbVertex
100
AcDb2dVertex
 10
42.95051695979658
 20
-70.49597137126501
 30
0.0
  0
VERTEX
  5
9D
330
9B
100
AcDbEntity
  8
_U+30EC_U+30A4_U+30E4_U+30FC 1
 62
   179
420
  2234388
370
     9
100
AcDbVertex
100
AcDb2dVertex
 10
77.950446066874
 20
-70.49597137126501
 30
0.0
  0
SEQEND
  5
9E
330
9B
100
AcDbEntity
  8
_U+30EC_U+30A4_U+30E4_U+30FC 1
 62
   179
420
  2234388
370
     9
  0
POLYLINE
  5
9F
330
97
100
AcDbEntity
  8
_U+30EC_U+30A4_U+30E4_U+30FC 1
 62
   179
420
  2234388
370
     9
100
AcDb2dPolyline
 66
     1
 10
0.0
 20
0.0
 30
0.0
  0
VERTEX
  5
A0
330
9F
100
AcDbEntity
  8
_U+30EC_U+30A4_U+30E4_U+30FC 1
 62
   179
420
  2234388
370
     9
100
AcDbVertex
100
AcDb2dVertex
 10
42.95051695979658
 20
-71.95597748201088
 30
0.0
  0
VERTEX
  5
A1
330
9F
100
AcDbEntity
  8
_U+30EC_U+30A4_U+30E4_U+30FC 1
 62
   179
420
  2234388
370
     9
100
AcDbVertex
100
AcDb2dVertex
 10
42.95051695979658
 20
-69.49619914929248
 30
0.0
  0
SEQEND
  5
A2
330
9F
100
AcDbEntity
  8
_U+30EC_U+30A4_U+30E4_U+30FC 1
 62
   179
420
  2234388
370
     9
  0
POLYLINE
  5
A3
330
97
100
AcDbEntity
  8
_U+30EC_U+30A4_U+30E4_U+30FC 1
 62
   179
420
  2234388
370
     9
100
AcDb2dPolyline
 66
     1
 10
0.0
 20
0.0
 30
0.0
  0
VERTEX
  5
A4
330
A3
100
AcDbEntity
  8
_U+30EC_U+30A4_U+30E4_U+30FC 1
 62
   179
420
  2234388
370
     9
100
AcDbVertex
100
AcDb2dVertex
 10
77.950446066874
 20
-71.95597748201088
 30
0.0
  0
VERTEX
  5
A5
330
A3
100
AcDbEntity
  8
_U+30EC_U+30A4_U+30E4_U+30FC 1
 62
   179
420
  2234388
370
     9
100
AcDbVertex
100
AcDb2dVertex
 10
77.950446066874
 20
-69.49619914929248
 30
0.0
  0
SEQEND
  5
A6
330
A3
100
AcDbEntity
  8
_U+30EC_U+30A4_U+30E4_U+30FC 1
 62
   179
420
  2234388
370
     9
  0
INSERT
  5
A8
330
97
100
AcDbEntity
  8
_U+30EC_U+30A4_U+30E4_U+30FC 1
100
AcDbBlockReference
  2
block 6
 10
0.0
 20
0.0
 30
0.0
  0
ENDBLK
  5
9A
330
97
100
AcDbEntity
  8
0
100
AcDbBlockEnd
  0
BLOCK
  5
A9
330
A7
100
AcDbEntity
  8
0
100
AcDbBlockBegin
  2
block 6
 70
     0
 10
0.0
 20
0.0
 30
0.0
  3
block 6
  1

  0
SPLINE
  5
AB
330
A7
100
AcDbEntity
  8
_U+30EC_U+30A4_U+30E4_U+30FC 1
370
     0
100
AcDbSpline
210
0.0
220
0.0
230
1.0
 70
    11
 71
     3
 72
    62
 73
    58
 74
     0
 42
0.0000000001
 43
0.0000000001
 12
1.0
 22
0.0
 32
0.0
 13
1.0
 23
0.0
 33
0.0
 40
0.0
 40
0.0
 40
0.0
 40
0.0
 40
1.0
 40
1.0
 40
1.0
 40
2.0
 40
2.0
 40
2.0
 40
3.0
 40
3.0
 40
3.0
 40
4.0
 40
4.0
 40
4.0
 40
5.0
 40
5.0
 40
5.0
 40
6.0
 40
6.0
 40
6.0
 40
7.0
 40
7.0
 40
7.0
 40
8.0
 40
8.0
 40
8.0
 40
9.0
 40
9.0
 40
9.0
 40
10.0
 40
10.0
 40
10.0
 40
11.0
 40
11.0
 40
11.0
 40
12.0
 40
12.0
 40
12.0
 40
13.0
 40
13.0
 40
13.0
 40
14.0
 40
14.0
 40
14.0
 40
15.0
 40
15.0
 40
15.0
 40
16.0
 40
16.0
 40
16.0
 40
17.0
 40
17.0
 40
17.0
 40
18.0
 40
18.0
 40
18.0
 40
19.0
 40
19.0
 40
19.0
 40
19.0
 10
59.81202526716505
 20
-69.19594860466282
 30
0.0
 10
59.71039495035019
 20
-69.19594860466282
 30
0.0
 10
59.4775064955473
 20
-69.17476126742854
 30
0.0
 10
59.34400904549386
 20
-68.98855385645078
 30
0.0
 10
59.26494410410738
 20
-68.8764159984059
 30
0.0
 10
59.26046547997655
 20
-68.77702499365644
 30
0.0
 10
59.25598685584573
 20
-68.69244789949356
 30
0.0
 10
59.25598685584573
 20
-68.69244789949356
 30
0.0
 10
59.49094236793977
 20
-68.69244789949356
 30
0.0
 10
59.49094236793977
 20
-68.69244789949356
 30
0.0
 10
59.49335393477944
 20
-68.76651745242643
 30
0.0
 10
59.50455049510651
 20
-69.0013007097462
 30
0.0
 10
59.80754664303423
 20
-69.0013007097462
 30
0.0
 10
59.95447996548013
 20
-69.0013007097462
 30
0.0
 10
60.11726072715819
 20
-68.93153752616989
 30
0.0
 10
60.11726072715819
 20
-68.70295544072357
 30
0.0
 10
60.11726072715819
 20
-68.58668346809638
 30
0.0
 10
60.07660860043224
 20
-68.53793536698011
 30
0.0
 10
60.04267440990253
 20
-68.5062404885158
 30
0.0
 10
59.96360946851605
 20
-68.43217093558293
 30
0.0
 10
59.83924152149853
 20
-68.41959633706178
 30
0.0
 10
59.78033038870075
 20
-68.41959633706178
 30
0.0
 10
59.76000432533778
 20
-68.41959633706178
 30
0.0
 10
59.72159151067724
 20
-68.42166339435292
 30
0.0
 10
59.69230819905262
 20
-68.42579750893522
 30
0.0
 10
59.69230819905262
 20
-68.42579750893522
 30
0.0
 10
59.69230819905262
 20
-68.2311496140186
 30
0.0
 10
59.69230819905262
 20
-68.2311496140186
 30
0.0
 10
59.73296032577857
 20
-68.23752304066632
 30
0.0
 10
59.77809107663534
 20
-68.23976235273173
 30
0.0
 10
59.78498126760584
 20
-68.23976235273173
 30
0.0
 10
59.85508896073068
 20
-68.23976235273173
 30
0.0
 10
60.06747909739633
 20
-68.21857501549744
 30
0.0
 10
60.06747909739633
 20
-67.98155244611226
 30
0.0
 10
60.06747909739633
 20
-67.80395777384763
 30
0.0
 10
59.92743596592092
 20
-67.74883624608363
 30
0.0
 10
59.80978595509964
 20
-67.74883624608363
 30
0.0
 10
59.52711587053489
 20
-67.74883624608363
 30
0.0
 10
59.51815862227324
 20
-67.98155244611226
 30
0.0
 10
59.51367999814241
 20
-68.05355494175397
 30
0.0
 10
59.51367999814241
 20
-68.05355494175397
 30
0.0
 10
59.29663898257168
 20
-68.05355494175397
 30
0.0
 10
59.29663898257168
 20
-68.05355494175397
 30
0.0
 10
59.30559623083332
 20
-67.92867023041367
 30
0.0
 10
59.33505179723221
 20
-67.55212129387586
 30
0.0
 10
59.82339408226638
 20
-67.55212129387586
 30
0.0
 10
60.0630004732655
 20
-67.55212129387586
 30
0.0
 10
60.32069361556219
 20
-67.67907306250731
 30
0.0
 10
60.32069361556219
 20
-67.97517901946455
 30
0.0
 10
60.32069361556219
 20
-68.16138643044229
 30
0.0
 10
60.21906329874732
 20
-68.24389646731403
 30
0.0
 10
60.11278210302736
 20
-68.30521916695147
 30
0.0
 10
60.17823891724711
 20
-68.33277993083348
 30
0.0
 10
60.37271455738946
 20
-68.41322291041406
 30
0.0
 10
60.37271455738946
 20
-68.6903808422024
 30
0.0
 10
60.37271455738946
 20
-69.02886147362821
 30
0.0
 10
60.10830347889654
 20
-69.19594860466282
 30
0.0
 10
59.81202526716505
 20
-69.19594860466282
 30
0.0
  0
HATCH
  5
AC
330
A7
100
AcDbEntity
  8
_U+30EC_U+30A4_U+30E4_U+30FC 1
 62
   179
420
  2234388
100
AcDbHatch
 10
0.0
 20
0.0
 30
0.0
210
0.0
220
0.0
230
1.0
  2
SOLID
 70
     1
 71
     0
 91
        1
 92
        1
 93
        1
 72
     4
 94
        3
 73
     0
 74
     1
 95
       62
 96
       58
 40
0.0
 40
0.0
 40
0.0
 40
0.0
 40
1.0
 40
1.0
 40
1.0
 40
2.0
 40
2.0
 40
2.0
 40
3.0
 40
3.0
 40
3.0
 40
4.0
 40
4.0
 40
4.0
 40
5.0
 40
5.0
 40
5.0
 40
6.0
 40
6.0
 40
6.0
 40
7.0
 40
7.0
 40
7.0
 40
8.0
 40
8.0
 40
8.0
 40
9.0
 40
9.0
 40
9.0
 40
10.0
 40
10.0
 40
10.0
 40
11.0
 40
11.0
 40
11.0
 40
12.0
 40
12.0
 40
12.0
 40
13.0
 40
13.0
 40
13.0
 40
14.0
 40
14.0
 40
14.0
 40
15.0
 40
15.0
 40
15.0
 40
16.0
 40
16.0
 40
16.0
 40
17.0
 40
17.0
 40
17.0
 40
18.0
 40
18.0
 40
18.0
 40
19.0
 40
19.0
 40
19.0
 40
19.0
 10
59.81202526716505
 20
-69.19594860466282
 10
59.71039495035019
 20
-69.19594860466282
 10
59.4775064955473
 20
-69.17476126742854
 10
59.34400904549386
 20
-68.98855385645078
 10
59.26494410410738
 20
-68.8764159984059
 10
59.26046547997655
 20
-68.77702499365644
 10
59.25598685584573
 20
-68.69244789949356
 10
59.25598685584573
 20
-68.69244789949356
 10
59.49094236793977
 20
-68.69244789949356
 10
59.49094236793977
 20
-68.69244789949356
 10
59.49335393477944
 20
-68.76651745242643
 10
59.50455049510651
 20
-69.0013007097462
 10
59.80754664303423
 20
-69.0013007097462
 10
59.95447996548013
 20
-69.0013007097462
 10
60.11726072715819
 20
-68.93153752616989
 10
60.11726072715819
 20
-68.70295544072357
 10
60.11726072715819
 20
-68.58668346809638
 10
60.07660860043224
 20
-68.53793536698011
 10
60.04267440990253
 20
-68.5062404885158
 10
59.96360946851605
 20
-68.43217093558293
 10
59.83924152149853
 20
-68.41959633706178
 10
59.78033038870075
 20
-68.41959633706178
 10
59.76000432533778
 20
-68.41959633706178
 10
59.72159151067724
 20
-68.42166339435292
 10
59.69230819905262
 20
-68.42579750893522
 10
59.69230819905262
 20
-68.42579750893522
 10
59.69230819905262
 20
-68.2311496140186
 10
59.69230819905262
 20
-68.2311496140186
 10
59.73296032577857
 20
-68.23752304066632
 10
59.77809107663534
 20
-68.23976235273173
 10
59.78498126760584
 20
-68.23976235273173
 10
59.85508896073068
 20
-68.23976235273173
 10
60.06747909739633
 20
-68.21857501549744
 10
60.06747909739633
 20
-67.98155244611226
 10
60.06747909739633
 20
-67.80395777384763
 10
59.92743596592092
 20
-67.74883624608363
 10
59.80978595509964
 20
-67.74883624608363
 10
59.52711587053489
 20
-67.74883624608363
 10
59.51815862227324
 20
-67.98155244611226
 10
59.51367999814241
 20
-68.05355494175397
 10
59.51367999814241
 20
-68.05355494175397
 10
59.29663898257168
 20
-68.05355494175397
 10
59.29663898257168
 20
-68.05355494175397
 10
59.30559623083332
 20
-67.92867023041367
 10
59.33505179723221
 20
-67.55212129387586
 10
59.82339408226638
 20
-67.55212129387586
 10
60.0630004732655
 20
-67.55212129387586
 10
60.32069361556219
 20
-67.67907306250731
 10
60.32069361556219
 20
-67.97517901946455
 10
60.32069361556219
 20
-68.16138643044229
 10
60.21906329874732
 20
-68.24389646731403
 10
60.11278210302736
 20
-68.30521916695147
 10
60.17823891724711
 20
-68.33277993083348
 10
60.37271455738946
 20
-68.41322291041406
 10
60.37271455738946
 20
-68.6903808422024
 10
60.37271455738946
 20
-69.02886147362821
 10
60.10830347889654
 20
-69.19594860466282
 10
59.81202526716505
 20
-69.19594860466282
 97
        0
 97
        0
 75
     2
 76
     1
 98
        0
  0
SPLINE
  5
AD
330
A7
100
AcDbEntity
  8
_U+30EC_U+30A4_U+30E4_U+30FC 1
370
     0
100
AcDbSpline
210
0.0
220
0.0
230
1.0
 70
    11
 71
     3
 72
    53
 73
    49
 74
     0
 42
0.0000000001
 43
0.0000000001
 12
1.0
 22
0.0
 32
0.0
 13
1.0
 23
0.0
 33
0.0
 40
0.0
 40
0.0
 40
0.0
 40
0.0
 40
1.0
 40
1.0
 40
1.0
 40
2.0
 40
2.0
 40
2.0
 40
3.0
 40
3.0
 40
3.0
 40
4.0
 40
4.0
 40
4.0
 40
5.0
 40
5.0
 40
5.0
 40
6.0
 40
6.0
 40
6.0
 40
7.0
 40
7.0
 40
7.0
 40
8.0
 40
8.0
 40
8.0
 40
9.0
 40
9.0
 40
9.0
 40
10.0
 40
10.0
 40
10.0
 40
11.0
 40
11.0
 40
11.0
 40
12.0
 40
12.0
 40
12.0
 40
13.0
 40
13.0
 40
13.0
 40
14.0
 40
14.0
 40
14.0
 40
15.0
 40
15.0
 40
15.0
 40
16.0
 40
16.0
 40
16.0
 40
16.0
 10
61.05863306850271
 20
-69.19594860466282
 30
0.0
 10
60.97491724821113
 20
-69.19594860466282
 30
0.0
 10
60.86639674042576
 20
-69.17889538201084
 30
0.0
 10
60.75787623264039
 20
-69.11550562508224
 30
0.0
 10
60.57253009553396
 20
-69.0054348243285
 30
0.0
 10
60.54996472010556
 20
-68.87434894111475
 30
0.0
 10
60.52946640196833
 20
-68.76651745242643
 30
0.0
 10
60.52946640196833
 20
-68.76651745242643
 30
0.0
 10
60.76700573567631
 20
-68.76651745242643
 30
0.0
 10
60.76700573567631
 20
-68.76651745242643
 30
0.0
 10
60.82574461369982
 20
-68.96529946192534
 30
0.0
 10
60.9613091210444
 20
-68.99492728309849
 30
0.0
 10
61.06087238056812
 20
-68.99492728309849
 30
0.0
 10
61.21004501507944
 20
-68.99492728309849
 30
0.0
 10
61.37282577675749
 20
-68.89553627834904
 30
0.0
 10
61.37282577675749
 20
-68.66282007832041
 30
0.0
 10
61.37282577675749
 20
-68.40684948376635
 30
0.0
 10
61.18058944868055
 20
-68.33708630019004
 30
0.0
 10
61.05174287753221
 20
-68.33708630019004
 30
0.0
 10
61.01780868700249
 20
-68.33708630019004
 30
0.0
 10
60.86639674042576
 20
-68.33708630019004
 30
0.0
 10
60.77148435980713
 20
-68.46610512611264
 30
0.0
 10
60.77148435980713
 20
-68.46610512611264
 30
0.0
 10
60.58372665586101
 20
-68.44698484616951
 30
0.0
 10
60.58372665586101
 20
-68.44698484616951
 30
0.0
 10
60.58372665586101
 20
-68.44698484616951
 30
0.0
 10
60.71257322700936
 20
-67.60086939499215
 30
0.0
 10
60.71257322700936
 20
-67.60086939499215
 30
0.0
 10
60.71257322700936
 20
-67.60086939499215
 30
0.0
 10
61.5445637866972
 20
-67.60086939499215
 30
0.0
 10
61.5445637866972
 20
-67.60086939499215
 30
0.0
 10
61.5445637866972
 20
-67.60086939499215
 30
0.0
 10
61.5445637866972
 20
-67.79551728990876
 30
0.0
 10
61.5445637866972
 20
-67.79551728990876
 30
0.0
 10
61.5445637866972
 20
-67.79551728990876
 30
0.0
 10
60.88672280378874
 20
-67.79551728990876
 30
0.0
 10
60.88672280378874
 20
-67.79551728990876
 30
0.0
 10
60.88672280378874
 20
-67.79551728990876
 30
0.0
 10
60.8166151106639
 20
-68.21857501549744
 30
0.0
 10
60.8166151106639
 20
-68.21857501549744
 30
0.0
 10
60.88224417965792
 20
-68.18464082496773
 30
0.0
 10
60.97043862408031
 20
-68.14450546256457
 30
0.0
 10
61.09704588316324
 20
-68.14450546256457
 30
0.0
 10
61.36834715262667
 20
-68.14450546256457
 30
0.0
 10
61.62156167079253
 20
-68.33071287354232
 30
0.0
 10
61.62156167079253
 20
-68.64369979837727
 30
0.0
 10
61.62156167079253
 20
-68.96116534734304
 30
0.0
 10
61.3819552797934
 20
-69.19594860466282
 30
0.0
 10
61.05863306850271
 20
-69.19594860466282
 30
0.0
  0
HATCH
  5
AE
330
A7
100
AcDbEntity
  8
_U+30EC_U+30A4_U+30E4_U+30FC 1
 62
   179
420
  2234388
100
AcDbHatch
 10
0.0
 20
0.0
 30
0.0
210
0.0
220
0.0
230
1.0
  2
SOLID
 70
     1
 71
     0
 91
        1
 92
        1
 93
        1
 72
     4
 94
        3
 73
     0
 74
     1
 95
       53
 96
       49
 40
0.0
 40
0.0
 40
0.0
 40
0.0
 40
1.0
 40
1.0
 40
1.0
 40
2.0
 40
2.0
 40
2.0
 40
3.0
 40
3.0
 40
3.0
 40
4.0
 40
4.0
 40
4.0
 40
5.0
 40
5.0
 40
5.0
 40
6.0
 40
6.0
 40
6.0
 40
7.0
 40
7.0
 40
7.0
 40
8.0
 40
8.0
 40
8.0
 40
9.0
 40
9.0
 40
9.0
 40
10.0
 40
10.0
 40
10.0
 40
11.0
 40
11.0
 40
11.0
 40
12.0
 40
12.0
 40
12.0
 40
13.0
 40
13.0
 40
13.0
 40
14.0
 40
14.0
 40
14.0
 40
15.0
 40
15.0
 40
15.0
 40
16.0
 40
16.0
 40
16.0
 40
16.0
 10
61.05863306850271
 20
-69.19594860466282
 10
60.97491724821113
 20
-69.19594860466282
 10
60.86639674042576
 20
-69.17889538201084
 10
60.75787623264039
 20
-69.11550562508224
 10
60.57253009553396
 20
-69.0054348243285
 10
60.54996472010556
 20
-68.87434894111475
 10
60.52946640196833
 20
-68.76651745242643
 10
60.52946640196833
 20
-68.76651745242643
 10
60.76700573567631
 20
-68.76651745242643
 10
60.76700573567631
 20
-68.76651745242643
 10
60.82574461369982
 20
-68.96529946192534
 10
60.9613091210444
 20
-68.99492728309849
 10
61.06087238056812
 20
-68.99492728309849
 10
61.21004501507944
 20
-68.99492728309849
 10
61.37282577675749
 20
-68.89553627834904
 10
61.37282577675749
 20
-68.66282007832041
 10
61.37282577675749
 20
-68.40684948376635
 10
61.18058944868055
 20
-68.33708630019004
 10
61.05174287753221
 20
-68.33708630019004
 10
61.01780868700249
 20
-68.33708630019004
 10
60.86639674042576
 20
-68.33708630019004
 10
60.77148435980713
 20
-68.46610512611264
 10
60.77148435980713
 20
-68.46610512611264
 10
60.58372665586101
 20
-68.44698484616951
 10
60.58372665586101
 20
-68.44698484616951
 10
60.58372665586101
 20
-68.44698484616951
 10
60.71257322700936
 20
-67.60086939499215
 10
60.71257322700936
 20
-67.60086939499215
 10
60.71257322700936
 20
-67.60086939499215
 10
61.5445637866972
 20
-67.60086939499215
 10
61.5445637866972
 20
-67.60086939499215
 10
61.5445637866972
 20
-67.60086939499215
 10
61.5445637866972
 20
-67.79551728990876
 10
61.5445637866972
 20
-67.79551728990876
 10
61.5445637866972
 20
-67.79551728990876
 10
60.88672280378874
 20
-67.79551728990876
 10
60.88672280378874
 20
-67.79551728990876
 10
60.88672280378874
 20
-67.79551728990876
 10
60.8166151106639
 20
-68.21857501549744
 10
60.8166151106639
 20
-68.21857501549744
 10
60.88224417965792
 20
-68.18464082496773
 10
60.97043862408031
 20
-68.14450546256457
 10
61.09704588316324
 20
-68.14450546256457
 10
61.36834715262667
 20
-68.14450546256457
 10
61.62156167079253
 20
-68.33071287354232
 10
61.62156167079253
 20
-68.64369979837727
 10
61.62156167079253
 20
-68.96116534734304
 10
61.3819552797934
 20
-69.19594860466282
 10
61.05863306850271
 20
-69.19594860466282
 97
        0
 97
        0
 75
     2
 76
     1
 98
        0
  0
ENDBLK
  5
AA
330
A7
100
AcDbEntity
  8
0
100
AcDbBlockEnd
  0
BLOCK
  5
B1
330
AF
100
AcDbEntity
  8
0
100
AcDbBlockBegin
  2
block 7
 70
     0
 10
0.0
 20
0.0
 30
0.0
  3
block 7
  1

  0
POLYLINE
  5
B3
330
AF
100
AcDbEntity
  8
_U+30EC_U+30A4_U+30E4_U+30FC 1
 62
   179
420
  2234388
370
     9
100
AcDb2dPolyline
 66
     1
 10
0.0
 20
0.0
 30
0.0
  0
VERTEX
  5
B4
330
B3
100
AcDbEntity
  8
_U+30EC_U+30A4_U+30E4_U+30FC 1
 62
   179
420
  2234388
370
     9
100
AcDbVertex
100
AcDb2dVertex
 10
42.95051695979658
 20
-108.6958780283813
 30
0.0
  0
VERTEX
  5
B5
330
B3
100
AcDbEntity
  8
_U+30EC_U+30A4_U+30E4_U+30FC 1
 62
   179
420
  2234388
370
     9
100
AcDbVertex
100
AcDb2dVertex
 10
57.95045276329025
 20
-108.6958780283813
 30
0.0
  0
SEQEND
  5
B6
330
B3
100
AcDbEntity
  8
_U+30EC_U+30A4_U+30E4_U+30FC 1
 62
   179
420
  2234388
370
     9
  0
POLYLINE
  5
B7
330
AF
100
AcDbEntity
  8
_U+30EC_U+30A4_U+30E4_U+30FC 1
 62
   179
420
  2234388
370
     9
100
AcDb2dPolyline
 66
     1
 10
0.0
 20
0.0
 30
0.0
  0
VERTEX
  5
B8
330
B7
100
AcDbEntity
  8
_U+30EC_U+30A4_U+30E4_U+30FC 1
 62
   179
420
  2234388
370
     9
100
AcDbVertex
100
AcDb2dVertex
 10
42.95051695979658
 20
-107.2358366398576
 30
0.0
  0
VERTEX
  5
B9
330
B7
100
AcDbEntity
  8
_U+30EC_U+30A4_U+30E4_U+30FC 1
 62
   179
420
  2234388
370
     9
100
AcDbVertex
100
AcDb2dVertex
 10
42.95051695979658
 20
-109.6963205281312
 30
0.0
  0
SEQEND
  5
BA
330
B7
100
AcDbEntity
  8
_U+30EC_U+30A4_U+30E4_U+30FC 1
 62
   179
420
  2234388
370
     9
  0
POLYLINE
  5
BB
330
AF
100
AcDbEntity
  8
_U+30EC_U+30A4_U+30E4_U+30FC 1
 62
   179
420
  2234388
370
     9
100
AcDb2dPolyline
 66
     1
 10
0.0
 20
0.0
 30
0.0
  0
VERTEX
  5
BC
330
BB
100
AcDbEntity
  8
_U+30EC_U+30A4_U+30E4_U+30FC 1
 62
   179
420
  2234388
370
     9
100
AcDbVertex
100
AcDb2dVertex
 10
57.95045276329025
 20
-107.2358366398576
 30
0.0
  0
VERTEX
  5
BD
330
BB
100
AcDbEntity
  8
_U+30EC_U+30A4_U+30E4_U+30FC 1
 62
   179
420
  2234388
370
     9
100
AcDbVertex
100
AcDb2dVertex
 10
57.95045276329025
 20
-109.6963205281312
 30
0.0
  0
SEQEND
  5
BE
330
BB
100
AcDbEntity
  8
_U+30EC_U+30A4_U+30E4_U+30FC 1
 62
   179
420
  2234388
370
     9
  0
INSERT
  5
C0
330
AF
100
AcDbEntity
  8
_U+30EC_U+30A4_U+30E4_U+30FC 1
100
AcDbBlockReference
  2
block 8
 10
0.0
 20
0.0
 30
0.0
  0
ENDBLK
  5
B2
330
AF
100
AcDbEntity
  8
0
100
AcDbBlockEnd
  0
BLOCK
  5
C1
330
BF
100
AcDbEntity
  8
0
100
AcDbBlockBegin
  2
block 8
 70
     0
 10
0.0
 20
0.0
 30
0.0
  3
block 8
  1

  0
SPLINE
  5
C3
330
BF
100
AcDbEntity
  8
_U+30EC_U+30A4_U+30E4_U+30FC 1
370
     0
100
AcDbSpline
210
0.0
220
0.0
230
1.0
 70
    11
 71
     3
 72
    26
 73
    22
 74
     0
 42
0.0000000001
 43
0.0000000001
 12
1.0
 22
0.0
 32
0.0
 13
1.0
 23
0.0
 33
0.0
 40
0.0
 40
0.0
 40
0.0
 40
0.0
 40
1.0
 40
1.0
 40
1.0
 40
2.0
 40
2.0
 40
2.0
 40
3.0
 40
3.0
 40
3.0
 40
4.0
 40
4.0
 40
4.0
 40
5.0
 40
5.0
 40
5.0
 40
6.0
 40
6.0
 40
6.0
 40
7.0
 40
7.0
 40
7.0
 40
7.0
 10
49.76922741811325
 20
-107.3450412058026
 30
0.0
 10
49.76922741811325
 20
-107.3450412058026
 30
0.0
 10
49.76922741811325
 20
-106.2408881027801
 30
0.0
 10
49.76922741811325
 20
-106.2408881027801
 30
0.0
 10
49.76922741811325
 20
-106.2408881027801
 30
0.0
 10
49.41644964042366
 20
-106.2408881027801
 30
0.0
 10
49.41644964042366
 20
-106.2408881027801
 30
0.0
 10
49.41644964042366
 20
-106.2408881027801
 30
0.0
 10
49.41644964042366
 20
-106.0927489969143
 30
0.0
 10
49.41644964042366
 20
-106.0927489969143
 30
0.0
 10
49.77146673017867
 20
-106.0779350863277
 30
0.0
 10
49.82124835994053
 20
-105.9149820698754
 30
0.0
 10
49.85294323840482
 20
-105.8006048997651
 30
0.0
 10
49.85294323840482
 20
-105.8006048997651
 30
0.0
 10
50.00883380911237
 20
-105.8006048997651
 30
0.0
 10
50.00883380911237
 20
-105.8006048997651
 30
0.0
 10
50.00883380911237
 20
-105.8006048997651
 30
0.0
 10
50.00883380911237
 20
-107.3450412058026
 30
0.0
 10
50.00883380911237
 20
-107.3450412058026
 30
0.0
 10
50.00883380911237
 20
-107.3450412058026
 30
0.0
 10
49.76922741811325
 20
-107.3450412058026
 30
0.0
 10
49.76922741811325
 20
-107.3450412058026
 30
0.0
  0
HATCH
  5
C4
330
BF
100
AcDbEntity
  8
_U+30EC_U+30A4_U+30E4_U+30FC 1
 62
   179
420
  2234388
100
AcDbHatch
 10
0.0
 20
0.0
 30
0.0
210
0.0
220
0.0
230
1.0
  2
SOLID
 70
     1
 71
     0
 91
        1
 92
        1
 93
        1
 72
     4
 94
        3
 73
     0
 74
     1
 95
       26
 96
       22
 40
0.0
 40
0.0
 40
0.0
 40
0.0
 40
1.0
 40
1.0
 40
1.0
 40
2.0
 40
2.0
 40
2.0
 40
3.0
 40
3.0
 40
3.0
 40
4.0
 40
4.0
 40
4.0
 40
5.0
 40
5.0
 40
5.0
 40
6.0
 40
6.0
 40
6.0
 40
7.0
 40
7.0
 40
7.0
 40
7.0
 10
49.76922741811325
 20
-107.3450412058026
 10
49.76922741811325
 20
-107.3450412058026
 10
49.76922741811325
 20
-106.2408881027801
 10
49.76922741811325
 20
-106.2408881027801
 10
49.76922741811325
 20
-106.2408881027801
 10
49.41644964042366
 20
-106.2408881027801
 10
49.41644964042366
 20
-106.2408881027801
 10
49.41644964042366
 20
-106.2408881027801
 10
49.41644964042366
 20
-106.0927489969143
 10
49.41644964042366
 20
-106.0927489969143
 10
49.77146673017867
 20
-106.0779350863277
 10
49.82124835994053
 20
-105.9149820698754
 10
49.85294323840482
 20
-105.8006048997651
 10
49.85294323840482
 20
-105.8006048997651
 10
50.00883380911237
 20
-105.8006048997651
 10
50.00883380911237
 20
-105.8006048997651
 10
50.00883380911237
 20
-105.8006048997651
 10
50.00883380911237
 20
-107.3450412058026
 10
50.00883380911237
 20
-107.3450412058026
 10
50.00883380911237
 20
-107.3450412058026
 10
49.76922741811325
 20
-107.3450412058026
 10
49.76922741811325
 20
-107.3450412058026
 97
        0
 97
        0
 75
     2
 76
     1
 98
        0
  0
SPLINE
  5
C5
330
BF
100
AcDbEntity
  8
_U+30EC_U+30A4_U+30E4_U+30FC 1
370
     0
100
AcDbSpline
210
0.0
220
0.0
230
1.0
 70
    11
 71
     3
 72
    53
 73
    49
 74
     0
 42
0.0000000001
 43
0.0000000001
 12
1.0
 22
0.0
 32
0.0
 13
1.0
 23
0.0
 33
0.0
 40
0.0
 40
0.0
 40
0.0
 40
0.0
 40
1.0
 40
1.0
 40
1.0
 40
2.0
 40
2.0
 40
2.0
 40
3.0
 40
3.0
 40
3.0
 40
4.0
 40
4.0
 40
4.0
 40
5.0
 40
5.0
 40
5.0
 40
6.0
 40
6.0
 40
6.0
 40
7.0
 40
7.0
 40
7.0
 40
8.0
 40
8.0
 40
8.0
 40
9.0
 40
9.0
 40
9.0
 40
10.0
 40
10.0
 40
10.0
 40
11.0
 40
11.0
 40
11.0
 40
12.0
 40
12.0
 40
12.0
 40
13.0
 40
13.0
 40
13.0
 40
14.0
 40
14.0
 40
14.0
 40
15.0
 40
15.0
 40
15.0
 40
16.0
 40
16.0
 40
16.0
 40
16.0
 10
51.05872665824226
 20
-107.3956841094358
 30
0.0
 10
50.97501083795069
 20
-107.3956841094358
 30
0.0
 10
50.86649033016533
 20
-107.3788031415581
 30
0.0
 10
50.75796982237996
 20
-107.3154133846295
 30
0.0
 10
50.57262368527351
 20
-107.20551483865
 30
0.0
 10
50.54988605507086
 20
-107.074256700662
 30
0.0
 10
50.52955999170789
 20
-106.9664252119737
 30
0.0
 10
50.52955999170789
 20
-106.9664252119737
 30
0.0
 10
50.76692707064161
 20
-106.9664252119737
 30
0.0
 10
50.76692707064161
 20
-106.9664252119737
 30
0.0
 10
50.82583820343937
 20
-107.1652072214726
 30
0.0
 10
50.96140271078396
 20
-107.1948350426457
 30
0.0
 10
51.06096597030768
 20
-107.1948350426457
 30
0.0
 10
51.21013860481899
 20
-107.1948350426457
 30
0.0
 10
51.37291936649705
 20
-107.095271783122
 30
0.0
 10
51.37291936649705
 20
-106.8627278378677
 30
0.0
 10
51.37291936649705
 20
-106.6067572433136
 30
0.0
 10
51.18068303842011
 20
-106.536821804963
 30
0.0
 10
51.05183646727176
 20
-106.536821804963
 30
0.0
 10
51.01790227674206
 20
-106.536821804963
 30
0.0
 10
50.86649033016533
 20
-106.536821804963
 30
0.0
 10
50.77157794954669
 20
-106.6660128856599
 30
0.0
 10
50.77157794954669
 20
-106.6660128856599
 30
0.0
 10
50.58382024560058
 20
-106.647064860491
 30
0.0
 10
50.58382024560058
 20
-106.647064860491
 30
0.0
 10
50.58382024560058
 20
-106.647064860491
 30
0.0
 10
50.71283907152318
 20
-105.8006048997651
 30
0.0
 10
50.71283907152318
 20
-105.8006048997651
 30
0.0
 10
50.71283907152318
 20
-105.8006048997651
 30
0.0
 10
51.54482963121102
 20
-105.8006048997651
 30
0.0
 10
51.54482963121102
 20
-105.8006048997651
 30
0.0
 10
51.54482963121102
 20
-105.8006048997651
 30
0.0
 10
51.54482963121102
 20
-105.9952527946817
 30
0.0
 10
51.54482963121102
 20
-105.9952527946817
 30
0.0
 10
51.54482963121102
 20
-105.9952527946817
 30
0.0
 10
50.8868163935283
 20
-105.9952527946817
 30
0.0
 10
50.8868163935283
 20
-105.9952527946817
 30
0.0
 10
50.8868163935283
 20
-105.9952527946817
 30
0.0
 10
50.81670870040347
 20
-106.4183105202704
 30
0.0
 10
50.81670870040347
 20
-106.4183105202704
 30
0.0
 10
50.88233776939747
 20
-106.384548584515
 30
0.0
 10
50.97053221381987
 20
-106.3442409673376
 30
0.0
 10
51.0971394729028
 20
-106.3442409673376
 30
0.0
 10
51.36844074236623
 20
-106.3442409673376
 30
0.0
 10
51.62165526053209
 20
-106.5306206330896
 30
0.0
 10
51.62165526053209
 20
-106.8437798126988
 30
0.0
 10
51.62165526053209
 20
-107.1610731068903
 30
0.0
 10
51.3818766147587
 20
-107.3956841094358
 30
0.0
 10
51.05872665824226
 20
-107.3956841094358
 30
0.0
  0
HATCH
  5
C6
330
BF
100
AcDbEntity
  8
_U+30EC_U+30A4_U+30E4_U+30FC 1
 62
   179
420
  2234388
100
AcDbHatch
 10
0.0
 20
0.0
 30
0.0
210
0.0
220
0.0
230
1.0
  2
SOLID
 70
     1
 71
     0
 91
        1
 92
        1
 93
        1
 72
     4
 94
        3
 73
     0
 74
     1
 95
       53
 96
       49
 40
0.0
 40
0.0
 40
0.0
 40
0.0
 40
1.0
 40
1.0
 40
1.0
 40
2.0
 40
2.0
 40
2.0
 40
3.0
 40
3.0
 40
3.0
 40
4.0
 40
4.0
 40
4.0
 40
5.0
 40
5.0
 40
5.0
 40
6.0
 40
6.0
 40
6.0
 40
7.0
 40
7.0
 40
7.0
 40
8.0
 40
8.0
 40
8.0
 40
9.0
 40
9.0
 40
9.0
 40
10.0
 40
10.0
 40
10.0
 40
11.0
 40
11.0
 40
11.0
 40
12.0
 40
12.0
 40
12.0
 40
13.0
 40
13.0
 40
13.0
 40
14.0
 40
14.0
 40
14.0
 40
15.0
 40
15.0
 40
15.0
 40
16.0
 40
16.0
 40
16.0
 40
16.0
 10
51.05872665824226
 20
-107.3956841094358
 10
50.97501083795069
 20
-107.3956841094358
 10
50.86649033016533
 20
-107.3788031415581
 10
50.75796982237996
 20
-107.3154133846295
 10
50.57262368527351
 20
-107.20551483865
 10
50.54988605507086
 20
-107.074256700662
 10
50.52955999170789
 20
-106.9664252119737
 10
50.52955999170789
 20
-106.9664252119737
 10
50.76692707064161
 20
-106.9664252119737
 10
50.76692707064161
 20
-106.9664252119737
 10
50.82583820343937
 20
-107.1652072214726
 10
50.96140271078396
 20
-107.1948350426457
 10
51.06096597030768
 20
-107.1948350426457
 10
51.21013860481899
 20
-107.1948350426457
 10
51.37291936649705
 20
-107.095271783122
 10
51.37291936649705
 20
-106.8627278378677
 10
51.37291936649705
 20
-106.6067572433136
 10
51.18068303842011
 20
-106.536821804963
 10
51.05183646727176
 20
-106.536821804963
 10
51.01790227674206
 20
-106.536821804963
 10
50.86649033016533
 20
-106.536821804963
 10
50.77157794954669
 20
-106.6660128856599
 10
50.77157794954669
 20
-106.6660128856599
 10
50.58382024560058
 20
-106.647064860491
 10
50.58382024560058
 20
-106.647064860491
 10
50.58382024560058
 20
-106.647064860491
 10
50.71283907152318
 20
-105.8006048997651
 10
50.71283907152318
 20
-105.8006048997651
 10
50.71283907152318
 20
-105.8006048997651
 10
51.54482963121102
 20
-105.8006048997651
 10
51.54482963121102
 20
-105.8006048997651
 10
51.54482963121102
 20
-105.8006048997651
 10
51.54482963121102
 20
-105.9952527946817
 10
51.54482963121102
 20
-105.9952527946817
 10
51.54482963121102
 20
-105.9952527946817
 10
50.8868163935283
 20
-105.9952527946817
 10
50.8868163935283
 20
-105.9952527946817
 10
50.8868163935283
 20
-105.9952527946817
 10
50.81670870040347
 20
-106.4183105202704
 10
50.81670870040347
 20
-106.4183105202704
 10
50.88233776939747
 20
-106.384548584515
 10
50.97053221381987
 20
-106.3442409673376
 10
51.0971394729028
 20
-106.3442409673376
 10
51.36844074236623
 20
-106.3442409673376
 10
51.62165526053209
 20
-106.5306206330896
 10
51.62165526053209
 20
-106.8437798126988
 10
51.62165526053209
 20
-107.1610731068903
 10
51.3818766147587
 20
-107.3956841094358
 10
51.05872665824226
 20
-107.3956841094358
 97
        0
 97
        0
 75
     2
 76
     1
 98
        0
  0
ENDBLK
  5
C2
330
BF
100
AcDbEntity
  8
0
100
AcDbBlockEnd
  0
BLOCK
  5
C9
330
C7
100
AcDbEntity
  8
0
100
AcDbBlockBegin
  2
block 9
 70
     0
 10
0.0
 20
0.0
 30
0.0
  3
block 9
  1

  0
POLYLINE
  5
CB
330
C7
100
AcDbEntity
  8
_U+30EC_U+30A4_U+30E4_U+30FC 1
 62
   179
420
  2234388
370
     9
100
AcDb2dPolyline
 66
     1
 10
0.0
 20
0.0
 30
0.0
  0
VERTEX
  5
CC
330
CB
100
AcDbEntity
  8
_U+30EC_U+30A4_U+30E4_U+30FC 1
 62
   179
420
  2234388
370
     9
100
AcDbVertex
100
AcDb2dVertex
 10
81.95020513149831
 20
-104.6961188627151
 30
0.0
  0
VERTEX
  5
CD
330
CB
100
AcDbEntity
  8
_U+30EC_U+30A4_U+30E4_U+30FC 1
 62
   179
420
  2234388
370
     9
100
AcDbVertex
100
AcDb2dVertex
 10
81.95020513149831
 20
-109.954024694734
 30
0.0
  0
SEQEND
  5
CE
330
CB
100
AcDbEntity
  8
_U+30EC_U+30A4_U+30E4_U+30FC 1
 62
   179
420
  2234388
370
     9
  0
POLYLINE
  5
CF
330
C7
100
AcDbEntity
  8
_U+30EC_U+30A4_U+30E4_U+30FC 1
 62
   179
420
  2234388
370
     9
100
AcDb2dPolyline
 66
     1
 10
0.0
 20
0.0
 30
0.0
  0
VERTEX
  5
D0
330
CF
100
AcDbEntity
  8
_U+30EC_U+30A4_U+30E4_U+30FC 1
 62
   179
420
  2234388
370
     9
100
AcDbVertex
100
AcDb2dVertex
 10
81.95020513149831
 20
-101.4963185857368
 30
0.0
  0
VERTEX
  5
D1
330
CF
100
AcDbEntity
  8
_U+30EC_U+30A4_U+30E4_U+30FC 1
 62
   179
420
  2234388
370
     9
100
AcDbVertex
100
AcDb2dVertex
 10
81.95020513149831
 20
-104.6961188627151
 30
0.0
  0
SEQEND
  5
D2
330
CF
100
AcDbEntity
  8
_U+30EC_U+30A4_U+30E4_U+30FC 1
 62
   179
420
  2234388
370
     9
  0
POLYLINE
  5
D3
330
C7
100
AcDbEntity
  8
_U+30EC_U+30A4_U+30E4_U+30FC 1
 62
   179
420
  2234388
370
     9
100
AcDb2dPolyline
 66
     1
 10
0.0
 20
0.0
 30
0.0
  0
VERTEX
  5
D4
330
D3
100
AcDbEntity
  8
_U+30EC_U+30A4_U+30E4_U+30FC 1
 62
   179
420
  2234388
370
     9
100
AcDbVertex
100
AcDb2dVertex
 10
60.49020429009965
 20
-101.4963185857368
 30
0.0
  0
VERTEX
  5
D5
330
D3
100
AcDbEntity
  8
_U+30EC_U+30A4_U+30E4_U+30FC 1
 62
   179
420
  2234388
370
     9
100
AcDbVertex
100
AcDb2dVertex
 10
82.94997732821422
 20
-101.4963185857368
 30
0.0
  0
SEQEND
  5
D6
330
D3
100
AcDbEntity
  8
_U+30EC_U+30A4_U+30E4_U+30FC 1
 62
   179
420
  2234388
370
     9
  0
POLYLINE
  5
D7
330
C7
100
AcDbEntity
  8
_U+30EC_U+30A4_U+30E4_U+30FC 1
 62
   179
420
  2234388
370
     9
100
AcDb2dPolyline
 66
     1
 10
0.0
 20
0.0
 30
0.0
  0
VERTEX
  5
D8
330
D7
100
AcDbEntity
  8
_U+30EC_U+30A4_U+30E4_U+30FC 1
 62
   179
420
  2234388
370
     9
100
AcDbVertex
100
AcDb2dVertex
 10
60.49020429009965
 20
-104.6961188627151
 30
0.0
  0
VERTEX
  5
D9
330
D7
100
AcDbEntity
  8
_U+30EC_U+30A4_U+30E4_U+30FC 1
 62
   179
420
  2234388
370
     9
100
AcDbVertex
100
AcDb2dVertex
 10
82.94997732821422
 20
-104.6961188627151
 30
0.0
  0
SEQEND
  5
DA
330
D7
100
AcDbEntity
  8
_U+30EC_U+30A4_U+30E4_U+30FC 1
 62
   179
420
  2234388
370
     9
  0
INSERT
  5
DC
330
C7
100
AcDbEntity
  8
_U+30EC_U+30A4_U+30E4_U+30FC 1
100
AcDbBlockReference
  2
block 10
 10
0.0
 20
0.0
 30
0.0
  0
ENDBLK
  5
CA
330
C7
100
AcDbEntity
  8
0
100
AcDbBlockEnd
  0
BLOCK
  5
DD
330
DB
100
AcDbEntity
  8
0
100
AcDbBlockBegin
  2
block 10
 70
     0
 10
0.0
 20
0.0
 30
0.0
  3
block 10
  1

  0
SPLINE
  5
DF
330
DB
100
AcDbEntity
  8
_U+30EC_U+30A4_U+30E4_U+30FC 1
370
     0
100
AcDbSpline
210
0.0
220
0.0
230
1.0
 70
    11
 71
     3
 72
    62
 73
    58
 74
     0
 42
0.0000000001
 43
0.0000000001
 12
1.0
 22
0.0
 32
0.0
 13
1.0
 23
0.0
 33
0.0
 40
0.0
 40
0.0
 40
0.0
 40
0.0
 40
1.0
 40
1.0
 40
1.0
 40
2.0
 40
2.0
 40
2.0
 40
3.0
 40
3.0
 40
3.0
 40
4.0
 40
4.0
 40
4.0
 40
5.0
 40
5.0
 40
5.0
 40
6.0
 40
6.0
 40
6.0
 40
7.0
 40
7.0
 40
7.0
 40
8.0
 40
8.0
 40
8.0
 40
9.0
 40
9.0
 40
9.0
 40
10.0
 40
10.0
 40
10.0
 40
11.0
 40
11.0
 40
11.0
 40
12.0
 40
12.0
 40
12.0
 40
13.0
 40
13.0
 40
13.0
 40
14.0
 40
14.0
 40
14.0
 40
15.0
 40
15.0
 40
15.0
 40
16.0
 40
16.0
 40
16.0
 40
17.0
 40
17.0
 40
17.0
 40
18.0
 40
18.0
 40
18.0
 40
19.0
 40
19.0
 40
19.0
 40
19.0
 10
80.6496853096987
 20
-108.6283392740582
 30
0.0
 10
80.6496853096987
 20
-108.7299695908731
 30
0.0
 10
80.62867022723867
 20
-108.962858045676
 30
0.0
 10
80.44263507103518
 20
-109.0961832409551
 30
0.0
 10
80.33032495821604
 20
-109.1754204371159
 30
0.0
 10
80.23110620824083
 20
-109.1798990612467
 30
0.0
 10
80.1463568593037
 20
-109.1843776853775
 30
0.0
 10
80.1463568593037
 20
-109.1843776853775
 30
0.0
 10
80.1463568593037
 20
-108.9494221732835
 30
0.0
 10
80.1463568593037
 20
-108.9494221732835
 30
0.0
 10
80.22042641223656
 20
-108.9470106064438
 30
0.0
 10
80.45503741478208
 20
-108.9356417913425
 30
0.0
 10
80.45503741478208
 20
-108.632817898189
 30
0.0
 10
80.45503741478208
 20
-108.4857123209689
 30
0.0
 10
80.38544648598003
 20
-108.3231038140651
 30
0.0
 10
80.15703665530796
 20
-108.3231038140651
 30
0.0
 10
80.04059242790652
 20
-108.3231038140651
 30
0.0
 10
79.9920165815645
 20
-108.363755940791
 30
0.0
 10
79.9603217031002
 20
-108.397862386095
 30
0.0
 10
79.88625215016732
 20
-108.4767550727072
 30
0.0
 10
79.87350529687191
 20
-108.6011230197247
 30
0.0
 10
79.87350529687191
 20
-108.6600341525225
 30
0.0
 10
79.87350529687191
 20
-108.6803602158855
 30
0.0
 10
79.87557235416305
 20
-108.7186007757717
 30
0.0
 10
79.87970646874535
 20
-108.7482285969449
 30
0.0
 10
79.87970646874535
 20
-108.7482285969449
 30
0.0
 10
79.68505857382874
 20
-108.7482285969449
 30
0.0
 10
79.68505857382874
 20
-108.7482285969449
 30
0.0
 10
79.69160425525071
 20
-108.7075764702189
 30
0.0
 10
79.69367131254187
 20
-108.6621012098136
 30
0.0
 10
79.69367131254187
 20
-108.6555555283917
 30
0.0
 10
79.69367131254187
 20
-108.5852755804926
 30
0.0
 10
79.67231172053332
 20
-108.3727131890527
 30
0.0
 10
79.43563366069665
 20
-108.3727131890527
 30
0.0
 10
79.25786673365776
 20
-108.3727131890527
 30
0.0
 10
79.20274520589376
 20
-108.5129285753023
 30
0.0
 10
79.20274520589376
 20
-108.6304063313493
 30
0.0
 10
79.20274520589376
 20
-108.9132486706884
 30
0.0
 10
79.43563366069665
 20
-108.92220591895
 30
0.0
 10
79.50729164678985
 20
-108.9266845430808
 30
0.0
 10
79.50729164678985
 20
-108.9266845430808
 30
0.0
 10
79.50729164678985
 20
-109.1437255586516
 30
0.0
 10
79.50729164678985
 20
-109.1437255586516
 30
0.0
 10
79.38257919022381
 20
-109.1347683103899
 30
0.0
 10
79.00603025368599
 20
-109.1054849987653
 30
0.0
 10
79.00603025368599
 20
-108.6169704589569
 30
0.0
 10
79.00603025368599
 20
-108.3771918131835
 30
0.0
 10
79.13315427709172
 20
-108.1194986708868
 30
0.0
 10
79.42908797927467
 20
-108.1194986708868
 30
0.0
 10
79.6154676450267
 20
-108.1194986708868
 30
0.0
 10
79.69780542712417
 20
-108.2214734972502
 30
0.0
 10
79.75912812676161
 20
-108.3275824381959
 30
0.0
 10
79.7866888906436
 20
-108.2621256239761
 30
0.0
 10
79.86695961544993
 20
-108.0674777290595
 30
0.0
 10
80.14428980201254
 20
-108.0674777290595
 30
0.0
 10
80.48259817866408
 20
-108.0674777290595
 30
0.0
 10
80.6496853096987
 20
-108.3320610623267
 30
0.0
 10
80.6496853096987
 20
-108.6283392740582
 30
0.0
  0
HATCH
  5
E0
330
DB
100
AcDbEntity
  8
_U+30EC_U+30A4_U+30E4_U+30FC 1
 62
   179
420
  2234388
100
AcDbHatch
 10
0.0
 20
0.0
 30
0.0
210
0.0
220
0.0
230
1.0
  2
SOLID
 70
     1
 71
     0
 91
        1
 92
        1
 93
        1
 72
     4
 94
        3
 73
     0
 74
     1
 95
       62
 96
       58
 40
0.0
 40
0.0
 40
0.0
 40
0.0
 40
1.0
 40
1.0
 40
1.0
 40
2.0
 40
2.0
 40
2.0
 40
3.0
 40
3.0
 40
3.0
 40
4.0
 40
4.0
 40
4.0
 40
5.0
 40
5.0
 40
5.0
 40
6.0
 40
6.0
 40
6.0
 40
7.0
 40
7.0
 40
7.0
 40
8.0
 40
8.0
 40
8.0
 40
9.0
 40
9.0
 40
9.0
 40
10.0
 40
10.0
 40
10.0
 40
11.0
 40
11.0
 40
11.0
 40
12.0
 40
12.0
 40
12.0
 40
13.0
 40
13.0
 40
13.0
 40
14.0
 40
14.0
 40
14.0
 40
15.0
 40
15.0
 40
15.0
 40
16.0
 40
16.0
 40
16.0
 40
17.0
 40
17.0
 40
17.0
 40
18.0
 40
18.0
 40
18.0
 40
19.0
 40
19.0
 40
19.0
 40
19.0
 10
80.6496853096987
 20
-108.6283392740582
 10
80.6496853096987
 20
-108.7299695908731
 10
80.62867022723867
 20
-108.962858045676
 10
80.44263507103518
 20
-109.0961832409551
 10
80.33032495821604
 20
-109.1754204371159
 10
80.23110620824083
 20
-109.1798990612467
 10
80.1463568593037
 20
-109.1843776853775
 10
80.1463568593037
 20
-109.1843776853775
 10
80.1463568593037
 20
-108.9494221732835
 10
80.1463568593037
 20
-108.9494221732835
 10
80.22042641223656
 20
-108.9470106064438
 10
80.45503741478208
 20
-108.9356417913425
 10
80.45503741478208
 20
-108.632817898189
 10
80.45503741478208
 20
-108.4857123209689
 10
80.38544648598003
 20
-108.3231038140651
 10
80.15703665530796
 20
-108.3231038140651
 10
80.04059242790652
 20
-108.3231038140651
 10
79.9920165815645
 20
-108.363755940791
 10
79.9603217031002
 20
-108.397862386095
 10
79.88625215016732
 20
-108.4767550727072
 10
79.87350529687191
 20
-108.6011230197247
 10
79.87350529687191
 20
-108.6600341525225
 10
79.87350529687191
 20
-108.6803602158855
 10
79.87557235416305
 20
-108.7186007757717
 10
79.87970646874535
 20
-108.7482285969449
 10
79.87970646874535
 20
-108.7482285969449
 10
79.68505857382874
 20
-108.7482285969449
 10
79.68505857382874
 20
-108.7482285969449
 10
79.69160425525071
 20
-108.7075764702189
 10
79.69367131254187
 20
-108.6621012098136
 10
79.69367131254187
 20
-108.6555555283917
 10
79.69367131254187
 20
-108.5852755804926
 10
79.67231172053332
 20
-108.3727131890527
 10
79.43563366069665
 20
-108.3727131890527
 10
79.25786673365776
 20
-108.3727131890527
 10
79.20274520589376
 20
-108.5129285753023
 10
79.20274520589376
 20
-108.6304063313493
 10
79.20274520589376
 20
-108.9132486706884
 10
79.43563366069665
 20
-108.92220591895
 10
79.50729164678985
 20
-108.9266845430808
 10
79.50729164678985
 20
-108.9266845430808
 10
79.50729164678985
 20
-109.1437255586516
 10
79.50729164678985
 20
-109.1437255586516
 10
79.38257919022381
 20
-109.1347683103899
 10
79.00603025368599
 20
-109.1054849987653
 10
79.00603025368599
 20
-108.6169704589569
 10
79.00603025368599
 20
-108.3771918131835
 10
79.13315427709172
 20
-108.1194986708868
 10
79.42908797927467
 20
-108.1194986708868
 10
79.6154676450267
 20
-108.1194986708868
 10
79.69780542712417
 20
-108.2214734972502
 10
79.75912812676161
 20
-108.3275824381959
 10
79.7866888906436
 20
-108.2621256239761
 10
79.86695961544993
 20
-108.0674777290595
 10
80.14428980201254
 20
-108.0674777290595
 10
80.48259817866408
 20
-108.0674777290595
 10
80.6496853096987
 20
-108.3320610623267
 10
80.6496853096987
 20
-108.6283392740582
 97
        0
 97
        0
 75
     2
 76
     1
 98
        0
  0
POLYLINE
  5
E1
330
DB
100
AcDbEntity
  8
_U+30EC_U+30A4_U+30E4_U+30FC 1
370
     0
100
AcDb2dPolyline
 66
     1
 10
0.0
 20
0.0
 30
0.0
  0
VERTEX
  5
E2
330
E1
100
AcDbEntity
  8
_U+30EC_U+30A4_U+30E4_U+30FC 1
370
     0
100
AcDbVertex
100
AcDb2dVertex
 10
80.59904240606552
 20
-107.8318331978684
 30
0.0
  0
VERTEX
  5
E3
330
E1
100
AcDbEntity
  8
_U+30EC_U+30A4_U+30E4_U+30FC 1
370
     0
100
AcDbVertex
100
AcDb2dVertex
 10
80.34720592609376
 20
-107.8318331978684
 30
0.0
  0
VERTEX
  5
E4
330
E1
100
AcDbEntity
  8
_U+30EC_U+30A4_U+30E4_U+30FC 1
370
     0
100
AcDbVertex
100
AcDb2dVertex
 10
80.34720592609376
 20
-107.5627712404704
 30
0.0
  0
VERTEX
  5
E5
330
E1
100
AcDbEntity
  8
_U+30EC_U+30A4_U+30E4_U+30FC 1
370
     0
100
AcDbVertex
100
AcDb2dVertex
 10
80.59904240606552
 20
-107.5627712404704
 30
0.0
  0
VERTEX
  5
E6
330
E1
100
AcDbEntity
  8
_U+30EC_U+30A4_U+30E4_U+30FC 1
370
     0
100
AcDbVertex
100
AcDb2dVertex
 10
80.59904240606552
 20
-107.8318331978684
 30
0.0
  0
SEQEND
  5
E7
330
E1
100
AcDbEntity
  8
_U+30EC_U+30A4_U+30E4_U+30FC 1
370
     0
  0
HATCH
  5
E8
330
DB
100
AcDbEntity
  8
_U+30EC_U+30A4_U+30E4_U+30FC 1
 62
   179
420
  2234388
100
AcDbHatch
 10
0.0
 20
0.0
 30
0.0
210
0.0
220
0.0
230
1.0
  2
SOLID
 70
     1
 71
     0
 91
        1
 92
        1
 93
        4
 72
     1
 10
80.59904240606552
 20
-107.8318331978684
 11
80.34720592609376
 21
-107.8318331978684
 72
     1
 10
80.34720592609376
 20
-107.8318331978684
 11
80.34720592609376
 21
-107.5627712404704
 72
     1
 10
80.34720592609376
 20
-107.5627712404704
 11
80.59904240606552
 21
-107.5627712404704
 72
     1
 10
80.59904240606552
 20
-107.5627712404704
 11
80.59904240606552
 21
-107.8318331978684
 97
        0
 75
     2
 76
     1
 98
        0
  0
SPLINE
  5
E9
330
DB
100
AcDbEntity
  8
_U+30EC_U+30A4_U+30E4_U+30FC 1
370
     0
100
AcDbSpline
210
0.0
220
0.0
230
1.0
 70
    11
 71
     3
 72
    44
 73
    40
 74
     0
 42
0.0000000001
 43
0.0000000001
 12
1.0
 22
0.0
 32
0.0
 13
1.0
 23
0.0
 33
0.0
 40
0.0
 40
0.0
 40
0.0
 40
0.0
 40
1.0
 40
1.0
 40
1.0
 40
2.0
 40
2.0
 40
2.0
 40
3.0
 40
3.0
 40
3.0
 40
4.0
 40
4.0
 40
4.0
 40
5.0
 40
5.0
 40
5.0
 40
6.0
 40
6.0
 40
6.0
 40
7.0
 40
7.0
 40
7.0
 40
8.0
 40
8.0
 40
8.0
 40
9.0
 40
9.0
 40
9.0
 40
10.0
 40
10.0
 40
10.0
 40
11.0
 40
11.0
 40
11.0
 40
12.0
 40
12.0
 40
12.0
 40
13.0
 40
13.0
 40
13.0
 40
13.0
 10
80.01716577860682
 20
-106.6760036625671
 30
0.0
 10
80.17598468047684
 20
-106.90889211737
 30
0.0
 10
80.25005423340971
 20
-107.0084553768937
 30
0.0
 10
80.39371471514463
 20
-107.060476318721
 30
0.0
 10
80.39371471514463
 20
-107.060476318721
 30
0.0
 10
80.39371471514463
 20
-106.2281412494846
 30
0.0
 10
80.39371471514463
 20
-106.2281412494846
 30
0.0
 10
80.39371471514463
 20
-106.2281412494846
 30
0.0
 10
80.59904240606552
 20
-106.2281412494846
 30
0.0
 10
80.59904240606552
 20
-106.2281412494846
 30
0.0
 10
80.59904240606552
 20
-106.2281412494846
 30
0.0
 10
80.59904240606552
 20
-107.3271267092793
 30
0.0
 10
80.59904240606552
 20
-107.3271267092793
 30
0.0
 10
80.24144149469659
 20
-107.2930202639754
 30
0.0
 10
80.16323782718142
 20
-107.2230848256248
 30
0.0
 10
79.86489255815879
 20
-106.811740424686
 30
0.0
 10
79.66611054865986
 20
-106.5381998431571
 30
0.0
 10
79.59824216760045
 20
-106.467919895258
 30
0.0
 10
79.46078285773898
 20
-106.467919895258
 30
0.0
 10
79.34227157304638
 20
-106.467919895258
 30
0.0
 10
79.21135794460689
 20
-106.5447455245791
 30
0.0
 10
79.21135794460689
 20
-106.7552408587279
 30
0.0
 10
79.21135794460689
 20
-107.0332600643875
 30
0.0
 10
79.4418348325701
 20
-107.0422173126492
 30
0.0
 10
79.55827905997154
 20
-107.04669593678
 30
0.0
 10
79.55827905997154
 20
-107.04669593678
 30
0.0
 10
79.55827905997154
 20
-107.2864745825534
 30
0.0
 10
79.55827905997154
 20
-107.2864745825534
 30
0.0
 10
79.43115503656583
 20
-107.2775173342917
 30
0.0
 10
79.31918943329521
 20
-107.2661485191904
 30
0.0
 10
79.2006781486026
 20
-107.1800211320592
 30
0.0
 10
79.03979218944144
 20
-107.0625433760121
 30
0.0
 10
79.00603025368599
 20
-106.8637613665132
 30
0.0
 10
79.00603025368599
 20
-106.7393934194957
 30
0.0
 10
79.00603025368599
 20
-106.4431152077642
 30
0.0
 10
79.18999835259834
 20
-106.2215955680627
 30
0.0
 10
79.46284991503012
 20
-106.2215955680627
 30
0.0
 10
79.69160425525071
 20
-106.2215955680627
 30
0.0
 10
79.7908230052259
 20
-106.3459635150802
 30
0.0
 10
80.01716577860682
 20
-106.6760036625671
 30
0.0
  0
HATCH
  5
EA
330
DB
100
AcDbEntity
  8
_U+30EC_U+30A4_U+30E4_U+30FC 1
 62
   179
420
  2234388
100
AcDbHatch
 10
0.0
 20
0.0
 30
0.0
210
0.0
220
0.0
230
1.0
  2
SOLID
 70
     1
 71
     0
 91
        1
 92
        1
 93
        1
 72
     4
 94
        3
 73
     0
 74
     1
 95
       44
 96
       40
 40
0.0
 40
0.0
 40
0.0
 40
0.0
 40
1.0
 40
1.0
 40
1.0
 40
2.0
 40
2.0
 40
2.0
 40
3.0
 40
3.0
 40
3.0
 40
4.0
 40
4.0
 40
4.0
 40
5.0
 40
5.0
 40
5.0
 40
6.0
 40
6.0
 40
6.0
 40
7.0
 40
7.0
 40
7.0
 40
8.0
 40
8.0
 40
8.0
 40
9.0
 40
9.0
 40
9.0
 40
10.0
 40
10.0
 40
10.0
 40
11.0
 40
11.0
 40
11.0
 40
12.0
 40
12.0
 40
12.0
 40
13.0
 40
13.0
 40
13.0
 40
13.0
 10
80.01716577860682
 20
-106.6760036625671
 10
80.17598468047684
 20
-106.90889211737
 10
80.25005423340971
 20
-107.0084553768937
 10
80.39371471514463
 20
-107.060476318721
 10
80.39371471514463
 20
-107.060476318721
 10
80.39371471514463
 20
-106.2281412494846
 10
80.39371471514463
 20
-106.2281412494846
 10
80.39371471514463
 20
-106.2281412494846
 10
80.59904240606552
 20
-106.2281412494846
 10
80.59904240606552
 20
-106.2281412494846
 10
80.59904240606552
 20
-106.2281412494846
 10
80.59904240606552
 20
-107.3271267092793
 10
80.59904240606552
 20
-107.3271267092793
 10
80.24144149469659
 20
-107.2930202639754
 10
80.16323782718142
 20
-107.2230848256248
 10
79.86489255815879
 20
-106.811740424686
 10
79.66611054865986
 20
-106.5381998431571
 10
79.59824216760045
 20
-106.467919895258
 10
79.46078285773898
 20
-106.467919895258
 10
79.34227157304638
 20
-106.467919895258
 10
79.21135794460689
 20
-106.5447455245791
 10
79.21135794460689
 20
-106.7552408587279
 10
79.21135794460689
 20
-107.0332600643875
 10
79.4418348325701
 20
-107.0422173126492
 10
79.55827905997154
 20
-107.04669593678
 10
79.55827905997154
 20
-107.04669593678
 10
79.55827905997154
 20
-107.2864745825534
 10
79.55827905997154
 20
-107.2864745825534
 10
79.43115503656583
 20
-107.2775173342917
 10
79.31918943329521
 20
-107.2661485191904
 10
79.2006781486026
 20
-107.1800211320592
 10
79.03979218944144
 20
-107.0625433760121
 10
79.00603025368599
 20
-106.8637613665132
 10
79.00603025368599
 20
-106.7393934194957
 10
79.00603025368599
 20
-106.4431152077642
 10
79.18999835259834
 20
-106.2215955680627
 10
79.46284991503012
 20
-106.2215955680627
 10
79.69160425525071
 20
-106.2215955680627
 10
79.7908230052259
 20
-106.3459635150802
 10
80.01716577860682
 20
-106.6760036625671
 97
        0
 97
        0
 75
     2
 76
     1
 98
        0
  0
ENDBLK
  5
DE
330
DB
100
AcDbEntity
  8
0
100
AcDbBlockEnd
  0
BLOCK
  5
ED
330
EB
100
AcDbEntity
  8
0
100
AcDbBlockBegin
  2
block 11
 70
     0
 10
0.0
 20
0.0
 30
0.0
  3
block 11
  1

  0
POLYLINE
  5
EF
330
EB
100
AcDbEntity
  8
_U+30EC_U+30A4_U+30E4_U+30FC 1
 62
   179
420
  2234388
370
     9
100
AcDb2dPolyline
 66
     1
 10
0.0
 20
0.0
 30
0.0
  0
VERTEX
  5
F0
330
EF
100
AcDbEntity
  8
_U+30EC_U+30A4_U+30E4_U+30FC 1
 62
   179
420
  2234388
370
     9
100
AcDbVertex
100
AcDb2dVertex
 10
81.95020513149831
 20
-75.49617303668148
 30
0.0
  0
VERTEX
  5
F1
330
EF
100
AcDbEntity
  8
_U+30EC_U+30A4_U+30E4_U+30FC 1
 62
   179
420
  2234388
370
     9
100
AcDbVertex
100
AcDb2dVertex
 10
81.95020513149831
 20
-101.4963185857368
 30
0.0
  0
SEQEND
  5
F2
330
EF
100
AcDbEntity
  8
_U+30EC_U+30A4_U+30E4_U+30FC 1
 62
   179
420
  2234388
370
     9
  0
POLYLINE
  5
F3
330
EB
100
AcDbEntity
  8
_U+30EC_U+30A4_U+30E4_U+30FC 1
 62
   179
420
  2234388
370
     9
100
AcDb2dPolyline
 66
     1
 10
0.0
 20
0.0
 30
0.0
  0
VERTEX
  5
F4
330
F3
100
AcDbEntity
  8
_U+30EC_U+30A4_U+30E4_U+30FC 1
 62
   179
420
  2234388
370
     9
100
AcDbVertex
100
AcDb2dVertex
 10
80.49016377985818
 20
-75.49617303668148
 30
0.0
  0
VERTEX
  5
F5
330
F3
100
AcDbEntity
  8
_U+30EC_U+30A4_U+30E4_U+30FC 1
 62
   179
420
  2234388
370
     9
100
AcDbVertex
100
AcDb2dVertex
 10
82.94997732821422
 20
-75.49617303668148
 30
0.0
  0
SEQEND
  5
F6
330
F3
100
AcDbEntity
  8
_U+30EC_U+30A4_U+30E4_U+30FC 1
 62
   179
420
  2234388
370
     9
  0
INSERT
  5
F8
330
EB
100
AcDbEntity
  8
_U+30EC_U+30A4_U+30E4_U+30FC 1
100
AcDbBlockReference
  2
block 12
 10
0.0
 20
0.0
 30
0.0
  0
ENDBLK
  5
EE
330
EB
100
AcDbEntity
  8
0
100
AcDbBlockEnd
  0
BLOCK
  5
F9
330
F7
100
AcDbEntity
  8
0
100
AcDbBlockBegin
  2
block 12
 70
     0
 10
0.0
 20
0.0
 30
0.0
  3
block 12
  1

  0
SPLINE
  5
FB
330
F7
100
AcDbEntity
  8
_U+30EC_U+30A4_U+30E4_U+30FC 1
370
     0
100
AcDbSpline
210
0.0
220
0.0
230
1.0
 70
    11
 71
     3
 72
    44
 73
    40
 74
     0
 42
0.0000000001
 43
0.0000000001
 12
1.0
 22
0.0
 32
0.0
 13
1.0
 23
0.0
 33
0.0
 40
0.0
 40
0.0
 40
0.0
 40
0.0
 40
1.0
 40
1.0
 40
1.0
 40
2.0
 40
2.0
 40
2.0
 40
3.0
 40
3.0
 40
3.0
 40
4.0
 40
4.0
 40
4.0
 40
5.0
 40
5.0
 40
5.0
 40
6.0
 40
6.0
 40
6.0
 40
7.0
 40
7.0
 40
7.0
 40
8.0
 40
8.0
 40
8.0
 40
9.0
 40
9.0
 40
9.0
 40
10.0
 40
10.0
 40
10.0
 40
11.0
 40
11.0
 40
11.0
 40
12.0
 40
12.0
 40
12.0
 40
13.0
 40
13.0
 40
13.0
 40
13.0
 10
80.01716577860682
 20
-89.02643498208367
 30
0.0
 10
80.17598468047684
 20
-89.25932343688656
 30
0.0
 10
80.25005423340971
 20
-89.35888669641028
 30
0.0
 10
80.39371471514463
 20
-89.41056312868903
 30
0.0
 10
80.39371471514463
 20
-89.41056312868903
 30
0.0
 10
80.39371471514463
 20
-88.57891707854972
 30
0.0
 10
80.39371471514463
 20
-88.57891707854972
 30
0.0
 10
80.39371471514463
 20
-88.57891707854972
 30
0.0
 10
80.59904240606552
 20
-88.57891707854972
 30
0.0
 10
80.59904240606552
 20
-88.57891707854972
 30
0.0
 10
80.59904240606552
 20
-88.57891707854972
 30
0.0
 10
80.59904240606552
 20
-89.67755802879589
 30
0.0
 10
80.59904240606552
 20
-89.67755802879589
 30
0.0
 10
80.24144149469659
 20
-89.64345158349192
 30
0.0
 10
80.16323782718142
 20
-89.57351614514134
 30
0.0
 10
79.86489255815879
 20
-89.16217174420251
 30
0.0
 10
79.66611054865986
 20
-88.88863116267368
 30
0.0
 10
79.59824216760045
 20
-88.81835121477458
 30
0.0
 10
79.46078285773898
 20
-88.81835121477458
 30
0.0
 10
79.34227157304638
 20
-88.81835121477458
 30
0.0
 10
79.21135794460689
 20
-88.89517684409566
 30
0.0
 10
79.21135794460689
 20
-89.10567217824442
 30
0.0
 10
79.21135794460689
 20
-89.38369138390408
 30
0.0
 10
79.4418348325701
 20
-89.39264863216573
 30
0.0
 10
79.55827905997154
 20
-89.39712725629656
 30
0.0
 10
79.55827905997154
 20
-89.39712725629656
 30
0.0
 10
79.55827905997154
 20
-89.63690590206994
 30
0.0
 10
79.55827905997154
 20
-89.63690590206994
 30
0.0
 10
79.43115503656583
 20
-89.62760414425976
 30
0.0
 10
79.31918943329521
 20
-89.61657983870697
 30
0.0
 10
79.2006781486026
 20
-89.53045245157573
 30
0.0
 10
79.03979218944144
 20
-89.4129746955287
 30
0.0
 10
79.00603025368599
 20
-89.21419268602979
 30
0.0
 10
79.00603025368599
 20
-89.08982473901227
 30
0.0
 10
79.00603025368599
 20
-88.79354652728078
 30
0.0
 10
79.18999835259834
 20
-88.57202688757921
 30
0.0
 10
79.46284991503012
 20
-88.57202688757921
 30
0.0
 10
79.69160425525071
 20
-88.57202688757921
 30
0.0
 10
79.7908230052259
 20
-88.69639483459675
 30
0.0
 10
80.01716577860682
 20
-89.02643498208367
 30
0.0
  0
HATCH
  5
FC
330
F7
100
AcDbEntity
  8
_U+30EC_U+30A4_U+30E4_U+30FC 1
 62
   179
420
  2234388
100
AcDbHatch
 10
0.0
 20
0.0
 30
0.0
210
0.0
220
0.0
230
1.0
  2
SOLID
 70
     1
 71
     0
 91
        1
 92
        1
 93
        1
 72
     4
 94
        3
 73
     0
 74
     1
 95
       44
 96
       40
 40
0.0
 40
0.0
 40
0.0
 40
0.0
 40
1.0
 40
1.0
 40
1.0
 40
2.0
 40
2.0
 40
2.0
 40
3.0
 40
3.0
 40
3.0
 40
4.0
 40
4.0
 40
4.0
 40
5.0
 40
5.0
 40
5.0
 40
6.0
 40
6.0
 40
6.0
 40
7.0
 40
7.0
 40
7.0
 40
8.0
 40
8.0
 40
8.0
 40
9.0
 40
9.0
 40
9.0
 40
10.0
 40
10.0
 40
10.0
 40
11.0
 40
11.0
 40
11.0
 40
12.0
 40
12.0
 40
12.0
 40
13.0
 40
13.0
 40
13.0
 40
13.0
 10
80.01716577860682
 20
-89.02643498208367
 10
80.17598468047684
 20
-89.25932343688656
 10
80.25005423340971
 20
-89.35888669641028
 10
80.39371471514463
 20
-89.41056312868903
 10
80.39371471514463
 20
-89.41056312868903
 10
80.39371471514463
 20
-88.57891707854972
 10
80.39371471514463
 20
-88.57891707854972
 10
80.39371471514463
 20
-88.57891707854972
 10
80.59904240606552
 20
-88.57891707854972
 10
80.59904240606552
 20
-88.57891707854972
 10
80.59904240606552
 20
-88.57891707854972
 10
80.59904240606552
 20
-89.67755802879589
 10
80.59904240606552
 20
-89.67755802879589
 10
80.24144149469659
 20
-89.64345158349192
 10
80.16323782718142
 20
-89.57351614514134
 10
79.86489255815879
 20
-89.16217174420251
 10
79.66611054865986
 20
-88.88863116267368
 10
79.59824216760045
 20
-88.81835121477458
 10
79.46078285773898
 20
-88.81835121477458
 10
79.34227157304638
 20
-88.81835121477458
 10
79.21135794460689
 20
-88.89517684409566
 10
79.21135794460689
 20
-89.10567217824442
 10
79.21135794460689
 20
-89.38369138390408
 10
79.4418348325701
 20
-89.39264863216573
 10
79.55827905997154
 20
-89.39712725629656
 10
79.55827905997154
 20
-89.39712725629656
 10
79.55827905997154
 20
-89.63690590206994
 10
79.55827905997154
 20
-89.63690590206994
 10
79.43115503656583
 20
-89.62760414425976
 10
79.31918943329521
 20
-89.61657983870697
 10
79.2006781486026
 20
-89.53045245157573
 10
79.03979218944144
 20
-89.4129746955287
 10
79.00603025368599
 20
-89.21419268602979
 10
79.00603025368599
 20
-89.08982473901227
 10
79.00603025368599
 20
-88.79354652728078
 10
79.18999835259834
 20
-88.57202688757921
 10
79.46284991503012
 20
-88.57202688757921
 10
79.69160425525071
 20
-88.57202688757921
 10
79.7908230052259
 20
-88.69639483459675
 10
80.01716577860682
 20
-89.02643498208367
 97
        0
 97
        0
 75
     2
 76
     1
 98
        0
  0
SPLINE
  5
FD
330
F7
100
AcDbEntity
  8
_U+30EC_U+30A4_U+30E4_U+30FC 1
370
     0
100
AcDbSpline
210
0.0
220
0.0
230
1.0
 70
    11
 71
     3
 72
    32
 73
    28
 74
     0
 42
0.0000000001
 43
0.0000000001
 12
1.0
 22
0.0
 32
0.0
 13
1.0
 23
0.0
 33
0.0
 40
0.0
 40
0.0
 40
0.0
 40
0.0
 40
1.0
 40
1.0
 40
1.0
 40
2.0
 40
2.0
 40
2.0
 40
3.0
 40
3.0
 40
3.0
 40
4.0
 40
4.0
 40
4.0
 40
5.0
 40
5.0
 40
5.0
 40
6.0
 40
6.0
 40
6.0
 40
7.0
 40
7.0
 40
7.0
 40
8.0
 40
8.0
 40
8.0
 40
9.0
 40
9.0
 40
9.0
 40
9.0
 10
80.6496853096987
 20
-87.86371525581185
 30
0.0
 10
80.6496853096987
 20
-88.41527504300035
 30
0.0
 10
80.09571395567052
 20
-88.424232291262
 30
0.0
 10
79.88177352603651
 20
-88.424232291262
 30
0.0
 10
79.65129663807329
 20
-88.424232291262
 30
0.0
 10
79.00396319639485
 20
-88.40390622789903
 30
0.0
 10
79.00396319639485
 20
-87.82271861953738
 30
0.0
 10
79.00396319639485
 20
-87.63737248243093
 30
0.0
 10
79.07389863474542
 20
-87.37520071600342
 30
0.0
 10
79.4060058395235
 20
-87.33454858927747
 30
0.0
 10
79.4060058395235
 20
-87.33454858927747
 30
0.0
 10
79.4060058395235
 20
-87.56295841994954
 30
0.0
 10
79.4060058395235
 20
-87.56295841994954
 30
0.0
 10
79.34881725446836
 20
-87.57432723505087
 30
0.0
 10
79.2006781486026
 20
-87.60808917080631
 30
0.0
 10
79.2006781486026
 20
-87.82513018637705
 30
0.0
 10
79.2006781486026
 20
-88.13725583734069
 30
0.0
 10
79.5286512387984
 20
-88.17997502135779
 30
0.0
 10
79.73363442017076
 20
-88.19375540329878
 30
0.0
 10
79.65543075265559
 20
-88.09419214377506
 30
0.0
 10
79.59617511030929
 20
-88.02184513858482
 30
0.0
 10
79.59617511030929
 20
-87.82719724366821
 30
0.0
 10
79.59617511030929
 20
-87.63530542513979
 30
0.0
 10
79.70435110854613
 20
-87.31181095907483
 30
0.0
 10
80.1105278662571
 20
-87.31181095907483
 30
0.0
 10
80.42988821773976
 20
-87.31181095907483
 30
0.0
 10
80.6496853096987
 20
-87.52437335051475
 30
0.0
 10
80.6496853096987
 20
-87.86371525581185
 30
0.0
  0
SPLINE
  5
FE
330
F7
100
AcDbEntity
  8
_U+30EC_U+30A4_U+30E4_U+30FC 1
370
     0
100
AcDbSpline
210
0.0
220
0.0
230
1.0
 70
    11
 71
     3
 72
    17
 73
    13
 74
     0
 42
0.0000000001
 43
0.0000000001
 12
1.0
 22
0.0
 32
0.0
 13
1.0
 23
0.0
 33
0.0
 40
0.0
 40
0.0
 40
0.0
 40
0.0
 40
1.0
 40
1.0
 40
1.0
 40
2.0
 40
2.0
 40
2.0
 40
3.0
 40
3.0
 40
3.0
 40
4.0
 40
4.0
 40
4.0
 40
4.0
 10
79.7908230052259
 20
-87.84545624974002
 30
0.0
 10
79.7908230052259
 20
-88.12588702223937
 30
0.0
 10
80.00235186802026
 20
-88.16653914896531
 30
0.0
 10
80.1187960954217
 20
-88.16653914896531
 30
0.0
 10
80.29449596516943
 20
-88.16653914896531
 30
0.0
 10
80.45744898162175
 20
-88.06490883215044
 30
0.0
 10
80.45744898162175
 20
-87.86819387994268
 30
0.0
 10
80.45744898162175
 20
-87.73934730879434
 30
0.0
 10
80.39819333927545
 20
-87.55158960484822
 30
0.0
 10
80.11259492354824
 20
-87.55158960484822
 30
0.0
 10
79.88831920745848
 20
-87.55158960484822
 30
0.0
 10
79.7908230052259
 20
-87.70076223935953
 30
0.0
 10
79.7908230052259
 20
-87.84545624974002
 30
0.0
  0
HATCH
  5
FF
330
F7
100
AcDbEntity
  8
_U+30EC_U+30A4_U+30E4_U+30FC 1
 62
   179
420
  2234388
100
AcDbHatch
 10
0.0
 20
0.0
 30
0.0
210
0.0
220
0.0
230
1.0
  2
SOLID
 70
     1
 71
     0
 91
        2
 92
        1
 93
        1
 72
     4
 94
        3
 73
     0
 74
     1
 95
       32
 96
       28
 40
0.0
 40
0.0
 40
0.0
 40
0.0
 40
1.0
 40
1.0
 40
1.0
 40
2.0
 40
2.0
 40
2.0
 40
3.0
 40
3.0
 40
3.0
 40
4.0
 40
4.0
 40
4.0
 40
5.0
 40
5.0
 40
5.0
 40
6.0
 40
6.0
 40
6.0
 40
7.0
 40
7.0
 40
7.0
 40
8.0
 40
8.0
 40
8.0
 40
9.0
 40
9.0
 40
9.0
 40
9.0
 10
80.6496853096987
 20
-87.86371525581185
 10
80.6496853096987
 20
-88.41527504300035
 10
80.09571395567052
 20
-88.424232291262
 10
79.88177352603651
 20
-88.424232291262
 10
79.65129663807329
 20
-88.424232291262
 10
79.00396319639485
 20
-88.40390622789903
 10
79.00396319639485
 20
-87.82271861953738
 10
79.00396319639485
 20
-87.63737248243093
 10
79.07389863474542
 20
-87.37520071600342
 10
79.4060058395235
 20
-87.33454858927747
 10
79.4060058395235
 20
-87.33454858927747
 10
79.4060058395235
 20
-87.56295841994954
 10
79.4060058395235
 20
-87.56295841994954
 10
79.34881725446836
 20
-87.57432723505087
 10
79.2006781486026
 20
-87.60808917080631
 10
79.2006781486026
 20
-87.82513018637705
 10
79.2006781486026
 20
-88.13725583734069
 10
79.5286512387984
 20
-88.17997502135779
 10
79.73363442017076
 20
-88.19375540329878
 10
79.65543075265559
 20
-88.09419214377506
 10
79.59617511030929
 20
-88.02184513858482
 10
79.59617511030929
 20
-87.82719724366821
 10
79.59617511030929
 20
-87.63530542513979
 10
79.70435110854613
 20
-87.31181095907483
 10
80.1105278662571
 20
-87.31181095907483
 10
80.42988821773976
 20
-87.31181095907483
 10
80.6496853096987
 20
-87.52437335051475
 10
80.6496853096987
 20
-87.86371525581185
 97
        0
 97
        0
 92
        1
 93
        1
 72
     4
 94
        3
 73
     0
 74
     1
 95
       17
 96
       13
 40
0.0
 40
0.0
 40
0.0
 40
0.0
 40
1.0
 40
1.0
 40
1.0
 40
2.0
 40
2.0
 40
2.0
 40
3.0
 40
3.0
 40
3.0
 40
4.0
 40
4.0
 40
4.0
 40
4.0
 10
79.7908230052259
 20
-87.84545624974002
 10
79.7908230052259
 20
-88.12588702223937
 10
80.00235186802026
 20
-88.16653914896531
 10
80.1187960954217
 20
-88.16653914896531
 10
80.29449596516943
 20
-88.16653914896531
 10
80.45744898162175
 20
-88.06490883215044
 10
80.45744898162175
 20
-87.86819387994268
 10
80.45744898162175
 20
-87.73934730879434
 10
80.39819333927545
 20
-87.55158960484822
 10
80.11259492354824
 20
-87.55158960484822
 10
79.88831920745848
 20
-87.55158960484822
 10
79.7908230052259
 20
-87.70076223935953
 10
79.7908230052259
 20
-87.84545624974002
 97
        0
 97
        0
 75
     2
 76
     1
 98
        0
  0
ENDBLK
  5
FA
330
F7
100
AcDbEntity
  8
0
100
AcDbBlockEnd
  0
ENDSEC
  0
SECTION
  2
ENTITIES
  0
INSERT
  5
42
330
1F
100
AcDbEntity
  8
_U+30EC_U+30A4_U+30E4_U+30FC 1
100
AcDbBlockReference
  2
block 2
 10
0.0
 20
0.0
 30
0.0
  0
ENDSEC
  0
SECTION
  2
OBJECTS
  0
DICTIONARY
  5
C
330
0
100
AcDbDictionary
281
     1
  3
ACAD_GROUP
350
D
  3
ACAD_LAYOUT
350
1A
  3
ACAD_MATERIAL
350
3B
  3
ACAD_MLEADERSTYLE
350
101
  3
ACAD_MLINESTYLE
350
17
  3
ACAD_PLOTSETTINGS
350
19
  3
ACAD_PLOTSTYLENAME
350
E
  3
ACAD_TABLESTYLE
350
100
  3
ACAD_VISUALSTYLE
350
2A
  0
SUN
  5
3F
330
29
100
AcDbSun
 90
        1
290
     0
 63
     7
421
 16777215
 40
1.0
291
     1
 91
  2455826
 92
 54000000
292
     0
 70
     2
 71
   256
280
     1
  0
DICTIONARY
  5
D
102
{ACAD_REACTORS
330
C
102
}
330
C
100
AcDbDictionary
281
     1
  0
DICTIONARY
  5
1A
102
{ACAD_REACTORS
330
C
102
}
330
C
100
AcDbDictionary
281
     1
  3
Layout1
350
1E
  3
Layout2
350
26
  3
Model
350
22
  0
DICTIONARY
  5
3B
102
{ACAD_REACTORS
330
C
102
}
330
C
100
AcDbDictionary
281
     1
  3
ByBlock
350
3D
  3
ByLayer
350
3C
  3
Global
350
3E
  0
DICTIONARY
  5
101
102
{ACAD_REACTORS
330
C
102
}
330
C
100
AcDbDictionary
281
     1
  0
DICTIONARY
  5
17
102
{ACAD_REACTORS
330
C
102
}
330
C
100
AcDbDictionary
281
     1
  3
Standard
350
18
  0
DICTIONARY
  5
19
102
{ACAD_REACTORS
330
C
102
}
330
C
100
AcDbDictionary
281
     1
  0
ACDBDICTIONARYWDFLT
  5
E
102
{ACAD_REACTORS
330
C
102
}
330
C
100
AcDbDictionary
281
     1
  3
Normal
350
F
100
AcDbDictionaryWithDefault
340
F
  0
DICTIONARY
  5
100
102
{ACAD_REACTORS
330
C
102
}
330
C
100
AcDbDictionary
281
     1
  0
DICTIONARY
  5
2A
102
{ACAD_REACTORS
330
C
102
}
330
C
100
AcDbDictionary
281
     1
  3
2dWireframe
350
2F
  3
3D Hidden
350
31
  3
3dWireframe
350
30
  3
Basic
350
32
  3
Brighten
350
36
  3
ColorChange
350
3A
  3
Conceptual
350
34
  3
Dim
350
35
  3
Facepattern
350
39
  3
Flat
350
2B
  3
FlatWithEdges
350
2C
  3
Gouraud
350
2D
  3
GouraudWithEdges
350
2E
  3
Linepattern
350
38
  3
Realistic
350
33
  3
Thicken
350
37
  0
LAYOUT
  5
1E
102
{ACAD_REACTORS
330
1A
102
}
330
1A
100
AcDbPlotSettings
  1

  2
none_device
  4

  6

 40
0.0
 41
0.0
 42
0.0
 43
0.0
 44
0.0
 45
0.0
 46
0.0
 47
0.0
 48
0.0
 49
0.0
140
0.0
141
0.0
142
1.0
143
1.0
 70
   688
 72
     0
 73
     0
 74
     5
  7

 75
    16
 76
     0
 77
     2
 78
   300
147
1.0
148
0.0
149
0.0
100
AcDbLayout
  1
Layout1
 70
     1
 71
     1
 10
0.0
 20
0.0
 11
12.0
 21
9.0
 12
0.0
 22
0.0
 32
0.0
 14
1.000000000000000E+20
 24
1.000000000000000E+20
 34
1.000000000000000E+20
 15
-1.000000000000000E+20
 25
-1.000000000000000E+20
 35
-1.000000000000000E+20
146
0.0
 13
0.0
 23
0.0
 33
0.0
 16
1.0
 26
0.0
 36
0.0
 17
0.0
 27
1.0
 37
0.0
 76
     0
330
1B
  0
LAYOUT
  5
26
102
{ACAD_REACTORS
330
1A
102
}
330
1A
100
AcDbPlotSettings
  1

  2
none_device
  4

  6

 40
0.0
 41
0.0
 42
0.0
 43
0.0
 44
0.0
 45
0.0
 46
0.0
 47
0.0
 48
0.0
 49
0.0
140
0.0
141
0.0
142
1.0
143
1.0
 70
   688
 72
     0
 73
     0
 74
     5
  7

 75
    16
 76
     0
 77
     2
 78
   300
147
1.0
148
0.0
149
0.0
100
AcDbLayout
  1
Layout2
 70
     1
 71
     2
 10
0.0
 20
0.0
 11
0.0
 21
0.0
 12
0.0
 22
0.0
 32
0.0
 14
0.0
 24
0.0
 34
0.0
 15
0.0
 25
0.0
 35
0.0
146
0.0
 13
0.0
 23
0.0
 33
0.0
 16
1.0
 26
0.0
 36
0.0
 17
0.0
 27
1.0
 37
0.0
 76
     0
330
23
  0
LAYOUT
  5
22
102
{ACAD_REACTORS
330
1A
102
}
330
1A
100
AcDbPlotSettings
  1

  2
none_device
  4

  6

 40
0.0
 41
0.0
 42
0.0
 43
0.0
 44
0.0
 45
0.0
 46
0.0
 47
0.0
 48
0.0
 49
0.0
140
0.0
141
0.0
142
1.0
143
1.0
 70
  1712
 72
     0
 73
     0
 74
     0
  7

 75
     0
 76
     0
 77
     2
 78
   300
147
1.0
148
0.0
149
0.0
100
AcDbLayout
  1
Model
 70
     1
 71
     0
 10
0.0
 20
0.0
 11
12.0
 21
9.0
 12
0.0
 22
0.0
 32
0.0
 14
1.000000000000000E+20
 24
1.000000000000000E+20
 34
1.000000000000000E+20
 15
-1.000000000000000E+20
 25
-1.000000000000000E+20
 35
-1.000000000000000E+20
146
0.0
 13
0.0
 23
0.0
 33
0.0
 16
1.0
 26
0.0
 36
0.0
 17
0.0
 27
1.0
 37
0.0
 76
     0
330
1F
331
29
  0
MATERIAL
  5
3D
102
{ACAD_REACTORS
330
3B
102
}
330
3B
100
AcDbMaterial
  1
ByBlock
 72
     1
 94
      127
  0
MATERIAL
  5
3C
102
{ACAD_REACTORS
330
3B
102
}
330
3B
100
AcDbMaterial
  1
ByLayer
 72
     1
 94
      127
  0
MATERIAL
  5
3E
102
{ACAD_REACTORS
330
3B
102
}
330
3B
100
AcDbMaterial
  1
Global
 72
     1
 94
      127
  0
MLINESTYLE
  5
18
102
{ACAD_REACTORS
330
17
102
}
330
17
100
AcDbMlineStyle
  2
Standard
 70
     0
  3

 62
   256
 51
90.0
 52
90.0
 71
     2
 49
0.5
 62
   256
  6
BYLAYER
 49
-0.5
 62
   256
  6
BYLAYER
  0
ACDBPLACEHOLDER
  5
F
102
{ACAD_REACTORS
330
E
102
}
330
E
  0
VISUALSTYLE
  5
2F
102
{ACAD_REACTORS
330
2A
102
}
330
2A
100
AcDbVisualStyle
  2
2dWireframe
 70
     4
177
     2
291
     0
 71
     0
176
     1
 72
     2
176
     1
 73
     0
176
     1
 90
        0
176
     1
 40
-0.6
176
     1
 41
-30.0
176
     1
 62
     5
 63
     7
421
 16777215
176
     1
 74
     1
176
     1
 91
        4
176
     1
 64
     7
176
     1
 65
   257
176
     1
 75
     1
176
     1
175
     1
176
     1
 42
1.0
176
     1
 92
        0
176
     1
 66
   257
176
     1
 43
1.0
176
     1
 76
     1
176
     1
 77
     6
176
     1
 78
     2
176
     1
 67
     7
176
     1
 79
     5
176
     1
170
     0
176
     1
171
     0
176
     1
290
     0
176
     1
 93
        1
176
     1
 44
0.0
176
     1
173
     0
176
     1
  0
VISUALSTYLE
  5
31
102
{ACAD_REACTORS
330
2A
102
}
330
2A
100
AcDbVisualStyle
  2
3D Hidden
 70
     6
177
     2
291
     0
 71
     1
176
     1
 72
     2
176
     1
 73
     2
176
     1
 90
        0
176
     1
 40
-0.6
176
     1
 41
-30.0
176
     1
 62
     5
 63
     7
421
 16777215
176
     1
 74
     2
176
     1
 91
        2
176
     1
 64
     7
176
     1
 65
   257
176
     1
 75
     2
176
     1
175
     1
176
     1
 42
40.0
176
     1
 92
        0
176
     1
 66
   257
176
     1
 43
1.0
176
     1
 76
     1
176
     1
 77
     6
176
     1
 78
     2
176
     1
 67
     7
176
     1
 79
     3
176
     1
170
     0
176
     1
171
     0
176
     1
290
     0
176
     1
 93
        1
176
     1
 44
0.0
176
     1
173
     0
176
     1
  0
VISUALSTYLE
  5
30
102
{ACAD_REACTORS
330
2A
102
}
330
2A
100
AcDbVisualStyle
  2
3dWireframe
 70
     5
177
     2
291
     0
 71
     0
176
     1
 72
     2
176
     1
 73
     0
176
     1
 90
        0
176
     1
 40
-0.6
176
     1
 41
-30.0
176
     1
 62
     5
 63
     7
421
 16777215
176
     1
 74
     1
176
     1
 91
        4
176
     1
 64
     7
176
     1
 65
   257
176
     1
 75
     1
176
     1
175
     1
176
     1
 42
1.0
176
     1
 92
        0
176
     1
 66
   257
176
     1
 43
1.0
176
     1
 76
     1
176
     1
 77
     6
176
     1
 78
     2
176
     1
 67
     7
176
     1
 79
     5
176
     1
170
     0
176
     1
171
     0
176
     1
290
     0
176
     1
 93
        1
176
     1
 44
0.0
176
     1
173
     0
176
     1
  0
VISUALSTYLE
  5
32
102
{ACAD_REACTORS
330
2A
102
}
330
2A
100
AcDbVisualStyle
  2
Basic
 70
     7
177
     2
291
     1
 71
     1
176
     1
 72
     0
176
     1
 73
     1
176
     1
 90
        0
176
     1
 40
-0.6
176
     1
 41
-30.0
176
     1
 62
     5
 63
     7
421
 16777215
176
     1
 74
     0
176
     1
 91
        4
176
     1
 64
     7
176
     1
 65
   257
176
     1
 75
     1
176
     1
175
     1
176
     1
 42
1.0
176
     1
 92
        8
176
     1
 66
     7
176
     1
 43
1.0
176
     1
 76
     1
176
     1
 77
     6
176
     1
 78
     2
176
     1
 67
     7
176
     1
 79
     5
176
     1
170
     0
176
     1
171
     0
176
     1
290
     0
176
     1
 93
        1
176
     1
 44
0.0
176
     1
173
     0
176
     1
  0
VISUALSTYLE
  5
36
102
{ACAD_REACTORS
330
2A
102
}
330
2A
100
AcDbVisualStyle
  2
Brighten
 70
    12
177
     2
291
     1
 71
     2
176
     1
 72
     2
176
     1
 73
     0
176
     1
 90
        0
176
     1
 40
-0.6
176
     1
 41
-30.0
176
     1
 62
     5
 63
     7
421
 16777215
176
     1
 74
     1
176
     1
 91
        4
176
     1
 64
     7
176
     1
 65
   257
176
     1
 75
     1
176
     1
175
     1
176
     1
 42
1.0
176
     1
 92
        8
176
     1
 66
     7
176
     1
 43
1.0
176
     1
 76
     1
176
     1
 77
     6
176
     1
 78
     2
176
     1
 67
     7
176
     1
 79
     5
176
     1
170
     0
176
     1
171
     0
176
     1
290
     0
176
     1
 93
        1
176
     1
 44
50.0
176
     1
173
     0
176
     1
  0
VISUALSTYLE
  5
3A
102
{ACAD_REACTORS
330
2A
102
}
330
2A
100
AcDbVisualStyle
  2
ColorChange
 70
    16
177
     2
291
     1
 71
     2
176
     1
 72
     2
176
     1
 73
     3
176
     1
 90
        0
176
     1
 40
-0.6
176
     1
 41
-30.0
176
     1
 62
     5
 63
     8
421
  8421504
176
     1
 74
     1
176
     1
 91
        4
176
     1
 64
     7
176
     1
 65
   257
176
     1
 75
     1
176
     1
175
     1
176
     1
 42
1.0
176
     1
 92
        8
176
     1
 66
     8
424
  8421504
176
     1
 43
1.0
176
     1
 76
     1
176
     1
 77
     6
176
     1
 78
     2
176
     1
 67
     7
176
     1
 79
     5
176
     1
170
     0
176
     1
171
     0
176
     1
290
     0
176
     1
 93
        1
176
     1
 44
0.0
176
     1
173
     0
176
     1
  0
VISUALSTYLE
  5
34
102
{ACAD_REACTORS
330
2A
102
}
330
2A
100
AcDbVisualStyle
  2
Conceptual
 70
     9
177
     2
291
     0
 71
     3
176
     1
 72
     2
176
     1
 73
     0
176
     1
 90
        0
176
     1
 40
-0.6
176
     1
 41
-30.0
176
     1
 62
     5
 63
     7
421
 16777215
176
     1
 74
     2
176
     1
 91
        2
176
     1
 64
     7
176
     1
 65
   257
176
     1
 75
     1
176
     1
175
     1
176
     1
 42
40.0
176
     1
 92
        8
176
     1
 66
     7
176
     1
 43
1.0
176
     1
 76
     1
176
     1
 77
     6
176
     1
 78
     2
176
     1
 67
     7
176
     1
 79
     3
176
     1
170
     0
176
     1
171
     0
176
     1
290
     0
176
     1
 93
        1
176
     1
 44
0.0
176
     1
173
     0
176
     1
  0
VISUALSTYLE
  5
35
102
{ACAD_REACTORS
330
2A
102
}
330
2A
100
AcDbVisualStyle
  2
Dim
 70
    11
177
     2
291
     1
 71
     2
176
     1
 72
     2
176
     1
 73
     0
176
     1
 90
        0
176
     1
 40
-0.6
176
     1
 41
-30.0
176
     1
 62
     5
 63
     7
421
 16777215
176
     1
 74
     1
176
     1
 91
        4
176
     1
 64
     7
176
     1
 65
   257
176
     1
 75
     1
176
     1
175
     1
176
     1
 42
1.0
176
     1
 92
        8
176
     1
 66
     7
176
     1
 43
1.0
176
     1
 76
     1
176
     1
 77
     6
176
     1
 78
     2
176
     1
 67
     7
176
     1
 79
     5
176
     1
170
     0
176
     1
171
     0
176
     1
290
     0
176
     1
 93
        1
176
     1
 44
-50.0
176
     1
173
     0
176
     1
  0
VISUALSTYLE
  5
39
102
{ACAD_REACTORS
330
2A
102
}
330
2A
100
AcDbVisualStyle
  2
Facepattern
 70
    15
177
     2
291
     1
 71
     2
176
     1
 72
     2
176
     1
 73
     0
176
     1
 90
        0
176
     1
 40
-0.6
176
     1
 41
-30.0
176
     1
 62
     5
 63
     7
421
 16777215
176
     1
 74
     1
176
     1
 91
        4
176
     1
 64
     7
176
     1
 65
   257
176
     1
 75
     1
176
     1
175
     1
176
     1
 42
1.0
176
     1
 92
        8
176
     1
 66
     7
176
     1
 43
1.0
176
     1
 76
     1
176
     1
 77
     6
176
     1
 78
     2
176
     1
 67
     7
176
     1
 79
     5
176
     1
170
     0
176
     1
171
     0
176
     1
290
     0
176
     1
 93
        1
176
     1
 44
0.0
176
     1
173
     0
176
     1
  0
VISUALSTYLE
  5
2B
102
{ACAD_REACTORS
330
2A
102
}
330
2A
100
AcDbVisualStyle
  2
Flat
 70
     0
177
     2
291
     1
 71
     2
176
     1
 72
     1
176
     1
 73
     1
176
     1
 90
        2
176
     1
 40
-0.6
176
     1
 41
30.0
176
     1
 62
     5
 63
     7
421
 16777215
176
     1
 74
     0
176
     1
 91
        4
176
     1
 64
     7
176
     1
 65
   257
176
     1
 75
     1
176
     1
175
     1
176
     1
 42
1.0
176
     1
 92
        8
176
     1
 66
     7
176
     1
 43
1.0
176
     1
 76
     1
176
     1
 77
     6
176
     1
 78
     2
176
     1
 67
     7
176
     1
 79
     5
176
     1
170
     0
176
     1
171
     0
176
     1
290
     0
176
     1
 93
       13
176
     1
 44
0.0
176
     1
173
     0
176
     1
  0
VISUALSTYLE
  5
2C
102
{ACAD_REACTORS
330
2A
102
}
330
2A
100
AcDbVisualStyle
  2
FlatWithEdges
 70
     1
177
     2
291
     1
 71
     2
176
     1
 72
     1
176
     1
 73
     1
176
     1
 90
        2
176
     1
 40
-0.6
176
     1
 41
30.0
176
     1
 62
     5
 63
     7
421
 16777215
176
     1
 74
     1
176
     1
 91
        4
176
     1
 64
     7
176
     1
 65
   257
176
     1
 75
     1
176
     1
175
     1
176
     1
 42
1.0
176
     1
 92
        0
176
     1
 66
   257
176
     1
 43
1.0
176
     1
 76
     1
176
     1
 77
     6
176
     1
 78
     2
176
     1
 67
     7
176
     1
 79
     5
176
     1
170
     0
176
     1
171
     0
176
     1
290
     0
176
     1
 93
       13
176
     1
 44
0.0
176
     1
173
     0
176
     1
  0
VISUALSTYLE
  5
2D
102
{ACAD_REACTORS
330
2A
102
}
330
2A
100
AcDbVisualStyle
  2
Gouraud
 70
     2
177
     2
291
     1
 71
     2
176
     1
 72
     2
176
     1
 73
     1
176
     1
 90
        2
176
     1
 40
-0.6
176
     1
 41
30.0
176
     1
 62
     5
 63
     7
421
 16777215
176
     1
 74
     0
176
     1
 91
        4
176
     1
 64
     7
176
     1
 65
   257
176
     1
 75
     1
176
     1
175
     1
176
     1
 42
1.0
176
     1
 92
        0
176
     1
 66
     7
176
     1
 43
1.0
176
     1
 76
     1
176
     1
 77
     6
176
     1
 78
     2
176
     1
 67
     7
176
     1
 79
     5
176
     1
170
     0
176
     1
171
     0
176
     1
290
     0
176
     1
 93
       13
176
     1
 44
0.0
176
     1
173
     0
176
     1
  0
VISUALSTYLE
  5
2E
102
{ACAD_REACTORS
330
2A
102
}
330
2A
100
AcDbVisualStyle
  2
GouraudWithEdges
 70
     3
177
     2
291
     1
 71
     2
176
     1
 72
     2
176
     1
 73
     1
176
     1
 90
        2
176
     1
 40
-0.6
176
     1
 41
30.0
176
     1
 62
     5
 63
     7
421
 16777215
176
     1
 74
     1
176
     1
 91
        4
176
     1
 64
     7
176
     1
 65
   257
176
     1
 75
     1
176
     1
175
     1
176
     1
 42
1.0
176
     1
 92
        0
176
     1
 66
   257
176
     1
 43
1.0
176
     1
 76
     1
176
     1
 77
     6
176
     1
 78
     2
176
     1
 67
     7
176
     1
 79
     5
176
     1
170
     0
176
     1
171
     0
176
     1
290
     0
176
     1
 93
       13
176
     1
 44
0.0
176
     1
173
     0
176
     1
  0
VISUALSTYLE
  5
38
102
{ACAD_REACTORS
330
2A
102
}
330
2A
100
AcDbVisualStyle
  2
Linepattern
 70
    14
177
     2
291
     1
 71
     2
176
     1
 72
     2
176
     1
 73
     0
176
     1
 90
        0
176
     1
 40
-0.6
176
     1
 41
-30.0
176
     1
 62
     5
 63
     7
421
 16777215
176
     1
 74
     1
176
     1
 91
        4
176
     1
 64
     7
176
     1
 65
   257
176
     1
 75
     7
176
     1
175
     7
176
     1
 42
1.0
176
     1
 92
        8
176
     1
 66
     7
176
     1
 43
1.0
176
     1
 76
     1
176
     1
 77
     6
176
     1
 78
     2
176
     1
 67
     7
176
     1
 79
     5
176
     1
170
     0
176
     1
171
     0
176
     1
290
     0
176
     1
 93
        1
176
     1
 44
0.0
176
     1
173
     0
176
     1
  0
VISUALSTYLE
  5
33
102
{ACAD_REACTORS
330
2A
102
}
330
2A
100
AcDbVisualStyle
  2
Realistic
 70
     8
177
     2
291
     0
 71
     2
176
     1
 72
     2
176
     1
 73
     0
176
     1
 90
        0
176
     1
 40
-0.6
176
     1
 41
-30.0
176
     1
 62
     5
 63
     7
421
 16777215
176
     1
 74
     1
176
     1
 91
        0
176
     1
 64
     7
176
     1
 65
   257
176
     1
 75
     1
176
     1
175
     1
176
     1
 42
1.0
176
     1
 92
        8
176
     1
 66
     8
424
  7895160
176
     1
 43
1.0
176
     1
 76
     1
176
     1
 77
     6
176
     1
 78
     2
176
     1
 67
     7
176
     1
 79
     5
176
     1
170
     0
176
     1
171
     0
176
     1
290
     0
176
     1
 93
       13
176
     1
 44
0.0
176
     1
173
     0
176
     1
  0
VISUALSTYLE
  5
37
102
{ACAD_REACTORS
330
2A
102
}
330
2A
100
AcDbVisualStyle
  2
Thicken
 70
    13
177
     2
291
     1
 71
     2
176
     1
 72
     2
176
     1
 73
     0
176
     1
 90
        0
176
     1
 40
-0.6
176
     1
 41
-30.0
176
     1
 62
     5
 63
     7
421
 16777215
176
     1
 74
     1
176
     1
 91
        4
176
     1
 64
     7
176
     1
 65
   257
176
     1
 75
     1
176
     1
175
     1
176
     1
 42
1.0
176
     1
 92
       12
176
     1
 66
     7
176
     1
 43
1.0
176
     1
 76
     1
176
     1
 77
     6
176
     1
 78
     2
176
     1
 67
     7
176
     1
 79
     5
176
     1
170
     0
176
     1
171
     0
176
     1
290
     0
176
     1
 93
        1
176
     1
 44
0.0
176
     1
173
     0
176
     1
  0
ENDSEC
  0
EOF
