  0
SECTION
  2
HEADER
  9
$ACADVER
  1
AC1024
  9
$ACADMAINTVER
 70
     6
  9
$DWGCODEPAGE
  3
UNDEFINED
  9
$INSBASE
 10
0.0
 20
0.0
 30
0.0
  9
$EXTMIN
 10
1.000000000000000E+20
 20
1.000000000000000E+20
 30
1.000000000000000E+20
  9
$EXTMAX
 10
-1.000000000000000E+20
 20
-1.000000000000000E+20
 30
-1.000000000000000E+20
  9
$LIMMIN
 10
0.0
 20
0.0
  9
$LIMMAX
 10
12.0
 20
9.0
  9
$ORTHOMODE
 70
     0
  9
$REGENMODE
 70
     1
  9
$FILLMODE
 70
     1
  9
$QTEXTMODE
 70
     0
  9
$MIRRTEXT
 70
     1
  9
$LTSCALE
 40
1.0
  9
$ATTMODE
 70
     1
  9
$TEXTSIZE
 40
0.2
  9
$TRACEWID
 40
0.05
  9
$TEXTSTYLE
  7
Standard
  9
$CLAYER
  8
0
  9
$CELTYPE
  6
ByLayer
  9
$CECOLOR
 62
   256
  9
$CELTSCALE
 40
1.0
  9
$DISPSILH
 70
     0
  9
$DIMSCALE
 40
1.0
  9
$DIMASZ
 40
0.18
  9
$DIMEXO
 40
0.0625
  9
$DIMDLI
 40
0.38
  9
$DIMRND
 40
0.0
  9
$DIMDLE
 40
0.0
  9
$DIMEXE
 40
0.18
  9
$DIMTP
 40
0.0
  9
$DIMTM
 40
0.0
  9
$DIMTXT
 40
0.18
  9
$DIMCEN
 40
0.09
  9
$DIMTSZ
 40
0.0
  9
$DIMTOL
 70
     0
  9
$DIMLIM
 70
     0
  9
$DIMTIH
 70
     1
  9
$DIMTOH
 70
     1
  9
$DIMSE1
 70
     0
  9
$DIMSE2
 70
     0
  9
$DIMTAD
 70
     0
  9
$DIMZIN
 70
     0
  9
$DIMBLK
  1

  9
$DIMASO
 70
     1
  9
$DIMSHO
 70
     1
  9
$DIMPOST
  1

  9
$DIMAPOST
  1

  9
$DIMALT
 70
     0
  9
$DIMALTD
 70
     2
  9
$DIMALTF
 40
25.4
  9
$DIMLFAC
 40
1.0
  9
$DIMTOFL
 70
     0
  9
$DIMTVP
 40
0.0
  9
$DIMTIX
 70
     0
  9
$DIMSOXD
 70
     0
  9
$DIMSAH
 70
     0
  9
$DIMBLK1
  1

  9
$DIMBLK2
  1

  9
$DIMSTYLE
  2
Standard
  9
$DIMCLRD
 70
     0
  9
$DIMCLRE
 70
     0
  9
$DIMCLRT
 70
     0
  9
$DIMTFAC
 40
1.0
  9
$DIMGAP
 40
0.09
  9
$DIMJUST
 70
     0
  9
$DIMSD1
 70
     0
  9
$DIMSD2
 70
     0
  9
$DIMTOLJ
 70
     1
  9
$DIMTZIN
 70
     0
  9
$DIMALTZ
 70
     0
  9
$DIMALTTZ
 70
     0
  9
$DIMUPT
 70
     0
  9
$DIMDEC
 70
     4
  9
$DIMTDEC
 70
     4
  9
$DIMALTU
 70
     2
  9
$DIMALTTD
 70
     2
  9
$DIMTXSTY
  7
Standard
  9
$DIMAUNIT
 70
     0
  9
$DIMADEC
 70
     0
  9
$DIMALTRND
 40
0.0
  9
$DIMAZIN
 70
     0
  9
$DIMDSEP
 70
    46
  9
$DIMATFIT
 70
     3
  9
$DIMFRAC
 70
     0
  9
$DIMLDRBLK
  1

  9
$DIMLUNIT
 70
     2
  9
$DIMLWD
 70
    -2
  9
$DIMLWE
 70
    -2
  9
$DIMTMOVE
 70
     0
  9
$DIMFXL
 40
1.0
  9
$DIMFXLON
 70
     0
  9
$DIMJOGANG
 40
0.7853981633974483
  9
$DIMTFILL
 70
     0
  9
$DIMTFILLCLR
 70
     0
  9
$DIMARCSYM
 70
     0
  9
$DIMLTYPE
  6

  9
$DIMLTEX1
  6

  9
$DIMLTEX2
  6

  9
$DIMTXTDIRECTION
 70
     0
  9
$LUNITS
 70
     2
  9
$LUPREC
 70
     4
  9
$SKETCHINC
 40
0.1
  9
$FILLETRAD
 40
0.5
  9
$AUNITS
 70
     0
  9
$AUPREC
 70
     0
  9
$MENU
  1
.
  9
$ELEVATION
 40
0.0
  9
$PELEVATION
 40
0.0
  9
$THICKNESS
 40
0.0
  9
$LIMCHECK
 70
     0
  9
$CHAMFERA
 40
0.5
  9
$CHAMFERB
 40
0.5
  9
$CHAMFERC
 40
1.0
  9
$CHAMFERD
 40
0.0
  9
$SKPOLY
 70
     0
  9
$TDCREATE
 40
2457917.588553229
  9
$TDUCREATE
 40
2457917.213553241
  9
$TDUPDATE
 40
2457917.588553229
  9
$TDUUPDATE
 40
2457917.213553241
  9
$TDINDWG
 40
0.0000000116
  9
$TDUSRTIMER
 40
0.0000000116
  9
$USRTIMER
 70
     1
  9
$ANGBASE
 50
0.0
  9
$ANGDIR
 70
     0
  9
$PDMODE
 70
     0
  9
$PDSIZE
 40
0.0
  9
$PLINEWID
 40
0.0
  9
$SPLFRAME
 70
     0
  9
$SPLINETYPE
 70
     6
  9
$SPLINESEGS
 70
     8
  9
$HANDSEED
  5
E7
  9
$SURFTAB1
 70
     6
  9
$SURFTAB2
 70
     6
  9
$SURFTYPE
 70
     6
  9
$SURFU
 70
     6
  9
$SURFV
 70
     6
  9
$UCSBASE
  2

  9
$UCSNAME
  2

  9
$UCSORG
 10
0.0
 20
0.0
 30
0.0
  9
$UCSXDIR
 10
1.0
 20
0.0
 30
0.0
  9
$UCSYDIR
 10
0.0
 20
1.0
 30
0.0
  9
$UCSORTHOREF
  2

  9
$UCSORTHOVIEW
 70
     0
  9
$UCSORGTOP
 10
0.0
 20
0.0
 30
0.0
  9
$UCSORGBOTTOM
 10
0.0
 20
0.0
 30
0.0
  9
$UCSORGLEFT
 10
0.0
 20
0.0
 30
0.0
  9
$UCSORGRIGHT
 10
0.0
 20
0.0
 30
0.0
  9
$UCSORGFRONT
 10
0.0
 20
0.0
 30
0.0
  9
$UCSORGBACK
 10
0.0
 20
0.0
 30
0.0
  9
$PUCSBASE
  2

  9
$PUCSNAME
  2

  9
$PUCSORG
 10
0.0
 20
0.0
 30
0.0
  9
$PUCSXDIR
 10
1.0
 20
0.0
 30
0.0
  9
$PUCSYDIR
 10
0.0
 20
1.0
 30
0.0
  9
$PUCSORTHOREF
  2

  9
$PUCSORTHOVIEW
 70
     0
  9
$PUCSORGTOP
 10
0.0
 20
0.0
 30
0.0
  9
$PUCSORGBOTTOM
 10
0.0
 20
0.0
 30
0.0
  9
$PUCSORGLEFT
 10
0.0
 20
0.0
 30
0.0
  9
$PUCSORGRIGHT
 10
0.0
 20
0.0
 30
0.0
  9
$PUCSORGFRONT
 10
0.0
 20
0.0
 30
0.0
  9
$PUCSORGBACK
 10
0.0
 20
0.0
 30
0.0
  9
$USERI1
 70
     0
  9
$USERI2
 70
     0
  9
$USERI3
 70
     0
  9
$USERI4
 70
     0
  9
$USERI5
 70
     0
  9
$USERR1
 40
0.0
  9
$USERR2
 40
0.0
  9
$USERR3
 40
0.0
  9
$USERR4
 40
0.0
  9
$USERR5
 40
0.0
  9
$WORLDVIEW
 70
     1
  9
$SHADEDGE
 70
     3
  9
$SHADEDIF
 70
    70
  9
$TILEMODE
 70
     1
  9
$MAXACTVP
 70
    64
  9
$PINSBASE
 10
0.0
 20
0.0
 30
0.0
  9
$PLIMCHECK
 70
     0
  9
$PEXTMIN
 10
1.000000000000000E+20
 20
1.000000000000000E+20
 30
1.000000000000000E+20
  9
$PEXTMAX
 10
-1.000000000000000E+20
 20
-1.000000000000000E+20
 30
-1.000000000000000E+20
  9
$PLIMMIN
 10
0.0
 20
0.0
  9
$PLIMMAX
 10
12.0
 20
9.0
  9
$UNITMODE
 70
     0
  9
$VISRETAIN
 70
     1
  9
$PLINEGEN
 70
     0
  9
$PSLTSCALE
 70
     1
  9
$TREEDEPTH
 70
  3020
  9
$CMLSTYLE
  2
Standard
  9
$CMLJUST
 70
     0
  9
$CMLSCALE
 40
1.0
  9
$PROXYGRAPHICS
 70
     1
  9
$MEASUREMENT
 70
     0
  9
$CELWEIGHT
370
    -1
  9
$ENDCAPS
280
     0
  9
$JOINSTYLE
280
     0
  9
$LWDISPLAY
290
     1
  9
$INSUNITS
 70
     1
  9
$HYPERLINKBASE
  1

  9
$STYLESHEET
  1

  9
$XEDIT
290
     1
  9
$CEPSNTYPE
380
     0
  9
$PSTYLEMODE
290
     1
  9
$FINGERPRINTGUID
  2
{2FC3B1CC-1ECB-334D-7A11-73475DAA38BE}
  9
$VERSIONGUID
  2
{FAEB1C32-E019-11D5-929B-00C0DF256EC4}
  9
$EXTNAMES
290
     1
  9
$PSVPSCALE
 40
0.0
  9
$OLESTARTUP
290
     0
  9
$SORTENTS
280
   127
  9
$INDEXCTL
280
     0
  9
$HIDETEXT
280
     1
  9
$XCLIPFRAME
280
     2
  9
$HALOGAP
280
     0
  9
$OBSCOLOR
 70
   257
  9
$OBSLTYPE
280
     0
  9
$INTERSECTIONDISPLAY
280
     0
  9
$INTERSECTIONCOLOR
 70
   257
  9
$DIMASSOC
280
     2
  9
$PROJECTNAME
  1

  9
$CAMERADISPLAY
290
     0
  9
$LENSLENGTH
 40
50.0
  9
$CAMERAHEIGHT
 40
0.0
  9
$STEPSPERSEC
 40
2.0
  9
$STEPSIZE
 40
6.0
  9
$3DDWFPREC
 40
2.0
  9
$PSOLWIDTH
 40
0.25
  9
$PSOLHEIGHT
 40
4.0
  9
$LOFTANG1
 40
1.570796326794897
  9
$LOFTANG2
 40
1.570796326794897
  9
$LOFTMAG1
 40
0.0
  9
$LOFTMAG2
 40
0.0
  9
$LOFTPARAM
 70
     7
  9
$LOFTNORMALS
280
     1
  9
$LATITUDE
 40
37.795
  9
$LONGITUDE
 40
-122.394
  9
$NORTHDIRECTION
 40
0.0
  9
$TIMEZONE
 70
 -8000
  9
$LIGHTGLYPHDISPLAY
280
     1
  9
$TILEMODELIGHTSYNCH
280
     1
  9
$CMATERIAL
347
3C
  9
$SOLIDHIST
280
     1
  9
$SHOWHIST
280
     1
  9
$DWFFRAME
280
     2
  9
$DGNFRAME
280
     2
  9
$REALWORLDSCALE
290
     1
  9
$INTERFERECOLOR
 62
   256
  9
$CSHADOW
280
     0
  9
$SHADOWPLANELOCATION
 40
0.0
  0
ENDSEC
  0
SECTION
  2
CLASSES
  0
CLASS
  1
ACDBDICTIONARYWDFLT
  2
AcDbDictionaryWithDefault
  3
ObjectDBX Classes
 90
        0
 91
        4
280
     0
281
     0
  0
CLASS
  1
VISUALSTYLE
  2
AcDbVisualStyle
  3
ObjectDBX Classes
 90
     4095
 91
        4
280
     0
281
     0
  0
CLASS
  1
MATERIAL
  2
AcDbMaterial
  3
ObjectDBX Classes
 90
     1153
 91
        4
280
     0
281
     0
  0
CLASS
  1
SUN
  2
AcDbSun
  3
SCENEOE
 90
     1024
 91
        4
280
     0
281
     0
  0
ENDSEC
  0
SECTION
  2
TABLES
  0
TABLE
  2
VPORT
  5
8
330
0
100
AcDbSymbolTable
 70
     1
  0
VPORT
  5
29
330
8
100
AcDbSymbolTableRecord
100
AcDbViewportTableRecord
  2
*Active
 70
     0
 10
0.0
 20
0.0
 11
1.0
 21
1.0
 12
0.0
 22
0.0
 13
0.0
 23
0.0
 14
0.5
 24
0.5
 15
0.5
 25
0.5
 16
0.0
 26
0.0
 36
1.0
 17
63.499999984125
 27
-89.00059456108309
 37
0.0
 40
178.0011891221662
 41
0.7134783795241226
 42
50.0
 43
0.0
 44
0.0
 50
0.0
 51
0.0
 71
     0
 72
   100
 73
     1
 74
     3
 75
     0
 76
     0
 77
     0
 78
     0
281
     0
 65
     1
110
0.0
120
0.0
130
0.0
111
1.0
121
0.0
131
0.0
112
0.0
122
1.0
132
0.0
 79
     0
146
0.0
 60
     3
 61
     5
292
     1
282
     1
141
0.0
142
0.0
 63
   250
361
3F
  0
ENDTAB
  0
TABLE
  2
LTYPE
  5
5
330
0
100
AcDbSymbolTable
 70
     1
  0
LTYPE
  5
14
330
5
100
AcDbSymbolTableRecord
100
AcDbLinetypeTableRecord
  2
ByBlock
 70
     0
  3

 72
    65
 73
     0
 40
0.0
  0
LTYPE
  5
15
330
5
100
AcDbSymbolTableRecord
100
AcDbLinetypeTableRecord
  2
ByLayer
 70
     0
  3

 72
    65
 73
     0
 40
0.0
  0
LTYPE
  5
16
330
5
100
AcDbSymbolTableRecord
100
AcDbLinetypeTableRecord
  2
Continuous
 70
     0
  3
Solid line
 72
    65
 73
     0
 40
0.0
  0
ENDTAB
  0
TABLE
  2
LAYER
  5
2
330
0
100
AcDbSymbolTable
 70
     2
  0
LAYER
  5
10
330
2
100
AcDbSymbolTableRecord
100
AcDbLayerTableRecord
  2
0
 70
     0
 62
     7
  6
Continuous
370
    -3
390
F
347
3E
  0
LAYER
  5
40
330
2
100
AcDbSymbolTableRecord
100
AcDbLayerTableRecord
  2
_U+30EC_U+30A4_U+30E4_U+30FC 1
 70
     0
 62
     7
  6
Continuous
370
    -3
390
F
347
3E
  0
ENDTAB
  0
TABLE
  2
STYLE
  5
3
330
0
100
AcDbSymbolTable
 70
     1
  0
STYLE
  5
11
330
3
100
AcDbSymbolTableRecord
100
AcDbTextStyleTableRecord
  2
Standard
 70
     0
 40
0.0
 41
1.0
 50
0.0
 71
     0
 42
0.2
  3
txt
  4

  0
ENDTAB
  0
TABLE
  2
VIEW
  5
6
330
0
100
AcDbSymbolTable
 70
     0
  0
ENDTAB
  0
TABLE
  2
UCS
  5
7
330
0
100
AcDbSymbolTable
 70
     0
  0
ENDTAB
  0
TABLE
  2
APPID
  5
9
330
0
100
AcDbSymbolTable
 70
     1
  0
APPID
  5
12
330
9
100
AcDbSymbolTableRecord
100
AcDbRegAppTableRecord
  2
ACAD
 70
     0
  0
ENDTAB
  0
TABLE
  2
DIMSTYLE
  5
A
330
0
100
AcDbSymbolTable
 70
     1
100
AcDbDimStyleTable
  0
DIMSTYLE
105
27
330
A
100
AcDbSymbolTableRecord
100
AcDbDimStyleTableRecord
  2
Standard
 70
     0
178
     0
340
11
  0
ENDTAB
  0
TABLE
  2
BLOCK_RECORD
  5
1
330
0
100
AcDbSymbolTable
 70
     6
  0
BLOCK_RECORD
  5
1F
330
1
100
AcDbSymbolTableRecord
100
AcDbBlockTableRecord
  2
*Model_Space
340
22
 70
     0
280
     1
281
     0
  0
BLOCK_RECORD
  5
1B
330
1
100
AcDbSymbolTableRecord
100
AcDbBlockTableRecord
  2
*Paper_Space
340
1E
 70
     0
280
     1
281
     0
  0
BLOCK_RECORD
  5
23
330
1
100
AcDbSymbolTableRecord
100
AcDbBlockTableRecord
  2
*Paper_Space0
340
26
 70
     0
280
     1
281
     0
  0
BLOCK_RECORD
  5
8D
330
1
100
AcDbSymbolTableRecord
100
AcDbBlockTableRecord
  2
block 2
340
0
102
{BLKREFS
331
8E
102
}
 70
     0
280
     1
281
     0
  0
BLOCK_RECORD
  5
A2
330
1
100
AcDbSymbolTableRecord
100
AcDbBlockTableRecord
  2
block 3
340
0
102
{BLKREFS
331
A3
102
}
 70
     0
280
     1
281
     0
  0
BLOCK_RECORD
  5
BA
330
1
100
AcDbSymbolTableRecord
100
AcDbBlockTableRecord
  2
block 4
340
0
102
{BLKREFS
331
BB
102
}
 70
     0
280
     1
281
     0
  0
BLOCK_RECORD
  5
C8
330
1
100
AcDbSymbolTableRecord
100
AcDbBlockTableRecord
  2
block 5
340
0
102
{BLKREFS
331
C9
102
}
 70
     0
280
     1
281
     0
  0
BLOCK_RECORD
  5
DC
330
1
100
AcDbSymbolTableRecord
100
AcDbBlockTableRecord
  2
block 6
340
0
102
{BLKREFS
331
DD
102
}
 70
     0
280
     1
281
     0
  0
ENDTAB
  0
ENDSEC
  0
SECTION
  2
BLOCKS
  0
BLOCK
  5
20
330
1F
100
AcDbEntity
  8
0
100
AcDbBlockBegin
  2
*Model_Space
 70
     0
 10
0.0
 20
0.0
 30
0.0
  3
*Model_Space
  1

  0
ENDBLK
  5
21
330
1F
100
AcDbEntity
  8
0
100
AcDbBlockEnd
  0
BLOCK
  5
1C
330
1B
100
AcDbEntity
 67
     1
  8
0
100
AcDbBlockBegin
  2
*Paper_Space
 70
     0
 10
0.0
 20
0.0
 30
0.0
  3
*Paper_Space
  1

  0
ENDBLK
  5
1D
330
1B
100
AcDbEntity
 67
     1
  8
0
100
AcDbBlockEnd
  0
BLOCK
  5
24
330
23
100
AcDbEntity
  8
0
100
AcDbBlockBegin
  2
*Paper_Space0
 70
     0
 10
0.0
 20
0.0
 30
0.0
  3
*Paper_Space0
  1

  0
ENDBLK
  5
25
330
23
100
AcDbEntity
  8
0
100
AcDbBlockEnd
  0
BLOCK
  5
8F
330
8D
100
AcDbEntity
  8
0
100
AcDbBlockBegin
  2
block 2
 70
     0
 10
0.0
 20
0.0
 30
0.0
  3
block 2
  1

  0
SPLINE
  5
91
330
8D
100
AcDbEntity
  8
_U+30EC_U+30A4_U+30E4_U+30FC 1
370
     0
100
AcDbSpline
210
0.0
220
0.0
230
1.0
 70
    11
 71
     3
 72
    26
 73
    22
 74
     0
 42
0.0000000001
 43
0.0000000001
 12
1.0
 22
0.0
 32
0.0
 13
1.0
 23
0.0
 33
0.0
 40
0.0
 40
0.0
 40
0.0
 40
0.0
 40
1.0
 40
1.0
 40
1.0
 40
2.0
 40
2.0
 40
2.0
 40
3.0
 40
3.0
 40
3.0
 40
4.0
 40
4.0
 40
4.0
 40
5.0
 40
5.0
 40
5.0
 40
6.0
 40
6.0
 40
6.0
 40
7.0
 40
7.0
 40
7.0
 40
7.0
 10
48.8977905151193
 20
-106.6825493439891
 30
0.0
 10
48.8977905151193
 20
-106.6825493439891
 30
0.0
 10
48.8977905151193
 20
-105.5783962409665
 30
0.0
 10
48.8977905151193
 20
-105.5783962409665
 30
0.0
 10
48.8977905151193
 20
-105.5783962409665
 30
0.0
 10
48.56861164150368
 20
-105.5783962409665
 30
0.0
 10
48.56861164150368
 20
-105.5783962409665
 30
0.0
 10
48.56861164150368
 20
-105.5783962409665
 30
0.0
 10
48.56861164150368
 20
-105.4302571351008
 30
0.0
 10
48.56861164150368
 20
-105.4302571351008
 30
0.0
 10
48.89985757241045
 20
-105.4154432245142
 30
0.0
 10
48.94619410668707
 20
-105.2524902080619
 30
0.0
 10
48.97582192786022
 20
-105.1381130379516
 30
0.0
 10
48.97582192786022
 20
-105.1381130379516
 30
0.0
 10
49.12137721211202
 20
-105.1381130379516
 30
0.0
 10
49.12137721211202
 20
-105.1381130379516
 30
0.0
 10
49.12137721211202
 20
-105.1381130379516
 30
0.0
 10
49.12137721211202
 20
-106.6825493439891
 30
0.0
 10
49.12137721211202
 20
-106.6825493439891
 30
0.0
 10
49.12137721211202
 20
-106.6825493439891
 30
0.0
 10
48.8977905151193
 20
-106.6825493439891
 30
0.0
 10
48.8977905151193
 20
-106.6825493439891
 30
0.0
  0
HATCH
  5
92
330
8D
100
AcDbEntity
  8
_U+30EC_U+30A4_U+30E4_U+30FC 1
 62
   179
420
  2234388
100
AcDbHatch
 10
0.0
 20
0.0
 30
0.0
210
0.0
220
0.0
230
1.0
  2
SOLID
 70
     1
 71
     0
 91
        1
 92
        1
 93
        1
 72
     4
 94
        3
 73
     0
 74
     1
 95
       26
 96
       22
 40
0.0
 40
0.0
 40
0.0
 40
0.0
 40
1.0
 40
1.0
 40
1.0
 40
2.0
 40
2.0
 40
2.0
 40
3.0
 40
3.0
 40
3.0
 40
4.0
 40
4.0
 40
4.0
 40
5.0
 40
5.0
 40
5.0
 40
6.0
 40
6.0
 40
6.0
 40
7.0
 40
7.0
 40
7.0
 40
7.0
 10
48.8977905151193
 20
-106.6825493439891
 10
48.8977905151193
 20
-106.6825493439891
 10
48.8977905151193
 20
-105.5783962409665
 10
48.8977905151193
 20
-105.5783962409665
 10
48.8977905151193
 20
-105.5783962409665
 10
48.56861164150368
 20
-105.5783962409665
 10
48.56861164150368
 20
-105.5783962409665
 10
48.56861164150368
 20
-105.5783962409665
 10
48.56861164150368
 20
-105.4302571351008
 10
48.56861164150368
 20
-105.4302571351008
 10
48.89985757241045
 20
-105.4154432245142
 10
48.94619410668707
 20
-105.2524902080619
 10
48.97582192786022
 20
-105.1381130379516
 10
48.97582192786022
 20
-105.1381130379516
 10
49.12137721211202
 20
-105.1381130379516
 10
49.12137721211202
 20
-105.1381130379516
 10
49.12137721211202
 20
-105.1381130379516
 10
49.12137721211202
 20
-106.6825493439891
 10
49.12137721211202
 20
-106.6825493439891
 10
49.12137721211202
 20
-106.6825493439891
 10
48.8977905151193
 20
-106.6825493439891
 10
48.8977905151193
 20
-106.6825493439891
 97
        0
 97
        0
 75
     2
 76
     1
 98
        0
  0
SPLINE
  5
93
330
8D
100
AcDbEntity
  8
_U+30EC_U+30A4_U+30E4_U+30FC 1
370
     0
100
AcDbSpline
210
0.0
220
0.0
230
1.0
 70
    11
 71
     3
 72
    29
 73
    25
 74
     0
 42
0.0000000001
 43
0.0000000001
 12
1.0
 22
0.0
 32
0.0
 13
1.0
 23
0.0
 33
0.0
 40
0.0
 40
0.0
 40
0.0
 40
0.0
 40
1.0
 40
1.0
 40
1.0
 40
2.0
 40
2.0
 40
2.0
 40
3.0
 40
3.0
 40
3.0
 40
4.0
 40
4.0
 40
4.0
 40
5.0
 40
5.0
 40
5.0
 40
6.0
 40
6.0
 40
6.0
 40
7.0
 40
7.0
 40
7.0
 40
8.0
 40
8.0
 40
8.0
 40
8.0
 10
50.51509059066984
 20
-106.5047824169502
 30
0.0
 10
50.40760361153004
 20
-106.7142442224534
 30
0.0
 10
50.23448756339624
 20
-106.7331922476223
 30
0.0
 10
50.11856010031759
 20
-106.7331922476223
 30
0.0
 10
49.95801865070494
 20
-106.7331922476223
 30
0.0
 10
49.8167697358097
 20
-106.6866834585714
 30
0.0
 10
49.72168510041681
 20
-106.5047824169502
 30
0.0
 10
49.61833223585931
 20
-106.3101345220336
 30
0.0
 10
49.59938421069043
 20
-106.0731119526484
 30
0.0
 10
49.59938421069043
 20
-105.9105034457446
 30
0.0
 10
49.59938421069043
 20
-105.7664984544612
 30
0.0
 10
49.61626517856816
 20
-105.5146619744894
 30
0.0
 10
49.72168510041681
 20
-105.3158799649905
 30
0.0
 10
49.82934433433086
 20
-105.1129638409093
 30
0.0
 10
49.98971352916924
 20
-105.0895371916096
 30
0.0
 10
50.11856010031759
 20
-105.0895371916096
 30
0.0
 10
50.27668998309055
 20
-105.0895371916096
 30
0.0
 10
50.4201782100512
 20
-105.1339789233693
 30
0.0
 10
50.51509059066984
 20
-105.3158799649905
 30
0.0
 10
50.61430934064504
 20
-105.5084608026159
 30
0.0
 10
50.63756373517047
 20
-105.736870633288
 30
0.0
 10
50.63756373517047
 20
-105.9105034457446
 30
0.0
 10
50.63756373517047
 20
-106.0817246913615
 30
0.0
 10
50.61637639793619
 20
-106.3122015793247
 30
0.0
 10
50.51509059066984
 20
-106.5047824169502
 30
0.0
  0
SPLINE
  5
94
330
8D
100
AcDbEntity
  8
_U+30EC_U+30A4_U+30E4_U+30FC 1
370
     0
100
AcDbSpline
210
0.0
220
0.0
230
1.0
 70
    11
 71
     3
 72
    17
 73
    13
 74
     0
 42
0.0000000001
 43
0.0000000001
 12
1.0
 22
0.0
 32
0.0
 13
1.0
 23
0.0
 33
0.0
 40
0.0
 40
0.0
 40
0.0
 40
0.0
 40
1.0
 40
1.0
 40
1.0
 40
2.0
 40
2.0
 40
2.0
 40
3.0
 40
3.0
 40
3.0
 40
4.0
 40
4.0
 40
4.0
 40
4.0
 10
50.11856010031759
 20
-105.282118029235
 30
0.0
 10
49.86947969673402
 20
-105.282118029235
 30
0.0
 10
49.82297090768315
 20
-105.5656493876711
 30
0.0
 10
49.82297090768315
 20
-105.9105034457446
 30
0.0
 10
49.82297090768315
 20
-106.2298637972273
 30
0.0
 10
49.85897215550401
 20
-106.5385443527056
 30
0.0
 10
50.11856010031759
 20
-106.5385443527056
 30
0.0
 10
50.36540119183574
 20
-106.5385443527056
 30
0.0
 10
50.41380478340349
 20
-106.2574245611093
 30
0.0
 10
50.41380478340349
 20
-105.9105034457446
 30
0.0
 10
50.41380478340349
 20
-105.5907985847134
 30
0.0
 10
50.37590873306575
 20
-105.282118029235
 30
0.0
 10
50.11856010031759
 20
-105.282118029235
 30
0.0
  0
HATCH
  5
95
330
8D
100
AcDbEntity
  8
_U+30EC_U+30A4_U+30E4_U+30FC 1
 62
   179
420
  2234388
100
AcDbHatch
 10
0.0
 20
0.0
 30
0.0
210
0.0
220
0.0
230
1.0
  2
SOLID
 70
     1
 71
     0
 91
        2
 92
        1
 93
        1
 72
     4
 94
        3
 73
     0
 74
     1
 95
       29
 96
       25
 40
0.0
 40
0.0
 40
0.0
 40
0.0
 40
1.0
 40
1.0
 40
1.0
 40
2.0
 40
2.0
 40
2.0
 40
3.0
 40
3.0
 40
3.0
 40
4.0
 40
4.0
 40
4.0
 40
5.0
 40
5.0
 40
5.0
 40
6.0
 40
6.0
 40
6.0
 40
7.0
 40
7.0
 40
7.0
 40
8.0
 40
8.0
 40
8.0
 40
8.0
 10
50.51509059066984
 20
-106.5047824169502
 10
50.40760361153004
 20
-106.7142442224534
 10
50.23448756339624
 20
-106.7331922476223
 10
50.11856010031759
 20
-106.7331922476223
 10
49.95801865070494
 20
-106.7331922476223
 10
49.8167697358097
 20
-106.6866834585714
 10
49.72168510041681
 20
-106.5047824169502
 10
49.61833223585931
 20
-106.3101345220336
 10
49.59938421069043
 20
-106.0731119526484
 10
49.59938421069043
 20
-105.9105034457446
 10
49.59938421069043
 20
-105.7664984544612
 10
49.61626517856816
 20
-105.5146619744894
 10
49.72168510041681
 20
-105.3158799649905
 10
49.82934433433086
 20
-105.1129638409093
 10
49.98971352916924
 20
-105.0895371916096
 10
50.11856010031759
 20
-105.0895371916096
 10
50.27668998309055
 20
-105.0895371916096
 10
50.4201782100512
 20
-105.1339789233693
 10
50.51509059066984
 20
-105.3158799649905
 10
50.61430934064504
 20
-105.5084608026159
 10
50.63756373517047
 20
-105.736870633288
 10
50.63756373517047
 20
-105.9105034457446
 10
50.63756373517047
 20
-106.0817246913615
 10
50.61637639793619
 20
-106.3122015793247
 10
50.51509059066984
 20
-106.5047824169502
 97
        0
 97
        0
 92
        1
 93
        1
 72
     4
 94
        3
 73
     0
 74
     1
 95
       17
 96
       13
 40
0.0
 40
0.0
 40
0.0
 40
0.0
 40
1.0
 40
1.0
 40
1.0
 40
2.0
 40
2.0
 40
2.0
 40
3.0
 40
3.0
 40
3.0
 40
4.0
 40
4.0
 40
4.0
 40
4.0
 10
50.11856010031759
 20
-105.282118029235
 10
49.86947969673402
 20
-105.282118029235
 10
49.82297090768315
 20
-105.5656493876711
 10
49.82297090768315
 20
-105.9105034457446
 10
49.82297090768315
 20
-106.2298637972273
 10
49.85897215550401
 20
-106.5385443527056
 10
50.11856010031759
 20
-106.5385443527056
 10
50.36540119183574
 20
-106.5385443527056
 10
50.41380478340349
 20
-106.2574245611093
 10
50.41380478340349
 20
-105.9105034457446
 10
50.41380478340349
 20
-105.5907985847134
 10
50.37590873306575
 20
-105.282118029235
 10
50.11856010031759
 20
-105.282118029235
 97
        0
 97
        0
 75
     2
 76
     1
 98
        0
  0
ENDBLK
  5
90
330
8D
100
AcDbEntity
  8
0
100
AcDbBlockEnd
  0
BLOCK
  5
A4
330
A2
100
AcDbEntity
  8
0
100
AcDbBlockBegin
  2
block 3
 70
     0
 10
0.0
 20
0.0
 30
0.0
  3
block 3
  1

  0
SPLINE
  5
A6
330
A2
100
AcDbEntity
  8
_U+30EC_U+30A4_U+30E4_U+30FC 1
370
     0
100
AcDbSpline
210
0.0
220
0.0
230
1.0
 70
    11
 71
     3
 72
    62
 73
    58
 74
     0
 42
0.0000000001
 43
0.0000000001
 12
1.0
 22
0.0
 32
0.0
 13
1.0
 23
0.0
 33
0.0
 40
0.0
 40
0.0
 40
0.0
 40
0.0
 40
1.0
 40
1.0
 40
1.0
 40
2.0
 40
2.0
 40
2.0
 40
3.0
 40
3.0
 40
3.0
 40
4.0
 40
4.0
 40
4.0
 40
5.0
 40
5.0
 40
5.0
 40
6.0
 40
6.0
 40
6.0
 40
7.0
 40
7.0
 40
7.0
 40
8.0
 40
8.0
 40
8.0
 40
9.0
 40
9.0
 40
9.0
 40
10.0
 40
10.0
 40
10.0
 40
11.0
 40
11.0
 40
11.0
 40
12.0
 40
12.0
 40
12.0
 40
13.0
 40
13.0
 40
13.0
 40
14.0
 40
14.0
 40
14.0
 40
15.0
 40
15.0
 40
15.0
 40
16.0
 40
16.0
 40
16.0
 40
17.0
 40
17.0
 40
17.0
 40
18.0
 40
18.0
 40
18.0
 40
19.0
 40
19.0
 40
19.0
 40
19.0
 10
79.9368950538005
 20
-102.6993299439432
 30
0.0
 10
79.9368950538005
 20
-102.7940700697876
 30
0.0
 10
79.91587997134047
 20
-103.0114555949069
 30
0.0
 10
79.72984481513699
 20
-103.1361680514729
 30
0.0
 10
79.61753470231784
 20
-103.2098930948573
 30
0.0
 10
79.51831595234265
 20
-103.2140272094395
 30
0.0
 10
79.4335666034055
 20
-103.2185058335704
 30
0.0
 10
79.4335666034055
 20
-103.2185058335704
 30
0.0
 10
79.4335666034055
 20
-102.9987087416114
 30
0.0
 10
79.4335666034055
 20
-102.9987087416114
 30
0.0
 10
79.50763615633838
 20
-102.9966416843203
 30
0.0
 10
79.74224715888388
 20
-102.9863063978645
 30
0.0
 10
79.74224715888388
 20
-102.7034640585255
 30
0.0
 10
79.74224715888388
 20
-102.5663492582126
 30
0.0
 10
79.67265623008184
 20
-102.4144205473131
 30
0.0
 10
79.44424639940978
 20
-102.4144205473131
 30
0.0
 10
79.32780217200833
 20
-102.4144205473131
 30
0.0
 10
79.27922632566631
 20
-102.4523165976508
 30
0.0
 10
79.24753144720201
 20
-102.4840114761151
 30
0.0
 10
79.17346189426914
 20
-102.5577365194995
 30
0.0
 10
79.16071504097371
 20
-102.6738362373524
 30
0.0
 10
79.16071504097371
 20
-102.7286132555679
 30
0.0
 10
79.16071504097371
 20
-102.7479057902852
 30
0.0
 10
79.16278209826487
 20
-102.7837347833319
 30
0.0
 10
79.16691621284717
 20
-102.8109510376653
 30
0.0
 10
79.16691621284717
 20
-102.8109510376653
 30
0.0
 10
78.97226831793054
 20
-102.8109510376653
 30
0.0
 10
78.97226831793054
 20
-102.8109510376653
 30
0.0
 10
78.97881399935252
 20
-102.7730549873276
 30
0.0
 10
78.98088105664367
 20
-102.7310248224075
 30
0.0
 10
78.98088105664367
 20
-102.7244791409856
 30
0.0
 10
78.98088105664367
 20
-102.6590223267658
 30
0.0
 10
78.95952146463512
 20
-102.4609293363639
 30
0.0
 10
78.72284340479845
 20
-102.4609293363639
 30
0.0
 10
78.54507647775957
 20
-102.4609293363639
 30
0.0
 10
78.48995494999556
 20
-102.5914984552549
 30
0.0
 10
78.48995494999556
 20
-102.7013970012344
 30
0.0
 10
78.48995494999556
 20
-102.964946805856
 30
0.0
 10
78.72284340479845
 20
-102.9735595445691
 30
0.0
 10
78.79450139089165
 20
-102.9776936591514
 30
0.0
 10
78.79450139089165
 20
-102.9776936591514
 30
0.0
 10
78.79450139089165
 20
-103.1802652736841
 30
0.0
 10
78.79450139089165
 20
-103.1802652736841
 30
0.0
 10
78.66978893432561
 20
-103.1719970445195
 30
0.0
 10
78.29323999778781
 20
-103.1444362806375
 30
0.0
 10
78.29323999778781
 20
-102.688650147939
 30
0.0
 10
78.29323999778781
 20
-102.4650634509462
 30
0.0
 10
78.42036402119352
 20
-102.2245957860758
 30
0.0
 10
78.71629772337648
 20
-102.2245957860758
 30
0.0
 10
78.9026773891285
 20
-102.2245957860758
 30
0.0
 10
78.98501517122597
 20
-102.3193359119202
 30
0.0
 10
79.04633787086343
 20
-102.4185546618954
 30
0.0
 10
79.07389863474542
 20
-102.3572319622579
 30
0.0
 10
79.15416935955174
 20
-102.1760199397338
 30
0.0
 10
79.43149954611435
 20
-102.1760199397338
 30
0.0
 10
79.76980792276588
 20
-102.1760199397338
 30
0.0
 10
79.9368950538005
 20
-102.4226887764777
 30
0.0
 10
79.9368950538005
 20
-102.6993299439432
 30
0.0
  0
HATCH
  5
A7
330
A2
100
AcDbEntity
  8
_U+30EC_U+30A4_U+30E4_U+30FC 1
 62
   179
420
  2234388
100
AcDbHatch
 10
0.0
 20
0.0
 30
0.0
210
0.0
220
0.0
230
1.0
  2
SOLID
 70
     1
 71
     0
 91
        1
 92
        1
 93
        1
 72
     4
 94
        3
 73
     0
 74
     1
 95
       62
 96
       58
 40
0.0
 40
0.0
 40
0.0
 40
0.0
 40
1.0
 40
1.0
 40
1.0
 40
2.0
 40
2.0
 40
2.0
 40
3.0
 40
3.0
 40
3.0
 40
4.0
 40
4.0
 40
4.0
 40
5.0
 40
5.0
 40
5.0
 40
6.0
 40
6.0
 40
6.0
 40
7.0
 40
7.0
 40
7.0
 40
8.0
 40
8.0
 40
8.0
 40
9.0
 40
9.0
 40
9.0
 40
10.0
 40
10.0
 40
10.0
 40
11.0
 40
11.0
 40
11.0
 40
12.0
 40
12.0
 40
12.0
 40
13.0
 40
13.0
 40
13.0
 40
14.0
 40
14.0
 40
14.0
 40
15.0
 40
15.0
 40
15.0
 40
16.0
 40
16.0
 40
16.0
 40
17.0
 40
17.0
 40
17.0
 40
18.0
 40
18.0
 40
18.0
 40
19.0
 40
19.0
 40
19.0
 40
19.0
 10
79.9368950538005
 20
-102.6993299439432
 10
79.9368950538005
 20
-102.7940700697876
 10
79.91587997134047
 20
-103.0114555949069
 10
79.72984481513699
 20
-103.1361680514729
 10
79.61753470231784
 20
-103.2098930948573
 10
79.51831595234265
 20
-103.2140272094395
 10
79.4335666034055
 20
-103.2185058335704
 10
79.4335666034055
 20
-103.2185058335704
 10
79.4335666034055
 20
-102.9987087416114
 10
79.4335666034055
 20
-102.9987087416114
 10
79.50763615633838
 20
-102.9966416843203
 10
79.74224715888388
 20
-102.9863063978645
 10
79.74224715888388
 20
-102.7034640585255
 10
79.74224715888388
 20
-102.5663492582126
 10
79.67265623008184
 20
-102.4144205473131
 10
79.44424639940978
 20
-102.4144205473131
 10
79.32780217200833
 20
-102.4144205473131
 10
79.27922632566631
 20
-102.4523165976508
 10
79.24753144720201
 20
-102.4840114761151
 10
79.17346189426914
 20
-102.5577365194995
 10
79.16071504097371
 20
-102.6738362373524
 10
79.16071504097371
 20
-102.7286132555679
 10
79.16071504097371
 20
-102.7479057902852
 10
79.16278209826487
 20
-102.7837347833319
 10
79.16691621284717
 20
-102.8109510376653
 10
79.16691621284717
 20
-102.8109510376653
 10
78.97226831793054
 20
-102.8109510376653
 10
78.97226831793054
 20
-102.8109510376653
 10
78.97881399935252
 20
-102.7730549873276
 10
78.98088105664367
 20
-102.7310248224075
 10
78.98088105664367
 20
-102.7244791409856
 10
78.98088105664367
 20
-102.6590223267658
 10
78.95952146463512
 20
-102.4609293363639
 10
78.72284340479845
 20
-102.4609293363639
 10
78.54507647775957
 20
-102.4609293363639
 10
78.48995494999556
 20
-102.5914984552549
 10
78.48995494999556
 20
-102.7013970012344
 10
78.48995494999556
 20
-102.964946805856
 10
78.72284340479845
 20
-102.9735595445691
 10
78.79450139089165
 20
-102.9776936591514
 10
78.79450139089165
 20
-102.9776936591514
 10
78.79450139089165
 20
-103.1802652736841
 10
78.79450139089165
 20
-103.1802652736841
 10
78.66978893432561
 20
-103.1719970445195
 10
78.29323999778781
 20
-103.1444362806375
 10
78.29323999778781
 20
-102.688650147939
 10
78.29323999778781
 20
-102.4650634509462
 10
78.42036402119352
 20
-102.2245957860758
 10
78.71629772337648
 20
-102.2245957860758
 10
78.9026773891285
 20
-102.2245957860758
 10
78.98501517122597
 20
-102.3193359119202
 10
79.04633787086343
 20
-102.4185546618954
 10
79.07389863474542
 20
-102.3572319622579
 10
79.15416935955174
 20
-102.1760199397338
 10
79.43149954611435
 20
-102.1760199397338
 10
79.76980792276588
 20
-102.1760199397338
 10
79.9368950538005
 20
-102.4226887764777
 10
79.9368950538005
 20
-102.6993299439432
 97
        0
 97
        0
 75
     2
 76
     1
 98
        0
  0
POLYLINE
  5
A8
330
A2
100
AcDbEntity
  8
_U+30EC_U+30A4_U+30E4_U+30FC 1
370
     0
100
AcDb2dPolyline
 66
     1
 10
0.0
 20
0.0
 30
0.0
  0
VERTEX
  5
A9
330
A8
100
AcDbEntity
  8
_U+30EC_U+30A4_U+30E4_U+30FC 1
370
     0
100
AcDbVertex
100
AcDb2dVertex
 10
79.88625215016732
 20
-101.9572563764204
 30
0.0
  0
VERTEX
  5
AA
330
A8
100
AcDbEntity
  8
_U+30EC_U+30A4_U+30E4_U+30FC 1
370
     0
100
AcDbVertex
100
AcDb2dVertex
 10
79.63441567019557
 20
-101.9572563764204
 30
0.0
  0
VERTEX
  5
AB
330
A8
100
AcDbEntity
  8
_U+30EC_U+30A4_U+30E4_U+30FC 1
370
     0
100
AcDbVertex
100
AcDb2dVertex
 10
79.63441567019557
 20
-101.7061089155457
 30
0.0
  0
VERTEX
  5
AC
330
A8
100
AcDbEntity
  8
_U+30EC_U+30A4_U+30E4_U+30FC 1
370
     0
100
AcDbVertex
100
AcDb2dVertex
 10
79.88625215016732
 20
-101.7061089155457
 30
0.0
  0
VERTEX
  5
AD
330
A8
100
AcDbEntity
  8
_U+30EC_U+30A4_U+30E4_U+30FC 1
370
     0
100
AcDbVertex
100
AcDb2dVertex
 10
79.88625215016732
 20
-101.9572563764204
 30
0.0
  0
SEQEND
  5
AE
330
A8
100
AcDbEntity
  8
_U+30EC_U+30A4_U+30E4_U+30FC 1
370
     0
  0
HATCH
  5
AF
330
A2
100
AcDbEntity
  8
_U+30EC_U+30A4_U+30E4_U+30FC 1
 62
   179
420
  2234388
100
AcDbHatch
 10
0.0
 20
0.0
 30
0.0
210
0.0
220
0.0
230
1.0
  2
SOLID
 70
     1
 71
     0
 91
        1
 92
        1
 93
        4
 72
     1
 10
79.88625215016732
 20
-101.9572563764204
 11
79.63441567019557
 21
-101.9572563764204
 72
     1
 10
79.63441567019557
 20
-101.9572563764204
 11
79.63441567019557
 21
-101.7061089155457
 72
     1
 10
79.63441567019557
 20
-101.7061089155457
 11
79.88625215016732
 21
-101.7061089155457
 72
     1
 10
79.88625215016732
 20
-101.7061089155457
 11
79.88625215016732
 21
-101.9572563764204
 97
        0
 75
     2
 76
     1
 98
        0
  0
SPLINE
  5
B0
330
A2
100
AcDbEntity
  8
_U+30EC_U+30A4_U+30E4_U+30FC 1
370
     0
100
AcDbSpline
210
0.0
220
0.0
230
1.0
 70
    11
 71
     3
 72
    44
 73
    40
 74
     0
 42
0.0000000001
 43
0.0000000001
 12
1.0
 22
0.0
 32
0.0
 13
1.0
 23
0.0
 33
0.0
 40
0.0
 40
0.0
 40
0.0
 40
0.0
 40
1.0
 40
1.0
 40
1.0
 40
2.0
 40
2.0
 40
2.0
 40
3.0
 40
3.0
 40
3.0
 40
4.0
 40
4.0
 40
4.0
 40
5.0
 40
5.0
 40
5.0
 40
6.0
 40
6.0
 40
6.0
 40
7.0
 40
7.0
 40
7.0
 40
8.0
 40
8.0
 40
8.0
 40
9.0
 40
9.0
 40
9.0
 40
10.0
 40
10.0
 40
10.0
 40
11.0
 40
11.0
 40
11.0
 40
12.0
 40
12.0
 40
12.0
 40
13.0
 40
13.0
 40
13.0
 40
13.0
 10
79.30437552270863
 20
-100.8796305086343
 30
0.0
 10
79.46319442457865
 20
-101.0970160337535
 30
0.0
 10
79.53726397751151
 20
-101.1896891023067
 30
0.0
 10
79.68092445924644
 20
-101.2382649486488
 30
0.0
 10
79.68092445924644
 20
-101.2382649486488
 30
0.0
 10
79.68092445924644
 20
-100.4617404262735
 30
0.0
 10
79.68092445924644
 20
-100.4617404262735
 30
0.0
 10
79.68092445924644
 20
-100.4617404262735
 30
0.0
 10
79.88625215016732
 20
-100.4617404262735
 30
0.0
 10
79.88625215016732
 20
-100.4617404262735
 30
0.0
 10
79.88625215016732
 20
-100.4617404262735
 30
0.0
 10
79.88625215016732
 20
-101.4873453522323
 30
0.0
 10
79.88625215016732
 20
-101.4873453522323
 30
0.0
 10
79.5286512387984
 20
-101.455650473768
 30
0.0
 10
79.45044757128322
 20
-101.3901936595483
 30
0.0
 10
79.15210230226059
 20
-101.0060655129429
 30
0.0
 10
78.95332029276167
 20
-100.7507839374859
 30
0.0
 10
78.88545191170225
 20
-100.6853271232662
 30
0.0
 10
78.74799260184078
 20
-100.6853271232662
 30
0.0
 10
78.62948131714819
 20
-100.6853271232662
 30
0.0
 10
78.49856768870869
 20
-100.7573296189079
 30
0.0
 10
78.49856768870869
 20
-100.9533555520186
 30
0.0
 10
78.49856768870869
 20
-101.2127712420579
 30
0.0
 10
78.72904457667191
 20
-101.2213839807711
 30
0.0
 10
78.84548880407336
 20
-101.2255180953534
 30
0.0
 10
78.84548880407336
 20
-101.2255180953534
 30
0.0
 10
78.84548880407336
 20
-101.4491047923461
 30
0.0
 10
78.84548880407336
 20
-101.4491047923461
 30
0.0
 10
78.71836478066763
 20
-101.4408365631815
 30
0.0
 10
78.60639917739701
 20
-101.4301567671772
 30
0.0
 10
78.48788789270442
 20
-101.3502305519194
 30
0.0
 10
78.32700193354326
 20
-101.2403320059399
 30
0.0
 10
78.29323999778781
 20
-101.054641359285
 30
0.0
 10
78.29323999778781
 20
-100.938541641432
 30
0.0
 10
78.29323999778781
 20
-100.662244983515
 30
0.0
 10
78.47720809670015
 20
-100.4555392544
 30
0.0
 10
78.75005965913194
 20
-100.4555392544
 30
0.0
 10
78.97881399935252
 20
-100.4555392544
 30
0.0
 10
79.07803274932772
 20
-100.5712944627044
 30
0.0
 10
79.30437552270863
 20
-100.8796305086343
 30
0.0
  0
HATCH
  5
B1
330
A2
100
AcDbEntity
  8
_U+30EC_U+30A4_U+30E4_U+30FC 1
 62
   179
420
  2234388
100
AcDbHatch
 10
0.0
 20
0.0
 30
0.0
210
0.0
220
0.0
230
1.0
  2
SOLID
 70
     1
 71
     0
 91
        1
 92
        1
 93
        1
 72
     4
 94
        3
 73
     0
 74
     1
 95
       44
 96
       40
 40
0.0
 40
0.0
 40
0.0
 40
0.0
 40
1.0
 40
1.0
 40
1.0
 40
2.0
 40
2.0
 40
2.0
 40
3.0
 40
3.0
 40
3.0
 40
4.0
 40
4.0
 40
4.0
 40
5.0
 40
5.0
 40
5.0
 40
6.0
 40
6.0
 40
6.0
 40
7.0
 40
7.0
 40
7.0
 40
8.0
 40
8.0
 40
8.0
 40
9.0
 40
9.0
 40
9.0
 40
10.0
 40
10.0
 40
10.0
 40
11.0
 40
11.0
 40
11.0
 40
12.0
 40
12.0
 40
12.0
 40
13.0
 40
13.0
 40
13.0
 40
13.0
 10
79.30437552270863
 20
-100.8796305086343
 10
79.46319442457865
 20
-101.0970160337535
 10
79.53726397751151
 20
-101.1896891023067
 10
79.68092445924644
 20
-101.2382649486488
 10
79.68092445924644
 20
-101.2382649486488
 10
79.68092445924644
 20
-100.4617404262735
 10
79.68092445924644
 20
-100.4617404262735
 10
79.68092445924644
 20
-100.4617404262735
 10
79.88625215016732
 20
-100.4617404262735
 10
79.88625215016732
 20
-100.4617404262735
 10
79.88625215016732
 20
-100.4617404262735
 10
79.88625215016732
 20
-101.4873453522323
 10
79.88625215016732
 20
-101.4873453522323
 10
79.5286512387984
 20
-101.455650473768
 10
79.45044757128322
 20
-101.3901936595483
 10
79.15210230226059
 20
-101.0060655129429
 10
78.95332029276167
 20
-100.7507839374859
 10
78.88545191170225
 20
-100.6853271232662
 10
78.74799260184078
 20
-100.6853271232662
 10
78.62948131714819
 20
-100.6853271232662
 10
78.49856768870869
 20
-100.7573296189079
 10
78.49856768870869
 20
-100.9533555520186
 10
78.49856768870869
 20
-101.2127712420579
 10
78.72904457667191
 20
-101.2213839807711
 10
78.84548880407336
 20
-101.2255180953534
 10
78.84548880407336
 20
-101.2255180953534
 10
78.84548880407336
 20
-101.4491047923461
 10
78.84548880407336
 20
-101.4491047923461
 10
78.71836478066763
 20
-101.4408365631815
 10
78.60639917739701
 20
-101.4301567671772
 10
78.48788789270442
 20
-101.3502305519194
 10
78.32700193354326
 20
-101.2403320059399
 10
78.29323999778781
 20
-101.054641359285
 10
78.29323999778781
 20
-100.938541641432
 10
78.29323999778781
 20
-100.662244983515
 10
78.47720809670015
 20
-100.4555392544
 10
78.75005965913194
 20
-100.4555392544
 10
78.97881399935252
 20
-100.4555392544
 10
79.07803274932772
 20
-100.5712944627044
 10
79.30437552270863
 20
-100.8796305086343
 97
        0
 97
        0
 75
     2
 76
     1
 98
        0
  0
ENDBLK
  5
A5
330
A2
100
AcDbEntity
  8
0
100
AcDbBlockEnd
  0
BLOCK
  5
BC
330
BA
100
AcDbEntity
  8
0
100
AcDbBlockBegin
  2
block 4
 70
     0
 10
0.0
 20
0.0
 30
0.0
  3
block 4
  1

  0
SPLINE
  5
BE
330
BA
100
AcDbEntity
  8
_U+30EC_U+30A4_U+30E4_U+30FC 1
370
     0
100
AcDbSpline
210
0.0
220
0.0
230
1.0
 70
    11
 71
     3
 72
    26
 73
    22
 74
     0
 42
0.0000000001
 43
0.0000000001
 12
1.0
 22
0.0
 32
0.0
 13
1.0
 23
0.0
 33
0.0
 40
0.0
 40
0.0
 40
0.0
 40
0.0
 40
1.0
 40
1.0
 40
1.0
 40
2.0
 40
2.0
 40
2.0
 40
3.0
 40
3.0
 40
3.0
 40
4.0
 40
4.0
 40
4.0
 40
5.0
 40
5.0
 40
5.0
 40
6.0
 40
6.0
 40
6.0
 40
7.0
 40
7.0
 40
7.0
 40
7.0
 10
79.88625215016732
 20
-77.79370115242658
 30
0.0
 10
79.88625215016732
 20
-77.79370115242658
 30
0.0
 10
78.78209904714475
 20
-77.79370115242658
 30
0.0
 10
78.78209904714475
 20
-77.79370115242658
 30
0.0
 10
78.78209904714475
 20
-77.79370115242658
 30
0.0
 10
78.78209904714475
 20
-78.12305228081647
 30
0.0
 10
78.78209904714475
 20
-78.12305228081647
 30
0.0
 10
78.78209904714475
 20
-78.12305228081647
 30
0.0
 10
78.63395994127902
 20
-78.12305228081647
 30
0.0
 10
78.63395994127902
 20
-78.12305228081647
 30
0.0
 10
78.61914603069243
 20
-77.79163409513542
 30
0.0
 10
78.45619301424013
 20
-77.74512530608456
 30
0.0
 10
78.34181584412983
 20
-77.71584199445994
 30
0.0
 10
78.34181584412983
 20
-77.71584199445994
 30
0.0
 10
78.34181584412983
 20
-77.57011445543387
 30
0.0
 10
78.34181584412983
 20
-77.57011445543387
 30
0.0
 10
78.34181584412983
 20
-77.57011445543387
 30
0.0
 10
79.88625215016732
 20
-77.57011445543387
 30
0.0
 10
79.88625215016732
 20
-77.57011445543387
 30
0.0
 10
79.88625215016732
 20
-77.57011445543387
 30
0.0
 10
79.88625215016732
 20
-77.79370115242658
 30
0.0
 10
79.88625215016732
 20
-77.79370115242658
 30
0.0
  0
HATCH
  5
BF
330
BA
100
AcDbEntity
  8
_U+30EC_U+30A4_U+30E4_U+30FC 1
 62
   179
420
  2234388
100
AcDbHatch
 10
0.0
 20
0.0
 30
0.0
210
0.0
220
0.0
230
1.0
  2
SOLID
 70
     1
 71
     0
 91
        1
 92
        1
 93
        1
 72
     4
 94
        3
 73
     0
 74
     1
 95
       26
 96
       22
 40
0.0
 40
0.0
 40
0.0
 40
0.0
 40
1.0
 40
1.0
 40
1.0
 40
2.0
 40
2.0
 40
2.0
 40
3.0
 40
3.0
 40
3.0
 40
4.0
 40
4.0
 40
4.0
 40
5.0
 40
5.0
 40
5.0
 40
6.0
 40
6.0
 40
6.0
 40
7.0
 40
7.0
 40
7.0
 40
7.0
 10
79.88625215016732
 20
-77.79370115242658
 10
79.88625215016732
 20
-77.79370115242658
 10
78.78209904714475
 20
-77.79370115242658
 10
78.78209904714475
 20
-77.79370115242658
 10
78.78209904714475
 20
-77.79370115242658
 10
78.78209904714475
 20
-78.12305228081647
 10
78.78209904714475
 20
-78.12305228081647
 10
78.78209904714475
 20
-78.12305228081647
 10
78.63395994127902
 20
-78.12305228081647
 10
78.63395994127902
 20
-78.12305228081647
 10
78.61914603069243
 20
-77.79163409513542
 10
78.45619301424013
 20
-77.74512530608456
 10
78.34181584412983
 20
-77.71584199445994
 10
78.34181584412983
 20
-77.71584199445994
 10
78.34181584412983
 20
-77.57011445543387
 10
78.34181584412983
 20
-77.57011445543387
 10
78.34181584412983
 20
-77.57011445543387
 10
79.88625215016732
 20
-77.57011445543387
 10
79.88625215016732
 20
-77.57011445543387
 10
79.88625215016732
 20
-77.57011445543387
 10
79.88625215016732
 20
-77.79370115242658
 10
79.88625215016732
 20
-77.79370115242658
 97
        0
 97
        0
 75
     2
 76
     1
 98
        0
  0
ENDBLK
  5
BD
330
BA
100
AcDbEntity
  8
0
100
AcDbBlockEnd
  0
BLOCK
  5
CA
330
C8
100
AcDbEntity
  8
0
100
AcDbBlockBegin
  2
block 5
 70
     0
 10
0.0
 20
0.0
 30
0.0
  3
block 5
  1

  0
SPLINE
  5
CC
330
C8
100
AcDbEntity
  8
_U+30EC_U+30A4_U+30E4_U+30FC 1
370
     0
100
AcDbSpline
210
0.0
220
0.0
230
1.0
 70
    11
 71
     3
 72
    44
 73
    40
 74
     0
 42
0.0000000001
 43
0.0000000001
 12
1.0
 22
0.0
 32
0.0
 13
1.0
 23
0.0
 33
0.0
 40
0.0
 40
0.0
 40
0.0
 40
0.0
 40
1.0
 40
1.0
 40
1.0
 40
2.0
 40
2.0
 40
2.0
 40
3.0
 40
3.0
 40
3.0
 40
4.0
 40
4.0
 40
4.0
 40
5.0
 40
5.0
 40
5.0
 40
6.0
 40
6.0
 40
6.0
 40
7.0
 40
7.0
 40
7.0
 40
8.0
 40
8.0
 40
8.0
 40
9.0
 40
9.0
 40
9.0
 40
10.0
 40
10.0
 40
10.0
 40
11.0
 40
11.0
 40
11.0
 40
12.0
 40
12.0
 40
12.0
 40
13.0
 40
13.0
 40
13.0
 40
13.0
 10
79.30437552270863
 20
-89.62140297238632
 30
0.0
 10
79.46319442457865
 20
-89.83878849750559
 30
0.0
 10
79.53726397751151
 20
-89.9314615660588
 30
0.0
 10
79.68092445924644
 20
-89.98003741240083
 30
0.0
 10
79.68092445924644
 20
-89.98003741240083
 30
0.0
 10
79.68092445924644
 20
-89.20351289002552
 30
0.0
 10
79.68092445924644
 20
-89.20351289002552
 30
0.0
 10
79.68092445924644
 20
-89.20351289002552
 30
0.0
 10
79.88625215016732
 20
-89.20351289002552
 30
0.0
 10
79.88625215016732
 20
-89.20351289002552
 30
0.0
 10
79.88625215016732
 20
-89.20351289002552
 30
0.0
 10
79.88625215016732
 20
-90.2291178159844
 30
0.0
 10
79.88625215016732
 20
-90.2291178159844
 30
0.0
 10
79.5286512387984
 20
-90.19742293752009
 30
0.0
 10
79.45044757128322
 20
-90.13196612330034
 30
0.0
 10
79.15210230226059
 20
-89.747837976695
 30
0.0
 10
78.95332029276167
 20
-89.49255640123798
 30
0.0
 10
78.88545191170225
 20
-89.42709958701823
 30
0.0
 10
78.74799260184078
 20
-89.42709958701823
 30
0.0
 10
78.62948131714819
 20
-89.42709958701823
 30
0.0
 10
78.49856768870869
 20
-89.49875757311142
 30
0.0
 10
78.49856768870869
 20
-89.69512801577066
 30
0.0
 10
78.49856768870869
 20
-89.95488821535851
 30
0.0
 10
78.72904457667191
 20
-89.96315644452311
 30
0.0
 10
78.84548880407336
 20
-89.96729055910541
 30
0.0
 10
78.84548880407336
 20
-89.96729055910541
 30
0.0
 10
78.84548880407336
 20
-90.19122176564665
 30
0.0
 10
78.84548880407336
 20
-90.19122176564665
 30
0.0
 10
78.71836478066763
 20
-90.18260902693352
 30
0.0
 10
78.60639917739701
 20
-90.17192923092924
 30
0.0
 10
78.48788789270442
 20
-90.09200301567145
 30
0.0
 10
78.32700193354326
 20
-89.98210446969198
 30
0.0
 10
78.29323999778781
 20
-89.79641382303701
 30
0.0
 10
78.29323999778781
 20
-89.6803141051841
 30
0.0
 10
78.29323999778781
 20
-89.40401744726705
 30
0.0
 10
78.47720809670015
 20
-89.19731171815206
 30
0.0
 10
78.75005965913194
 20
-89.19731171815206
 30
0.0
 10
78.97881399935252
 20
-89.19731171815206
 30
0.0
 10
79.07803274932772
 20
-89.31341143600498
 30
0.0
 10
79.30437552270863
 20
-89.62140297238632
 30
0.0
  0
HATCH
  5
CD
330
C8
100
AcDbEntity
  8
_U+30EC_U+30A4_U+30E4_U+30FC 1
 62
   179
420
  2234388
100
AcDbHatch
 10
0.0
 20
0.0
 30
0.0
210
0.0
220
0.0
230
1.0
  2
SOLID
 70
     1
 71
     0
 91
        1
 92
        1
 93
        1
 72
     4
 94
        3
 73
     0
 74
     1
 95
       44
 96
       40
 40
0.0
 40
0.0
 40
0.0
 40
0.0
 40
1.0
 40
1.0
 40
1.0
 40
2.0
 40
2.0
 40
2.0
 40
3.0
 40
3.0
 40
3.0
 40
4.0
 40
4.0
 40
4.0
 40
5.0
 40
5.0
 40
5.0
 40
6.0
 40
6.0
 40
6.0
 40
7.0
 40
7.0
 40
7.0
 40
8.0
 40
8.0
 40
8.0
 40
9.0
 40
9.0
 40
9.0
 40
10.0
 40
10.0
 40
10.0
 40
11.0
 40
11.0
 40
11.0
 40
12.0
 40
12.0
 40
12.0
 40
13.0
 40
13.0
 40
13.0
 40
13.0
 10
79.30437552270863
 20
-89.62140297238632
 10
79.46319442457865
 20
-89.83878849750559
 10
79.53726397751151
 20
-89.9314615660588
 10
79.68092445924644
 20
-89.98003741240083
 10
79.68092445924644
 20
-89.98003741240083
 10
79.68092445924644
 20
-89.20351289002552
 10
79.68092445924644
 20
-89.20351289002552
 10
79.68092445924644
 20
-89.20351289002552
 10
79.88625215016732
 20
-89.20351289002552
 10
79.88625215016732
 20
-89.20351289002552
 10
79.88625215016732
 20
-89.20351289002552
 10
79.88625215016732
 20
-90.2291178159844
 10
79.88625215016732
 20
-90.2291178159844
 10
79.5286512387984
 20
-90.19742293752009
 10
79.45044757128322
 20
-90.13196612330034
 10
79.15210230226059
 20
-89.747837976695
 10
78.95332029276167
 20
-89.49255640123798
 10
78.88545191170225
 20
-89.42709958701823
 10
78.74799260184078
 20
-89.42709958701823
 10
78.62948131714819
 20
-89.42709958701823
 10
78.49856768870869
 20
-89.49875757311142
 10
78.49856768870869
 20
-89.69512801577066
 10
78.49856768870869
 20
-89.95488821535851
 10
78.72904457667191
 20
-89.96315644452311
 10
78.84548880407336
 20
-89.96729055910541
 10
78.84548880407336
 20
-89.96729055910541
 10
78.84548880407336
 20
-90.19122176564665
 10
78.84548880407336
 20
-90.19122176564665
 10
78.71836478066763
 20
-90.18260902693352
 10
78.60639917739701
 20
-90.17192923092924
 10
78.48788789270442
 20
-90.09200301567145
 10
78.32700193354326
 20
-89.98210446969198
 10
78.29323999778781
 20
-89.79641382303701
 10
78.29323999778781
 20
-89.6803141051841
 10
78.29323999778781
 20
-89.40401744726705
 10
78.47720809670015
 20
-89.19731171815206
 10
78.75005965913194
 20
-89.19731171815206
 10
78.97881399935252
 20
-89.19731171815206
 10
79.07803274932772
 20
-89.31341143600498
 10
79.30437552270863
 20
-89.62140297238632
 97
        0
 97
        0
 75
     2
 76
     1
 98
        0
  0
SPLINE
  5
CE
330
C8
100
AcDbEntity
  8
_U+30EC_U+30A4_U+30E4_U+30FC 1
370
     0
100
AcDbSpline
210
0.0
220
0.0
230
1.0
 70
    11
 71
     3
 72
    44
 73
    40
 74
     0
 42
0.0000000001
 43
0.0000000001
 12
1.0
 22
0.0
 32
0.0
 13
1.0
 23
0.0
 33
0.0
 40
0.0
 40
0.0
 40
0.0
 40
0.0
 40
1.0
 40
1.0
 40
1.0
 40
2.0
 40
2.0
 40
2.0
 40
3.0
 40
3.0
 40
3.0
 40
4.0
 40
4.0
 40
4.0
 40
5.0
 40
5.0
 40
5.0
 40
6.0
 40
6.0
 40
6.0
 40
7.0
 40
7.0
 40
7.0
 40
8.0
 40
8.0
 40
8.0
 40
9.0
 40
9.0
 40
9.0
 40
10.0
 40
10.0
 40
10.0
 40
11.0
 40
11.0
 40
11.0
 40
12.0
 40
12.0
 40
12.0
 40
13.0
 40
13.0
 40
13.0
 40
13.0
 10
79.30437552270863
 20
-88.4490369787558
 30
0.0
 10
79.46319442457865
 20
-88.66642250387507
 30
0.0
 10
79.53726397751151
 20
-88.75909557242828
 30
0.0
 10
79.68092445924644
 20
-88.80767141877031
 30
0.0
 10
79.68092445924644
 20
-88.80767141877031
 30
0.0
 10
79.68092445924644
 20
-88.031146896395
 30
0.0
 10
79.68092445924644
 20
-88.031146896395
 30
0.0
 10
79.68092445924644
 20
-88.031146896395
 30
0.0
 10
79.88625215016732
 20
-88.031146896395
 30
0.0
 10
79.88625215016732
 20
-88.031146896395
 30
0.0
 10
79.88625215016732
 20
-88.031146896395
 30
0.0
 10
79.88625215016732
 20
-89.05675182235387
 30
0.0
 10
79.88625215016732
 20
-89.05675182235387
 30
0.0
 10
79.5286512387984
 20
-89.02505694388957
 30
0.0
 10
79.45044757128322
 20
-88.95960012966982
 30
0.0
 10
79.15210230226059
 20
-88.57547198306447
 30
0.0
 10
78.95332029276167
 20
-88.32019040760746
 30
0.0
 10
78.88545191170225
 20
-88.25473359338771
 30
0.0
 10
78.74799260184078
 20
-88.25473359338771
 30
0.0
 10
78.62948131714819
 20
-88.25473359338771
 30
0.0
 10
78.49856768870869
 20
-88.32673608902942
 30
0.0
 10
78.49856768870869
 20
-88.52276202214014
 30
0.0
 10
78.49856768870869
 20
-88.78217771217946
 30
0.0
 10
78.72904457667191
 20
-88.79079045089259
 30
0.0
 10
78.84548880407336
 20
-88.79492456547489
 30
0.0
 10
78.84548880407336
 20
-88.79492456547489
 30
0.0
 10
78.84548880407336
 20
-89.0185112624676
 30
0.0
 10
78.84548880407336
 20
-89.0185112624676
 30
0.0
 10
78.71836478066763
 20
-89.010243033303
 30
0.0
 10
78.60639917739701
 20
-88.99956323729873
 30
0.0
 10
78.48788789270442
 20
-88.91963702204093
 30
0.0
 10
78.32700193354326
 20
-88.80973847606145
 30
0.0
 10
78.29323999778781
 20
-88.62404782940649
 30
0.0
 10
78.29323999778781
 20
-88.50794811155357
 30
0.0
 10
78.29323999778781
 20
-88.23165145363653
 30
0.0
 10
78.47720809670015
 20
-88.02494572452154
 30
0.0
 10
78.75005965913194
 20
-88.02494572452154
 30
0.0
 10
78.97881399935252
 20
-88.02494572452154
 30
0.0
 10
79.07803274932772
 20
-88.14070093282594
 30
0.0
 10
79.30437552270863
 20
-88.4490369787558
 30
0.0
  0
HATCH
  5
CF
330
C8
100
AcDbEntity
  8
_U+30EC_U+30A4_U+30E4_U+30FC 1
 62
   179
420
  2234388
100
AcDbHatch
 10
0.0
 20
0.0
 30
0.0
210
0.0
220
0.0
230
1.0
  2
SOLID
 70
     1
 71
     0
 91
        1
 92
        1
 93
        1
 72
     4
 94
        3
 73
     0
 74
     1
 95
       44
 96
       40
 40
0.0
 40
0.0
 40
0.0
 40
0.0
 40
1.0
 40
1.0
 40
1.0
 40
2.0
 40
2.0
 40
2.0
 40
3.0
 40
3.0
 40
3.0
 40
4.0
 40
4.0
 40
4.0
 40
5.0
 40
5.0
 40
5.0
 40
6.0
 40
6.0
 40
6.0
 40
7.0
 40
7.0
 40
7.0
 40
8.0
 40
8.0
 40
8.0
 40
9.0
 40
9.0
 40
9.0
 40
10.0
 40
10.0
 40
10.0
 40
11.0
 40
11.0
 40
11.0
 40
12.0
 40
12.0
 40
12.0
 40
13.0
 40
13.0
 40
13.0
 40
13.0
 10
79.30437552270863
 20
-88.4490369787558
 10
79.46319442457865
 20
-88.66642250387507
 10
79.53726397751151
 20
-88.75909557242828
 10
79.68092445924644
 20
-88.80767141877031
 10
79.68092445924644
 20
-88.80767141877031
 10
79.68092445924644
 20
-88.031146896395
 10
79.68092445924644
 20
-88.031146896395
 10
79.68092445924644
 20
-88.031146896395
 10
79.88625215016732
 20
-88.031146896395
 10
79.88625215016732
 20
-88.031146896395
 10
79.88625215016732
 20
-88.031146896395
 10
79.88625215016732
 20
-89.05675182235387
 10
79.88625215016732
 20
-89.05675182235387
 10
79.5286512387984
 20
-89.02505694388957
 10
79.45044757128322
 20
-88.95960012966982
 10
79.15210230226059
 20
-88.57547198306447
 10
78.95332029276167
 20
-88.32019040760746
 10
78.88545191170225
 20
-88.25473359338771
 10
78.74799260184078
 20
-88.25473359338771
 10
78.62948131714819
 20
-88.25473359338771
 10
78.49856768870869
 20
-88.32673608902942
 10
78.49856768870869
 20
-88.52276202214014
 10
78.49856768870869
 20
-88.78217771217946
 10
78.72904457667191
 20
-88.79079045089259
 10
78.84548880407336
 20
-88.79492456547489
 10
78.84548880407336
 20
-88.79492456547489
 10
78.84548880407336
 20
-89.0185112624676
 10
78.84548880407336
 20
-89.0185112624676
 10
78.71836478066763
 20
-89.010243033303
 10
78.60639917739701
 20
-88.99956323729873
 10
78.48788789270442
 20
-88.91963702204093
 10
78.32700193354326
 20
-88.80973847606145
 10
78.29323999778781
 20
-88.62404782940649
 10
78.29323999778781
 20
-88.50794811155357
 10
78.29323999778781
 20
-88.23165145363653
 10
78.47720809670015
 20
-88.02494572452154
 10
78.75005965913194
 20
-88.02494572452154
 10
78.97881399935252
 20
-88.02494572452154
 10
79.07803274932772
 20
-88.14070093282594
 10
79.30437552270863
 20
-88.4490369787558
 97
        0
 97
        0
 75
     2
 76
     1
 98
        0
  0
ENDBLK
  5
CB
330
C8
100
AcDbEntity
  8
0
100
AcDbBlockEnd
  0
BLOCK
  5
DE
330
DC
100
AcDbEntity
  8
0
100
AcDbBlockBegin
  2
block 6
 70
     0
 10
0.0
 20
0.0
 30
0.0
  3
block 6
  1

  0
SPLINE
  5
E0
330
DC
100
AcDbEntity
  8
_U+30EC_U+30A4_U+30E4_U+30FC 1
370
     0
100
AcDbSpline
210
0.0
220
0.0
230
1.0
 70
    11
 71
     3
 72
    62
 73
    58
 74
     0
 42
0.0000000001
 43
0.0000000001
 12
1.0
 22
0.0
 32
0.0
 13
1.0
 23
0.0
 33
0.0
 40
0.0
 40
0.0
 40
0.0
 40
0.0
 40
1.0
 40
1.0
 40
1.0
 40
2.0
 40
2.0
 40
2.0
 40
3.0
 40
3.0
 40
3.0
 40
4.0
 40
4.0
 40
4.0
 40
5.0
 40
5.0
 40
5.0
 40
6.0
 40
6.0
 40
6.0
 40
7.0
 40
7.0
 40
7.0
 40
8.0
 40
8.0
 40
8.0
 40
9.0
 40
9.0
 40
9.0
 40
10.0
 40
10.0
 40
10.0
 40
11.0
 40
11.0
 40
11.0
 40
12.0
 40
12.0
 40
12.0
 40
13.0
 40
13.0
 40
13.0
 40
14.0
 40
14.0
 40
14.0
 40
15.0
 40
15.0
 40
15.0
 40
16.0
 40
16.0
 40
16.0
 40
17.0
 40
17.0
 40
17.0
 40
18.0
 40
18.0
 40
18.0
 40
19.0
 40
19.0
 40
19.0
 40
19.0
 10
60.93753796219617
 20
-72.53321260122434
 30
0.0
 10
60.84279783635181
 20
-72.53321260122434
 30
0.0
 10
60.62541231123254
 20
-72.51202526399005
 30
0.0
 10
60.50069985466649
 20
-72.3258178530123
 30
0.0
 10
60.42697481128215
 20
-72.21367999496742
 30
0.0
 10
60.42284069669985
 20
-72.11428899021796
 30
0.0
 10
60.41870658211755
 20
-72.02971189605508
 30
0.0
 10
60.41870658211755
 20
-72.02971189605508
 30
0.0
 10
60.63781465497944
 20
-72.02971189605508
 30
0.0
 10
60.63781465497944
 20
-72.02971189605508
 30
0.0
 10
60.64022622181911
 20
-72.10378144898795
 30
0.0
 10
60.65056150827486
 20
-72.33856470630772
 30
0.0
 10
60.93340384761387
 20
-72.33856470630772
 30
0.0
 10
61.07051864792682
 20
-72.33856470630772
 30
0.0
 10
61.22244735882634
 20
-72.26880152273141
 30
0.0
 10
61.22244735882634
 20
-72.04021943728509
 30
0.0
 10
61.22244735882634
 20
-71.9239474646579
 30
0.0
 10
61.18455130848859
 20
-71.87519936354163
 30
0.0
 10
61.15285643002429
 20
-71.84350448507732
 30
0.0
 10
61.07913138663994
 20
-71.76943493214445
 30
0.0
 10
60.96303166878702
 20
-71.7568603336233
 30
0.0
 10
60.90791014102302
 20
-71.7568603336233
 30
0.0
 10
60.88896211585415
 20
-71.7568603336233
 30
0.0
 10
60.85313312280756
 20
-71.75892739091444
 30
0.0
 10
60.82591686847408
 20
-71.76306150549674
 30
0.0
 10
60.82591686847408
 20
-71.76306150549674
 30
0.0
 10
60.82591686847408
 20
-71.56841361058012
 30
0.0
 10
60.82591686847408
 20
-71.56841361058012
 30
0.0
 10
60.86381291881182
 20
-71.57478703722784
 30
0.0
 10
60.90584308373187
 20
-71.57702634929325
 30
0.0
 10
60.91238876515385
 20
-71.57702634929325
 30
0.0
 10
60.9778455793736
 20
-71.57702634929325
 30
0.0
 10
61.17593856977546
 20
-71.55583901205895
 30
0.0
 10
61.17593856977546
 20
-71.31881644267376
 30
0.0
 10
61.17593856977546
 20
-71.14122177040915
 30
0.0
 10
61.04536945088449
 20
-71.08610024264514
 30
0.0
 10
60.93547090490502
 20
-71.08610024264514
 30
0.0
 10
60.67157659073489
 20
-71.08610024264514
 30
0.0
 10
60.66330836157029
 20
-71.31881644267376
 30
0.0
 10
60.65917424698799
 20
-71.39081893831549
 30
0.0
 10
60.65917424698799
 20
-71.39081893831549
 30
0.0
 10
60.45660263245529
 20
-71.39081893831549
 30
0.0
 10
60.45660263245529
 20
-71.39081893831549
 30
0.0
 10
60.46487086161989
 20
-71.26593422697519
 30
0.0
 10
60.49243162550189
 20
-70.88938529043737
 30
0.0
 10
60.94821775820045
 20
-70.88938529043737
 30
0.0
 10
61.17180445519316
 20
-70.88938529043737
 30
0.0
 10
61.4122721200636
 20
-71.01633705906883
 30
0.0
 10
61.4122721200636
 20
-71.31244301602607
 30
0.0
 10
61.4122721200636
 20
-71.49865042700381
 30
0.0
 10
61.31753199421923
 20
-71.58116046387555
 30
0.0
 10
61.21831324424404
 20
-71.64248316351299
 30
0.0
 10
61.27929143433295
 20
-71.67004392739499
 30
0.0
 10
61.46084796640562
 20
-71.75048690697558
 30
0.0
 10
61.46084796640562
 20
-72.02764483876392
 30
0.0
 10
61.46084796640562
 20
-72.36612547018971
 30
0.0
 10
61.21417912966174
 20
-72.53321260122434
 30
0.0
 10
60.93753796219617
 20
-72.53321260122434
 30
0.0
  0
HATCH
  5
E1
330
DC
100
AcDbEntity
  8
_U+30EC_U+30A4_U+30E4_U+30FC 1
 62
   179
420
  2234388
100
AcDbHatch
 10
0.0
 20
0.0
 30
0.0
210
0.0
220
0.0
230
1.0
  2
SOLID
 70
     1
 71
     0
 91
        1
 92
        1
 93
        1
 72
     4
 94
        3
 73
     0
 74
     1
 95
       62
 96
       58
 40
0.0
 40
0.0
 40
0.0
 40
0.0
 40
1.0
 40
1.0
 40
1.0
 40
2.0
 40
2.0
 40
2.0
 40
3.0
 40
3.0
 40
3.0
 40
4.0
 40
4.0
 40
4.0
 40
5.0
 40
5.0
 40
5.0
 40
6.0
 40
6.0
 40
6.0
 40
7.0
 40
7.0
 40
7.0
 40
8.0
 40
8.0
 40
8.0
 40
9.0
 40
9.0
 40
9.0
 40
10.0
 40
10.0
 40
10.0
 40
11.0
 40
11.0
 40
11.0
 40
12.0
 40
12.0
 40
12.0
 40
13.0
 40
13.0
 40
13.0
 40
14.0
 40
14.0
 40
14.0
 40
15.0
 40
15.0
 40
15.0
 40
16.0
 40
16.0
 40
16.0
 40
17.0
 40
17.0
 40
17.0
 40
18.0
 40
18.0
 40
18.0
 40
19.0
 40
19.0
 40
19.0
 40
19.0
 10
60.93753796219617
 20
-72.53321260122434
 10
60.84279783635181
 20
-72.53321260122434
 10
60.62541231123254
 20
-72.51202526399005
 10
60.50069985466649
 20
-72.3258178530123
 10
60.42697481128215
 20
-72.21367999496742
 10
60.42284069669985
 20
-72.11428899021796
 10
60.41870658211755
 20
-72.02971189605508
 10
60.41870658211755
 20
-72.02971189605508
 10
60.63781465497944
 20
-72.02971189605508
 10
60.63781465497944
 20
-72.02971189605508
 10
60.64022622181911
 20
-72.10378144898795
 10
60.65056150827486
 20
-72.33856470630772
 10
60.93340384761387
 20
-72.33856470630772
 10
61.07051864792682
 20
-72.33856470630772
 10
61.22244735882634
 20
-72.26880152273141
 10
61.22244735882634
 20
-72.04021943728509
 10
61.22244735882634
 20
-71.9239474646579
 10
61.18455130848859
 20
-71.87519936354163
 10
61.15285643002429
 20
-71.84350448507732
 10
61.07913138663994
 20
-71.76943493214445
 10
60.96303166878702
 20
-71.7568603336233
 10
60.90791014102302
 20
-71.7568603336233
 10
60.88896211585415
 20
-71.7568603336233
 10
60.85313312280756
 20
-71.75892739091444
 10
60.82591686847408
 20
-71.76306150549674
 10
60.82591686847408
 20
-71.76306150549674
 10
60.82591686847408
 20
-71.56841361058012
 10
60.82591686847408
 20
-71.56841361058012
 10
60.86381291881182
 20
-71.57478703722784
 10
60.90584308373187
 20
-71.57702634929325
 10
60.91238876515385
 20
-71.57702634929325
 10
60.9778455793736
 20
-71.57702634929325
 10
61.17593856977546
 20
-71.55583901205895
 10
61.17593856977546
 20
-71.31881644267376
 10
61.17593856977546
 20
-71.14122177040915
 10
61.04536945088449
 20
-71.08610024264514
 10
60.93547090490502
 20
-71.08610024264514
 10
60.67157659073489
 20
-71.08610024264514
 10
60.66330836157029
 20
-71.31881644267376
 10
60.65917424698799
 20
-71.39081893831549
 10
60.65917424698799
 20
-71.39081893831549
 10
60.45660263245529
 20
-71.39081893831549
 10
60.45660263245529
 20
-71.39081893831549
 10
60.46487086161989
 20
-71.26593422697519
 10
60.49243162550189
 20
-70.88938529043737
 10
60.94821775820045
 20
-70.88938529043737
 10
61.17180445519316
 20
-70.88938529043737
 10
61.4122721200636
 20
-71.01633705906883
 10
61.4122721200636
 20
-71.31244301602607
 10
61.4122721200636
 20
-71.49865042700381
 10
61.31753199421923
 20
-71.58116046387555
 10
61.21831324424404
 20
-71.64248316351299
 10
61.27929143433295
 20
-71.67004392739499
 10
61.46084796640562
 20
-71.75048690697558
 10
61.46084796640562
 20
-72.02764483876392
 10
61.46084796640562
 20
-72.36612547018971
 10
61.21417912966174
 20
-72.53321260122434
 10
60.93753796219617
 20
-72.53321260122434
 97
        0
 97
        0
 75
     2
 76
     1
 98
        0
  0
SPLINE
  5
E2
330
DC
100
AcDbEntity
  8
_U+30EC_U+30A4_U+30E4_U+30FC 1
370
     0
100
AcDbSpline
210
0.0
220
0.0
230
1.0
 70
    11
 71
     3
 72
    29
 73
    25
 74
     0
 42
0.0000000001
 43
0.0000000001
 12
1.0
 22
0.0
 32
0.0
 13
1.0
 23
0.0
 33
0.0
 40
0.0
 40
0.0
 40
0.0
 40
0.0
 40
1.0
 40
1.0
 40
1.0
 40
2.0
 40
2.0
 40
2.0
 40
3.0
 40
3.0
 40
3.0
 40
4.0
 40
4.0
 40
4.0
 40
5.0
 40
5.0
 40
5.0
 40
6.0
 40
6.0
 40
6.0
 40
7.0
 40
7.0
 40
7.0
 40
8.0
 40
8.0
 40
8.0
 40
8.0
 10
62.51504718489208
 20
-72.30463051577802
 30
0.0
 10
62.40756020575228
 20
-72.5140923212812
 30
0.0
 10
62.23461641239274
 20
-72.53321260122434
 30
0.0
 10
62.11851669453982
 20
-72.53321260122434
 30
0.0
 10
61.95797524492718
 20
-72.53321260122434
 30
0.0
 10
61.81672633003193
 20
-72.48670381217346
 30
0.0
 10
61.72164169463904
 20
-72.30463051577802
 30
0.0
 10
61.61828883008154
 20
-72.1099826208614
 30
0.0
 10
61.59934080491266
 20
-71.87313230625047
 30
0.0
 10
61.59934080491266
 20
-71.71017928979815
 30
0.0
 10
61.59934080491266
 20
-71.56634655328897
 30
0.0
 10
61.61622177279039
 20
-71.31468232809146
 30
0.0
 10
61.72164169463904
 20
-71.1157280638183
 30
0.0
 10
61.82947318332736
 20
-70.91263968496281
 30
0.0
 10
61.98967012339148
 20
-70.88938529043737
 30
0.0
 10
62.11851669453982
 20
-70.88938529043737
 30
0.0
 10
62.27664657731279
 20
-70.88938529043737
 30
0.0
 10
62.4203070590477
 20
-70.93382702219711
 30
0.0
 10
62.51504718489208
 20
-71.1157280638183
 30
0.0
 10
62.61426593486727
 20
-71.30830890144377
 30
0.0
 10
62.63734807461844
 20
-71.53671873211583
 30
0.0
 10
62.63734807461844
 20
-71.71017928979815
 30
0.0
 10
62.63734807461844
 20
-71.88157279018934
 30
0.0
 10
62.61633299215842
 20
-72.11222193292681
 30
0.0
 10
62.51504718489208
 20
-72.30463051577802
 30
0.0
  0
SPLINE
  5
E3
330
DC
100
AcDbEntity
  8
_U+30EC_U+30A4_U+30E4_U+30FC 1
370
     0
100
AcDbSpline
210
0.0
220
0.0
230
1.0
 70
    11
 71
     3
 72
    17
 73
    13
 74
     0
 42
0.0000000001
 43
0.0000000001
 12
1.0
 22
0.0
 32
0.0
 13
1.0
 23
0.0
 33
0.0
 40
0.0
 40
0.0
 40
0.0
 40
0.0
 40
1.0
 40
1.0
 40
1.0
 40
2.0
 40
2.0
 40
2.0
 40
3.0
 40
3.0
 40
3.0
 40
4.0
 40
4.0
 40
4.0
 40
4.0
 10
62.11851669453982
 20
-71.08196612806285
 30
0.0
 10
61.86943629095625
 20
-71.08196612806285
 30
0.0
 10
61.82292750190538
 20
-71.36549748649891
 30
0.0
 10
61.82292750190538
 20
-71.71017928979815
 30
0.0
 10
61.82292750190538
 20
-72.02971189605508
 30
0.0
 10
61.85875649495198
 20
-72.33856470630772
 30
0.0
 10
62.11851669453982
 20
-72.33856470630772
 30
0.0
 10
62.36518553128371
 20
-72.33856470630772
 30
0.0
 10
62.41376137762573
 20
-72.05710040516281
 30
0.0
 10
62.41376137762573
 20
-71.71017928979815
 30
0.0
 10
62.41376137762573
 20
-71.39081893831549
 30
0.0
 10
62.37586532728798
 20
-71.08196612806285
 30
0.0
 10
62.11851669453982
 20
-71.08196612806285
 30
0.0
  0
HATCH
  5
E4
330
DC
100
AcDbEntity
  8
_U+30EC_U+30A4_U+30E4_U+30FC 1
 62
   179
420
  2234388
100
AcDbHatch
 10
0.0
 20
0.0
 30
0.0
210
0.0
220
0.0
230
1.0
  2
SOLID
 70
     1
 71
     0
 91
        2
 92
        1
 93
        1
 72
     4
 94
        3
 73
     0
 74
     1
 95
       29
 96
       25
 40
0.0
 40
0.0
 40
0.0
 40
0.0
 40
1.0
 40
1.0
 40
1.0
 40
2.0
 40
2.0
 40
2.0
 40
3.0
 40
3.0
 40
3.0
 40
4.0
 40
4.0
 40
4.0
 40
5.0
 40
5.0
 40
5.0
 40
6.0
 40
6.0
 40
6.0
 40
7.0
 40
7.0
 40
7.0
 40
8.0
 40
8.0
 40
8.0
 40
8.0
 10
62.51504718489208
 20
-72.30463051577802
 10
62.40756020575228
 20
-72.5140923212812
 10
62.23461641239274
 20
-72.53321260122434
 10
62.11851669453982
 20
-72.53321260122434
 10
61.95797524492718
 20
-72.53321260122434
 10
61.81672633003193
 20
-72.48670381217346
 10
61.72164169463904
 20
-72.30463051577802
 10
61.61828883008154
 20
-72.1099826208614
 10
61.59934080491266
 20
-71.87313230625047
 10
61.59934080491266
 20
-71.71017928979815
 10
61.59934080491266
 20
-71.56634655328897
 10
61.61622177279039
 20
-71.31468232809146
 10
61.72164169463904
 20
-71.1157280638183
 10
61.82947318332736
 20
-70.91263968496281
 10
61.98967012339148
 20
-70.88938529043737
 10
62.11851669453982
 20
-70.88938529043737
 10
62.27664657731279
 20
-70.88938529043737
 10
62.4203070590477
 20
-70.93382702219711
 10
62.51504718489208
 20
-71.1157280638183
 10
62.61426593486727
 20
-71.30830890144377
 10
62.63734807461844
 20
-71.53671873211583
 10
62.63734807461844
 20
-71.71017928979815
 10
62.63734807461844
 20
-71.88157279018934
 10
62.61633299215842
 20
-72.11222193292681
 10
62.51504718489208
 20
-72.30463051577802
 97
        0
 97
        0
 92
        1
 93
        1
 72
     4
 94
        3
 73
     0
 74
     1
 95
       17
 96
       13
 40
0.0
 40
0.0
 40
0.0
 40
0.0
 40
1.0
 40
1.0
 40
1.0
 40
2.0
 40
2.0
 40
2.0
 40
3.0
 40
3.0
 40
3.0
 40
4.0
 40
4.0
 40
4.0
 40
4.0
 10
62.11851669453982
 20
-71.08196612806285
 10
61.86943629095625
 20
-71.08196612806285
 10
61.82292750190538
 20
-71.36549748649891
 10
61.82292750190538
 20
-71.71017928979815
 10
61.82292750190538
 20
-72.02971189605508
 10
61.85875649495198
 20
-72.33856470630772
 10
62.11851669453982
 20
-72.33856470630772
 10
62.36518553128371
 20
-72.33856470630772
 10
62.41376137762573
 20
-72.05710040516281
 10
62.41376137762573
 20
-71.71017928979815
 10
62.41376137762573
 20
-71.39081893831549
 10
62.37586532728798
 20
-71.08196612806285
 10
62.11851669453982
 20
-71.08196612806285
 97
        0
 97
        0
 75
     2
 76
     1
 98
        0
  0
ENDBLK
  5
DF
330
DC
100
AcDbEntity
  8
0
100
AcDbBlockEnd
  0
ENDSEC
  0
SECTION
  2
ENTITIES
  0
POLYLINE
  5
41
330
1F
100
AcDbEntity
  8
_U+30EC_U+30A4_U+30E4_U+30FC 1
 62
   179
420
  2234388
370
    25
100
AcDb2dPolyline
 66
     1
 10
0.0
 20
0.0
 30
0.0
  0
VERTEX
  5
42
330
41
100
AcDbEntity
  8
_U+30EC_U+30A4_U+30E4_U+30FC 1
 62
   179
420
  2234388
370
    25
100
AcDbVertex
100
AcDb2dVertex
 10
51.53190674086709
 20
-100.1289519194119
 30
0.0
  0
VERTEX
  5
43
330
41
100
AcDbEntity
  8
_U+30EC_U+30A4_U+30E4_U+30FC 1
 62
   179
420
  2234388
370
    25
100
AcDbVertex
100
AcDb2dVertex
 10
54.53189360877549
 20
-100.1289519194119
 30
0.0
  0
SEQEND
  5
44
330
41
100
AcDbEntity
  8
_U+30EC_U+30A4_U+30E4_U+30FC 1
 62
   179
420
  2234388
370
    25
  0
POLYLINE
  5
45
330
1F
100
AcDbEntity
  8
_U+30EC_U+30A4_U+30E4_U+30FC 1
 62
   179
420
  2234388
370
    25
100
AcDb2dPolyline
 66
     1
 10
0.0
 20
0.0
 30
0.0
  0
VERTEX
  5
46
330
45
100
AcDbEntity
  8
_U+30EC_U+30A4_U+30E4_U+30FC 1
 62
   179
420
  2234388
370
    25
100
AcDbVertex
100
AcDb2dVertex
 10
44.53180803056559
 20
-103.3287521963902
 30
0.0
  0
VERTEX
  5
47
330
45
100
AcDbEntity
  8
_U+30EC_U+30A4_U+30E4_U+30FC 1
 62
   179
420
  2234388
370
    25
100
AcDbVertex
100
AcDb2dVertex
 10
54.53189360877549
 20
-103.3287521963902
 30
0.0
  0
SEQEND
  5
48
330
45
100
AcDbEntity
  8
_U+30EC_U+30A4_U+30E4_U+30FC 1
 62
   179
420
  2234388
370
    25
  0
POLYLINE
  5
49
330
1F
100
AcDbEntity
  8
_U+30EC_U+30A4_U+30E4_U+30FC 1
 62
   179
420
  2234388
370
    25
100
AcDb2dPolyline
 66
     1
 10
0.0
 20
0.0
 30
0.0
  0
VERTEX
  5
4A
330
49
100
AcDbEntity
  8
_U+30EC_U+30A4_U+30E4_U+30FC 1
 62
   179
420
  2234388
370
    25
100
AcDbVertex
100
AcDb2dVertex
 10
54.53189360877549
 20
-100.1289519194119
 30
0.0
  0
VERTEX
  5
4B
330
49
100
AcDbEntity
  8
_U+30EC_U+30A4_U+30E4_U+30FC 1
 62
   179
420
  2234388
370
    25
100
AcDbVertex
100
AcDb2dVertex
 10
54.53189360877549
 20
-103.3287521963902
 30
0.0
  0
SEQEND
  5
4C
330
49
100
AcDbEntity
  8
_U+30EC_U+30A4_U+30E4_U+30FC 1
 62
   179
420
  2234388
370
    25
  0
POLYLINE
  5
4D
330
1F
100
AcDbEntity
  8
_U+30EC_U+30A4_U+30E4_U+30FC 1
 62
   179
420
  2234388
370
    25
100
AcDb2dPolyline
 66
     1
 10
0.0
 20
0.0
 30
0.0
  0
VERTEX
  5
4E
330
4D
100
AcDbEntity
  8
_U+30EC_U+30A4_U+30E4_U+30FC 1
 62
   179
420
  2234388
370
    25
100
AcDbVertex
100
AcDb2dVertex
 10
51.53190674086709
 20
-101.1287241413845
 30
0.0
  0
VERTEX
  5
4F
330
4D
100
AcDbEntity
  8
_U+30EC_U+30A4_U+30E4_U+30FC 1
 62
   179
420
  2234388
370
    25
100
AcDbVertex
100
AcDb2dVertex
 10
53.53212141205958
 20
-101.1287241413845
 30
0.0
  0
SEQEND
  5
50
330
4D
100
AcDbEntity
  8
_U+30EC_U+30A4_U+30E4_U+30FC 1
 62
   179
420
  2234388
370
    25
  0
POLYLINE
  5
51
330
1F
100
AcDbEntity
  8
_U+30EC_U+30A4_U+30E4_U+30FC 1
 62
   179
420
  2234388
370
    25
100
AcDb2dPolyline
 66
     1
 10
0.0
 20
0.0
 30
0.0
  0
VERTEX
  5
52
330
51
100
AcDbEntity
  8
_U+30EC_U+30A4_U+30E4_U+30FC 1
 62
   179
420
  2234388
370
    25
100
AcDbVertex
100
AcDb2dVertex
 10
51.53190674086709
 20
-100.1289519194119
 30
0.0
  0
VERTEX
  5
53
330
51
100
AcDbEntity
  8
_U+30EC_U+30A4_U+30E4_U+30FC 1
 62
   179
420
  2234388
370
    25
100
AcDbVertex
100
AcDb2dVertex
 10
51.53190674086709
 20
-101.1287241413845
 30
0.0
  0
SEQEND
  5
54
330
51
100
AcDbEntity
  8
_U+30EC_U+30A4_U+30E4_U+30FC 1
 62
   179
420
  2234388
370
    25
  0
POLYLINE
  5
55
330
1F
100
AcDbEntity
  8
_U+30EC_U+30A4_U+30E4_U+30FC 1
 62
   179
420
  2234388
370
    25
100
AcDb2dPolyline
 66
     1
 10
0.0
 20
0.0
 30
0.0
  0
VERTEX
  5
56
330
55
100
AcDbEntity
  8
_U+30EC_U+30A4_U+30E4_U+30FC 1
 62
   179
420
  2234388
370
    25
100
AcDbVertex
100
AcDb2dVertex
 10
44.53180803056559
 20
-102.3289799744176
 30
0.0
  0
VERTEX
  5
57
330
55
100
AcDbEntity
  8
_U+30EC_U+30A4_U+30E4_U+30FC 1
 62
   179
420
  2234388
370
    25
100
AcDbVertex
100
AcDb2dVertex
 10
44.53180803056559
 20
-103.3287521963902
 30
0.0
  0
SEQEND
  5
58
330
55
100
AcDbEntity
  8
_U+30EC_U+30A4_U+30E4_U+30FC 1
 62
   179
420
  2234388
370
    25
  0
POLYLINE
  5
59
330
1F
100
AcDbEntity
  8
_U+30EC_U+30A4_U+30E4_U+30FC 1
 62
   179
420
  2234388
370
    25
100
AcDb2dPolyline
 66
     1
 10
0.0
 20
0.0
 30
0.0
  0
VERTEX
  5
5A
330
59
100
AcDbEntity
  8
_U+30EC_U+30A4_U+30E4_U+30FC 1
 62
   179
420
  2234388
370
    25
100
AcDbVertex
100
AcDb2dVertex
 10
44.53180803056559
 20
-102.3289799744176
 30
0.0
  0
VERTEX
  5
5B
330
59
100
AcDbEntity
  8
_U+30EC_U+30A4_U+30E4_U+30FC 1
 62
   179
420
  2234388
370
    25
100
AcDbVertex
100
AcDb2dVertex
 10
45.03169412892355
 20
-102.3289799744176
 30
0.0
  0
SEQEND
  5
5C
330
59
100
AcDbEntity
  8
_U+30EC_U+30A4_U+30E4_U+30FC 1
 62
   179
420
  2234388
370
    25
  0
POLYLINE
  5
5D
330
1F
100
AcDbEntity
  8
_U+30EC_U+30A4_U+30E4_U+30FC 1
 62
   179
420
  2234388
370
    25
100
AcDb2dPolyline
 66
     1
 10
0.0
 20
0.0
 30
0.0
  0
VERTEX
  5
5E
330
5D
100
AcDbEntity
  8
_U+30EC_U+30A4_U+30E4_U+30FC 1
 62
   179
420
  2234388
370
    25
100
AcDbVertex
100
AcDb2dVertex
 10
46.03354771447525
 20
-102.3289799744176
 30
0.0
  0
VERTEX
  5
5F
330
5D
100
AcDbEntity
  8
_U+30EC_U+30A4_U+30E4_U+30FC 1
 62
   179
420
  2234388
370
    25
100
AcDbVertex
100
AcDb2dVertex
 10
53.53212141205958
 20
-102.3289799744176
 30
0.0
  0
SEQEND
  5
60
330
5D
100
AcDbEntity
  8
_U+30EC_U+30A4_U+30E4_U+30FC 1
 62
   179
420
  2234388
370
    25
  0
POLYLINE
  5
61
330
1F
100
AcDbEntity
  8
_U+30EC_U+30A4_U+30E4_U+30FC 1
 62
   179
420
  2234388
370
    25
100
AcDb2dPolyline
 66
     1
 10
0.0
 20
0.0
 30
0.0
  0
VERTEX
  5
62
330
61
100
AcDbEntity
  8
_U+30EC_U+30A4_U+30E4_U+30FC 1
 62
   179
420
  2234388
370
    25
100
AcDbVertex
100
AcDb2dVertex
 10
53.53212141205958
 20
-101.1287241413845
 30
0.0
  0
VERTEX
  5
63
330
61
100
AcDbEntity
  8
_U+30EC_U+30A4_U+30E4_U+30FC 1
 62
   179
420
  2234388
370
    25
100
AcDbVertex
100
AcDb2dVertex
 10
53.53212141205958
 20
-102.3289799744176
 30
0.0
  0
SEQEND
  5
64
330
61
100
AcDbEntity
  8
_U+30EC_U+30A4_U+30E4_U+30FC 1
 62
   179
420
  2234388
370
    25
  0
POLYLINE
  5
65
330
1F
100
AcDbEntity
  8
_U+30EC_U+30A4_U+30E4_U+30FC 1
 62
   179
420
  2234388
370
    25
100
AcDb2dPolyline
 66
     1
 10
0.0
 20
0.0
 30
0.0
  0
VERTEX
  5
66
330
65
100
AcDbEntity
  8
_U+30EC_U+30A4_U+30E4_U+30FC 1
 62
   179
420
  2234388
370
    25
100
AcDbVertex
100
AcDb2dVertex
 10
47.47429212216323
 20
-78.12856553602347
 30
0.0
  0
VERTEX
  5
67
330
65
100
AcDbEntity
  8
_U+30EC_U+30A4_U+30E4_U+30FC 1
 62
   179
420
  2234388
370
    25
100
AcDbVertex
100
AcDb2dVertex
 10
76.53143276974271
 20
-78.12856553602347
 30
0.0
  0
SEQEND
  5
68
330
65
100
AcDbEntity
  8
_U+30EC_U+30A4_U+30E4_U+30FC 1
 62
   179
420
  2234388
370
    25
  0
POLYLINE
  5
69
330
1F
100
AcDbEntity
  8
_U+30EC_U+30A4_U+30E4_U+30FC 1
 62
   179
420
  2234388
370
    25
100
AcDb2dPolyline
 66
     1
 10
0.0
 20
0.0
 30
0.0
  0
VERTEX
  5
6A
330
69
100
AcDbEntity
  8
_U+30EC_U+30A4_U+30E4_U+30FC 1
 62
   179
420
  2234388
370
    25
100
AcDbVertex
100
AcDb2dVertex
 10
46.53170520176619
 20
-77.12879331405125
 30
0.0
  0
VERTEX
  5
6B
330
69
100
AcDbEntity
  8
_U+30EC_U+30A4_U+30E4_U+30FC 1
 62
   179
420
  2234388
370
    25
100
AcDbVertex
100
AcDb2dVertex
 10
76.53143276974271
 20
-77.12879331405125
 30
0.0
  0
SEQEND
  5
6C
330
69
100
AcDbEntity
  8
_U+30EC_U+30A4_U+30E4_U+30FC 1
 62
   179
420
  2234388
370
    25
  0
POLYLINE
  5
6D
330
1F
100
AcDbEntity
  8
_U+30EC_U+30A4_U+30E4_U+30FC 1
 62
   179
420
  2234388
370
    25
100
AcDb2dPolyline
 66
     1
 10
0.0
 20
0.0
 30
0.0
  0
VERTEX
  5
6E
330
6D
100
AcDbEntity
  8
_U+30EC_U+30A4_U+30E4_U+30FC 1
 62
   179
420
  2234388
370
    25
100
AcDbVertex
100
AcDb2dVertex
 10
76.53143276974271
 20
-77.12879331405125
 30
0.0
  0
VERTEX
  5
6F
330
6D
100
AcDbEntity
  8
_U+30EC_U+30A4_U+30E4_U+30FC 1
 62
   179
420
  2234388
370
    25
100
AcDbVertex
100
AcDb2dVertex
 10
76.53143276974271
 20
-78.12856553602347
 30
0.0
  0
SEQEND
  5
70
330
6D
100
AcDbEntity
  8
_U+30EC_U+30A4_U+30E4_U+30FC 1
 62
   179
420
  2234388
370
    25
  0
POLYLINE
  5
71
330
1F
100
AcDbEntity
  8
_U+30EC_U+30A4_U+30E4_U+30FC 1
 62
   179
420
  2234388
370
    25
100
AcDb2dPolyline
 66
     1
 10
0.0
 20
0.0
 30
0.0
  0
VERTEX
  5
72
330
71
100
AcDbEntity
  8
_U+30EC_U+30A4_U+30E4_U+30FC 1
 62
   179
420
  2234388
370
    25
100
AcDbVertex
100
AcDb2dVertex
 10
46.53170520176619
 20
-77.12879331405125
 30
0.0
  0
VERTEX
  5
73
330
71
100
AcDbEntity
  8
_U+30EC_U+30A4_U+30E4_U+30FC 1
 62
   179
420
  2234388
370
    25
100
AcDbVertex
100
AcDb2dVertex
 10
45.03169412892355
 20
-102.3289799744176
 30
0.0
  0
SEQEND
  5
74
330
71
100
AcDbEntity
  8
_U+30EC_U+30A4_U+30E4_U+30FC 1
 62
   179
420
  2234388
370
    25
  0
POLYLINE
  5
75
330
1F
100
AcDbEntity
  8
_U+30EC_U+30A4_U+30E4_U+30FC 1
 62
   179
420
  2234388
370
    25
100
AcDb2dPolyline
 66
     1
 10
0.0
 20
0.0
 30
0.0
  0
VERTEX
  5
76
330
75
100
AcDbEntity
  8
_U+30EC_U+30A4_U+30E4_U+30FC 1
 62
   179
420
  2234388
370
    25
100
AcDbVertex
100
AcDb2dVertex
 10
47.47429212216323
 20
-78.12856553602347
 30
0.0
  0
VERTEX
  5
77
330
75
100
AcDbEntity
  8
_U+30EC_U+30A4_U+30E4_U+30FC 1
 62
   179
420
  2234388
370
    25
100
AcDbVertex
100
AcDb2dVertex
 10
46.03354771447525
 20
-102.3289799744176
 30
0.0
  0
SEQEND
  5
78
330
75
100
AcDbEntity
  8
_U+30EC_U+30A4_U+30E4_U+30FC 1
 62
   179
420
  2234388
370
    25
  0
SPLINE
  5
79
330
1F
100
AcDbEntity
  8
_U+30EC_U+30A4_U+30E4_U+30FC 1
 62
   179
420
  2234388
370
     9
100
AcDbSpline
210
0.0
220
0.0
230
1.0
 70
    11
 71
     3
 72
    17
 73
    13
 74
     0
 42
0.0000000001
 43
0.0000000001
 12
1.0
 22
0.0
 32
0.0
 13
1.0
 23
0.0
 33
0.0
 40
0.0
 40
0.0
 40
0.0
 40
0.0
 40
1.0
 40
1.0
 40
1.0
 40
2.0
 40
2.0
 40
2.0
 40
3.0
 40
3.0
 40
3.0
 40
4.0
 40
4.0
 40
4.0
 40
4.0
 10
54.63180027289332
 20
-107.3285113620571
 30
0.0
 10
54.63180027289332
 20
-107.273372195404
 30
0.0
 10
54.58703277403544
 20
-107.2286046954148
 30
0.0
 10
54.53189360877549
 20
-107.2286046954148
 30
0.0
 10
54.47678972129242
 20
-107.2286046954148
 30
0.0
 10
54.43198694465765
 20
-107.273372195404
 30
0.0
 10
54.43198694465765
 20
-107.3285113620571
 30
0.0
 10
54.43198694465765
 20
-107.383615250932
 30
0.0
 10
54.47678972129242
 20
-107.4284180286987
 30
0.0
 10
54.53189360877549
 20
-107.4284180286987
 30
0.0
 10
54.58703277403544
 20
-107.4284180286987
 30
0.0
 10
54.63180027289332
 20
-107.383615250932
 30
0.0
 10
54.63180027289332
 20
-107.3285113620571
 30
0.0
  0
SPLINE
  5
7A
330
1F
100
AcDbEntity
  8
_U+30EC_U+30A4_U+30E4_U+30FC 1
 62
   179
420
  2234388
370
     9
100
AcDbSpline
210
0.0
220
0.0
230
1.0
 70
    11
 71
     3
 72
    17
 73
    13
 74
     0
 42
0.0000000001
 43
0.0000000001
 12
1.0
 22
0.0
 32
0.0
 13
1.0
 23
0.0
 33
0.0
 40
0.0
 40
0.0
 40
0.0
 40
0.0
 40
1.0
 40
1.0
 40
1.0
 40
2.0
 40
2.0
 40
2.0
 40
3.0
 40
3.0
 40
3.0
 40
4.0
 40
4.0
 40
4.0
 40
4.0
 10
44.63206747245221
 20
-107.3285113620571
 30
0.0
 10
44.63206747245221
 20
-107.273372195404
 30
0.0
 10
44.58729997359432
 20
-107.2286046954148
 30
0.0
 10
44.53180803056559
 20
-107.2286046954148
 30
0.0
 10
44.47670414308252
 20
-107.2286046954148
 30
0.0
 10
44.43190136644776
 20
-107.273372195404
 30
0.0
 10
44.43190136644776
 20
-107.3285113620571
 30
0.0
 10
44.43190136644776
 20
-107.383615250932
 30
0.0
 10
44.47670414308252
 20
-107.4284180286987
 30
0.0
 10
44.53180803056559
 20
-107.4284180286987
 30
0.0
 10
44.58729997359432
 20
-107.4284180286987
 30
0.0
 10
44.63206747245221
 20
-107.383615250932
 30
0.0
 10
44.63206747245221
 20
-107.3285113620571
 30
0.0
  0
SPLINE
  5
7B
330
1F
100
AcDbEntity
  8
_U+30EC_U+30A4_U+30E4_U+30FC 1
 62
   179
420
  2234388
370
     9
100
AcDbSpline
210
0.0
220
0.0
230
1.0
 70
    11
 71
     3
 72
    17
 73
    13
 74
     0
 42
0.0000000001
 43
0.0000000001
 12
1.0
 22
0.0
 32
0.0
 13
1.0
 23
0.0
 33
0.0
 40
0.0
 40
0.0
 40
0.0
 40
0.0
 40
1.0
 40
1.0
 40
1.0
 40
2.0
 40
2.0
 40
2.0
 40
3.0
 40
3.0
 40
3.0
 40
4.0
 40
4.0
 40
4.0
 40
4.0
 10
80.63176877624554
 20
-77.12879331405125
 30
0.0
 10
80.63176877624554
 20
-77.07368942517601
 30
0.0
 10
80.58696599961077
 20
-77.0288866474093
 30
0.0
 10
80.5318621121277
 20
-77.0288866474093
 30
0.0
 10
80.47672497988067
 20
-77.0288866474093
 30
0.0
 10
80.43195544800986
 20
-77.07368942517601
 30
0.0
 10
80.43195544800986
 20
-77.12879331405125
 30
0.0
 10
80.43195544800986
 20
-77.183932480704
 30
0.0
 10
80.47672497988067
 20
-77.2286999806929
 30
0.0
 10
80.5318621121277
 20
-77.2286999806929
 30
0.0
 10
80.58696599961077
 20
-77.2286999806929
 30
0.0
 10
80.63176877624554
 20
-77.183932480704
 30
0.0
 10
80.63176877624554
 20
-77.12879331405125
 30
0.0
  0
SPLINE
  5
7C
330
1F
100
AcDbEntity
  8
_U+30EC_U+30A4_U+30E4_U+30FC 1
 62
   179
420
  2234388
370
     9
100
AcDbSpline
210
0.0
220
0.0
230
1.0
 70
    11
 71
     3
 72
    17
 73
    13
 74
     0
 42
0.0000000001
 43
0.0000000001
 12
1.0
 22
0.0
 32
0.0
 13
1.0
 23
0.0
 33
0.0
 40
0.0
 40
0.0
 40
0.0
 40
0.0
 40
1.0
 40
1.0
 40
1.0
 40
2.0
 40
2.0
 40
2.0
 40
3.0
 40
3.0
 40
3.0
 40
4.0
 40
4.0
 40
4.0
 40
4.0
 10
80.63176877624554
 20
-78.12856553602347
 30
0.0
 10
80.63176877624554
 20
-78.0734263693704
 30
0.0
 10
80.58696599961077
 20
-78.02865886938183
 30
0.0
 10
80.5318621121277
 20
-78.02865886938183
 30
0.0
 10
80.47672497988067
 20
-78.02865886938183
 30
0.0
 10
80.43195544800986
 20
-78.0734263693704
 30
0.0
 10
80.43195544800986
 20
-78.12856553602347
 30
0.0
 10
80.43195544800986
 20
-78.18366942489838
 30
0.0
 10
80.47672497988067
 20
-78.2284722026651
 30
0.0
 10
80.5318621121277
 20
-78.2284722026651
 30
0.0
 10
80.58696599961077
 20
-78.2284722026651
 30
0.0
 10
80.63176877624554
 20
-78.18366942489838
 30
0.0
 10
80.63176877624554
 20
-78.12856553602347
 30
0.0
  0
SPLINE
  5
7D
330
1F
100
AcDbEntity
  8
_U+30EC_U+30A4_U+30E4_U+30FC 1
 62
   179
420
  2234388
370
     9
100
AcDbSpline
210
0.0
220
0.0
230
1.0
 70
    11
 71
     3
 72
    17
 73
    13
 74
     0
 42
0.0000000001
 43
0.0000000001
 12
1.0
 22
0.0
 32
0.0
 13
1.0
 23
0.0
 33
0.0
 40
0.0
 40
0.0
 40
0.0
 40
0.0
 40
1.0
 40
1.0
 40
1.0
 40
2.0
 40
2.0
 40
2.0
 40
3.0
 40
3.0
 40
3.0
 40
4.0
 40
4.0
 40
4.0
 40
4.0
 10
80.63176877624554
 20
-100.1289519194119
 30
0.0
 10
80.63176877624554
 20
-100.0738127527595
 30
0.0
 10
80.58696599961077
 20
-100.0290452527703
 30
0.0
 10
80.5318621121277
 20
-100.0290452527703
 30
0.0
 10
80.47672497988067
 20
-100.0290452527703
 30
0.0
 10
80.43195544800986
 20
-100.0738127527595
 30
0.0
 10
80.43195544800986
 20
-100.1289519194119
 30
0.0
 10
80.43195544800986
 20
-100.1840558082875
 30
0.0
 10
80.47672497988067
 20
-100.2288585860542
 30
0.0
 10
80.5318621121277
 20
-100.2288585860542
 30
0.0
 10
80.58696599961077
 20
-100.2288585860542
 30
0.0
 10
80.63176877624554
 20
-100.1840558082875
 30
0.0
 10
80.63176877624554
 20
-100.1289519194119
 30
0.0
  0
SPLINE
  5
7E
330
1F
100
AcDbEntity
  8
_U+30EC_U+30A4_U+30E4_U+30FC 1
 62
   179
420
  2234388
370
     9
100
AcDbSpline
210
0.0
220
0.0
230
1.0
 70
    11
 71
     3
 72
    17
 73
    13
 74
     0
 42
0.0000000001
 43
0.0000000001
 12
1.0
 22
0.0
 32
0.0
 13
1.0
 23
0.0
 33
0.0
 40
0.0
 40
0.0
 40
0.0
 40
0.0
 40
1.0
 40
1.0
 40
1.0
 40
2.0
 40
2.0
 40
2.0
 40
3.0
 40
3.0
 40
3.0
 40
4.0
 40
4.0
 40
4.0
 40
4.0
 10
80.63176877624554
 20
-103.3287521963902
 30
0.0
 10
80.63176877624554
 20
-103.2736130297371
 30
0.0
 10
80.58696599961077
 20
-103.2288455297486
 30
0.0
 10
80.5318621121277
 20
-103.2288455297486
 30
0.0
 10
80.47672497988067
 20
-103.2288455297486
 30
0.0
 10
80.43195544800986
 20
-103.2736130297371
 30
0.0
 10
80.43195544800986
 20
-103.3287521963902
 30
0.0
 10
80.43195544800986
 20
-103.3838560852651
 30
0.0
 10
80.47672497988067
 20
-103.4286588630318
 30
0.0
 10
80.5318621121277
 20
-103.4286588630318
 30
0.0
 10
80.58696599961077
 20
-103.4286588630318
 30
0.0
 10
80.63176877624554
 20
-103.3838560852651
 30
0.0
 10
80.63176877624554
 20
-103.3287521963902
 30
0.0
  0
SPLINE
  5
7F
330
1F
100
AcDbEntity
  8
_U+30EC_U+30A4_U+30E4_U+30FC 1
 62
   179
420
  2234388
370
     9
100
AcDbSpline
210
0.0
220
0.0
230
1.0
 70
    11
 71
     3
 72
    17
 73
    13
 74
     0
 42
0.0000000001
 43
0.0000000001
 12
1.0
 22
0.0
 32
0.0
 13
1.0
 23
0.0
 33
0.0
 40
0.0
 40
0.0
 40
0.0
 40
0.0
 40
1.0
 40
1.0
 40
1.0
 40
2.0
 40
2.0
 40
2.0
 40
3.0
 40
3.0
 40
3.0
 40
4.0
 40
4.0
 40
4.0
 40
4.0
 10
46.63161186588403
 20
-73.12836387060668
 30
0.0
 10
46.63161186588403
 20
-73.07322470395393
 30
0.0
 10
46.58716186701804
 20
-73.02845720396505
 30
0.0
 10
46.53170520176619
 20
-73.02845720396505
 30
0.0
 10
46.47656603650624
 20
-73.02845720396505
 30
0.0
 10
46.43179853764835
 20
-73.07322470395393
 30
0.0
 10
46.43179853764835
 20
-73.12836387060668
 30
0.0
 10
46.43179853764835
 20
-73.18417331503744
 30
0.0
 10
46.47656603650624
 20
-73.22894081502601
 30
0.0
 10
46.53170520176619
 20
-73.22894081502601
 30
0.0
 10
46.58716186701804
 20
-73.22894081502601
 30
0.0
 10
46.63161186588403
 20
-73.18417331503744
 30
0.0
 10
46.63161186588403
 20
-73.12836387060668
 30
0.0
  0
SPLINE
  5
80
330
1F
100
AcDbEntity
  8
_U+30EC_U+30A4_U+30E4_U+30FC 1
 62
   179
420
  2234388
370
     9
100
AcDbSpline
210
0.0
220
0.0
230
1.0
 70
    11
 71
     3
 72
    17
 73
    13
 74
     0
 42
0.0000000001
 43
0.0000000001
 12
1.0
 22
0.0
 32
0.0
 13
1.0
 23
0.0
 33
0.0
 40
0.0
 40
0.0
 40
0.0
 40
0.0
 40
1.0
 40
1.0
 40
1.0
 40
2.0
 40
2.0
 40
2.0
 40
3.0
 40
3.0
 40
3.0
 40
4.0
 40
4.0
 40
4.0
 40
4.0
 10
76.63200971162122
 20
-73.12836387060668
 30
0.0
 10
76.63200971162122
 20
-73.07322470395393
 30
0.0
 10
76.58724221276334
 20
-73.02845720396505
 30
0.0
 10
76.53143276974271
 20
-73.02845720396505
 30
0.0
 10
76.47629360448276
 20
-73.02845720396505
 30
0.0
 10
76.43152610562487
 20
-73.07322470395393
 30
0.0
 10
76.43152610562487
 20
-73.12836387060668
 30
0.0
 10
76.43152610562487
 20
-73.18417331503744
 30
0.0
 10
76.47629360448276
 20
-73.22894081502601
 30
0.0
 10
76.53143276974271
 20
-73.22894081502601
 30
0.0
 10
76.58724221276334
 20
-73.22894081502601
 30
0.0
 10
76.63200971162122
 20
-73.18417331503744
 30
0.0
 10
76.63200971162122
 20
-73.12836387060668
 30
0.0
  0
POLYLINE
  5
81
330
1F
100
AcDbEntity
  8
_U+30EC_U+30A4_U+30E4_U+30FC 1
 62
   179
420
  2234388
370
     9
100
AcDb2dPolyline
 66
     1
 10
0.0
 20
0.0
 30
0.0
  0
VERTEX
  5
82
330
81
100
AcDbEntity
  8
_U+30EC_U+30A4_U+30E4_U+30FC 1
 62
   179
420
  2234388
370
     9
100
AcDbVertex
100
AcDb2dVertex
 10
44.53180803056559
 20
-107.3285113620571
 30
0.0
  0
VERTEX
  5
83
330
81
100
AcDbEntity
  8
_U+30EC_U+30A4_U+30E4_U+30FC 1
 62
   179
420
  2234388
370
     9
100
AcDbVertex
100
AcDb2dVertex
 10
54.53189360877549
 20
-107.3285113620571
 30
0.0
  0
SEQEND
  5
84
330
81
100
AcDbEntity
  8
_U+30EC_U+30A4_U+30E4_U+30FC 1
 62
   179
420
  2234388
370
     9
  0
POLYLINE
  5
85
330
1F
100
AcDbEntity
  8
_U+30EC_U+30A4_U+30E4_U+30FC 1
 62
   179
420
  2234388
370
     9
100
AcDb2dPolyline
 66
     1
 10
0.0
 20
0.0
 30
0.0
  0
VERTEX
  5
86
330
85
100
AcDbEntity
  8
_U+30EC_U+30A4_U+30E4_U+30FC 1
 62
   179
420
  2234388
370
     9
100
AcDbVertex
100
AcDb2dVertex
 10
44.53180803056559
 20
-105.8684699735327
 30
0.0
  0
VERTEX
  5
87
330
85
100
AcDbEntity
  8
_U+30EC_U+30A4_U+30E4_U+30FC 1
 62
   179
420
  2234388
370
     9
100
AcDbVertex
100
AcDb2dVertex
 10
44.53180803056559
 20
-108.3289538618063
 30
0.0
  0
SEQEND
  5
88
330
85
100
AcDbEntity
  8
_U+30EC_U+30A4_U+30E4_U+30FC 1
 62
   179
420
  2234388
370
     9
  0
POLYLINE
  5
89
330
1F
100
AcDbEntity
  8
_U+30EC_U+30A4_U+30E4_U+30FC 1
 62
   179
420
  2234388
370
     9
100
AcDb2dPolyline
 66
     1
 10
0.0
 20
0.0
 30
0.0
  0
VERTEX
  5
8A
330
89
100
AcDbEntity
  8
_U+30EC_U+30A4_U+30E4_U+30FC 1
 62
   179
420
  2234388
370
     9
100
AcDbVertex
100
AcDb2dVertex
 10
54.53189360877549
 20
-105.8684699735327
 30
0.0
  0
VERTEX
  5
8B
330
89
100
AcDbEntity
  8
_U+30EC_U+30A4_U+30E4_U+30FC 1
 62
   179
420
  2234388
370
     9
100
AcDbVertex
100
AcDb2dVertex
 10
54.53189360877549
 20
-108.3289538618063
 30
0.0
  0
SEQEND
  5
8C
330
89
100
AcDbEntity
  8
_U+30EC_U+30A4_U+30E4_U+30FC 1
 62
   179
420
  2234388
370
     9
  0
INSERT
  5
8E
330
1F
100
AcDbEntity
  8
_U+30EC_U+30A4_U+30E4_U+30FC 1
100
AcDbBlockReference
  2
block 2
 10
0.0
 20
0.0
 30
0.0
  0
POLYLINE
  5
96
330
1F
100
AcDbEntity
  8
_U+30EC_U+30A4_U+30E4_U+30FC 1
 62
   179
420
  2234388
370
     9
100
AcDb2dPolyline
 66
     1
 10
0.0
 20
0.0
 30
0.0
  0
VERTEX
  5
97
330
96
100
AcDbEntity
  8
_U+30EC_U+30A4_U+30E4_U+30FC 1
 62
   179
420
  2234388
370
     9
100
AcDbVertex
100
AcDb2dVertex
 10
80.5318621121277
 20
-100.1289519194119
 30
0.0
  0
VERTEX
  5
98
330
96
100
AcDbEntity
  8
_U+30EC_U+30A4_U+30E4_U+30FC 1
 62
   179
420
  2234388
370
     9
100
AcDbVertex
100
AcDb2dVertex
 10
80.5318621121277
 20
-103.3287521963902
 30
0.0
  0
SEQEND
  5
99
330
96
100
AcDbEntity
  8
_U+30EC_U+30A4_U+30E4_U+30FC 1
 62
   179
420
  2234388
370
     9
  0
POLYLINE
  5
9A
330
1F
100
AcDbEntity
  8
_U+30EC_U+30A4_U+30E4_U+30FC 1
 62
   179
420
  2234388
370
     9
100
AcDb2dPolyline
 66
     1
 10
0.0
 20
0.0
 30
0.0
  0
VERTEX
  5
9B
330
9A
100
AcDbEntity
  8
_U+30EC_U+30A4_U+30E4_U+30FC 1
 62
   179
420
  2234388
370
     9
100
AcDbVertex
100
AcDb2dVertex
 10
57.07161132175967
 20
-100.1289519194119
 30
0.0
  0
VERTEX
  5
9C
330
9A
100
AcDbEntity
  8
_U+30EC_U+30A4_U+30E4_U+30FC 1
 62
   179
420
  2234388
370
     9
100
AcDbVertex
100
AcDb2dVertex
 10
81.5316343088436
 20
-100.1289519194119
 30
0.0
  0
SEQEND
  5
9D
330
9A
100
AcDbEntity
  8
_U+30EC_U+30A4_U+30E4_U+30FC 1
 62
   179
420
  2234388
370
     9
  0
POLYLINE
  5
9E
330
1F
100
AcDbEntity
  8
_U+30EC_U+30A4_U+30E4_U+30FC 1
 62
   179
420
  2234388
370
     9
100
AcDb2dPolyline
 66
     1
 10
0.0
 20
0.0
 30
0.0
  0
VERTEX
  5
9F
330
9E
100
AcDbEntity
  8
_U+30EC_U+30A4_U+30E4_U+30FC 1
 62
   179
420
  2234388
370
     9
100
AcDbVertex
100
AcDb2dVertex
 10
57.07161132175967
 20
-103.3287521963902
 30
0.0
  0
VERTEX
  5
A0
330
9E
100
AcDbEntity
  8
_U+30EC_U+30A4_U+30E4_U+30FC 1
 62
   179
420
  2234388
370
     9
100
AcDbVertex
100
AcDb2dVertex
 10
81.5316343088436
 20
-103.3287521963902
 30
0.0
  0
SEQEND
  5
A1
330
9E
100
AcDbEntity
  8
_U+30EC_U+30A4_U+30E4_U+30FC 1
 62
   179
420
  2234388
370
     9
  0
INSERT
  5
A3
330
1F
100
AcDbEntity
  8
_U+30EC_U+30A4_U+30E4_U+30FC 1
100
AcDbBlockReference
  2
block 3
 10
0.0
 20
0.0
 30
0.0
  0
POLYLINE
  5
B2
330
1F
100
AcDbEntity
  8
_U+30EC_U+30A4_U+30E4_U+30FC 1
 62
   179
420
  2234388
370
     9
100
AcDb2dPolyline
 66
     1
 10
0.0
 20
0.0
 30
0.0
  0
VERTEX
  5
B3
330
B2
100
AcDbEntity
  8
_U+30EC_U+30A4_U+30E4_U+30FC 1
 62
   179
420
  2234388
370
     9
100
AcDbVertex
100
AcDb2dVertex
 10
80.5318621121277
 20
-78.12856553602347
 30
0.0
  0
VERTEX
  5
B4
330
B2
100
AcDbEntity
  8
_U+30EC_U+30A4_U+30E4_U+30FC 1
 62
   179
420
  2234388
370
     9
100
AcDbVertex
100
AcDb2dVertex
 10
80.5318621121277
 20
-77.12879331405125
 30
0.0
  0
SEQEND
  5
B5
330
B2
100
AcDbEntity
  8
_U+30EC_U+30A4_U+30E4_U+30FC 1
 62
   179
420
  2234388
370
     9
  0
POLYLINE
  5
B6
330
1F
100
AcDbEntity
  8
_U+30EC_U+30A4_U+30E4_U+30FC 1
 62
   179
420
  2234388
370
     9
100
AcDb2dPolyline
 66
     1
 10
0.0
 20
0.0
 30
0.0
  0
VERTEX
  5
B7
330
B6
100
AcDbEntity
  8
_U+30EC_U+30A4_U+30E4_U+30FC 1
 62
   179
420
  2234388
370
     9
100
AcDbVertex
100
AcDb2dVertex
 10
79.07182076048757
 20
-77.12879331405125
 30
0.0
  0
VERTEX
  5
B8
330
B6
100
AcDbEntity
  8
_U+30EC_U+30A4_U+30E4_U+30FC 1
 62
   179
420
  2234388
370
     9
100
AcDbVertex
100
AcDb2dVertex
 10
81.5316343088436
 20
-77.12879331405125
 30
0.0
  0
SEQEND
  5
B9
330
B6
100
AcDbEntity
  8
_U+30EC_U+30A4_U+30E4_U+30FC 1
 62
   179
420
  2234388
370
     9
  0
INSERT
  5
BB
330
1F
100
AcDbEntity
  8
_U+30EC_U+30A4_U+30E4_U+30FC 1
100
AcDbBlockReference
  2
block 4
 10
0.0
 20
0.0
 30
0.0
  0
POLYLINE
  5
C0
330
1F
100
AcDbEntity
  8
_U+30EC_U+30A4_U+30E4_U+30FC 1
 62
   179
420
  2234388
370
     9
100
AcDb2dPolyline
 66
     1
 10
0.0
 20
0.0
 30
0.0
  0
VERTEX
  5
C1
330
C0
100
AcDbEntity
  8
_U+30EC_U+30A4_U+30E4_U+30FC 1
 62
   179
420
  2234388
370
     9
100
AcDbVertex
100
AcDb2dVertex
 10
80.5318621121277
 20
-100.1289519194119
 30
0.0
  0
VERTEX
  5
C2
330
C0
100
AcDbEntity
  8
_U+30EC_U+30A4_U+30E4_U+30FC 1
 62
   179
420
  2234388
370
     9
100
AcDbVertex
100
AcDb2dVertex
 10
80.5318621121277
 20
-78.12856553602347
 30
0.0
  0
SEQEND
  5
C3
330
C0
100
AcDbEntity
  8
_U+30EC_U+30A4_U+30E4_U+30FC 1
 62
   179
420
  2234388
370
     9
  0
POLYLINE
  5
C4
330
1F
100
AcDbEntity
  8
_U+30EC_U+30A4_U+30E4_U+30FC 1
 62
   179
420
  2234388
370
     9
100
AcDb2dPolyline
 66
     1
 10
0.0
 20
0.0
 30
0.0
  0
VERTEX
  5
C5
330
C4
100
AcDbEntity
  8
_U+30EC_U+30A4_U+30E4_U+30FC 1
 62
   179
420
  2234388
370
     9
100
AcDbVertex
100
AcDb2dVertex
 10
79.07182076048757
 20
-78.12856553602347
 30
0.0
  0
VERTEX
  5
C6
330
C4
100
AcDbEntity
  8
_U+30EC_U+30A4_U+30E4_U+30FC 1
 62
   179
420
  2234388
370
     9
100
AcDbVertex
100
AcDb2dVertex
 10
81.5316343088436
 20
-78.12856553602347
 30
0.0
  0
SEQEND
  5
C7
330
C4
100
AcDbEntity
  8
_U+30EC_U+30A4_U+30E4_U+30FC 1
 62
   179
420
  2234388
370
     9
  0
INSERT
  5
C9
330
1F
100
AcDbEntity
  8
_U+30EC_U+30A4_U+30E4_U+30FC 1
100
AcDbBlockReference
  2
block 5
 10
0.0
 20
0.0
 30
0.0
  0
POLYLINE
  5
D0
330
1F
100
AcDbEntity
  8
_U+30EC_U+30A4_U+30E4_U+30FC 1
 62
   179
420
  2234388
370
     9
100
AcDb2dPolyline
 66
     1
 10
0.0
 20
0.0
 30
0.0
  0
VERTEX
  5
D1
330
D0
100
AcDbEntity
  8
_U+30EC_U+30A4_U+30E4_U+30FC 1
 62
   179
420
  2234388
370
     9
100
AcDbVertex
100
AcDb2dVertex
 10
46.53170520176619
 20
-73.12836387060668
 30
0.0
  0
VERTEX
  5
D2
330
D0
100
AcDbEntity
  8
_U+30EC_U+30A4_U+30E4_U+30FC 1
 62
   179
420
  2234388
370
     9
100
AcDbVertex
100
AcDb2dVertex
 10
76.53143276974271
 20
-73.12836387060668
 30
0.0
  0
SEQEND
  5
D3
330
D0
100
AcDbEntity
  8
_U+30EC_U+30A4_U+30E4_U+30FC 1
 62
   179
420
  2234388
370
     9
  0
POLYLINE
  5
D4
330
1F
100
AcDbEntity
  8
_U+30EC_U+30A4_U+30E4_U+30FC 1
 62
   179
420
  2234388
370
     9
100
AcDb2dPolyline
 66
     1
 10
0.0
 20
0.0
 30
0.0
  0
VERTEX
  5
D5
330
D4
100
AcDbEntity
  8
_U+30EC_U+30A4_U+30E4_U+30FC 1
 62
   179
420
  2234388
370
     9
100
AcDbVertex
100
AcDb2dVertex
 10
46.53170520176619
 20
-74.58836998135287
 30
0.0
  0
VERTEX
  5
D6
330
D4
100
AcDbEntity
  8
_U+30EC_U+30A4_U+30E4_U+30FC 1
 62
   179
420
  2234388
370
     9
100
AcDbVertex
100
AcDb2dVertex
 10
46.53170520176619
 20
-72.12859164863447
 30
0.0
  0
SEQEND
  5
D7
330
D4
100
AcDbEntity
  8
_U+30EC_U+30A4_U+30E4_U+30FC 1
 62
   179
420
  2234388
370
     9
  0
POLYLINE
  5
D8
330
1F
100
AcDbEntity
  8
_U+30EC_U+30A4_U+30E4_U+30FC 1
 62
   179
420
  2234388
370
     9
100
AcDb2dPolyline
 66
     1
 10
0.0
 20
0.0
 30
0.0
  0
VERTEX
  5
D9
330
D8
100
AcDbEntity
  8
_U+30EC_U+30A4_U+30E4_U+30FC 1
 62
   179
420
  2234388
370
     9
100
AcDbVertex
100
AcDb2dVertex
 10
76.53143276974271
 20
-74.58836998135287
 30
0.0
  0
VERTEX
  5
DA
330
D8
100
AcDbEntity
  8
_U+30EC_U+30A4_U+30E4_U+30FC 1
 62
   179
420
  2234388
370
     9
100
AcDbVertex
100
AcDb2dVertex
 10
76.53143276974271
 20
-72.12859164863447
 30
0.0
  0
SEQEND
  5
DB
330
D8
100
AcDbEntity
  8
_U+30EC_U+30A4_U+30E4_U+30FC 1
 62
   179
420
  2234388
370
     9
  0
INSERT
  5
DD
330
1F
100
AcDbEntity
  8
_U+30EC_U+30A4_U+30E4_U+30FC 1
100
AcDbBlockReference
  2
block 6
 10
0.0
 20
0.0
 30
0.0
  0
ENDSEC
  0
SECTION
  2
OBJECTS
  0
DICTIONARY
  5
C
330
0
100
AcDbDictionary
281
     1
  3
ACAD_GROUP
350
D
  3
ACAD_LAYOUT
350
1A
  3
ACAD_MATERIAL
350
3B
  3
ACAD_MLEADERSTYLE
350
E6
  3
ACAD_MLINESTYLE
350
17
  3
ACAD_PLOTSETTINGS
350
19
  3
ACAD_PLOTSTYLENAME
350
E
  3
ACAD_TABLESTYLE
350
E5
  3
ACAD_VISUALSTYLE
350
2A
  0
SUN
  5
3F
330
29
100
AcDbSun
 90
        1
290
     0
 63
     7
421
 16777215
 40
1.0
291
     1
 91
  2455826
 92
 54000000
292
     0
 70
     2
 71
   256
280
     1
  0
DICTIONARY
  5
D
102
{ACAD_REACTORS
330
C
102
}
330
C
100
AcDbDictionary
281
     1
  0
DICTIONARY
  5
1A
102
{ACAD_REACTORS
330
C
102
}
330
C
100
AcDbDictionary
281
     1
  3
Layout1
350
1E
  3
Layout2
350
26
  3
Model
350
22
  0
DICTIONARY
  5
3B
102
{ACAD_REACTORS
330
C
102
}
330
C
100
AcDbDictionary
281
     1
  3
ByBlock
350
3D
  3
ByLayer
350
3C
  3
Global
350
3E
  0
DICTIONARY
  5
E6
102
{ACAD_REACTORS
330
C
102
}
330
C
100
AcDbDictionary
281
     1
  0
DICTIONARY
  5
17
102
{ACAD_REACTORS
330
C
102
}
330
C
100
AcDbDictionary
281
     1
  3
Standard
350
18
  0
DICTIONARY
  5
19
102
{ACAD_REACTORS
330
C
102
}
330
C
100
AcDbDictionary
281
     1
  0
ACDBDICTIONARYWDFLT
  5
E
102
{ACAD_REACTORS
330
C
102
}
330
C
100
AcDbDictionary
281
     1
  3
Normal
350
F
100
AcDbDictionaryWithDefault
340
F
  0
DICTIONARY
  5
E5
102
{ACAD_REACTORS
330
C
102
}
330
C
100
AcDbDictionary
281
     1
  0
DICTIONARY
  5
2A
102
{ACAD_REACTORS
330
C
102
}
330
C
100
AcDbDictionary
281
     1
  3
2dWireframe
350
2F
  3
3D Hidden
350
31
  3
3dWireframe
350
30
  3
Basic
350
32
  3
Brighten
350
36
  3
ColorChange
350
3A
  3
Conceptual
350
34
  3
Dim
350
35
  3
Facepattern
350
39
  3
Flat
350
2B
  3
FlatWithEdges
350
2C
  3
Gouraud
350
2D
  3
GouraudWithEdges
350
2E
  3
Linepattern
350
38
  3
Realistic
350
33
  3
Thicken
350
37
  0
LAYOUT
  5
1E
102
{ACAD_REACTORS
330
1A
102
}
330
1A
100
AcDbPlotSettings
  1

  2
none_device
  4

  6

 40
0.0
 41
0.0
 42
0.0
 43
0.0
 44
0.0
 45
0.0
 46
0.0
 47
0.0
 48
0.0
 49
0.0
140
0.0
141
0.0
142
1.0
143
1.0
 70
   688
 72
     0
 73
     0
 74
     5
  7

 75
    16
 76
     0
 77
     2
 78
   300
147
1.0
148
0.0
149
0.0
100
AcDbLayout
  1
Layout1
 70
     1
 71
     1
 10
0.0
 20
0.0
 11
12.0
 21
9.0
 12
0.0
 22
0.0
 32
0.0
 14
1.000000000000000E+20
 24
1.000000000000000E+20
 34
1.000000000000000E+20
 15
-1.000000000000000E+20
 25
-1.000000000000000E+20
 35
-1.000000000000000E+20
146
0.0
 13
0.0
 23
0.0
 33
0.0
 16
1.0
 26
0.0
 36
0.0
 17
0.0
 27
1.0
 37
0.0
 76
     0
330
1B
  0
LAYOUT
  5
26
102
{ACAD_REACTORS
330
1A
102
}
330
1A
100
AcDbPlotSettings
  1

  2
none_device
  4

  6

 40
0.0
 41
0.0
 42
0.0
 43
0.0
 44
0.0
 45
0.0
 46
0.0
 47
0.0
 48
0.0
 49
0.0
140
0.0
141
0.0
142
1.0
143
1.0
 70
   688
 72
     0
 73
     0
 74
     5
  7

 75
    16
 76
     0
 77
     2
 78
   300
147
1.0
148
0.0
149
0.0
100
AcDbLayout
  1
Layout2
 70
     1
 71
     2
 10
0.0
 20
0.0
 11
0.0
 21
0.0
 12
0.0
 22
0.0
 32
0.0
 14
0.0
 24
0.0
 34
0.0
 15
0.0
 25
0.0
 35
0.0
146
0.0
 13
0.0
 23
0.0
 33
0.0
 16
1.0
 26
0.0
 36
0.0
 17
0.0
 27
1.0
 37
0.0
 76
     0
330
23
  0
LAYOUT
  5
22
102
{ACAD_REACTORS
330
1A
102
}
330
1A
100
AcDbPlotSettings
  1

  2
none_device
  4

  6

 40
0.0
 41
0.0
 42
0.0
 43
0.0
 44
0.0
 45
0.0
 46
0.0
 47
0.0
 48
0.0
 49
0.0
140
0.0
141
0.0
142
1.0
143
1.0
 70
  1712
 72
     0
 73
     0
 74
     0
  7

 75
     0
 76
     0
 77
     2
 78
   300
147
1.0
148
0.0
149
0.0
100
AcDbLayout
  1
Model
 70
     1
 71
     0
 10
0.0
 20
0.0
 11
12.0
 21
9.0
 12
0.0
 22
0.0
 32
0.0
 14
1.000000000000000E+20
 24
1.000000000000000E+20
 34
1.000000000000000E+20
 15
-1.000000000000000E+20
 25
-1.000000000000000E+20
 35
-1.000000000000000E+20
146
0.0
 13
0.0
 23
0.0
 33
0.0
 16
1.0
 26
0.0
 36
0.0
 17
0.0
 27
1.0
 37
0.0
 76
     0
330
1F
331
29
  0
MATERIAL
  5
3D
102
{ACAD_REACTORS
330
3B
102
}
330
3B
100
AcDbMaterial
  1
ByBlock
 72
     1
 94
      127
  0
MATERIAL
  5
3C
102
{ACAD_REACTORS
330
3B
102
}
330
3B
100
AcDbMaterial
  1
ByLayer
 72
     1
 94
      127
  0
MATERIAL
  5
3E
102
{ACAD_REACTORS
330
3B
102
}
330
3B
100
AcDbMaterial
  1
Global
 72
     1
 94
      127
  0
MLINESTYLE
  5
18
102
{ACAD_REACTORS
330
17
102
}
330
17
100
AcDbMlineStyle
  2
Standard
 70
     0
  3

 62
   256
 51
90.0
 52
90.0
 71
     2
 49
0.5
 62
   256
  6
BYLAYER
 49
-0.5
 62
   256
  6
BYLAYER
  0
ACDBPLACEHOLDER
  5
F
102
{ACAD_REACTORS
330
E
102
}
330
E
  0
VISUALSTYLE
  5
2F
102
{ACAD_REACTORS
330
2A
102
}
330
2A
100
AcDbVisualStyle
  2
2dWireframe
 70
     4
177
     2
291
     0
 71
     0
176
     1
 72
     2
176
     1
 73
     0
176
     1
 90
        0
176
     1
 40
-0.6
176
     1
 41
-30.0
176
     1
 62
     5
 63
     7
421
 16777215
176
     1
 74
     1
176
     1
 91
        4
176
     1
 64
     7
176
     1
 65
   257
176
     1
 75
     1
176
     1
175
     1
176
     1
 42
1.0
176
     1
 92
        0
176
     1
 66
   257
176
     1
 43
1.0
176
     1
 76
     1
176
     1
 77
     6
176
     1
 78
     2
176
     1
 67
     7
176
     1
 79
     5
176
     1
170
     0
176
     1
171
     0
176
     1
290
     0
176
     1
 93
        1
176
     1
 44
0.0
176
     1
173
     0
176
     1
  0
VISUALSTYLE
  5
31
102
{ACAD_REACTORS
330
2A
102
}
330
2A
100
AcDbVisualStyle
  2
3D Hidden
 70
     6
177
     2
291
     0
 71
     1
176
     1
 72
     2
176
     1
 73
     2
176
     1
 90
        0
176
     1
 40
-0.6
176
     1
 41
-30.0
176
     1
 62
     5
 63
     7
421
 16777215
176
     1
 74
     2
176
     1
 91
        2
176
     1
 64
     7
176
     1
 65
   257
176
     1
 75
     2
176
     1
175
     1
176
     1
 42
40.0
176
     1
 92
        0
176
     1
 66
   257
176
     1
 43
1.0
176
     1
 76
     1
176
     1
 77
     6
176
     1
 78
     2
176
     1
 67
     7
176
     1
 79
     3
176
     1
170
     0
176
     1
171
     0
176
     1
290
     0
176
     1
 93
        1
176
     1
 44
0.0
176
     1
173
     0
176
     1
  0
VISUALSTYLE
  5
30
102
{ACAD_REACTORS
330
2A
102
}
330
2A
100
AcDbVisualStyle
  2
3dWireframe
 70
     5
177
     2
291
     0
 71
     0
176
     1
 72
     2
176
     1
 73
     0
176
     1
 90
        0
176
     1
 40
-0.6
176
     1
 41
-30.0
176
     1
 62
     5
 63
     7
421
 16777215
176
     1
 74
     1
176
     1
 91
        4
176
     1
 64
     7
176
     1
 65
   257
176
     1
 75
     1
176
     1
175
     1
176
     1
 42
1.0
176
     1
 92
        0
176
     1
 66
   257
176
     1
 43
1.0
176
     1
 76
     1
176
     1
 77
     6
176
     1
 78
     2
176
     1
 67
     7
176
     1
 79
     5
176
     1
170
     0
176
     1
171
     0
176
     1
290
     0
176
     1
 93
        1
176
     1
 44
0.0
176
     1
173
     0
176
     1
  0
VISUALSTYLE
  5
32
102
{ACAD_REACTORS
330
2A
102
}
330
2A
100
AcDbVisualStyle
  2
Basic
 70
     7
177
     2
291
     1
 71
     1
176
     1
 72
     0
176
     1
 73
     1
176
     1
 90
        0
176
     1
 40
-0.6
176
     1
 41
-30.0
176
     1
 62
     5
 63
     7
421
 16777215
176
     1
 74
     0
176
     1
 91
        4
176
     1
 64
     7
176
     1
 65
   257
176
     1
 75
     1
176
     1
175
     1
176
     1
 42
1.0
176
     1
 92
        8
176
     1
 66
     7
176
     1
 43
1.0
176
     1
 76
     1
176
     1
 77
     6
176
     1
 78
     2
176
     1
 67
     7
176
     1
 79
     5
176
     1
170
     0
176
     1
171
     0
176
     1
290
     0
176
     1
 93
        1
176
     1
 44
0.0
176
     1
173
     0
176
     1
  0
VISUALSTYLE
  5
36
102
{ACAD_REACTORS
330
2A
102
}
330
2A
100
AcDbVisualStyle
  2
Brighten
 70
    12
177
     2
291
     1
 71
     2
176
     1
 72
     2
176
     1
 73
     0
176
     1
 90
        0
176
     1
 40
-0.6
176
     1
 41
-30.0
176
     1
 62
     5
 63
     7
421
 16777215
176
     1
 74
     1
176
     1
 91
        4
176
     1
 64
     7
176
     1
 65
   257
176
     1
 75
     1
176
     1
175
     1
176
     1
 42
1.0
176
     1
 92
        8
176
     1
 66
     7
176
     1
 43
1.0
176
     1
 76
     1
176
     1
 77
     6
176
     1
 78
     2
176
     1
 67
     7
176
     1
 79
     5
176
     1
170
     0
176
     1
171
     0
176
     1
290
     0
176
     1
 93
        1
176
     1
 44
50.0
176
     1
173
     0
176
     1
  0
VISUALSTYLE
  5
3A
102
{ACAD_REACTORS
330
2A
102
}
330
2A
100
AcDbVisualStyle
  2
ColorChange
 70
    16
177
     2
291
     1
 71
     2
176
     1
 72
     2
176
     1
 73
     3
176
     1
 90
        0
176
     1
 40
-0.6
176
     1
 41
-30.0
176
     1
 62
     5
 63
     8
421
  8421504
176
     1
 74
     1
176
     1
 91
        4
176
     1
 64
     7
176
     1
 65
   257
176
     1
 75
     1
176
     1
175
     1
176
     1
 42
1.0
176
     1
 92
        8
176
     1
 66
     8
424
  8421504
176
     1
 43
1.0
176
     1
 76
     1
176
     1
 77
     6
176
     1
 78
     2
176
     1
 67
     7
176
     1
 79
     5
176
     1
170
     0
176
     1
171
     0
176
     1
290
     0
176
     1
 93
        1
176
     1
 44
0.0
176
     1
173
     0
176
     1
  0
VISUALSTYLE
  5
34
102
{ACAD_REACTORS
330
2A
102
}
330
2A
100
AcDbVisualStyle
  2
Conceptual
 70
     9
177
     2
291
     0
 71
     3
176
     1
 72
     2
176
     1
 73
     0
176
     1
 90
        0
176
     1
 40
-0.6
176
     1
 41
-30.0
176
     1
 62
     5
 63
     7
421
 16777215
176
     1
 74
     2
176
     1
 91
        2
176
     1
 64
     7
176
     1
 65
   257
176
     1
 75
     1
176
     1
175
     1
176
     1
 42
40.0
176
     1
 92
        8
176
     1
 66
     7
176
     1
 43
1.0
176
     1
 76
     1
176
     1
 77
     6
176
     1
 78
     2
176
     1
 67
     7
176
     1
 79
     3
176
     1
170
     0
176
     1
171
     0
176
     1
290
     0
176
     1
 93
        1
176
     1
 44
0.0
176
     1
173
     0
176
     1
  0
VISUALSTYLE
  5
35
102
{ACAD_REACTORS
330
2A
102
}
330
2A
100
AcDbVisualStyle
  2
Dim
 70
    11
177
     2
291
     1
 71
     2
176
     1
 72
     2
176
     1
 73
     0
176
     1
 90
        0
176
     1
 40
-0.6
176
     1
 41
-30.0
176
     1
 62
     5
 63
     7
421
 16777215
176
     1
 74
     1
176
     1
 91
        4
176
     1
 64
     7
176
     1
 65
   257
176
     1
 75
     1
176
     1
175
     1
176
     1
 42
1.0
176
     1
 92
        8
176
     1
 66
     7
176
     1
 43
1.0
176
     1
 76
     1
176
     1
 77
     6
176
     1
 78
     2
176
     1
 67
     7
176
     1
 79
     5
176
     1
170
     0
176
     1
171
     0
176
     1
290
     0
176
     1
 93
        1
176
     1
 44
-50.0
176
     1
173
     0
176
     1
  0
VISUALSTYLE
  5
39
102
{ACAD_REACTORS
330
2A
102
}
330
2A
100
AcDbVisualStyle
  2
Facepattern
 70
    15
177
     2
291
     1
 71
     2
176
     1
 72
     2
176
     1
 73
     0
176
     1
 90
        0
176
     1
 40
-0.6
176
     1
 41
-30.0
176
     1
 62
     5
 63
     7
421
 16777215
176
     1
 74
     1
176
     1
 91
        4
176
     1
 64
     7
176
     1
 65
   257
176
     1
 75
     1
176
     1
175
     1
176
     1
 42
1.0
176
     1
 92
        8
176
     1
 66
     7
176
     1
 43
1.0
176
     1
 76
     1
176
     1
 77
     6
176
     1
 78
     2
176
     1
 67
     7
176
     1
 79
     5
176
     1
170
     0
176
     1
171
     0
176
     1
290
     0
176
     1
 93
        1
176
     1
 44
0.0
176
     1
173
     0
176
     1
  0
VISUALSTYLE
  5
2B
102
{ACAD_REACTORS
330
2A
102
}
330
2A
100
AcDbVisualStyle
  2
Flat
 70
     0
177
     2
291
     1
 71
     2
176
     1
 72
     1
176
     1
 73
     1
176
     1
 90
        2
176
     1
 40
-0.6
176
     1
 41
30.0
176
     1
 62
     5
 63
     7
421
 16777215
176
     1
 74
     0
176
     1
 91
        4
176
     1
 64
     7
176
     1
 65
   257
176
     1
 75
     1
176
     1
175
     1
176
     1
 42
1.0
176
     1
 92
        8
176
     1
 66
     7
176
     1
 43
1.0
176
     1
 76
     1
176
     1
 77
     6
176
     1
 78
     2
176
     1
 67
     7
176
     1
 79
     5
176
     1
170
     0
176
     1
171
     0
176
     1
290
     0
176
     1
 93
       13
176
     1
 44
0.0
176
     1
173
     0
176
     1
  0
VISUALSTYLE
  5
2C
102
{ACAD_REACTORS
330
2A
102
}
330
2A
100
AcDbVisualStyle
  2
FlatWithEdges
 70
     1
177
     2
291
     1
 71
     2
176
     1
 72
     1
176
     1
 73
     1
176
     1
 90
        2
176
     1
 40
-0.6
176
     1
 41
30.0
176
     1
 62
     5
 63
     7
421
 16777215
176
     1
 74
     1
176
     1
 91
        4
176
     1
 64
     7
176
     1
 65
   257
176
     1
 75
     1
176
     1
175
     1
176
     1
 42
1.0
176
     1
 92
        0
176
     1
 66
   257
176
     1
 43
1.0
176
     1
 76
     1
176
     1
 77
     6
176
     1
 78
     2
176
     1
 67
     7
176
     1
 79
     5
176
     1
170
     0
176
     1
171
     0
176
     1
290
     0
176
     1
 93
       13
176
     1
 44
0.0
176
     1
173
     0
176
     1
  0
VISUALSTYLE
  5
2D
102
{ACAD_REACTORS
330
2A
102
}
330
2A
100
AcDbVisualStyle
  2
Gouraud
 70
     2
177
     2
291
     1
 71
     2
176
     1
 72
     2
176
     1
 73
     1
176
     1
 90
        2
176
     1
 40
-0.6
176
     1
 41
30.0
176
     1
 62
     5
 63
     7
421
 16777215
176
     1
 74
     0
176
     1
 91
        4
176
     1
 64
     7
176
     1
 65
   257
176
     1
 75
     1
176
     1
175
     1
176
     1
 42
1.0
176
     1
 92
        0
176
     1
 66
     7
176
     1
 43
1.0
176
     1
 76
     1
176
     1
 77
     6
176
     1
 78
     2
176
     1
 67
     7
176
     1
 79
     5
176
     1
170
     0
176
     1
171
     0
176
     1
290
     0
176
     1
 93
       13
176
     1
 44
0.0
176
     1
173
     0
176
     1
  0
VISUALSTYLE
  5
2E
102
{ACAD_REACTORS
330
2A
102
}
330
2A
100
AcDbVisualStyle
  2
GouraudWithEdges
 70
     3
177
     2
291
     1
 71
     2
176
     1
 72
     2
176
     1
 73
     1
176
     1
 90
        2
176
     1
 40
-0.6
176
     1
 41
30.0
176
     1
 62
     5
 63
     7
421
 16777215
176
     1
 74
     1
176
     1
 91
        4
176
     1
 64
     7
176
     1
 65
   257
176
     1
 75
     1
176
     1
175
     1
176
     1
 42
1.0
176
     1
 92
        0
176
     1
 66
   257
176
     1
 43
1.0
176
     1
 76
     1
176
     1
 77
     6
176
     1
 78
     2
176
     1
 67
     7
176
     1
 79
     5
176
     1
170
     0
176
     1
171
     0
176
     1
290
     0
176
     1
 93
       13
176
     1
 44
0.0
176
     1
173
     0
176
     1
  0
VISUALSTYLE
  5
38
102
{ACAD_REACTORS
330
2A
102
}
330
2A
100
AcDbVisualStyle
  2
Linepattern
 70
    14
177
     2
291
     1
 71
     2
176
     1
 72
     2
176
     1
 73
     0
176
     1
 90
        0
176
     1
 40
-0.6
176
     1
 41
-30.0
176
     1
 62
     5
 63
     7
421
 16777215
176
     1
 74
     1
176
     1
 91
        4
176
     1
 64
     7
176
     1
 65
   257
176
     1
 75
     7
176
     1
175
     7
176
     1
 42
1.0
176
     1
 92
        8
176
     1
 66
     7
176
     1
 43
1.0
176
     1
 76
     1
176
     1
 77
     6
176
     1
 78
     2
176
     1
 67
     7
176
     1
 79
     5
176
     1
170
     0
176
     1
171
     0
176
     1
290
     0
176
     1
 93
        1
176
     1
 44
0.0
176
     1
173
     0
176
     1
  0
VISUALSTYLE
  5
33
102
{ACAD_REACTORS
330
2A
102
}
330
2A
100
AcDbVisualStyle
  2
Realistic
 70
     8
177
     2
291
     0
 71
     2
176
     1
 72
     2
176
     1
 73
     0
176
     1
 90
        0
176
     1
 40
-0.6
176
     1
 41
-30.0
176
     1
 62
     5
 63
     7
421
 16777215
176
     1
 74
     1
176
     1
 91
        0
176
     1
 64
     7
176
     1
 65
   257
176
     1
 75
     1
176
     1
175
     1
176
     1
 42
1.0
176
     1
 92
        8
176
     1
 66
     8
424
  7895160
176
     1
 43
1.0
176
     1
 76
     1
176
     1
 77
     6
176
     1
 78
     2
176
     1
 67
     7
176
     1
 79
     5
176
     1
170
     0
176
     1
171
     0
176
     1
290
     0
176
     1
 93
       13
176
     1
 44
0.0
176
     1
173
     0
176
     1
  0
VISUALSTYLE
  5
37
102
{ACAD_REACTORS
330
2A
102
}
330
2A
100
AcDbVisualStyle
  2
Thicken
 70
    13
177
     2
291
     1
 71
     2
176
     1
 72
     2
176
     1
 73
     0
176
     1
 90
        0
176
     1
 40
-0.6
176
     1
 41
-30.0
176
     1
 62
     5
 63
     7
421
 16777215
176
     1
 74
     1
176
     1
 91
        4
176
     1
 64
     7
176
     1
 65
   257
176
     1
 75
     1
176
     1
175
     1
176
     1
 42
1.0
176
     1
 92
       12
176
     1
 66
     7
176
     1
 43
1.0
176
     1
 76
     1
176
     1
 77
     6
176
     1
 78
     2
176
     1
 67
     7
176
     1
 79
     5
176
     1
170
     0
176
     1
171
     0
176
     1
290
     0
176
     1
 93
        1
176
     1
 44
0.0
176
     1
173
     0
176
     1
  0
ENDSEC
  0
EOF
