  0
SECTION
  2
HEADER
  9
$ACADVER
  1
AC1024
  9
$ACADMAINTVER
 70
     6
  9
$DWGCODEPAGE
  3
UNDEFINED
  9
$INSBASE
 10
0.0
 20
0.0
 30
0.0
  9
$EXTMIN
 10
1.000000000000000E+20
 20
1.000000000000000E+20
 30
1.000000000000000E+20
  9
$EXTMAX
 10
-1.000000000000000E+20
 20
-1.000000000000000E+20
 30
-1.000000000000000E+20
  9
$LIMMIN
 10
0.0
 20
0.0
  9
$LIMMAX
 10
12.0
 20
9.0
  9
$ORTHOMODE
 70
     0
  9
$REGENMODE
 70
     1
  9
$FILLMODE
 70
     1
  9
$QTEXTMODE
 70
     0
  9
$MIRRTEXT
 70
     1
  9
$LTSCALE
 40
1.0
  9
$ATTMODE
 70
     1
  9
$TEXTSIZE
 40
0.2
  9
$TRACEWID
 40
0.05
  9
$TEXTSTYLE
  7
Standard
  9
$CLAYER
  8
0
  9
$CELTYPE
  6
ByLayer
  9
$CECOLOR
 62
   256
  9
$CELTSCALE
 40
1.0
  9
$DISPSILH
 70
     0
  9
$DIMSCALE
 40
1.0
  9
$DIMASZ
 40
0.18
  9
$DIMEXO
 40
0.0625
  9
$DIMDLI
 40
0.38
  9
$DIMRND
 40
0.0
  9
$DIMDLE
 40
0.0
  9
$DIMEXE
 40
0.18
  9
$DIMTP
 40
0.0
  9
$DIMTM
 40
0.0
  9
$DIMTXT
 40
0.18
  9
$DIMCEN
 40
0.09
  9
$DIMTSZ
 40
0.0
  9
$DIMTOL
 70
     0
  9
$DIMLIM
 70
     0
  9
$DIMTIH
 70
     1
  9
$DIMTOH
 70
     1
  9
$DIMSE1
 70
     0
  9
$DIMSE2
 70
     0
  9
$DIMTAD
 70
     0
  9
$DIMZIN
 70
     0
  9
$DIMBLK
  1

  9
$DIMASO
 70
     1
  9
$DIMSHO
 70
     1
  9
$DIMPOST
  1

  9
$DIMAPOST
  1

  9
$DIMALT
 70
     0
  9
$DIMALTD
 70
     2
  9
$DIMALTF
 40
25.4
  9
$DIMLFAC
 40
1.0
  9
$DIMTOFL
 70
     0
  9
$DIMTVP
 40
0.0
  9
$DIMTIX
 70
     0
  9
$DIMSOXD
 70
     0
  9
$DIMSAH
 70
     0
  9
$DIMBLK1
  1

  9
$DIMBLK2
  1

  9
$DIMSTYLE
  2
Standard
  9
$DIMCLRD
 70
     0
  9
$DIMCLRE
 70
     0
  9
$DIMCLRT
 70
     0
  9
$DIMTFAC
 40
1.0
  9
$DIMGAP
 40
0.09
  9
$DIMJUST
 70
     0
  9
$DIMSD1
 70
     0
  9
$DIMSD2
 70
     0
  9
$DIMTOLJ
 70
     1
  9
$DIMTZIN
 70
     0
  9
$DIMALTZ
 70
     0
  9
$DIMALTTZ
 70
     0
  9
$DIMUPT
 70
     0
  9
$DIMDEC
 70
     4
  9
$DIMTDEC
 70
     4
  9
$DIMALTU
 70
     2
  9
$DIMALTTD
 70
     2
  9
$DIMTXSTY
  7
Standard
  9
$DIMAUNIT
 70
     0
  9
$DIMADEC
 70
     0
  9
$DIMALTRND
 40
0.0
  9
$DIMAZIN
 70
     0
  9
$DIMDSEP
 70
    46
  9
$DIMATFIT
 70
     3
  9
$DIMFRAC
 70
     0
  9
$DIMLDRBLK
  1

  9
$DIMLUNIT
 70
     2
  9
$DIMLWD
 70
    -2
  9
$DIMLWE
 70
    -2
  9
$DIMTMOVE
 70
     0
  9
$DIMFXL
 40
1.0
  9
$DIMFXLON
 70
     0
  9
$DIMJOGANG
 40
0.7853981633974483
  9
$DIMTFILL
 70
     0
  9
$DIMTFILLCLR
 70
     0
  9
$DIMARCSYM
 70
     0
  9
$DIMLTYPE
  6

  9
$DIMLTEX1
  6

  9
$DIMLTEX2
  6

  9
$DIMTXTDIRECTION
 70
     0
  9
$LUNITS
 70
     2
  9
$LUPREC
 70
     4
  9
$SKETCHINC
 40
0.1
  9
$FILLETRAD
 40
0.5
  9
$AUNITS
 70
     0
  9
$AUPREC
 70
     0
  9
$MENU
  1
.
  9
$ELEVATION
 40
0.0
  9
$PELEVATION
 40
0.0
  9
$THICKNESS
 40
0.0
  9
$LIMCHECK
 70
     0
  9
$CHAMFERA
 40
0.5
  9
$CHAMFERB
 40
0.5
  9
$CHAMFERC
 40
1.0
  9
$CHAMFERD
 40
0.0
  9
$SKPOLY
 70
     0
  9
$TDCREATE
 40
2457917.588541655
  9
$TDUCREATE
 40
2457917.213541667
  9
$TDUPDATE
 40
2457917.588541655
  9
$TDUUPDATE
 40
2457917.213541667
  9
$TDINDWG
 40
0.0000000116
  9
$TDUSRTIMER
 40
0.0000000116
  9
$USRTIMER
 70
     1
  9
$ANGBASE
 50
0.0
  9
$ANGDIR
 70
     0
  9
$PDMODE
 70
     0
  9
$PDSIZE
 40
0.0
  9
$PLINEWID
 40
0.0
  9
$SPLFRAME
 70
     0
  9
$SPLINETYPE
 70
     6
  9
$SPLINESEGS
 70
     8
  9
$HANDSEED
  5
EA
  9
$SURFTAB1
 70
     6
  9
$SURFTAB2
 70
     6
  9
$SURFTYPE
 70
     6
  9
$SURFU
 70
     6
  9
$SURFV
 70
     6
  9
$UCSBASE
  2

  9
$UCSNAME
  2

  9
$UCSORG
 10
0.0
 20
0.0
 30
0.0
  9
$UCSXDIR
 10
1.0
 20
0.0
 30
0.0
  9
$UCSYDIR
 10
0.0
 20
1.0
 30
0.0
  9
$UCSORTHOREF
  2

  9
$UCSORTHOVIEW
 70
     0
  9
$UCSORGTOP
 10
0.0
 20
0.0
 30
0.0
  9
$UCSORGBOTTOM
 10
0.0
 20
0.0
 30
0.0
  9
$UCSORGLEFT
 10
0.0
 20
0.0
 30
0.0
  9
$UCSORGRIGHT
 10
0.0
 20
0.0
 30
0.0
  9
$UCSORGFRONT
 10
0.0
 20
0.0
 30
0.0
  9
$UCSORGBACK
 10
0.0
 20
0.0
 30
0.0
  9
$PUCSBASE
  2

  9
$PUCSNAME
  2

  9
$PUCSORG
 10
0.0
 20
0.0
 30
0.0
  9
$PUCSXDIR
 10
1.0
 20
0.0
 30
0.0
  9
$PUCSYDIR
 10
0.0
 20
1.0
 30
0.0
  9
$PUCSORTHOREF
  2

  9
$PUCSORTHOVIEW
 70
     0
  9
$PUCSORGTOP
 10
0.0
 20
0.0
 30
0.0
  9
$PUCSORGBOTTOM
 10
0.0
 20
0.0
 30
0.0
  9
$PUCSORGLEFT
 10
0.0
 20
0.0
 30
0.0
  9
$PUCSORGRIGHT
 10
0.0
 20
0.0
 30
0.0
  9
$PUCSORGFRONT
 10
0.0
 20
0.0
 30
0.0
  9
$PUCSORGBACK
 10
0.0
 20
0.0
 30
0.0
  9
$USERI1
 70
     0
  9
$USERI2
 70
     0
  9
$USERI3
 70
     0
  9
$USERI4
 70
     0
  9
$USERI5
 70
     0
  9
$USERR1
 40
0.0
  9
$USERR2
 40
0.0
  9
$USERR3
 40
0.0
  9
$USERR4
 40
0.0
  9
$USERR5
 40
0.0
  9
$WORLDVIEW
 70
     1
  9
$SHADEDGE
 70
     3
  9
$SHADEDIF
 70
    70
  9
$TILEMODE
 70
     1
  9
$MAXACTVP
 70
    64
  9
$PINSBASE
 10
0.0
 20
0.0
 30
0.0
  9
$PLIMCHECK
 70
     0
  9
$PEXTMIN
 10
1.000000000000000E+20
 20
1.000000000000000E+20
 30
1.000000000000000E+20
  9
$PEXTMAX
 10
-1.000000000000000E+20
 20
-1.000000000000000E+20
 30
-1.000000000000000E+20
  9
$PLIMMIN
 10
0.0
 20
0.0
  9
$PLIMMAX
 10
12.0
 20
9.0
  9
$UNITMODE
 70
     0
  9
$VISRETAIN
 70
     1
  9
$PLINEGEN
 70
     0
  9
$PSLTSCALE
 70
     1
  9
$TREEDEPTH
 70
  3020
  9
$CMLSTYLE
  2
Standard
  9
$CMLJUST
 70
     0
  9
$CMLSCALE
 40
1.0
  9
$PROXYGRAPHICS
 70
     1
  9
$MEASUREMENT
 70
     0
  9
$CELWEIGHT
370
    -1
  9
$ENDCAPS
280
     0
  9
$JOINSTYLE
280
     0
  9
$LWDISPLAY
290
     1
  9
$INSUNITS
 70
     1
  9
$HYPERLINKBASE
  1

  9
$STYLESHEET
  1

  9
$XEDIT
290
     1
  9
$CEPSNTYPE
380
     0
  9
$PSTYLEMODE
290
     1
  9
$FINGERPRINTGUID
  2
{F93907FB-2526-9E78-5A12-193A5913B0B4}
  9
$VERSIONGUID
  2
{FAEB1C32-E019-11D5-929B-00C0DF256EC4}
  9
$EXTNAMES
290
     1
  9
$PSVPSCALE
 40
0.0
  9
$OLESTARTUP
290
     0
  9
$SORTENTS
280
   127
  9
$INDEXCTL
280
     0
  9
$HIDETEXT
280
     1
  9
$XCLIPFRAME
280
     2
  9
$HALOGAP
280
     0
  9
$OBSCOLOR
 70
   257
  9
$OBSLTYPE
280
     0
  9
$INTERSECTIONDISPLAY
280
     0
  9
$INTERSECTIONCOLOR
 70
   257
  9
$DIMASSOC
280
     2
  9
$PROJECTNAME
  1

  9
$CAMERADISPLAY
290
     0
  9
$LENSLENGTH
 40
50.0
  9
$CAMERAHEIGHT
 40
0.0
  9
$STEPSPERSEC
 40
2.0
  9
$STEPSIZE
 40
6.0
  9
$3DDWFPREC
 40
2.0
  9
$PSOLWIDTH
 40
0.25
  9
$PSOLHEIGHT
 40
4.0
  9
$LOFTANG1
 40
1.570796326794897
  9
$LOFTANG2
 40
1.570796326794897
  9
$LOFTMAG1
 40
0.0
  9
$LOFTMAG2
 40
0.0
  9
$LOFTPARAM
 70
     7
  9
$LOFTNORMALS
280
     1
  9
$LATITUDE
 40
37.795
  9
$LONGITUDE
 40
-122.394
  9
$NORTHDIRECTION
 40
0.0
  9
$TIMEZONE
 70
 -8000
  9
$LIGHTGLYPHDISPLAY
280
     1
  9
$TILEMODELIGHTSYNCH
280
     1
  9
$CMATERIAL
347
3C
  9
$SOLIDHIST
280
     1
  9
$SHOWHIST
280
     1
  9
$DWFFRAME
280
     2
  9
$DGNFRAME
280
     2
  9
$REALWORLDSCALE
290
     1
  9
$INTERFERECOLOR
 62
   256
  9
$CSHADOW
280
     0
  9
$SHADOWPLANELOCATION
 40
0.0
  0
ENDSEC
  0
SECTION
  2
CLASSES
  0
CLASS
  1
ACDBDICTIONARYWDFLT
  2
AcDbDictionaryWithDefault
  3
ObjectDBX Classes
 90
        0
 91
        4
280
     0
281
     0
  0
CLASS
  1
VISUALSTYLE
  2
AcDbVisualStyle
  3
ObjectDBX Classes
 90
     4095
 91
        4
280
     0
281
     0
  0
CLASS
  1
MATERIAL
  2
AcDbMaterial
  3
ObjectDBX Classes
 90
     1153
 91
        4
280
     0
281
     0
  0
CLASS
  1
SUN
  2
AcDbSun
  3
SCENEOE
 90
     1024
 91
        4
280
     0
281
     0
  0
ENDSEC
  0
SECTION
  2
TABLES
  0
TABLE
  2
VPORT
  5
8
330
0
100
AcDbSymbolTable
 70
     1
  0
VPORT
  5
29
330
8
100
AcDbSymbolTableRecord
100
AcDbViewportTableRecord
  2
*Active
 70
     0
 10
0.0
 20
0.0
 11
1.0
 21
1.0
 12
0.0
 22
0.0
 13
0.0
 23
0.0
 14
0.5
 24
0.5
 15
0.5
 25
0.5
 16
0.0
 26
0.0
 36
1.0
 17
63.499999984125
 27
-89.00059456108309
 37
0.0
 40
178.0011891221662
 41
0.7134783795241226
 42
50.0
 43
0.0
 44
0.0
 50
0.0
 51
0.0
 71
     0
 72
   100
 73
     1
 74
     3
 75
     0
 76
     0
 77
     0
 78
     0
281
     0
 65
     1
110
0.0
120
0.0
130
0.0
111
1.0
121
0.0
131
0.0
112
0.0
122
1.0
132
0.0
 79
     0
146
0.0
 60
     3
 61
     5
292
     1
282
     1
141
0.0
142
0.0
 63
   250
361
3F
  0
ENDTAB
  0
TABLE
  2
LTYPE
  5
5
330
0
100
AcDbSymbolTable
 70
     1
  0
LTYPE
  5
14
330
5
100
AcDbSymbolTableRecord
100
AcDbLinetypeTableRecord
  2
ByBlock
 70
     0
  3

 72
    65
 73
     0
 40
0.0
  0
LTYPE
  5
15
330
5
100
AcDbSymbolTableRecord
100
AcDbLinetypeTableRecord
  2
ByLayer
 70
     0
  3

 72
    65
 73
     0
 40
0.0
  0
LTYPE
  5
16
330
5
100
AcDbSymbolTableRecord
100
AcDbLinetypeTableRecord
  2
Continuous
 70
     0
  3
Solid line
 72
    65
 73
     0
 40
0.0
  0
ENDTAB
  0
TABLE
  2
LAYER
  5
2
330
0
100
AcDbSymbolTable
 70
     2
  0
LAYER
  5
10
330
2
100
AcDbSymbolTableRecord
100
AcDbLayerTableRecord
  2
0
 70
     0
 62
     7
  6
Continuous
370
    -3
390
F
347
3E
  0
LAYER
  5
40
330
2
100
AcDbSymbolTableRecord
100
AcDbLayerTableRecord
  2
_U+30EC_U+30A4_U+30E4_U+30FC 1
 70
     0
 62
     7
  6
Continuous
370
    -3
390
F
347
3E
  0
ENDTAB
  0
TABLE
  2
STYLE
  5
3
330
0
100
AcDbSymbolTable
 70
     1
  0
STYLE
  5
11
330
3
100
AcDbSymbolTableRecord
100
AcDbTextStyleTableRecord
  2
Standard
 70
     0
 40
0.0
 41
1.0
 50
0.0
 71
     0
 42
0.2
  3
txt
  4

  0
ENDTAB
  0
TABLE
  2
VIEW
  5
6
330
0
100
AcDbSymbolTable
 70
     0
  0
ENDTAB
  0
TABLE
  2
UCS
  5
7
330
0
100
AcDbSymbolTable
 70
     0
  0
ENDTAB
  0
TABLE
  2
APPID
  5
9
330
0
100
AcDbSymbolTable
 70
     1
  0
APPID
  5
12
330
9
100
AcDbSymbolTableRecord
100
AcDbRegAppTableRecord
  2
ACAD
 70
     0
  0
ENDTAB
  0
TABLE
  2
DIMSTYLE
  5
A
330
0
100
AcDbSymbolTable
 70
     1
100
AcDbDimStyleTable
  0
DIMSTYLE
105
27
330
A
100
AcDbSymbolTableRecord
100
AcDbDimStyleTableRecord
  2
Standard
 70
     0
178
     0
340
11
  0
ENDTAB
  0
TABLE
  2
BLOCK_RECORD
  5
1
330
0
100
AcDbSymbolTable
 70
     7
  0
BLOCK_RECORD
  5
1F
330
1
100
AcDbSymbolTableRecord
100
AcDbBlockTableRecord
  2
*Model_Space
340
22
 70
     0
280
     1
281
     0
  0
BLOCK_RECORD
  5
1B
330
1
100
AcDbSymbolTableRecord
100
AcDbBlockTableRecord
  2
*Paper_Space
340
1E
 70
     0
280
     1
281
     0
  0
BLOCK_RECORD
  5
23
330
1
100
AcDbSymbolTableRecord
100
AcDbBlockTableRecord
  2
*Paper_Space0
340
26
 70
     0
280
     1
281
     0
  0
BLOCK_RECORD
  5
41
330
1
100
AcDbSymbolTableRecord
100
AcDbBlockTableRecord
  2
block 2
340
0
102
{BLKREFS
331
42
102
}
 70
     0
280
     1
281
     0
  0
BLOCK_RECORD
  5
91
330
1
100
AcDbSymbolTableRecord
100
AcDbBlockTableRecord
  2
block 3
340
0
102
{BLKREFS
331
92
102
}
 70
     0
280
     1
281
     0
  0
BLOCK_RECORD
  5
A6
330
1
100
AcDbSymbolTableRecord
100
AcDbBlockTableRecord
  2
block 4
340
0
102
{BLKREFS
331
A7
102
}
 70
     0
280
     1
281
     0
  0
BLOCK_RECORD
  5
BE
330
1
100
AcDbSymbolTableRecord
100
AcDbBlockTableRecord
  2
block 5
340
0
102
{BLKREFS
331
BF
102
}
 70
     0
280
     1
281
     0
  0
BLOCK_RECORD
  5
D0
330
1
100
AcDbSymbolTableRecord
100
AcDbBlockTableRecord
  2
block 6
340
0
102
{BLKREFS
331
D1
102
}
 70
     0
280
     1
281
     0
  0
BLOCK_RECORD
  5
E0
330
1
100
AcDbSymbolTableRecord
100
AcDbBlockTableRecord
  2
block 7
340
0
102
{BLKREFS
331
E1
102
}
 70
     0
280
     1
281
     0
  0
ENDTAB
  0
ENDSEC
  0
SECTION
  2
BLOCKS
  0
BLOCK
  5
20
330
1F
100
AcDbEntity
  8
0
100
AcDbBlockBegin
  2
*Model_Space
 70
     0
 10
0.0
 20
0.0
 30
0.0
  3
*Model_Space
  1

  0
ENDBLK
  5
21
330
1F
100
AcDbEntity
  8
0
100
AcDbBlockEnd
  0
BLOCK
  5
1C
330
1B
100
AcDbEntity
 67
     1
  8
0
100
AcDbBlockBegin
  2
*Paper_Space
 70
     0
 10
0.0
 20
0.0
 30
0.0
  3
*Paper_Space
  1

  0
ENDBLK
  5
1D
330
1B
100
AcDbEntity
 67
     1
  8
0
100
AcDbBlockEnd
  0
BLOCK
  5
24
330
23
100
AcDbEntity
  8
0
100
AcDbBlockBegin
  2
*Paper_Space0
 70
     0
 10
0.0
 20
0.0
 30
0.0
  3
*Paper_Space0
  1

  0
ENDBLK
  5
25
330
23
100
AcDbEntity
  8
0
100
AcDbBlockEnd
  0
BLOCK
  5
43
330
41
100
AcDbEntity
  8
0
100
AcDbBlockBegin
  2
block 2
 70
     0
 10
0.0
 20
0.0
 30
0.0
  3
block 2
  1

  0
POLYLINE
  5
45
330
41
100
AcDbEntity
  8
_U+30EC_U+30A4_U+30E4_U+30FC 1
 62
   179
420
  2234388
370
    25
100
AcDb2dPolyline
 66
     1
 10
0.0
 20
0.0
 30
0.0
  0
VERTEX
  5
46
330
45
100
AcDbEntity
  8
_U+30EC_U+30A4_U+30E4_U+30FC 1
 62
   179
420
  2234388
370
    25
100
AcDbVertex
100
AcDb2dVertex
 10
54.11141778616939
 20
-95.4670288650222
 30
0.0
  0
VERTEX
  5
47
330
45
100
AcDbEntity
  8
_U+30EC_U+30A4_U+30E4_U+30FC 1
 62
   179
420
  2234388
370
    25
100
AcDbVertex
100
AcDb2dVertex
 10
57.11140465407779
 20
-95.4670288650222
 30
0.0
  0
SEQEND
  5
48
330
45
100
AcDbEntity
  8
_U+30EC_U+30A4_U+30E4_U+30FC 1
 62
   179
420
  2234388
370
    25
  0
POLYLINE
  5
49
330
41
100
AcDbEntity
  8
_U+30EC_U+30A4_U+30E4_U+30FC 1
 62
   179
420
  2234388
370
    25
100
AcDb2dPolyline
 66
     1
 10
0.0
 20
0.0
 30
0.0
  0
VERTEX
  5
4A
330
49
100
AcDbEntity
  8
_U+30EC_U+30A4_U+30E4_U+30FC 1
 62
   179
420
  2234388
370
    25
100
AcDbVertex
100
AcDb2dVertex
 10
47.11100276599991
 20
-98.66682914199983
 30
0.0
  0
VERTEX
  5
4B
330
49
100
AcDbEntity
  8
_U+30EC_U+30A4_U+30E4_U+30FC 1
 62
   179
420
  2234388
370
    25
100
AcDbVertex
100
AcDb2dVertex
 10
57.11140465407779
 20
-98.66682914199983
 30
0.0
  0
SEQEND
  5
4C
330
49
100
AcDbEntity
  8
_U+30EC_U+30A4_U+30E4_U+30FC 1
 62
   179
420
  2234388
370
    25
  0
POLYLINE
  5
4D
330
41
100
AcDbEntity
  8
_U+30EC_U+30A4_U+30E4_U+30FC 1
 62
   179
420
  2234388
370
    25
100
AcDb2dPolyline
 66
     1
 10
0.0
 20
0.0
 30
0.0
  0
VERTEX
  5
4E
330
4D
100
AcDbEntity
  8
_U+30EC_U+30A4_U+30E4_U+30FC 1
 62
   179
420
  2234388
370
    25
100
AcDbVertex
100
AcDb2dVertex
 10
57.11140465407779
 20
-95.4670288650222
 30
0.0
  0
VERTEX
  5
4F
330
4D
100
AcDbEntity
  8
_U+30EC_U+30A4_U+30E4_U+30FC 1
 62
   179
420
  2234388
370
    25
100
AcDbVertex
100
AcDb2dVertex
 10
57.11140465407779
 20
-98.66682914199983
 30
0.0
  0
SEQEND
  5
50
330
4D
100
AcDbEntity
  8
_U+30EC_U+30A4_U+30E4_U+30FC 1
 62
   179
420
  2234388
370
    25
  0
POLYLINE
  5
51
330
41
100
AcDbEntity
  8
_U+30EC_U+30A4_U+30E4_U+30FC 1
 62
   179
420
  2234388
370
    25
100
AcDb2dPolyline
 66
     1
 10
0.0
 20
0.0
 30
0.0
  0
VERTEX
  5
52
330
51
100
AcDbEntity
  8
_U+30EC_U+30A4_U+30E4_U+30FC 1
 62
   179
420
  2234388
370
    25
100
AcDbVertex
100
AcDb2dVertex
 10
54.11141778616939
 20
-96.46750664254962
 30
0.0
  0
VERTEX
  5
53
330
51
100
AcDbEntity
  8
_U+30EC_U+30A4_U+30E4_U+30FC 1
 62
   179
420
  2234388
370
    25
100
AcDbVertex
100
AcDb2dVertex
 10
56.11163245736189
 20
-96.46750664254962
 30
0.0
  0
SEQEND
  5
54
330
51
100
AcDbEntity
  8
_U+30EC_U+30A4_U+30E4_U+30FC 1
 62
   179
420
  2234388
370
    25
  0
POLYLINE
  5
55
330
41
100
AcDbEntity
  8
_U+30EC_U+30A4_U+30E4_U+30FC 1
 62
   179
420
  2234388
370
    25
100
AcDb2dPolyline
 66
     1
 10
0.0
 20
0.0
 30
0.0
  0
VERTEX
  5
56
330
55
100
AcDbEntity
  8
_U+30EC_U+30A4_U+30E4_U+30FC 1
 62
   179
420
  2234388
370
    25
100
AcDbVertex
100
AcDb2dVertex
 10
54.11141778616939
 20
-95.4670288650222
 30
0.0
  0
VERTEX
  5
57
330
55
100
AcDbEntity
  8
_U+30EC_U+30A4_U+30E4_U+30FC 1
 62
   179
420
  2234388
370
    25
100
AcDbVertex
100
AcDb2dVertex
 10
54.11141778616939
 20
-96.46750664254962
 30
0.0
  0
SEQEND
  5
58
330
55
100
AcDbEntity
  8
_U+30EC_U+30A4_U+30E4_U+30FC 1
 62
   179
420
  2234388
370
    25
  0
POLYLINE
  5
59
330
41
100
AcDbEntity
  8
_U+30EC_U+30A4_U+30E4_U+30FC 1
 62
   179
420
  2234388
370
    25
100
AcDb2dPolyline
 66
     1
 10
0.0
 20
0.0
 30
0.0
  0
VERTEX
  5
5A
330
59
100
AcDbEntity
  8
_U+30EC_U+30A4_U+30E4_U+30FC 1
 62
   179
420
  2234388
370
    25
100
AcDbVertex
100
AcDb2dVertex
 10
47.11100276599991
 20
-97.66709219780545
 30
0.0
  0
VERTEX
  5
5B
330
59
100
AcDbEntity
  8
_U+30EC_U+30A4_U+30E4_U+30FC 1
 62
   179
420
  2234388
370
    25
100
AcDbVertex
100
AcDb2dVertex
 10
47.11100276599991
 20
-98.66682914199983
 30
0.0
  0
SEQEND
  5
5C
330
59
100
AcDbEntity
  8
_U+30EC_U+30A4_U+30E4_U+30FC 1
 62
   179
420
  2234388
370
    25
  0
POLYLINE
  5
5D
330
41
100
AcDbEntity
  8
_U+30EC_U+30A4_U+30E4_U+30FC 1
 62
   179
420
  2234388
370
    25
100
AcDb2dPolyline
 66
     1
 10
0.0
 20
0.0
 30
0.0
  0
VERTEX
  5
5E
330
5D
100
AcDbEntity
  8
_U+30EC_U+30A4_U+30E4_U+30FC 1
 62
   179
420
  2234388
370
    25
100
AcDbVertex
100
AcDb2dVertex
 10
47.11100276599991
 20
-97.66709219780545
 30
0.0
  0
VERTEX
  5
5F
330
5D
100
AcDbEntity
  8
_U+30EC_U+30A4_U+30E4_U+30FC 1
 62
   179
420
  2234388
370
    25
100
AcDbVertex
100
AcDb2dVertex
 10
47.61120517422585
 20
-97.66709219780545
 30
0.0
  0
SEQEND
  5
60
330
5D
100
AcDbEntity
  8
_U+30EC_U+30A4_U+30E4_U+30FC 1
 62
   179
420
  2234388
370
    25
  0
POLYLINE
  5
61
330
41
100
AcDbEntity
  8
_U+30EC_U+30A4_U+30E4_U+30FC 1
 62
   179
420
  2234388
370
    25
100
AcDb2dPolyline
 66
     1
 10
0.0
 20
0.0
 30
0.0
  0
VERTEX
  5
62
330
61
100
AcDbEntity
  8
_U+30EC_U+30A4_U+30E4_U+30FC 1
 62
   179
420
  2234388
370
    25
100
AcDbVertex
100
AcDb2dVertex
 10
48.61581042637401
 20
-97.66709219780545
 30
0.0
  0
VERTEX
  5
63
330
61
100
AcDbEntity
  8
_U+30EC_U+30A4_U+30E4_U+30FC 1
 62
   179
420
  2234388
370
    25
100
AcDbVertex
100
AcDb2dVertex
 10
56.11163245736189
 20
-97.66709219780545
 30
0.0
  0
SEQEND
  5
64
330
61
100
AcDbEntity
  8
_U+30EC_U+30A4_U+30E4_U+30FC 1
 62
   179
420
  2234388
370
    25
  0
POLYLINE
  5
65
330
41
100
AcDbEntity
  8
_U+30EC_U+30A4_U+30E4_U+30FC 1
 62
   179
420
  2234388
370
    25
100
AcDb2dPolyline
 66
     1
 10
0.0
 20
0.0
 30
0.0
  0
VERTEX
  5
66
330
65
100
AcDbEntity
  8
_U+30EC_U+30A4_U+30E4_U+30FC 1
 62
   179
420
  2234388
370
    25
100
AcDbVertex
100
AcDb2dVertex
 10
56.11163245736189
 20
-96.46750664254962
 30
0.0
  0
VERTEX
  5
67
330
65
100
AcDbEntity
  8
_U+30EC_U+30A4_U+30E4_U+30FC 1
 62
   179
420
  2234388
370
    25
100
AcDbVertex
100
AcDb2dVertex
 10
56.11163245736189
 20
-97.66709219780545
 30
0.0
  0
SEQEND
  5
68
330
65
100
AcDbEntity
  8
_U+30EC_U+30A4_U+30E4_U+30FC 1
 62
   179
420
  2234388
370
    25
  0
POLYLINE
  5
69
330
41
100
AcDbEntity
  8
_U+30EC_U+30A4_U+30E4_U+30FC 1
 62
   179
420
  2234388
370
    25
100
AcDb2dPolyline
 66
     1
 10
0.0
 20
0.0
 30
0.0
  0
VERTEX
  5
6A
330
69
100
AcDbEntity
  8
_U+30EC_U+30A4_U+30E4_U+30FC 1
 62
   179
420
  2234388
370
    25
100
AcDbVertex
100
AcDb2dVertex
 10
50.02279400158999
 20
-82.46730886827197
 30
0.0
  0
VERTEX
  5
6B
330
69
100
AcDbEntity
  8
_U+30EC_U+30A4_U+30E4_U+30FC 1
 62
   179
420
  2234388
370
    25
100
AcDbVertex
100
AcDb2dVertex
 10
74.11158894258918
 20
-82.46730886827197
 30
0.0
  0
SEQEND
  5
6C
330
69
100
AcDbEntity
  8
_U+30EC_U+30A4_U+30E4_U+30FC 1
 62
   179
420
  2234388
370
    25
  0
POLYLINE
  5
6D
330
41
100
AcDbEntity
  8
_U+30EC_U+30A4_U+30E4_U+30FC 1
 62
   179
420
  2234388
370
    25
100
AcDb2dPolyline
 66
     1
 10
0.0
 20
0.0
 30
0.0
  0
VERTEX
  5
6E
330
6D
100
AcDbEntity
  8
_U+30EC_U+30A4_U+30E4_U+30FC 1
 62
   179
420
  2234388
370
    25
100
AcDbVertex
100
AcDb2dVertex
 10
74.11158894258918
 20
-81.46686636852206
 30
0.0
  0
VERTEX
  5
6F
330
6D
100
AcDbEntity
  8
_U+30EC_U+30A4_U+30E4_U+30FC 1
 62
   179
420
  2234388
370
    25
100
AcDbVertex
100
AcDb2dVertex
 10
74.11158894258918
 20
-82.46730886827197
 30
0.0
  0
SEQEND
  5
70
330
6D
100
AcDbEntity
  8
_U+30EC_U+30A4_U+30E4_U+30FC 1
 62
   179
420
  2234388
370
    25
  0
POLYLINE
  5
71
330
41
100
AcDbEntity
  8
_U+30EC_U+30A4_U+30E4_U+30FC 1
 62
   179
420
  2234388
370
    25
100
AcDb2dPolyline
 66
     1
 10
0.0
 20
0.0
 30
0.0
  0
VERTEX
  5
72
330
71
100
AcDbEntity
  8
_U+30EC_U+30A4_U+30E4_U+30FC 1
 62
   179
420
  2234388
370
    25
100
AcDbVertex
100
AcDb2dVertex
 10
49.11121624706849
 20
-81.46686636852206
 30
0.0
  0
VERTEX
  5
73
330
71
100
AcDbEntity
  8
_U+30EC_U+30A4_U+30E4_U+30FC 1
 62
   179
420
  2234388
370
    25
100
AcDbVertex
100
AcDb2dVertex
 10
74.11158894258918
 20
-81.46686636852206
 30
0.0
  0
SEQEND
  5
74
330
71
100
AcDbEntity
  8
_U+30EC_U+30A4_U+30E4_U+30FC 1
 62
   179
420
  2234388
370
    25
  0
POLYLINE
  5
75
330
41
100
AcDbEntity
  8
_U+30EC_U+30A4_U+30E4_U+30FC 1
 62
   179
420
  2234388
370
    25
100
AcDb2dPolyline
 66
     1
 10
0.0
 20
0.0
 30
0.0
  0
VERTEX
  5
76
330
75
100
AcDbEntity
  8
_U+30EC_U+30A4_U+30E4_U+30FC 1
 62
   179
420
  2234388
370
    25
100
AcDbVertex
100
AcDb2dVertex
 10
49.11121624706849
 20
-81.46686636852206
 30
0.0
  0
VERTEX
  5
77
330
75
100
AcDbEntity
  8
_U+30EC_U+30A4_U+30E4_U+30FC 1
 62
   179
420
  2234388
370
    25
100
AcDbVertex
100
AcDb2dVertex
 10
47.61120517422585
 20
-97.66709219780545
 30
0.0
  0
SEQEND
  5
78
330
75
100
AcDbEntity
  8
_U+30EC_U+30A4_U+30E4_U+30FC 1
 62
   179
420
  2234388
370
    25
  0
POLYLINE
  5
79
330
41
100
AcDbEntity
  8
_U+30EC_U+30A4_U+30E4_U+30FC 1
 62
   179
420
  2234388
370
    25
100
AcDb2dPolyline
 66
     1
 10
0.0
 20
0.0
 30
0.0
  0
VERTEX
  5
7A
330
79
100
AcDbEntity
  8
_U+30EC_U+30A4_U+30E4_U+30FC 1
 62
   179
420
  2234388
370
    25
100
AcDbVertex
100
AcDb2dVertex
 10
50.02279400158999
 20
-82.46730886827197
 30
0.0
  0
VERTEX
  5
7B
330
79
100
AcDbEntity
  8
_U+30EC_U+30A4_U+30E4_U+30FC 1
 62
   179
420
  2234388
370
    25
100
AcDbVertex
100
AcDb2dVertex
 10
48.61581042637401
 20
-97.66709219780545
 30
0.0
  0
SEQEND
  5
7C
330
79
100
AcDbEntity
  8
_U+30EC_U+30A4_U+30E4_U+30FC 1
 62
   179
420
  2234388
370
    25
  0
ENDBLK
  5
44
330
41
100
AcDbEntity
  8
0
100
AcDbBlockEnd
  0
BLOCK
  5
93
330
91
100
AcDbEntity
  8
0
100
AcDbBlockBegin
  2
block 3
 70
     0
 10
0.0
 20
0.0
 30
0.0
  3
block 3
  1

  0
SPLINE
  5
95
330
91
100
AcDbEntity
  8
_U+30EC_U+30A4_U+30E4_U+30FC 1
370
     0
100
AcDbSpline
210
0.0
220
0.0
230
1.0
 70
    11
 71
     3
 72
    26
 73
    22
 74
     0
 42
0.0000000001
 43
0.0000000001
 12
1.0
 22
0.0
 32
0.0
 13
1.0
 23
0.0
 33
0.0
 40
0.0
 40
0.0
 40
0.0
 40
0.0
 40
1.0
 40
1.0
 40
1.0
 40
2.0
 40
2.0
 40
2.0
 40
3.0
 40
3.0
 40
3.0
 40
4.0
 40
4.0
 40
4.0
 40
5.0
 40
5.0
 40
5.0
 40
6.0
 40
6.0
 40
6.0
 40
7.0
 40
7.0
 40
7.0
 40
7.0
 10
51.47747801447439
 20
-102.0213351524461
 30
0.0
 10
51.47747801447439
 20
-102.0213351524461
 30
0.0
 10
51.47747801447439
 20
-100.9171820494235
 30
0.0
 10
51.47747801447439
 20
-100.9171820494235
 30
0.0
 10
51.47747801447439
 20
-100.9171820494235
 30
0.0
 10
51.14829914085876
 20
-100.9171820494235
 30
0.0
 10
51.14829914085876
 20
-100.9171820494235
 30
0.0
 10
51.14829914085876
 20
-100.9171820494235
 30
0.0
 10
51.14829914085876
 20
-100.7690429435577
 30
0.0
 10
51.14829914085876
 20
-100.7690429435577
 30
0.0
 10
51.47954507176554
 20
-100.7542290329712
 30
0.0
 10
51.52588160604214
 20
-100.5912760165188
 30
0.0
 10
51.55550942721529
 20
-100.4768988464086
 30
0.0
 10
51.55550942721529
 20
-100.4768988464086
 30
0.0
 10
51.7010647114671
 20
-100.4768988464086
 30
0.0
 10
51.7010647114671
 20
-100.4768988464086
 30
0.0
 10
51.7010647114671
 20
-100.4768988464086
 30
0.0
 10
51.7010647114671
 20
-102.0213351524461
 30
0.0
 10
51.7010647114671
 20
-102.0213351524461
 30
0.0
 10
51.7010647114671
 20
-102.0213351524461
 30
0.0
 10
51.47747801447439
 20
-102.0213351524461
 30
0.0
 10
51.47747801447439
 20
-102.0213351524461
 30
0.0
  0
HATCH
  5
96
330
91
100
AcDbEntity
  8
_U+30EC_U+30A4_U+30E4_U+30FC 1
 62
   179
420
  2234388
100
AcDbHatch
 10
0.0
 20
0.0
 30
0.0
210
0.0
220
0.0
230
1.0
  2
SOLID
 70
     1
 71
     0
 91
        1
 92
        1
 93
        1
 72
     4
 94
        3
 73
     0
 74
     1
 95
       26
 96
       22
 40
0.0
 40
0.0
 40
0.0
 40
0.0
 40
1.0
 40
1.0
 40
1.0
 40
2.0
 40
2.0
 40
2.0
 40
3.0
 40
3.0
 40
3.0
 40
4.0
 40
4.0
 40
4.0
 40
5.0
 40
5.0
 40
5.0
 40
6.0
 40
6.0
 40
6.0
 40
7.0
 40
7.0
 40
7.0
 40
7.0
 10
51.47747801447439
 20
-102.0213351524461
 10
51.47747801447439
 20
-102.0213351524461
 10
51.47747801447439
 20
-100.9171820494235
 10
51.47747801447439
 20
-100.9171820494235
 10
51.47747801447439
 20
-100.9171820494235
 10
51.14829914085876
 20
-100.9171820494235
 10
51.14829914085876
 20
-100.9171820494235
 10
51.14829914085876
 20
-100.9171820494235
 10
51.14829914085876
 20
-100.7690429435577
 10
51.14829914085876
 20
-100.7690429435577
 10
51.47954507176554
 20
-100.7542290329712
 10
51.52588160604214
 20
-100.5912760165188
 10
51.55550942721529
 20
-100.4768988464086
 10
51.55550942721529
 20
-100.4768988464086
 10
51.7010647114671
 20
-100.4768988464086
 10
51.7010647114671
 20
-100.4768988464086
 10
51.7010647114671
 20
-100.4768988464086
 10
51.7010647114671
 20
-102.0213351524461
 10
51.7010647114671
 20
-102.0213351524461
 10
51.7010647114671
 20
-102.0213351524461
 10
51.47747801447439
 20
-102.0213351524461
 10
51.47747801447439
 20
-102.0213351524461
 97
        0
 97
        0
 75
     2
 76
     1
 98
        0
  0
SPLINE
  5
97
330
91
100
AcDbEntity
  8
_U+30EC_U+30A4_U+30E4_U+30FC 1
370
     0
100
AcDbSpline
210
0.0
220
0.0
230
1.0
 70
    11
 71
     3
 72
    29
 73
    25
 74
     0
 42
0.0000000001
 43
0.0000000001
 12
1.0
 22
0.0
 32
0.0
 13
1.0
 23
0.0
 33
0.0
 40
0.0
 40
0.0
 40
0.0
 40
0.0
 40
1.0
 40
1.0
 40
1.0
 40
2.0
 40
2.0
 40
2.0
 40
3.0
 40
3.0
 40
3.0
 40
4.0
 40
4.0
 40
4.0
 40
5.0
 40
5.0
 40
5.0
 40
6.0
 40
6.0
 40
6.0
 40
7.0
 40
7.0
 40
7.0
 40
8.0
 40
8.0
 40
8.0
 40
8.0
 10
53.09477809002492
 20
-101.8435682254072
 30
0.0
 10
52.98729111088512
 20
-102.0530300309104
 30
0.0
 10
52.81417506275132
 20
-102.0719780560792
 30
0.0
 10
52.69824759967266
 20
-102.0719780560792
 30
0.0
 10
52.53770615006002
 20
-102.0719780560792
 30
0.0
 10
52.39645723516477
 20
-102.0254692670284
 30
0.0
 10
52.30137259977188
 20
-101.8435682254072
 30
0.0
 10
52.19801973521439
 20
-101.6489203304906
 30
0.0
 10
52.17907171004551
 20
-101.4118977611054
 30
0.0
 10
52.17907171004551
 20
-101.2492892542016
 30
0.0
 10
52.17907171004551
 20
-101.1052842629181
 30
0.0
 10
52.19595267792324
 20
-100.8534477829464
 30
0.0
 10
52.30137259977188
 20
-100.6546657734474
 30
0.0
 10
52.40903183368594
 20
-100.4517496493662
 30
0.0
 10
52.56940102852432
 20
-100.4283230000665
 30
0.0
 10
52.69824759967266
 20
-100.4283230000665
 30
0.0
 10
52.85637748244563
 20
-100.4283230000665
 30
0.0
 10
52.99986570940629
 20
-100.4727647318263
 30
0.0
 10
53.09477809002492
 20
-100.6546657734474
 30
0.0
 10
53.19399684000012
 20
-100.8472466110729
 30
0.0
 10
53.21725123452555
 20
-101.075656441745
 30
0.0
 10
53.21725123452555
 20
-101.2492892542016
 30
0.0
 10
53.21725123452555
 20
-101.4205104998185
 30
0.0
 10
53.19606389729127
 20
-101.6509873877817
 30
0.0
 10
53.09477809002492
 20
-101.8435682254072
 30
0.0
  0
SPLINE
  5
98
330
91
100
AcDbEntity
  8
_U+30EC_U+30A4_U+30E4_U+30FC 1
370
     0
100
AcDbSpline
210
0.0
220
0.0
230
1.0
 70
    11
 71
     3
 72
    17
 73
    13
 74
     0
 42
0.0000000001
 43
0.0000000001
 12
1.0
 22
0.0
 32
0.0
 13
1.0
 23
0.0
 33
0.0
 40
0.0
 40
0.0
 40
0.0
 40
0.0
 40
1.0
 40
1.0
 40
1.0
 40
2.0
 40
2.0
 40
2.0
 40
3.0
 40
3.0
 40
3.0
 40
4.0
 40
4.0
 40
4.0
 40
4.0
 10
52.69824759967266
 20
-100.620903837692
 30
0.0
 10
52.4491671960891
 20
-100.620903837692
 30
0.0
 10
52.40265840703822
 20
-100.9044351961281
 30
0.0
 10
52.40265840703822
 20
-101.2492892542016
 30
0.0
 10
52.40265840703822
 20
-101.5686496056842
 30
0.0
 10
52.43865965485909
 20
-101.8773301611626
 30
0.0
 10
52.69824759967266
 20
-101.8773301611626
 30
0.0
 10
52.94508869119081
 20
-101.8773301611626
 30
0.0
 10
52.99349228275857
 20
-101.5962103695662
 30
0.0
 10
52.99349228275857
 20
-101.2492892542016
 30
0.0
 10
52.99349228275857
 20
-100.9295843931704
 30
0.0
 10
52.95559623242082
 20
-100.620903837692
 30
0.0
 10
52.69824759967266
 20
-100.620903837692
 30
0.0
  0
HATCH
  5
99
330
91
100
AcDbEntity
  8
_U+30EC_U+30A4_U+30E4_U+30FC 1
 62
   179
420
  2234388
100
AcDbHatch
 10
0.0
 20
0.0
 30
0.0
210
0.0
220
0.0
230
1.0
  2
SOLID
 70
     1
 71
     0
 91
        2
 92
        1
 93
        1
 72
     4
 94
        3
 73
     0
 74
     1
 95
       29
 96
       25
 40
0.0
 40
0.0
 40
0.0
 40
0.0
 40
1.0
 40
1.0
 40
1.0
 40
2.0
 40
2.0
 40
2.0
 40
3.0
 40
3.0
 40
3.0
 40
4.0
 40
4.0
 40
4.0
 40
5.0
 40
5.0
 40
5.0
 40
6.0
 40
6.0
 40
6.0
 40
7.0
 40
7.0
 40
7.0
 40
8.0
 40
8.0
 40
8.0
 40
8.0
 10
53.09477809002492
 20
-101.8435682254072
 10
52.98729111088512
 20
-102.0530300309104
 10
52.81417506275132
 20
-102.0719780560792
 10
52.69824759967266
 20
-102.0719780560792
 10
52.53770615006002
 20
-102.0719780560792
 10
52.39645723516477
 20
-102.0254692670284
 10
52.30137259977188
 20
-101.8435682254072
 10
52.19801973521439
 20
-101.6489203304906
 10
52.17907171004551
 20
-101.4118977611054
 10
52.17907171004551
 20
-101.2492892542016
 10
52.17907171004551
 20
-101.1052842629181
 10
52.19595267792324
 20
-100.8534477829464
 10
52.30137259977188
 20
-100.6546657734474
 10
52.40903183368594
 20
-100.4517496493662
 10
52.56940102852432
 20
-100.4283230000665
 10
52.69824759967266
 20
-100.4283230000665
 10
52.85637748244563
 20
-100.4283230000665
 10
52.99986570940629
 20
-100.4727647318263
 10
53.09477809002492
 20
-100.6546657734474
 10
53.19399684000012
 20
-100.8472466110729
 10
53.21725123452555
 20
-101.075656441745
 10
53.21725123452555
 20
-101.2492892542016
 10
53.21725123452555
 20
-101.4205104998185
 10
53.19606389729127
 20
-101.6509873877817
 10
53.09477809002492
 20
-101.8435682254072
 97
        0
 97
        0
 92
        1
 93
        1
 72
     4
 94
        3
 73
     0
 74
     1
 95
       17
 96
       13
 40
0.0
 40
0.0
 40
0.0
 40
0.0
 40
1.0
 40
1.0
 40
1.0
 40
2.0
 40
2.0
 40
2.0
 40
3.0
 40
3.0
 40
3.0
 40
4.0
 40
4.0
 40
4.0
 40
4.0
 10
52.69824759967266
 20
-100.620903837692
 10
52.4491671960891
 20
-100.620903837692
 10
52.40265840703822
 20
-100.9044351961281
 10
52.40265840703822
 20
-101.2492892542016
 10
52.40265840703822
 20
-101.5686496056842
 10
52.43865965485909
 20
-101.8773301611626
 10
52.69824759967266
 20
-101.8773301611626
 10
52.94508869119081
 20
-101.8773301611626
 10
52.99349228275857
 20
-101.5962103695662
 10
52.99349228275857
 20
-101.2492892542016
 10
52.99349228275857
 20
-100.9295843931704
 10
52.95559623242082
 20
-100.620903837692
 10
52.69824759967266
 20
-100.620903837692
 97
        0
 97
        0
 75
     2
 76
     1
 98
        0
  0
ENDBLK
  5
94
330
91
100
AcDbEntity
  8
0
100
AcDbBlockEnd
  0
BLOCK
  5
A8
330
A6
100
AcDbEntity
  8
0
100
AcDbBlockBegin
  2
block 4
 70
     0
 10
0.0
 20
0.0
 30
0.0
  3
block 4
  1

  0
SPLINE
  5
AA
330
A6
100
AcDbEntity
  8
_U+30EC_U+30A4_U+30E4_U+30FC 1
370
     0
100
AcDbSpline
210
0.0
220
0.0
230
1.0
 70
    11
 71
     3
 72
    62
 73
    58
 74
     0
 42
0.0000000001
 43
0.0000000001
 12
1.0
 22
0.0
 32
0.0
 13
1.0
 23
0.0
 33
0.0
 40
0.0
 40
0.0
 40
0.0
 40
0.0
 40
1.0
 40
1.0
 40
1.0
 40
2.0
 40
2.0
 40
2.0
 40
3.0
 40
3.0
 40
3.0
 40
4.0
 40
4.0
 40
4.0
 40
5.0
 40
5.0
 40
5.0
 40
6.0
 40
6.0
 40
6.0
 40
7.0
 40
7.0
 40
7.0
 40
8.0
 40
8.0
 40
8.0
 40
9.0
 40
9.0
 40
9.0
 40
10.0
 40
10.0
 40
10.0
 40
11.0
 40
11.0
 40
11.0
 40
12.0
 40
12.0
 40
12.0
 40
13.0
 40
13.0
 40
13.0
 40
14.0
 40
14.0
 40
14.0
 40
15.0
 40
15.0
 40
15.0
 40
16.0
 40
16.0
 40
16.0
 40
17.0
 40
17.0
 40
17.0
 40
18.0
 40
18.0
 40
18.0
 40
19.0
 40
19.0
 40
19.0
 40
19.0
 10
77.51602645631544
 20
-97.88515351285511
 30
0.0
 10
77.51602645631544
 20
-97.97989363869948
 30
0.0
 10
77.49501137385542
 20
-98.19727916381873
 30
0.0
 10
77.30897621765193
 20
-98.32199162038478
 30
0.0
 10
77.19666610483279
 20
-98.39571666376914
 30
0.0
 10
77.0974473548576
 20
-98.39985077835144
 30
0.0
 10
77.01269800592044
 20
-98.40432940248226
 30
0.0
 10
77.01269800592044
 20
-98.40432940248226
 30
0.0
 10
77.01269800592044
 20
-98.18453231052331
 30
0.0
 10
77.01269800592044
 20
-98.18453231052331
 30
0.0
 10
77.08676755885331
 20
-98.18246525323217
 30
0.0
 10
77.32137856139883
 20
-98.17212996677641
 30
0.0
 10
77.32137856139883
 20
-97.88928762743741
 30
0.0
 10
77.32137856139883
 20
-97.75217282712447
 30
0.0
 10
77.25178763259677
 20
-97.60024411622494
 30
0.0
 10
77.02337780192471
 20
-97.60024411622494
 30
0.0
 10
76.90693357452326
 20
-97.60024411622494
 30
0.0
 10
76.85835772818125
 20
-97.63814016656269
 30
0.0
 10
76.82666284971695
 20
-97.66983504502699
 30
0.0
 10
76.75259329678408
 20
-97.74356008841134
 30
0.0
 10
76.73984644348866
 20
-97.85965980626426
 30
0.0
 10
76.73984644348866
 20
-97.91443682447972
 30
0.0
 10
76.73984644348866
 20
-97.93372935919713
 30
0.0
 10
76.7419135007798
 20
-97.96955835224372
 30
0.0
 10
76.7460476153621
 20
-97.9967746065772
 30
0.0
 10
76.7460476153621
 20
-97.9967746065772
 30
0.0
 10
76.55139972044549
 20
-97.9967746065772
 30
0.0
 10
76.55139972044549
 20
-97.9967746065772
 30
0.0
 10
76.55794540186746
 20
-97.95887855623945
 30
0.0
 10
76.56001245915861
 20
-97.9168483913194
 30
0.0
 10
76.56001245915861
 20
-97.91030270989742
 30
0.0
 10
76.56001245915861
 20
-97.84484589567768
 30
0.0
 10
76.53865286715006
 20
-97.64675290527582
 30
0.0
 10
76.3019748073134
 20
-97.64675290527582
 30
0.0
 10
76.12420788027451
 20
-97.64675290527582
 30
0.0
 10
76.06908635251051
 20
-97.77732202416678
 30
0.0
 10
76.06908635251051
 20
-97.88722057014625
 30
0.0
 10
76.06908635251051
 20
-98.15077037476787
 30
0.0
 10
76.3019748073134
 20
-98.159383113481
 30
0.0
 10
76.3736327934066
 20
-98.1635172280633
 30
0.0
 10
76.3736327934066
 20
-98.1635172280633
 30
0.0
 10
76.3736327934066
 20
-98.36608884259599
 30
0.0
 10
76.3736327934066
 20
-98.36608884259599
 30
0.0
 10
76.24892033684056
 20
-98.35782061343139
 30
0.0
 10
75.87237140030274
 20
-98.33025984954938
 30
0.0
 10
75.87237140030274
 20
-97.87447371685083
 30
0.0
 10
75.87237140030274
 20
-97.65088701985812
 30
0.0
 10
75.99949542370847
 20
-97.41041935498768
 30
0.0
 10
76.29542912589143
 20
-97.41041935498768
 30
0.0
 10
76.48180879164345
 20
-97.41041935498768
 30
0.0
 10
76.56414657374091
 20
-97.50515948083205
 30
0.0
 10
76.62546927337836
 20
-97.60437823080724
 30
0.0
 10
76.65303003726035
 20
-97.5430555311698
 30
0.0
 10
76.73330076206668
 20
-97.36184350864565
 30
0.0
 10
77.01063094862928
 20
-97.36184350864565
 30
0.0
 10
77.34893932528082
 20
-97.36184350864565
 30
0.0
 10
77.51602645631544
 20
-97.60851234538954
 30
0.0
 10
77.51602645631544
 20
-97.88515351285511
 30
0.0
  0
HATCH
  5
AB
330
A6
100
AcDbEntity
  8
_U+30EC_U+30A4_U+30E4_U+30FC 1
 62
   179
420
  2234388
100
AcDbHatch
 10
0.0
 20
0.0
 30
0.0
210
0.0
220
0.0
230
1.0
  2
SOLID
 70
     1
 71
     0
 91
        1
 92
        1
 93
        1
 72
     4
 94
        3
 73
     0
 74
     1
 95
       62
 96
       58
 40
0.0
 40
0.0
 40
0.0
 40
0.0
 40
1.0
 40
1.0
 40
1.0
 40
2.0
 40
2.0
 40
2.0
 40
3.0
 40
3.0
 40
3.0
 40
4.0
 40
4.0
 40
4.0
 40
5.0
 40
5.0
 40
5.0
 40
6.0
 40
6.0
 40
6.0
 40
7.0
 40
7.0
 40
7.0
 40
8.0
 40
8.0
 40
8.0
 40
9.0
 40
9.0
 40
9.0
 40
10.0
 40
10.0
 40
10.0
 40
11.0
 40
11.0
 40
11.0
 40
12.0
 40
12.0
 40
12.0
 40
13.0
 40
13.0
 40
13.0
 40
14.0
 40
14.0
 40
14.0
 40
15.0
 40
15.0
 40
15.0
 40
16.0
 40
16.0
 40
16.0
 40
17.0
 40
17.0
 40
17.0
 40
18.0
 40
18.0
 40
18.0
 40
19.0
 40
19.0
 40
19.0
 40
19.0
 10
77.51602645631544
 20
-97.88515351285511
 10
77.51602645631544
 20
-97.97989363869948
 10
77.49501137385542
 20
-98.19727916381873
 10
77.30897621765193
 20
-98.32199162038478
 10
77.19666610483279
 20
-98.39571666376914
 10
77.0974473548576
 20
-98.39985077835144
 10
77.01269800592044
 20
-98.40432940248226
 10
77.01269800592044
 20
-98.40432940248226
 10
77.01269800592044
 20
-98.18453231052331
 10
77.01269800592044
 20
-98.18453231052331
 10
77.08676755885331
 20
-98.18246525323217
 10
77.32137856139883
 20
-98.17212996677641
 10
77.32137856139883
 20
-97.88928762743741
 10
77.32137856139883
 20
-97.75217282712447
 10
77.25178763259677
 20
-97.60024411622494
 10
77.02337780192471
 20
-97.60024411622494
 10
76.90693357452326
 20
-97.60024411622494
 10
76.85835772818125
 20
-97.63814016656269
 10
76.82666284971695
 20
-97.66983504502699
 10
76.75259329678408
 20
-97.74356008841134
 10
76.73984644348866
 20
-97.85965980626426
 10
76.73984644348866
 20
-97.91443682447972
 10
76.73984644348866
 20
-97.93372935919713
 10
76.7419135007798
 20
-97.96955835224372
 10
76.7460476153621
 20
-97.9967746065772
 10
76.7460476153621
 20
-97.9967746065772
 10
76.55139972044549
 20
-97.9967746065772
 10
76.55139972044549
 20
-97.9967746065772
 10
76.55794540186746
 20
-97.95887855623945
 10
76.56001245915861
 20
-97.9168483913194
 10
76.56001245915861
 20
-97.91030270989742
 10
76.56001245915861
 20
-97.84484589567768
 10
76.53865286715006
 20
-97.64675290527582
 10
76.3019748073134
 20
-97.64675290527582
 10
76.12420788027451
 20
-97.64675290527582
 10
76.06908635251051
 20
-97.77732202416678
 10
76.06908635251051
 20
-97.88722057014625
 10
76.06908635251051
 20
-98.15077037476787
 10
76.3019748073134
 20
-98.159383113481
 10
76.3736327934066
 20
-98.1635172280633
 10
76.3736327934066
 20
-98.1635172280633
 10
76.3736327934066
 20
-98.36608884259599
 10
76.3736327934066
 20
-98.36608884259599
 10
76.24892033684056
 20
-98.35782061343139
 10
75.87237140030274
 20
-98.33025984954938
 10
75.87237140030274
 20
-97.87447371685083
 10
75.87237140030274
 20
-97.65088701985812
 10
75.99949542370847
 20
-97.41041935498768
 10
76.29542912589143
 20
-97.41041935498768
 10
76.48180879164345
 20
-97.41041935498768
 10
76.56414657374091
 20
-97.50515948083205
 10
76.62546927337836
 20
-97.60437823080724
 10
76.65303003726035
 20
-97.5430555311698
 10
76.73330076206668
 20
-97.36184350864565
 10
77.01063094862928
 20
-97.36184350864565
 10
77.34893932528082
 20
-97.36184350864565
 10
77.51602645631544
 20
-97.60851234538954
 10
77.51602645631544
 20
-97.88515351285511
 97
        0
 97
        0
 75
     2
 76
     1
 98
        0
  0
POLYLINE
  5
AC
330
A6
100
AcDbEntity
  8
_U+30EC_U+30A4_U+30E4_U+30FC 1
370
     0
100
AcDb2dPolyline
 66
     1
 10
0.0
 20
0.0
 30
0.0
  0
VERTEX
  5
AD
330
AC
100
AcDbEntity
  8
_U+30EC_U+30A4_U+30E4_U+30FC 1
370
     0
100
AcDbVertex
100
AcDb2dVertex
 10
77.46538355268227
 20
-97.14307994533229
 30
0.0
  0
VERTEX
  5
AE
330
AC
100
AcDbEntity
  8
_U+30EC_U+30A4_U+30E4_U+30FC 1
370
     0
100
AcDbVertex
100
AcDb2dVertex
 10
77.21354707271051
 20
-97.14307994533229
 30
0.0
  0
VERTEX
  5
AF
330
AC
100
AcDbEntity
  8
_U+30EC_U+30A4_U+30E4_U+30FC 1
370
     0
100
AcDbVertex
100
AcDb2dVertex
 10
77.21354707271051
 20
-96.89193248445757
 30
0.0
  0
VERTEX
  5
B0
330
AC
100
AcDbEntity
  8
_U+30EC_U+30A4_U+30E4_U+30FC 1
370
     0
100
AcDbVertex
100
AcDb2dVertex
 10
77.46538355268227
 20
-96.89193248445757
 30
0.0
  0
VERTEX
  5
B1
330
AC
100
AcDbEntity
  8
_U+30EC_U+30A4_U+30E4_U+30FC 1
370
     0
100
AcDbVertex
100
AcDb2dVertex
 10
77.46538355268227
 20
-97.14307994533229
 30
0.0
  0
SEQEND
  5
B2
330
AC
100
AcDbEntity
  8
_U+30EC_U+30A4_U+30E4_U+30FC 1
370
     0
  0
HATCH
  5
B3
330
A6
100
AcDbEntity
  8
_U+30EC_U+30A4_U+30E4_U+30FC 1
 62
   179
420
  2234388
100
AcDbHatch
 10
0.0
 20
0.0
 30
0.0
210
0.0
220
0.0
230
1.0
  2
SOLID
 70
     1
 71
     0
 91
        1
 92
        1
 93
        4
 72
     1
 10
77.46538355268227
 20
-97.14307994533229
 11
77.21354707271051
 21
-97.14307994533229
 72
     1
 10
77.21354707271051
 20
-97.14307994533229
 11
77.21354707271051
 21
-96.89193248445757
 72
     1
 10
77.21354707271051
 20
-96.89193248445757
 11
77.46538355268227
 21
-96.89193248445757
 72
     1
 10
77.46538355268227
 20
-96.89193248445757
 11
77.46538355268227
 21
-97.14307994533229
 97
        0
 75
     2
 76
     1
 98
        0
  0
SPLINE
  5
B4
330
A6
100
AcDbEntity
  8
_U+30EC_U+30A4_U+30E4_U+30FC 1
370
     0
100
AcDbSpline
210
0.0
220
0.0
230
1.0
 70
    11
 71
     3
 72
    44
 73
    40
 74
     0
 42
0.0000000001
 43
0.0000000001
 12
1.0
 22
0.0
 32
0.0
 13
1.0
 23
0.0
 33
0.0
 40
0.0
 40
0.0
 40
0.0
 40
0.0
 40
1.0
 40
1.0
 40
1.0
 40
2.0
 40
2.0
 40
2.0
 40
3.0
 40
3.0
 40
3.0
 40
4.0
 40
4.0
 40
4.0
 40
5.0
 40
5.0
 40
5.0
 40
6.0
 40
6.0
 40
6.0
 40
7.0
 40
7.0
 40
7.0
 40
8.0
 40
8.0
 40
8.0
 40
9.0
 40
9.0
 40
9.0
 40
10.0
 40
10.0
 40
10.0
 40
11.0
 40
11.0
 40
11.0
 40
12.0
 40
12.0
 40
12.0
 40
13.0
 40
13.0
 40
13.0
 40
13.0
 10
76.88350692522357
 20
-96.06545407754614
 30
0.0
 10
77.04232582709359
 20
-96.2828396026654
 30
0.0
 10
77.11639538002646
 20
-96.37551267121863
 30
0.0
 10
77.26005586176137
 20
-96.42408851756065
 30
0.0
 10
77.26005586176137
 20
-96.42408851756065
 30
0.0
 10
77.26005586176137
 20
-95.64756399518534
 30
0.0
 10
77.26005586176137
 20
-95.64756399518534
 30
0.0
 10
77.26005586176137
 20
-95.64756399518534
 30
0.0
 10
77.46538355268227
 20
-95.64756399518534
 30
0.0
 10
77.46538355268227
 20
-95.64756399518534
 30
0.0
 10
77.46538355268227
 20
-95.64756399518534
 30
0.0
 10
77.46538355268227
 20
-96.67316892114421
 30
0.0
 10
77.46538355268227
 20
-96.67316892114421
 30
0.0
 10
77.10778264131334
 20
-96.64147404267992
 30
0.0
 10
77.02957897379817
 20
-96.57601722846017
 30
0.0
 10
76.73123370477553
 20
-96.19188908185481
 30
0.0
 10
76.5324516952766
 20
-95.93660750639779
 30
0.0
 10
76.4645833142172
 20
-95.87115069217805
 30
0.0
 10
76.32712400435572
 20
-95.87115069217805
 30
0.0
 10
76.20861271966312
 20
-95.87115069217805
 30
0.0
 10
76.07769909122364
 20
-95.94315318781977
 30
0.0
 10
76.07769909122364
 20
-96.13917912093049
 30
0.0
 10
76.07769909122364
 20
-96.3985948109698
 30
0.0
 10
76.30817597918684
 20
-96.40720754968292
 30
0.0
 10
76.42462020658829
 20
-96.41134166426522
 30
0.0
 10
76.42462020658829
 20
-96.41134166426522
 30
0.0
 10
76.42462020658829
 20
-96.63492836125793
 30
0.0
 10
76.42462020658829
 20
-96.63492836125793
 30
0.0
 10
76.29749618318257
 20
-96.62666013209333
 30
0.0
 10
76.18553057991195
 20
-96.61598033608907
 30
0.0
 10
76.06701929521935
 20
-96.53605412083127
 30
0.0
 10
75.90613333605819
 20
-96.4261555748518
 30
0.0
 10
75.87237140030274
 20
-96.24046492819683
 30
0.0
 10
75.87237140030274
 20
-96.12436521034391
 30
0.0
 10
75.87237140030274
 20
-95.84806855242688
 30
0.0
 10
76.05633949921508
 20
-95.64136282331188
 30
0.0
 10
76.32919106164687
 20
-95.64136282331188
 30
0.0
 10
76.55794540186746
 20
-95.64136282331188
 30
0.0
 10
76.65716415184265
 20
-95.75711803161629
 30
0.0
 10
76.88350692522357
 20
-96.06545407754614
 30
0.0
  0
HATCH
  5
B5
330
A6
100
AcDbEntity
  8
_U+30EC_U+30A4_U+30E4_U+30FC 1
 62
   179
420
  2234388
100
AcDbHatch
 10
0.0
 20
0.0
 30
0.0
210
0.0
220
0.0
230
1.0
  2
SOLID
 70
     1
 71
     0
 91
        1
 92
        1
 93
        1
 72
     4
 94
        3
 73
     0
 74
     1
 95
       44
 96
       40
 40
0.0
 40
0.0
 40
0.0
 40
0.0
 40
1.0
 40
1.0
 40
1.0
 40
2.0
 40
2.0
 40
2.0
 40
3.0
 40
3.0
 40
3.0
 40
4.0
 40
4.0
 40
4.0
 40
5.0
 40
5.0
 40
5.0
 40
6.0
 40
6.0
 40
6.0
 40
7.0
 40
7.0
 40
7.0
 40
8.0
 40
8.0
 40
8.0
 40
9.0
 40
9.0
 40
9.0
 40
10.0
 40
10.0
 40
10.0
 40
11.0
 40
11.0
 40
11.0
 40
12.0
 40
12.0
 40
12.0
 40
13.0
 40
13.0
 40
13.0
 40
13.0
 10
76.88350692522357
 20
-96.06545407754614
 10
77.04232582709359
 20
-96.2828396026654
 10
77.11639538002646
 20
-96.37551267121863
 10
77.26005586176137
 20
-96.42408851756065
 10
77.26005586176137
 20
-96.42408851756065
 10
77.26005586176137
 20
-95.64756399518534
 10
77.26005586176137
 20
-95.64756399518534
 10
77.26005586176137
 20
-95.64756399518534
 10
77.46538355268227
 20
-95.64756399518534
 10
77.46538355268227
 20
-95.64756399518534
 10
77.46538355268227
 20
-95.64756399518534
 10
77.46538355268227
 20
-96.67316892114421
 10
77.46538355268227
 20
-96.67316892114421
 10
77.10778264131334
 20
-96.64147404267992
 10
77.02957897379817
 20
-96.57601722846017
 10
76.73123370477553
 20
-96.19188908185481
 10
76.5324516952766
 20
-95.93660750639779
 10
76.4645833142172
 20
-95.87115069217805
 10
76.32712400435572
 20
-95.87115069217805
 10
76.20861271966312
 20
-95.87115069217805
 10
76.07769909122364
 20
-95.94315318781977
 10
76.07769909122364
 20
-96.13917912093049
 10
76.07769909122364
 20
-96.3985948109698
 10
76.30817597918684
 20
-96.40720754968292
 10
76.42462020658829
 20
-96.41134166426522
 10
76.42462020658829
 20
-96.41134166426522
 10
76.42462020658829
 20
-96.63492836125793
 10
76.42462020658829
 20
-96.63492836125793
 10
76.29749618318257
 20
-96.62666013209333
 10
76.18553057991195
 20
-96.61598033608907
 10
76.06701929521935
 20
-96.53605412083127
 10
75.90613333605819
 20
-96.4261555748518
 10
75.87237140030274
 20
-96.24046492819683
 10
75.87237140030274
 20
-96.12436521034391
 10
75.87237140030274
 20
-95.84806855242688
 10
76.05633949921508
 20
-95.64136282331188
 10
76.32919106164687
 20
-95.64136282331188
 10
76.55794540186746
 20
-95.64136282331188
 10
76.65716415184265
 20
-95.75711803161629
 10
76.88350692522357
 20
-96.06545407754614
 97
        0
 97
        0
 75
     2
 76
     1
 98
        0
  0
ENDBLK
  5
A9
330
A6
100
AcDbEntity
  8
0
100
AcDbBlockEnd
  0
BLOCK
  5
C0
330
BE
100
AcDbEntity
  8
0
100
AcDbBlockBegin
  2
block 5
 70
     0
 10
0.0
 20
0.0
 30
0.0
  3
block 5
  1

  0
SPLINE
  5
C2
330
BE
100
AcDbEntity
  8
_U+30EC_U+30A4_U+30E4_U+30FC 1
370
     0
100
AcDbSpline
210
0.0
220
0.0
230
1.0
 70
    11
 71
     3
 72
    26
 73
    22
 74
     0
 42
0.0000000001
 43
0.0000000001
 12
1.0
 22
0.0
 32
0.0
 13
1.0
 23
0.0
 33
0.0
 40
0.0
 40
0.0
 40
0.0
 40
0.0
 40
1.0
 40
1.0
 40
1.0
 40
2.0
 40
2.0
 40
2.0
 40
3.0
 40
3.0
 40
3.0
 40
4.0
 40
4.0
 40
4.0
 40
5.0
 40
5.0
 40
5.0
 40
6.0
 40
6.0
 40
6.0
 40
7.0
 40
7.0
 40
7.0
 40
7.0
 10
77.46538355268227
 20
-82.04219290483668
 30
0.0
 10
77.46538355268227
 20
-82.04219290483668
 30
0.0
 10
76.3612304496597
 20
-82.04219290483668
 30
0.0
 10
76.3612304496597
 20
-82.04219290483668
 30
0.0
 10
76.3612304496597
 20
-82.04219290483668
 30
0.0
 10
76.3612304496597
 20
-82.37154403322656
 30
0.0
 10
76.3612304496597
 20
-82.37154403322656
 30
0.0
 10
76.3612304496597
 20
-82.37154403322656
 30
0.0
 10
76.21309134379395
 20
-82.37154403322656
 30
0.0
 10
76.21309134379395
 20
-82.37154403322656
 30
0.0
 10
76.19827743320738
 20
-82.04012584754553
 30
0.0
 10
76.03532441675506
 20
-81.99361705849465
 30
0.0
 10
75.92094724664477
 20
-81.96433374687003
 30
0.0
 10
75.92094724664477
 20
-81.96433374687003
 30
0.0
 10
75.92094724664477
 20
-81.81860620784396
 30
0.0
 10
75.92094724664477
 20
-81.81860620784396
 30
0.0
 10
75.92094724664477
 20
-81.81860620784396
 30
0.0
 10
77.46538355268227
 20
-81.81860620784396
 30
0.0
 10
77.46538355268227
 20
-81.81860620784396
 30
0.0
 10
77.46538355268227
 20
-81.81860620784396
 30
0.0
 10
77.46538355268227
 20
-82.04219290483668
 30
0.0
 10
77.46538355268227
 20
-82.04219290483668
 30
0.0
  0
HATCH
  5
C3
330
BE
100
AcDbEntity
  8
_U+30EC_U+30A4_U+30E4_U+30FC 1
 62
   179
420
  2234388
100
AcDbHatch
 10
0.0
 20
0.0
 30
0.0
210
0.0
220
0.0
230
1.0
  2
SOLID
 70
     1
 71
     0
 91
        1
 92
        1
 93
        1
 72
     4
 94
        3
 73
     0
 74
     1
 95
       26
 96
       22
 40
0.0
 40
0.0
 40
0.0
 40
0.0
 40
1.0
 40
1.0
 40
1.0
 40
2.0
 40
2.0
 40
2.0
 40
3.0
 40
3.0
 40
3.0
 40
4.0
 40
4.0
 40
4.0
 40
5.0
 40
5.0
 40
5.0
 40
6.0
 40
6.0
 40
6.0
 40
7.0
 40
7.0
 40
7.0
 40
7.0
 10
77.46538355268227
 20
-82.04219290483668
 10
77.46538355268227
 20
-82.04219290483668
 10
76.3612304496597
 20
-82.04219290483668
 10
76.3612304496597
 20
-82.04219290483668
 10
76.3612304496597
 20
-82.04219290483668
 10
76.3612304496597
 20
-82.37154403322656
 10
76.3612304496597
 20
-82.37154403322656
 10
76.3612304496597
 20
-82.37154403322656
 10
76.21309134379395
 20
-82.37154403322656
 10
76.21309134379395
 20
-82.37154403322656
 10
76.19827743320738
 20
-82.04012584754553
 10
76.03532441675506
 20
-81.99361705849465
 10
75.92094724664477
 20
-81.96433374687003
 10
75.92094724664477
 20
-81.96433374687003
 10
75.92094724664477
 20
-81.81860620784396
 10
75.92094724664477
 20
-81.81860620784396
 10
75.92094724664477
 20
-81.81860620784396
 10
77.46538355268227
 20
-81.81860620784396
 10
77.46538355268227
 20
-81.81860620784396
 10
77.46538355268227
 20
-81.81860620784396
 10
77.46538355268227
 20
-82.04219290483668
 10
77.46538355268227
 20
-82.04219290483668
 97
        0
 97
        0
 75
     2
 76
     1
 98
        0
  0
ENDBLK
  5
C1
330
BE
100
AcDbEntity
  8
0
100
AcDbBlockEnd
  0
BLOCK
  5
D2
330
D0
100
AcDbEntity
  8
0
100
AcDbBlockBegin
  2
block 6
 70
     0
 10
0.0
 20
0.0
 30
0.0
  3
block 6
  1

  0
SPLINE
  5
D4
330
D0
100
AcDbEntity
  8
_U+30EC_U+30A4_U+30E4_U+30FC 1
370
     0
100
AcDbSpline
210
0.0
220
0.0
230
1.0
 70
    11
 71
     3
 72
    44
 73
    40
 74
     0
 42
0.0000000001
 43
0.0000000001
 12
1.0
 22
0.0
 32
0.0
 13
1.0
 23
0.0
 33
0.0
 40
0.0
 40
0.0
 40
0.0
 40
0.0
 40
1.0
 40
1.0
 40
1.0
 40
2.0
 40
2.0
 40
2.0
 40
3.0
 40
3.0
 40
3.0
 40
4.0
 40
4.0
 40
4.0
 40
5.0
 40
5.0
 40
5.0
 40
6.0
 40
6.0
 40
6.0
 40
7.0
 40
7.0
 40
7.0
 40
8.0
 40
8.0
 40
8.0
 40
9.0
 40
9.0
 40
9.0
 40
10.0
 40
10.0
 40
10.0
 40
11.0
 40
11.0
 40
11.0
 40
12.0
 40
12.0
 40
12.0
 40
13.0
 40
13.0
 40
13.0
 40
13.0
 10
61.11909449426884
 20
-76.23944632425611
 30
0.0
 10
60.90170896914957
 20
-76.39809297135187
 30
0.0
 10
60.80886364582209
 20
-76.47216252428474
 30
0.0
 10
60.76028779948007
 20
-76.61599526079392
 30
0.0
 10
60.76028779948007
 20
-76.61599526079392
 30
0.0
 10
61.53698457662964
 20
-76.61599526079392
 30
0.0
 10
61.53698457662964
 20
-76.61599526079392
 30
0.0
 10
61.53698457662964
 20
-76.61599526079392
 30
0.0
 10
61.53698457662964
 20
-76.82115069694055
 30
0.0
 10
61.53698457662964
 20
-76.82115069694055
 30
0.0
 10
61.53698457662964
 20
-76.82115069694055
 30
0.0
 10
60.51137965067077
 20
-76.82115069694055
 30
0.0
 10
60.51137965067077
 20
-76.82115069694055
 30
0.0
 10
60.54290227436081
 20
-76.46354978557162
 30
0.0
 10
60.60835908858055
 20
-76.38534611805645
 30
0.0
 10
60.99231498041165
 20
-76.08700084903381
 30
0.0
 10
61.24759655586866
 20
-75.88821883953489
 30
0.0
 10
61.3130533700884
 20
-75.82052271324973
 30
0.0
 10
61.3130533700884
 20
-75.68306340338826
 30
0.0
 10
61.3130533700884
 20
-75.56455211869567
 30
0.0
 10
61.24139538399521
 20
-75.43346623548192
 30
0.0
 10
61.04519719611023
 20
-75.43346623548192
 30
0.0
 10
60.78560925129666
 20
-75.43346623548192
 30
0.0
 10
60.77716876735779
 20
-75.66394312344512
 30
0.0
 10
60.77286239800123
 20
-75.78038735084657
 30
0.0
 10
60.77286239800123
 20
-75.78038735084657
 30
0.0
 10
60.54927570100852
 20
-75.78038735084657
 30
0.0
 10
60.54927570100852
 20
-75.78038735084657
 30
0.0
 10
60.55771618494738
 20
-75.65343558221511
 30
0.0
 10
60.56822372617739
 20
-75.54129772417024
 30
0.0
 10
60.64849445098371
 20
-75.42278643947763
 30
0.0
 10
60.75822074218892
 20
-75.26207273509074
 30
0.0
 10
60.94391138884389
 20
-75.22813854456102
 30
0.0
 10
61.05983885192254
 20
-75.22813854456102
 30
0.0
 10
61.33648001938811
 20
-75.22813854456102
 30
0.0
 10
61.54318574850309
 20
-75.41227889824764
 30
0.0
 10
61.54318574850309
 20
-75.68513046067942
 30
0.0
 10
61.54318574850309
 20
-75.91354029135148
 30
0.0
 10
61.42708603065017
 20
-76.0131035508752
 30
0.0
 10
61.11909449426884
 20
-76.23944632425611
 30
0.0
  0
HATCH
  5
D5
330
D0
100
AcDbEntity
  8
_U+30EC_U+30A4_U+30E4_U+30FC 1
 62
   179
420
  2234388
100
AcDbHatch
 10
0.0
 20
0.0
 30
0.0
210
0.0
220
0.0
230
1.0
  2
SOLID
 70
     1
 71
     0
 91
        1
 92
        1
 93
        1
 72
     4
 94
        3
 73
     0
 74
     1
 95
       44
 96
       40
 40
0.0
 40
0.0
 40
0.0
 40
0.0
 40
1.0
 40
1.0
 40
1.0
 40
2.0
 40
2.0
 40
2.0
 40
3.0
 40
3.0
 40
3.0
 40
4.0
 40
4.0
 40
4.0
 40
5.0
 40
5.0
 40
5.0
 40
6.0
 40
6.0
 40
6.0
 40
7.0
 40
7.0
 40
7.0
 40
8.0
 40
8.0
 40
8.0
 40
9.0
 40
9.0
 40
9.0
 40
10.0
 40
10.0
 40
10.0
 40
11.0
 40
11.0
 40
11.0
 40
12.0
 40
12.0
 40
12.0
 40
13.0
 40
13.0
 40
13.0
 40
13.0
 10
61.11909449426884
 20
-76.23944632425611
 10
60.90170896914957
 20
-76.39809297135187
 10
60.80886364582209
 20
-76.47216252428474
 10
60.76028779948007
 20
-76.61599526079392
 10
60.76028779948007
 20
-76.61599526079392
 10
61.53698457662964
 20
-76.61599526079392
 10
61.53698457662964
 20
-76.61599526079392
 10
61.53698457662964
 20
-76.61599526079392
 10
61.53698457662964
 20
-76.82115069694055
 10
61.53698457662964
 20
-76.82115069694055
 10
61.53698457662964
 20
-76.82115069694055
 10
60.51137965067077
 20
-76.82115069694055
 10
60.51137965067077
 20
-76.82115069694055
 10
60.54290227436081
 20
-76.46354978557162
 10
60.60835908858055
 20
-76.38534611805645
 10
60.99231498041165
 20
-76.08700084903381
 10
61.24759655586866
 20
-75.88821883953489
 10
61.3130533700884
 20
-75.82052271324973
 10
61.3130533700884
 20
-75.68306340338826
 10
61.3130533700884
 20
-75.56455211869567
 10
61.24139538399521
 20
-75.43346623548192
 10
61.04519719611023
 20
-75.43346623548192
 10
60.78560925129666
 20
-75.43346623548192
 10
60.77716876735779
 20
-75.66394312344512
 10
60.77286239800123
 20
-75.78038735084657
 10
60.77286239800123
 20
-75.78038735084657
 10
60.54927570100852
 20
-75.78038735084657
 10
60.54927570100852
 20
-75.78038735084657
 10
60.55771618494738
 20
-75.65343558221511
 10
60.56822372617739
 20
-75.54129772417024
 10
60.64849445098371
 20
-75.42278643947763
 10
60.75822074218892
 20
-75.26207273509074
 10
60.94391138884389
 20
-75.22813854456102
 10
61.05983885192254
 20
-75.22813854456102
 10
61.33648001938811
 20
-75.22813854456102
 10
61.54318574850309
 20
-75.41227889824764
 10
61.54318574850309
 20
-75.68513046067942
 10
61.54318574850309
 20
-75.91354029135148
 10
61.42708603065017
 20
-76.0131035508752
 10
61.11909449426884
 20
-76.23944632425611
 97
        0
 97
        0
 75
     2
 76
     1
 98
        0
  0
SPLINE
  5
D6
330
D0
100
AcDbEntity
  8
_U+30EC_U+30A4_U+30E4_U+30FC 1
370
     0
100
AcDbSpline
210
0.0
220
0.0
230
1.0
 70
    11
 71
     3
 72
    53
 73
    49
 74
     0
 42
0.0000000001
 43
0.0000000001
 12
1.0
 22
0.0
 32
0.0
 13
1.0
 23
0.0
 33
0.0
 40
0.0
 40
0.0
 40
0.0
 40
0.0
 40
1.0
 40
1.0
 40
1.0
 40
2.0
 40
2.0
 40
2.0
 40
3.0
 40
3.0
 40
3.0
 40
4.0
 40
4.0
 40
4.0
 40
5.0
 40
5.0
 40
5.0
 40
6.0
 40
6.0
 40
6.0
 40
7.0
 40
7.0
 40
7.0
 40
8.0
 40
8.0
 40
8.0
 40
9.0
 40
9.0
 40
9.0
 40
10.0
 40
10.0
 40
10.0
 40
11.0
 40
11.0
 40
11.0
 40
12.0
 40
12.0
 40
12.0
 40
13.0
 40
13.0
 40
13.0
 40
14.0
 40
14.0
 40
14.0
 40
15.0
 40
15.0
 40
15.0
 40
16.0
 40
16.0
 40
16.0
 40
16.0
 10
62.17949488462874
 20
-76.87196585534798
 30
0.0
 10
62.10129121711357
 20
-76.87196585534798
 30
0.0
 10
62.00000540984723
 20
-76.854912632696
 30
0.0
 10
61.89871960258088
 20
-76.7915228757674
 30
0.0
 10
61.72577580922134
 20
-76.68145207501367
 30
0.0
 10
61.70441621721279
 20
-76.55036619179991
 30
0.0
 10
61.68546819204391
 20
-76.44253470311159
 30
0.0
 10
61.68546819204391
 20
-76.44253470311159
 30
0.0
 10
61.90698783174548
 20
-76.44253470311159
 30
0.0
 10
61.90698783174548
 20
-76.44253470311159
 30
0.0
 10
61.96210935950948
 20
-76.6413167126105
 30
0.0
 10
62.08854436381814
 20
-76.67094453378365
 30
0.0
 10
62.18156194191989
 20
-76.67094453378365
 30
0.0
 10
62.32074379952398
 20
-76.67094453378365
 30
0.0
 10
62.4726725104235
 20
-76.5715535290342
 30
0.0
 10
62.4726725104235
 20
-76.33883732900557
 30
0.0
 10
62.4726725104235
 20
-76.08286673445151
 30
0.0
 10
62.29318303564199
 20
-76.0131035508752
 30
0.0
 10
62.17294920320676
 20
-76.0131035508752
 30
0.0
 10
62.14125432474247
 20
-76.0131035508752
 30
0.0
 10
62.00000540984723
 20
-76.0131035508752
 30
0.0
 10
61.9114664558763
 20
-76.1421223767978
 30
0.0
 10
61.9114664558763
 20
-76.1421223767978
 30
0.0
 10
61.73611109567709
 20
-76.12300209685466
 30
0.0
 10
61.73611109567709
 20
-76.12300209685466
 30
0.0
 10
61.73611109567709
 20
-76.12300209685466
 30
0.0
 10
61.85668943766083
 20
-75.27688664567731
 30
0.0
 10
61.85668943766083
 20
-75.27688664567731
 30
0.0
 10
61.85668943766083
 20
-75.27688664567731
 30
0.0
 10
62.63321396003614
 20
-75.27688664567731
 30
0.0
 10
62.63321396003614
 20
-75.27688664567731
 30
0.0
 10
62.63321396003614
 20
-75.27688664567731
 30
0.0
 10
62.63321396003614
 20
-75.47153454059392
 30
0.0
 10
62.63321396003614
 20
-75.47153454059392
 30
0.0
 10
62.63321396003614
 20
-75.47153454059392
 30
0.0
 10
62.0189534350161
 20
-75.47153454059392
 30
0.0
 10
62.0189534350161
 20
-75.47153454059392
 30
0.0
 10
62.0189534350161
 20
-75.47153454059392
 30
0.0
 10
61.95349662079635
 20
-75.8945922661826
 30
0.0
 10
61.95349662079635
 20
-75.8945922661826
 30
0.0
 10
62.0148193204338
 20
-75.86065807565289
 30
0.0
 10
62.09715710253127
 20
-75.82052271324973
 30
0.0
 10
62.21532387767534
 20
-75.82052271324973
 30
0.0
 10
62.4685383958412
 20
-75.82052271324973
 30
0.0
 10
62.70487194612934
 20
-76.00673012422749
 30
0.0
 10
62.70487194612934
 20
-76.31971704906243
 30
0.0
 10
62.70487194612934
 20
-76.6371825980282
 30
0.0
 10
62.4809407395881
 20
-76.87196585534798
 30
0.0
 10
62.17949488462874
 20
-76.87196585534798
 30
0.0
  0
HATCH
  5
D7
330
D0
100
AcDbEntity
  8
_U+30EC_U+30A4_U+30E4_U+30FC 1
 62
   179
420
  2234388
100
AcDbHatch
 10
0.0
 20
0.0
 30
0.0
210
0.0
220
0.0
230
1.0
  2
SOLID
 70
     1
 71
     0
 91
        1
 92
        1
 93
        1
 72
     4
 94
        3
 73
     0
 74
     1
 95
       53
 96
       49
 40
0.0
 40
0.0
 40
0.0
 40
0.0
 40
1.0
 40
1.0
 40
1.0
 40
2.0
 40
2.0
 40
2.0
 40
3.0
 40
3.0
 40
3.0
 40
4.0
 40
4.0
 40
4.0
 40
5.0
 40
5.0
 40
5.0
 40
6.0
 40
6.0
 40
6.0
 40
7.0
 40
7.0
 40
7.0
 40
8.0
 40
8.0
 40
8.0
 40
9.0
 40
9.0
 40
9.0
 40
10.0
 40
10.0
 40
10.0
 40
11.0
 40
11.0
 40
11.0
 40
12.0
 40
12.0
 40
12.0
 40
13.0
 40
13.0
 40
13.0
 40
14.0
 40
14.0
 40
14.0
 40
15.0
 40
15.0
 40
15.0
 40
16.0
 40
16.0
 40
16.0
 40
16.0
 10
62.17949488462874
 20
-76.87196585534798
 10
62.10129121711357
 20
-76.87196585534798
 10
62.00000540984723
 20
-76.854912632696
 10
61.89871960258088
 20
-76.7915228757674
 10
61.72577580922134
 20
-76.68145207501367
 10
61.70441621721279
 20
-76.55036619179991
 10
61.68546819204391
 20
-76.44253470311159
 10
61.68546819204391
 20
-76.44253470311159
 10
61.90698783174548
 20
-76.44253470311159
 10
61.90698783174548
 20
-76.44253470311159
 10
61.96210935950948
 20
-76.6413167126105
 10
62.08854436381814
 20
-76.67094453378365
 10
62.18156194191989
 20
-76.67094453378365
 10
62.32074379952398
 20
-76.67094453378365
 10
62.4726725104235
 20
-76.5715535290342
 10
62.4726725104235
 20
-76.33883732900557
 10
62.4726725104235
 20
-76.08286673445151
 10
62.29318303564199
 20
-76.0131035508752
 10
62.17294920320676
 20
-76.0131035508752
 10
62.14125432474247
 20
-76.0131035508752
 10
62.00000540984723
 20
-76.0131035508752
 10
61.9114664558763
 20
-76.1421223767978
 10
61.9114664558763
 20
-76.1421223767978
 10
61.73611109567709
 20
-76.12300209685466
 10
61.73611109567709
 20
-76.12300209685466
 10
61.73611109567709
 20
-76.12300209685466
 10
61.85668943766083
 20
-75.27688664567731
 10
61.85668943766083
 20
-75.27688664567731
 10
61.85668943766083
 20
-75.27688664567731
 10
62.63321396003614
 20
-75.27688664567731
 10
62.63321396003614
 20
-75.27688664567731
 10
62.63321396003614
 20
-75.27688664567731
 10
62.63321396003614
 20
-75.47153454059392
 10
62.63321396003614
 20
-75.47153454059392
 10
62.63321396003614
 20
-75.47153454059392
 10
62.0189534350161
 20
-75.47153454059392
 10
62.0189534350161
 20
-75.47153454059392
 10
62.0189534350161
 20
-75.47153454059392
 10
61.95349662079635
 20
-75.8945922661826
 10
61.95349662079635
 20
-75.8945922661826
 10
62.0148193204338
 20
-75.86065807565289
 10
62.09715710253127
 20
-75.82052271324973
 10
62.21532387767534
 20
-75.82052271324973
 10
62.4685383958412
 20
-75.82052271324973
 10
62.70487194612934
 20
-76.00673012422749
 10
62.70487194612934
 20
-76.31971704906243
 10
62.70487194612934
 20
-76.6371825980282
 10
62.4809407395881
 20
-76.87196585534798
 10
62.17949488462874
 20
-76.87196585534798
 97
        0
 97
        0
 75
     2
 76
     1
 98
        0
  0
ENDBLK
  5
D3
330
D0
100
AcDbEntity
  8
0
100
AcDbBlockEnd
  0
BLOCK
  5
E2
330
E0
100
AcDbEntity
  8
0
100
AcDbBlockBegin
  2
block 7
 70
     0
 10
0.0
 20
0.0
 30
0.0
  3
block 7
  1

  0
SPLINE
  5
E4
330
E0
100
AcDbEntity
  8
_U+30EC_U+30A4_U+30E4_U+30FC 1
370
     0
100
AcDbSpline
210
0.0
220
0.0
230
1.0
 70
    11
 71
     3
 72
    26
 73
    22
 74
     0
 42
0.0000000001
 43
0.0000000001
 12
1.0
 22
0.0
 32
0.0
 13
1.0
 23
0.0
 33
0.0
 40
0.0
 40
0.0
 40
0.0
 40
0.0
 40
1.0
 40
1.0
 40
1.0
 40
2.0
 40
2.0
 40
2.0
 40
3.0
 40
3.0
 40
3.0
 40
4.0
 40
4.0
 40
4.0
 40
5.0
 40
5.0
 40
5.0
 40
6.0
 40
6.0
 40
6.0
 40
7.0
 40
7.0
 40
7.0
 40
7.0
 10
77.46538355268227
 20
-89.6003878899263
 30
0.0
 10
77.46538355268227
 20
-89.6003878899263
 30
0.0
 10
76.3612304496597
 20
-89.6003878899263
 30
0.0
 10
76.3612304496597
 20
-89.6003878899263
 30
0.0
 10
76.3612304496597
 20
-89.6003878899263
 30
0.0
 10
76.3612304496597
 20
-89.92973901831618
 30
0.0
 10
76.3612304496597
 20
-89.92973901831618
 30
0.0
 10
76.3612304496597
 20
-89.92973901831618
 30
0.0
 10
76.21309134379395
 20
-89.92973901831618
 30
0.0
 10
76.21309134379395
 20
-89.92973901831618
 30
0.0
 10
76.19827743320738
 20
-89.59832083263515
 30
0.0
 10
76.03532441675506
 20
-89.55181204358428
 30
0.0
 10
75.92094724664477
 20
-89.52218422241113
 30
0.0
 10
75.92094724664477
 20
-89.52218422241113
 30
0.0
 10
75.92094724664477
 20
-89.37680119293358
 30
0.0
 10
75.92094724664477
 20
-89.37680119293358
 30
0.0
 10
75.92094724664477
 20
-89.37680119293358
 30
0.0
 10
77.46538355268227
 20
-89.37680119293358
 30
0.0
 10
77.46538355268227
 20
-89.37680119293358
 30
0.0
 10
77.46538355268227
 20
-89.37680119293358
 30
0.0
 10
77.46538355268227
 20
-89.6003878899263
 30
0.0
 10
77.46538355268227
 20
-89.6003878899263
 30
0.0
  0
HATCH
  5
E5
330
E0
100
AcDbEntity
  8
_U+30EC_U+30A4_U+30E4_U+30FC 1
 62
   179
420
  2234388
100
AcDbHatch
 10
0.0
 20
0.0
 30
0.0
210
0.0
220
0.0
230
1.0
  2
SOLID
 70
     1
 71
     0
 91
        1
 92
        1
 93
        1
 72
     4
 94
        3
 73
     0
 74
     1
 95
       26
 96
       22
 40
0.0
 40
0.0
 40
0.0
 40
0.0
 40
1.0
 40
1.0
 40
1.0
 40
2.0
 40
2.0
 40
2.0
 40
3.0
 40
3.0
 40
3.0
 40
4.0
 40
4.0
 40
4.0
 40
5.0
 40
5.0
 40
5.0
 40
6.0
 40
6.0
 40
6.0
 40
7.0
 40
7.0
 40
7.0
 40
7.0
 10
77.46538355268227
 20
-89.6003878899263
 10
77.46538355268227
 20
-89.6003878899263
 10
76.3612304496597
 20
-89.6003878899263
 10
76.3612304496597
 20
-89.6003878899263
 10
76.3612304496597
 20
-89.6003878899263
 10
76.3612304496597
 20
-89.92973901831618
 10
76.3612304496597
 20
-89.92973901831618
 10
76.3612304496597
 20
-89.92973901831618
 10
76.21309134379395
 20
-89.92973901831618
 10
76.21309134379395
 20
-89.92973901831618
 10
76.19827743320738
 20
-89.59832083263515
 10
76.03532441675506
 20
-89.55181204358428
 10
75.92094724664477
 20
-89.52218422241113
 10
75.92094724664477
 20
-89.52218422241113
 10
75.92094724664477
 20
-89.37680119293358
 10
75.92094724664477
 20
-89.37680119293358
 10
75.92094724664477
 20
-89.37680119293358
 10
77.46538355268227
 20
-89.37680119293358
 10
77.46538355268227
 20
-89.37680119293358
 10
77.46538355268227
 20
-89.37680119293358
 10
77.46538355268227
 20
-89.6003878899263
 10
77.46538355268227
 20
-89.6003878899263
 97
        0
 97
        0
 75
     2
 76
     1
 98
        0
  0
SPLINE
  5
E6
330
E0
100
AcDbEntity
  8
_U+30EC_U+30A4_U+30E4_U+30FC 1
370
     0
100
AcDbSpline
210
0.0
220
0.0
230
1.0
 70
    11
 71
     3
 72
    62
 73
    58
 74
     0
 42
0.0000000001
 43
0.0000000001
 12
1.0
 22
0.0
 32
0.0
 13
1.0
 23
0.0
 33
0.0
 40
0.0
 40
0.0
 40
0.0
 40
0.0
 40
1.0
 40
1.0
 40
1.0
 40
2.0
 40
2.0
 40
2.0
 40
3.0
 40
3.0
 40
3.0
 40
4.0
 40
4.0
 40
4.0
 40
5.0
 40
5.0
 40
5.0
 40
6.0
 40
6.0
 40
6.0
 40
7.0
 40
7.0
 40
7.0
 40
8.0
 40
8.0
 40
8.0
 40
9.0
 40
9.0
 40
9.0
 40
10.0
 40
10.0
 40
10.0
 40
11.0
 40
11.0
 40
11.0
 40
12.0
 40
12.0
 40
12.0
 40
13.0
 40
13.0
 40
13.0
 40
14.0
 40
14.0
 40
14.0
 40
15.0
 40
15.0
 40
15.0
 40
16.0
 40
16.0
 40
16.0
 40
17.0
 40
17.0
 40
17.0
 40
18.0
 40
18.0
 40
18.0
 40
19.0
 40
19.0
 40
19.0
 40
19.0
 10
77.51602645631544
 20
-88.38805878866688
 30
0.0
 10
77.51602645631544
 20
-88.48279891451125
 30
0.0
 10
77.49501137385542
 20
-88.70018443963052
 30
0.0
 10
77.30897621765193
 20
-88.82489689619656
 30
0.0
 10
77.19666610483279
 20
-88.8986219395809
 30
0.0
 10
77.0974473548576
 20
-88.9027560541632
 30
0.0
 10
77.01269800592044
 20
-88.9068901687455
 30
0.0
 10
77.01269800592044
 20
-88.9068901687455
 30
0.0
 10
77.01269800592044
 20
-88.68778209588362
 30
0.0
 10
77.01269800592044
 20
-88.68778209588362
 30
0.0
 10
77.08676755885331
 20
-88.68537052904394
 30
0.0
 10
77.32137856139883
 20
-88.6750352425882
 30
0.0
 10
77.32137856139883
 20
-88.39219290324918
 30
0.0
 10
77.32137856139883
 20
-88.25507810293624
 30
0.0
 10
77.25178763259677
 20
-88.10314939203671
 30
0.0
 10
77.02337780192471
 20
-88.10314939203671
 30
0.0
 10
76.90693357452326
 20
-88.10314939203671
 30
0.0
 10
76.85835772818125
 20
-88.14104544237446
 30
0.0
 10
76.82666284971695
 20
-88.17274032083877
 30
0.0
 10
76.75259329678408
 20
-88.24646536422311
 30
0.0
 10
76.73984644348866
 20
-88.36256508207603
 30
0.0
 10
76.73984644348866
 20
-88.41768660984003
 30
0.0
 10
76.73984644348866
 20
-88.4366346350089
 30
0.0
 10
76.7419135007798
 20
-88.4724636280555
 30
0.0
 10
76.7460476153621
 20
-88.49967988238897
 30
0.0
 10
76.7460476153621
 20
-88.49967988238897
 30
0.0
 10
76.55139972044549
 20
-88.49967988238897
 30
0.0
 10
76.55139972044549
 20
-88.49967988238897
 30
0.0
 10
76.55794540186746
 20
-88.46178383205122
 30
0.0
 10
76.56001245915861
 20
-88.41975366713118
 30
0.0
 10
76.56001245915861
 20
-88.4132079857092
 30
0.0
 10
76.56001245915861
 20
-88.34775117148945
 30
0.0
 10
76.53865286715006
 20
-88.14965818108759
 30
0.0
 10
76.3019748073134
 20
-88.14965818108759
 30
0.0
 10
76.12420788027451
 20
-88.14965818108759
 30
0.0
 10
76.06908635251051
 20
-88.28022729997856
 30
0.0
 10
76.06908635251051
 20
-88.39012584595802
 30
0.0
 10
76.06908635251051
 20
-88.65402016012817
 30
0.0
 10
76.3019748073134
 20
-88.66228838929277
 30
0.0
 10
76.3736327934066
 20
-88.66642250387507
 30
0.0
 10
76.3736327934066
 20
-88.66642250387507
 30
0.0
 10
76.3736327934066
 20
-88.86899411840776
 30
0.0
 10
76.3736327934066
 20
-88.86899411840776
 30
0.0
 10
76.24892033684056
 20
-88.86072588924316
 30
0.0
 10
75.87237140030274
 20
-88.83316512536116
 30
0.0
 10
75.87237140030274
 20
-88.3773789926626
 30
0.0
 10
75.87237140030274
 20
-88.15379229566989
 30
0.0
 10
75.99949542370847
 20
-87.91332463079945
 30
0.0
 10
76.29542912589143
 20
-87.91332463079945
 30
0.0
 10
76.48180879164345
 20
-87.91332463079945
 30
0.0
 10
76.56414657374091
 20
-88.00806475664382
 30
0.0
 10
76.62546927337836
 20
-88.10728350661901
 30
0.0
 10
76.65303003726035
 20
-88.0463053165301
 30
0.0
 10
76.73330076206668
 20
-87.86474878445743
 30
0.0
 10
77.01063094862928
 20
-87.86474878445743
 30
0.0
 10
77.34893932528082
 20
-87.86474878445743
 30
0.0
 10
77.51602645631544
 20
-88.11141762120131
 30
0.0
 10
77.51602645631544
 20
-88.38805878866688
 30
0.0
  0
HATCH
  5
E7
330
E0
100
AcDbEntity
  8
_U+30EC_U+30A4_U+30E4_U+30FC 1
 62
   179
420
  2234388
100
AcDbHatch
 10
0.0
 20
0.0
 30
0.0
210
0.0
220
0.0
230
1.0
  2
SOLID
 70
     1
 71
     0
 91
        1
 92
        1
 93
        1
 72
     4
 94
        3
 73
     0
 74
     1
 95
       62
 96
       58
 40
0.0
 40
0.0
 40
0.0
 40
0.0
 40
1.0
 40
1.0
 40
1.0
 40
2.0
 40
2.0
 40
2.0
 40
3.0
 40
3.0
 40
3.0
 40
4.0
 40
4.0
 40
4.0
 40
5.0
 40
5.0
 40
5.0
 40
6.0
 40
6.0
 40
6.0
 40
7.0
 40
7.0
 40
7.0
 40
8.0
 40
8.0
 40
8.0
 40
9.0
 40
9.0
 40
9.0
 40
10.0
 40
10.0
 40
10.0
 40
11.0
 40
11.0
 40
11.0
 40
12.0
 40
12.0
 40
12.0
 40
13.0
 40
13.0
 40
13.0
 40
14.0
 40
14.0
 40
14.0
 40
15.0
 40
15.0
 40
15.0
 40
16.0
 40
16.0
 40
16.0
 40
17.0
 40
17.0
 40
17.0
 40
18.0
 40
18.0
 40
18.0
 40
19.0
 40
19.0
 40
19.0
 40
19.0
 10
77.51602645631544
 20
-88.38805878866688
 10
77.51602645631544
 20
-88.48279891451125
 10
77.49501137385542
 20
-88.70018443963052
 10
77.30897621765193
 20
-88.82489689619656
 10
77.19666610483279
 20
-88.8986219395809
 10
77.0974473548576
 20
-88.9027560541632
 10
77.01269800592044
 20
-88.9068901687455
 10
77.01269800592044
 20
-88.9068901687455
 10
77.01269800592044
 20
-88.68778209588362
 10
77.01269800592044
 20
-88.68778209588362
 10
77.08676755885331
 20
-88.68537052904394
 10
77.32137856139883
 20
-88.6750352425882
 10
77.32137856139883
 20
-88.39219290324918
 10
77.32137856139883
 20
-88.25507810293624
 10
77.25178763259677
 20
-88.10314939203671
 10
77.02337780192471
 20
-88.10314939203671
 10
76.90693357452326
 20
-88.10314939203671
 10
76.85835772818125
 20
-88.14104544237446
 10
76.82666284971695
 20
-88.17274032083877
 10
76.75259329678408
 20
-88.24646536422311
 10
76.73984644348866
 20
-88.36256508207603
 10
76.73984644348866
 20
-88.41768660984003
 10
76.73984644348866
 20
-88.4366346350089
 10
76.7419135007798
 20
-88.4724636280555
 10
76.7460476153621
 20
-88.49967988238897
 10
76.7460476153621
 20
-88.49967988238897
 10
76.55139972044549
 20
-88.49967988238897
 10
76.55139972044549
 20
-88.49967988238897
 10
76.55794540186746
 20
-88.46178383205122
 10
76.56001245915861
 20
-88.41975366713118
 10
76.56001245915861
 20
-88.4132079857092
 10
76.56001245915861
 20
-88.34775117148945
 10
76.53865286715006
 20
-88.14965818108759
 10
76.3019748073134
 20
-88.14965818108759
 10
76.12420788027451
 20
-88.14965818108759
 10
76.06908635251051
 20
-88.28022729997856
 10
76.06908635251051
 20
-88.39012584595802
 10
76.06908635251051
 20
-88.65402016012817
 10
76.3019748073134
 20
-88.66228838929277
 10
76.3736327934066
 20
-88.66642250387507
 10
76.3736327934066
 20
-88.66642250387507
 10
76.3736327934066
 20
-88.86899411840776
 10
76.3736327934066
 20
-88.86899411840776
 10
76.24892033684056
 20
-88.86072588924316
 10
75.87237140030274
 20
-88.83316512536116
 10
75.87237140030274
 20
-88.3773789926626
 10
75.87237140030274
 20
-88.15379229566989
 10
75.99949542370847
 20
-87.91332463079945
 10
76.29542912589143
 20
-87.91332463079945
 10
76.48180879164345
 20
-87.91332463079945
 10
76.56414657374091
 20
-88.00806475664382
 10
76.62546927337836
 20
-88.10728350661901
 10
76.65303003726035
 20
-88.0463053165301
 10
76.73330076206668
 20
-87.86474878445743
 10
77.01063094862928
 20
-87.86474878445743
 10
77.34893932528082
 20
-87.86474878445743
 10
77.51602645631544
 20
-88.11141762120131
 10
77.51602645631544
 20
-88.38805878866688
 97
        0
 97
        0
 75
     2
 76
     1
 98
        0
  0
ENDBLK
  5
E3
330
E0
100
AcDbEntity
  8
0
100
AcDbBlockEnd
  0
ENDSEC
  0
SECTION
  2
ENTITIES
  0
INSERT
  5
42
330
1F
100
AcDbEntity
  8
_U+30EC_U+30A4_U+30E4_U+30FC 1
100
AcDbBlockReference
  2
block 2
 10
0.0
 20
0.0
 30
0.0
  0
SPLINE
  5
7D
330
1F
100
AcDbEntity
  8
_U+30EC_U+30A4_U+30E4_U+30FC 1
 62
   179
420
  2234388
370
     9
100
AcDbSpline
210
0.0
220
0.0
230
1.0
 70
    11
 71
     3
 72
    17
 73
    13
 74
     0
 42
0.0000000001
 43
0.0000000001
 12
1.0
 22
0.0
 32
0.0
 13
1.0
 23
0.0
 33
0.0
 40
0.0
 40
0.0
 40
0.0
 40
0.0
 40
1.0
 40
1.0
 40
1.0
 40
2.0
 40
2.0
 40
2.0
 40
3.0
 40
3.0
 40
3.0
 40
4.0
 40
4.0
 40
4.0
 40
4.0
 10
57.21131131819563
 20
-102.6672938632222
 30
0.0
 10
57.21131131819563
 20
-102.6121546965691
 30
0.0
 10
57.16654381933774
 20
-102.5673871965806
 30
0.0
 10
57.11140465407779
 20
-102.5673871965806
 30
0.0
 10
57.05630076659472
 20
-102.5673871965806
 30
0.0
 10
57.01149798995996
 20
-102.6121546965691
 30
0.0
 10
57.01149798995996
 20
-102.6672938632222
 30
0.0
 10
57.01149798995996
 20
-102.7223977520971
 30
0.0
 10
57.05630076659472
 20
-102.7672005298639
 30
0.0
 10
57.11140465407779
 20
-102.7672005298639
 30
0.0
 10
57.16654381933774
 20
-102.7672005298639
 30
0.0
 10
57.21131131819563
 20
-102.7223977520971
 30
0.0
 10
57.21131131819563
 20
-102.6672938632222
 30
0.0
  0
SPLINE
  5
7E
330
1F
100
AcDbEntity
  8
_U+30EC_U+30A4_U+30E4_U+30FC 1
 62
   179
420
  2234388
370
     9
100
AcDbSpline
210
0.0
220
0.0
230
1.0
 70
    11
 71
     3
 72
    17
 73
    13
 74
     0
 42
0.0000000001
 43
0.0000000001
 12
1.0
 22
0.0
 32
0.0
 13
1.0
 23
0.0
 33
0.0
 40
0.0
 40
0.0
 40
0.0
 40
0.0
 40
1.0
 40
1.0
 40
1.0
 40
2.0
 40
2.0
 40
2.0
 40
3.0
 40
3.0
 40
3.0
 40
4.0
 40
4.0
 40
4.0
 40
4.0
 10
47.21157851775451
 20
-102.6672938632222
 30
0.0
 10
47.21157851775451
 20
-102.6121546965691
 30
0.0
 10
47.16681101889662
 20
-102.5673871965806
 30
0.0
 10
47.11100276599991
 20
-102.5673871965806
 30
0.0
 10
47.05586241061604
 20
-102.5673871965806
 30
0.0
 10
47.01109491175816
 20
-102.6121546965691
 30
0.0
 10
47.01109491175816
 20
-102.6672938632222
 30
0.0
 10
47.01109491175816
 20
-102.7223977520971
 30
0.0
 10
47.05586241061604
 20
-102.7672005298639
 30
0.0
 10
47.11100276599991
 20
-102.7672005298639
 30
0.0
 10
47.16681101889662
 20
-102.7672005298639
 30
0.0
 10
47.21157851775451
 20
-102.7223977520971
 30
0.0
 10
47.21157851775451
 20
-102.6672938632222
 30
0.0
  0
SPLINE
  5
7F
330
1F
100
AcDbEntity
  8
_U+30EC_U+30A4_U+30E4_U+30FC 1
 62
   179
420
  2234388
370
     9
100
AcDbSpline
210
0.0
220
0.0
230
1.0
 70
    11
 71
     3
 72
    17
 73
    13
 74
     0
 42
0.0000000001
 43
0.0000000001
 12
1.0
 22
0.0
 32
0.0
 13
1.0
 23
0.0
 33
0.0
 40
0.0
 40
0.0
 40
0.0
 40
0.0
 40
1.0
 40
1.0
 40
1.0
 40
2.0
 40
2.0
 40
2.0
 40
3.0
 40
3.0
 40
3.0
 40
4.0
 40
4.0
 40
4.0
 40
4.0
 10
78.21125467133133
 20
-81.46686636852206
 30
0.0
 10
78.21125467133133
 20
-81.41172720186931
 30
0.0
 10
78.16645189469656
 20
-81.36695970188043
 30
0.0
 10
78.11134998047204
 20
-81.36695970188043
 30
0.0
 10
78.05620884195355
 20
-81.36695970188043
 30
0.0
 10
78.01144134309565
 20
-81.41172720186931
 30
0.0
 10
78.01144134309565
 20
-81.46686636852206
 30
0.0
 10
78.01144134309565
 20
-81.5219702573973
 30
0.0
 10
78.05620884195355
 20
-81.56677303516402
 30
0.0
 10
78.11134998047204
 20
-81.56677303516402
 30
0.0
 10
78.16645189469656
 20
-81.56677303516402
 30
0.0
 10
78.21125467133133
 20
-81.5219702573973
 30
0.0
 10
78.21125467133133
 20
-81.46686636852206
 30
0.0
  0
SPLINE
  5
80
330
1F
100
AcDbEntity
  8
_U+30EC_U+30A4_U+30E4_U+30FC 1
 62
   179
420
  2234388
370
     9
100
AcDbSpline
210
0.0
220
0.0
230
1.0
 70
    11
 71
     3
 72
    17
 73
    13
 74
     0
 42
0.0000000001
 43
0.0000000001
 12
1.0
 22
0.0
 32
0.0
 13
1.0
 23
0.0
 33
0.0
 40
0.0
 40
0.0
 40
0.0
 40
0.0
 40
1.0
 40
1.0
 40
1.0
 40
2.0
 40
2.0
 40
2.0
 40
3.0
 40
3.0
 40
3.0
 40
4.0
 40
4.0
 40
4.0
 40
4.0
 10
78.21125467133133
 20
-82.46730886827197
 30
0.0
 10
78.21125467133133
 20
-82.41220497939705
 30
0.0
 10
78.16645189469656
 20
-82.36740220163033
 30
0.0
 10
78.11134998047204
 20
-82.36740220163033
 30
0.0
 10
78.05620884195355
 20
-82.36740220163033
 30
0.0
 10
78.01144134309565
 20
-82.41220497939705
 30
0.0
 10
78.01144134309565
 20
-82.46730886827197
 30
0.0
 10
78.01144134309565
 20
-82.52244803492505
 30
0.0
 10
78.05620884195355
 20
-82.5672155349136
 30
0.0
 10
78.11134998047204
 20
-82.5672155349136
 30
0.0
 10
78.16645189469656
 20
-82.5672155349136
 30
0.0
 10
78.21125467133133
 20
-82.52244803492505
 30
0.0
 10
78.21125467133133
 20
-82.46730886827197
 30
0.0
  0
SPLINE
  5
81
330
1F
100
AcDbEntity
  8
_U+30EC_U+30A4_U+30E4_U+30FC 1
 62
   179
420
  2234388
370
     9
100
AcDbSpline
210
0.0
220
0.0
230
1.0
 70
    11
 71
     3
 72
    17
 73
    13
 74
     0
 42
0.0000000001
 43
0.0000000001
 12
1.0
 22
0.0
 32
0.0
 13
1.0
 23
0.0
 33
0.0
 40
0.0
 40
0.0
 40
0.0
 40
0.0
 40
1.0
 40
1.0
 40
1.0
 40
2.0
 40
2.0
 40
2.0
 40
3.0
 40
3.0
 40
3.0
 40
4.0
 40
4.0
 40
4.0
 40
4.0
 10
78.21125467133133
 20
-95.4670288650222
 30
0.0
 10
78.21125467133133
 20
-95.41192497614729
 30
0.0
 10
78.16645189469656
 20
-95.36712219838057
 30
0.0
 10
78.11134998047204
 20
-95.36712219838057
 30
0.0
 10
78.05620884195355
 20
-95.36712219838057
 30
0.0
 10
78.01144134309565
 20
-95.41192497614729
 30
0.0
 10
78.01144134309565
 20
-95.4670288650222
 30
0.0
 10
78.01144134309565
 20
-95.52216803167528
 30
0.0
 10
78.05620884195355
 20
-95.56693553166384
 30
0.0
 10
78.11134998047204
 20
-95.56693553166384
 30
0.0
 10
78.16645189469656
 20
-95.56693553166384
 30
0.0
 10
78.21125467133133
 20
-95.52216803167528
 30
0.0
 10
78.21125467133133
 20
-95.4670288650222
 30
0.0
  0
SPLINE
  5
82
330
1F
100
AcDbEntity
  8
_U+30EC_U+30A4_U+30E4_U+30FC 1
 62
   179
420
  2234388
370
     9
100
AcDbSpline
210
0.0
220
0.0
230
1.0
 70
    11
 71
     3
 72
    17
 73
    13
 74
     0
 42
0.0000000001
 43
0.0000000001
 12
1.0
 22
0.0
 32
0.0
 13
1.0
 23
0.0
 33
0.0
 40
0.0
 40
0.0
 40
0.0
 40
0.0
 40
1.0
 40
1.0
 40
1.0
 40
2.0
 40
2.0
 40
2.0
 40
3.0
 40
3.0
 40
3.0
 40
4.0
 40
4.0
 40
4.0
 40
4.0
 10
78.21125467133133
 20
-98.66682914199983
 30
0.0
 10
78.21125467133133
 20
-98.6117252531249
 30
0.0
 10
78.16645189469656
 20
-98.56692247535818
 30
0.0
 10
78.11134998047204
 20
-98.56692247535818
 30
0.0
 10
78.05620884195355
 20
-98.56692247535818
 30
0.0
 10
78.01144134309565
 20
-98.6117252531249
 30
0.0
 10
78.01144134309565
 20
-98.66682914199983
 30
0.0
 10
78.01144134309565
 20
-98.72267386420842
 30
0.0
 10
78.05620884195355
 20
-98.76744136419698
 30
0.0
 10
78.11134998047204
 20
-98.76744136419698
 30
0.0
 10
78.16645189469656
 20
-98.76744136419698
 30
0.0
 10
78.21125467133133
 20
-98.72267386420842
 30
0.0
 10
78.21125467133133
 20
-98.66682914199983
 30
0.0
  0
SPLINE
  5
83
330
1F
100
AcDbEntity
  8
_U+30EC_U+30A4_U+30E4_U+30FC 1
 62
   179
420
  2234388
370
     9
100
AcDbSpline
210
0.0
220
0.0
230
1.0
 70
    11
 71
     3
 72
    17
 73
    13
 74
     0
 42
0.0000000001
 43
0.0000000001
 12
1.0
 22
0.0
 32
0.0
 13
1.0
 23
0.0
 33
0.0
 40
0.0
 40
0.0
 40
0.0
 40
0.0
 40
1.0
 40
1.0
 40
1.0
 40
2.0
 40
2.0
 40
2.0
 40
3.0
 40
3.0
 40
3.0
 40
4.0
 40
4.0
 40
4.0
 40
4.0
 10
74.21149560670702
 20
-77.4671072028555
 30
0.0
 10
74.21149560670702
 20
-77.41196803620242
 30
0.0
 10
74.16669283007225
 20
-77.36720053621386
 30
0.0
 10
74.11158894258918
 20
-77.36720053621386
 30
0.0
 10
74.05644977732923
 20
-77.36720053621386
 30
0.0
 10
74.01168227847134
 20
-77.41196803620242
 30
0.0
 10
74.01168227847134
 20
-77.4671072028555
 30
0.0
 10
74.01168227847134
 20
-77.52221109173041
 30
0.0
 10
74.05644977732923
 20
-77.56701386949715
 30
0.0
 10
74.11158894258918
 20
-77.56701386949715
 30
0.0
 10
74.16669283007225
 20
-77.56701386949715
 30
0.0
 10
74.21149560670702
 20
-77.52221109173041
 30
0.0
 10
74.21149560670702
 20
-77.4671072028555
 30
0.0
  0
SPLINE
  5
84
330
1F
100
AcDbEntity
  8
_U+30EC_U+30A4_U+30E4_U+30FC 1
 62
   179
420
  2234388
370
     9
100
AcDbSpline
210
0.0
220
0.0
230
1.0
 70
    11
 71
     3
 72
    17
 73
    13
 74
     0
 42
0.0000000001
 43
0.0000000001
 12
1.0
 22
0.0
 32
0.0
 13
1.0
 23
0.0
 33
0.0
 40
0.0
 40
0.0
 40
0.0
 40
0.0
 40
1.0
 40
1.0
 40
1.0
 40
2.0
 40
2.0
 40
2.0
 40
3.0
 40
3.0
 40
3.0
 40
4.0
 40
4.0
 40
4.0
 40
4.0
 10
49.21112291118633
 20
-77.4671072028555
 30
0.0
 10
49.21112291118633
 20
-77.41196803620242
 30
0.0
 10
49.16632013455156
 20
-77.36720053621386
 30
0.0
 10
49.11121624706849
 20
-77.36720053621386
 30
0.0
 10
49.05607708180854
 20
-77.36720053621386
 30
0.0
 10
49.01130958295065
 20
-77.41196803620242
 30
0.0
 10
49.01130958295065
 20
-77.4671072028555
 30
0.0
 10
49.01130958295065
 20
-77.52221109173041
 30
0.0
 10
49.05607708180854
 20
-77.56701386949715
 30
0.0
 10
49.11121624706849
 20
-77.56701386949715
 30
0.0
 10
49.16632013455156
 20
-77.56701386949715
 30
0.0
 10
49.21112291118633
 20
-77.52221109173041
 30
0.0
 10
49.21112291118633
 20
-77.4671072028555
 30
0.0
  0
POLYLINE
  5
85
330
1F
100
AcDbEntity
  8
_U+30EC_U+30A4_U+30E4_U+30FC 1
 62
   179
420
  2234388
370
     9
100
AcDb2dPolyline
 66
     1
 10
0.0
 20
0.0
 30
0.0
  0
VERTEX
  5
86
330
85
100
AcDbEntity
  8
_U+30EC_U+30A4_U+30E4_U+30FC 1
 62
   179
420
  2234388
370
     9
100
AcDbVertex
100
AcDb2dVertex
 10
47.11100276599991
 20
-102.6672938632222
 30
0.0
  0
VERTEX
  5
87
330
85
100
AcDbEntity
  8
_U+30EC_U+30A4_U+30E4_U+30FC 1
 62
   179
420
  2234388
370
     9
100
AcDbVertex
100
AcDb2dVertex
 10
57.11140465407779
 20
-102.6672938632222
 30
0.0
  0
SEQEND
  5
88
330
85
100
AcDbEntity
  8
_U+30EC_U+30A4_U+30E4_U+30FC 1
 62
   179
420
  2234388
370
     9
  0
POLYLINE
  5
89
330
1F
100
AcDbEntity
  8
_U+30EC_U+30A4_U+30E4_U+30FC 1
 62
   179
420
  2234388
370
     9
100
AcDb2dPolyline
 66
     1
 10
0.0
 20
0.0
 30
0.0
  0
VERTEX
  5
8A
330
89
100
AcDbEntity
  8
_U+30EC_U+30A4_U+30E4_U+30FC 1
 62
   179
420
  2234388
370
     9
100
AcDbVertex
100
AcDb2dVertex
 10
47.11100276599991
 20
-101.2072524746979
 30
0.0
  0
VERTEX
  5
8B
330
89
100
AcDbEntity
  8
_U+30EC_U+30A4_U+30E4_U+30FC 1
 62
   179
420
  2234388
370
     9
100
AcDbVertex
100
AcDb2dVertex
 10
47.11100276599991
 20
-103.6670660851941
 30
0.0
  0
SEQEND
  5
8C
330
89
100
AcDbEntity
  8
_U+30EC_U+30A4_U+30E4_U+30FC 1
 62
   179
420
  2234388
370
     9
  0
POLYLINE
  5
8D
330
1F
100
AcDbEntity
  8
_U+30EC_U+30A4_U+30E4_U+30FC 1
 62
   179
420
  2234388
370
     9
100
AcDb2dPolyline
 66
     1
 10
0.0
 20
0.0
 30
0.0
  0
VERTEX
  5
8E
330
8D
100
AcDbEntity
  8
_U+30EC_U+30A4_U+30E4_U+30FC 1
 62
   179
420
  2234388
370
     9
100
AcDbVertex
100
AcDb2dVertex
 10
57.11140465407779
 20
-101.2072524746979
 30
0.0
  0
VERTEX
  5
8F
330
8D
100
AcDbEntity
  8
_U+30EC_U+30A4_U+30E4_U+30FC 1
 62
   179
420
  2234388
370
     9
100
AcDbVertex
100
AcDb2dVertex
 10
57.11140465407779
 20
-103.6670660851941
 30
0.0
  0
SEQEND
  5
90
330
8D
100
AcDbEntity
  8
_U+30EC_U+30A4_U+30E4_U+30FC 1
 62
   179
420
  2234388
370
     9
  0
INSERT
  5
92
330
1F
100
AcDbEntity
  8
_U+30EC_U+30A4_U+30E4_U+30FC 1
100
AcDbBlockReference
  2
block 3
 10
0.0
 20
0.0
 30
0.0
  0
POLYLINE
  5
9A
330
1F
100
AcDbEntity
  8
_U+30EC_U+30A4_U+30E4_U+30FC 1
 62
   179
420
  2234388
370
     9
100
AcDb2dPolyline
 66
     1
 10
0.0
 20
0.0
 30
0.0
  0
VERTEX
  5
9B
330
9A
100
AcDbEntity
  8
_U+30EC_U+30A4_U+30E4_U+30FC 1
 62
   179
420
  2234388
370
     9
100
AcDbVertex
100
AcDb2dVertex
 10
78.11134998047204
 20
-95.4670288650222
 30
0.0
  0
VERTEX
  5
9C
330
9A
100
AcDbEntity
  8
_U+30EC_U+30A4_U+30E4_U+30FC 1
 62
   179
420
  2234388
370
     9
100
AcDbVertex
100
AcDb2dVertex
 10
78.11134998047204
 20
-98.66682914199983
 30
0.0
  0
SEQEND
  5
9D
330
9A
100
AcDbEntity
  8
_U+30EC_U+30A4_U+30E4_U+30FC 1
 62
   179
420
  2234388
370
     9
  0
POLYLINE
  5
9E
330
1F
100
AcDbEntity
  8
_U+30EC_U+30A4_U+30E4_U+30FC 1
 62
   179
420
  2234388
370
     9
100
AcDb2dPolyline
 66
     1
 10
0.0
 20
0.0
 30
0.0
  0
VERTEX
  5
9F
330
9E
100
AcDbEntity
  8
_U+30EC_U+30A4_U+30E4_U+30FC 1
 62
   179
420
  2234388
370
     9
100
AcDbVertex
100
AcDb2dVertex
 10
59.65112236706197
 20
-95.4670288650222
 30
0.0
  0
VERTEX
  5
A0
330
9E
100
AcDbEntity
  8
_U+30EC_U+30A4_U+30E4_U+30FC 1
 62
   179
420
  2234388
370
     9
100
AcDbVertex
100
AcDb2dVertex
 10
79.11112220244459
 20
-95.4670288650222
 30
0.0
  0
SEQEND
  5
A1
330
9E
100
AcDbEntity
  8
_U+30EC_U+30A4_U+30E4_U+30FC 1
 62
   179
420
  2234388
370
     9
  0
POLYLINE
  5
A2
330
1F
100
AcDbEntity
  8
_U+30EC_U+30A4_U+30E4_U+30FC 1
 62
   179
420
  2234388
370
     9
100
AcDb2dPolyline
 66
     1
 10
0.0
 20
0.0
 30
0.0
  0
VERTEX
  5
A3
330
A2
100
AcDbEntity
  8
_U+30EC_U+30A4_U+30E4_U+30FC 1
 62
   179
420
  2234388
370
     9
100
AcDbVertex
100
AcDb2dVertex
 10
59.65112236706197
 20
-98.66682914199983
 30
0.0
  0
VERTEX
  5
A4
330
A2
100
AcDbEntity
  8
_U+30EC_U+30A4_U+30E4_U+30FC 1
 62
   179
420
  2234388
370
     9
100
AcDbVertex
100
AcDb2dVertex
 10
79.11112220244459
 20
-98.66682914199983
 30
0.0
  0
SEQEND
  5
A5
330
A2
100
AcDbEntity
  8
_U+30EC_U+30A4_U+30E4_U+30FC 1
 62
   179
420
  2234388
370
     9
  0
INSERT
  5
A7
330
1F
100
AcDbEntity
  8
_U+30EC_U+30A4_U+30E4_U+30FC 1
100
AcDbBlockReference
  2
block 4
 10
0.0
 20
0.0
 30
0.0
  0
POLYLINE
  5
B6
330
1F
100
AcDbEntity
  8
_U+30EC_U+30A4_U+30E4_U+30FC 1
 62
   179
420
  2234388
370
     9
100
AcDb2dPolyline
 66
     1
 10
0.0
 20
0.0
 30
0.0
  0
VERTEX
  5
B7
330
B6
100
AcDbEntity
  8
_U+30EC_U+30A4_U+30E4_U+30FC 1
 62
   179
420
  2234388
370
     9
100
AcDbVertex
100
AcDb2dVertex
 10
78.11134998047204
 20
-82.46730886827197
 30
0.0
  0
VERTEX
  5
B8
330
B6
100
AcDbEntity
  8
_U+30EC_U+30A4_U+30E4_U+30FC 1
 62
   179
420
  2234388
370
     9
100
AcDbVertex
100
AcDb2dVertex
 10
78.11134998047204
 20
-81.46686636852206
 30
0.0
  0
SEQEND
  5
B9
330
B6
100
AcDbEntity
  8
_U+30EC_U+30A4_U+30E4_U+30FC 1
 62
   179
420
  2234388
370
     9
  0
POLYLINE
  5
BA
330
1F
100
AcDbEntity
  8
_U+30EC_U+30A4_U+30E4_U+30FC 1
 62
   179
420
  2234388
370
     9
100
AcDb2dPolyline
 66
     1
 10
0.0
 20
0.0
 30
0.0
  0
VERTEX
  5
BB
330
BA
100
AcDbEntity
  8
_U+30EC_U+30A4_U+30E4_U+30FC 1
 62
   179
420
  2234388
370
     9
100
AcDbVertex
100
AcDb2dVertex
 10
76.65130665557336
 20
-81.46686636852206
 30
0.0
  0
VERTEX
  5
BC
330
BA
100
AcDbEntity
  8
_U+30EC_U+30A4_U+30E4_U+30FC 1
 62
   179
420
  2234388
370
     9
100
AcDbVertex
100
AcDb2dVertex
 10
79.11112220244459
 20
-81.46686636852206
 30
0.0
  0
SEQEND
  5
BD
330
BA
100
AcDbEntity
  8
_U+30EC_U+30A4_U+30E4_U+30FC 1
 62
   179
420
  2234388
370
     9
  0
INSERT
  5
BF
330
1F
100
AcDbEntity
  8
_U+30EC_U+30A4_U+30E4_U+30FC 1
100
AcDbBlockReference
  2
block 5
 10
0.0
 20
0.0
 30
0.0
  0
POLYLINE
  5
C4
330
1F
100
AcDbEntity
  8
_U+30EC_U+30A4_U+30E4_U+30FC 1
 62
   179
420
  2234388
370
     9
100
AcDb2dPolyline
 66
     1
 10
0.0
 20
0.0
 30
0.0
  0
VERTEX
  5
C5
330
C4
100
AcDbEntity
  8
_U+30EC_U+30A4_U+30E4_U+30FC 1
 62
   179
420
  2234388
370
     9
100
AcDbVertex
100
AcDb2dVertex
 10
49.11121624706849
 20
-77.4671072028555
 30
0.0
  0
VERTEX
  5
C6
330
C4
100
AcDbEntity
  8
_U+30EC_U+30A4_U+30E4_U+30FC 1
 62
   179
420
  2234388
370
     9
100
AcDbVertex
100
AcDb2dVertex
 10
74.11158894258918
 20
-77.4671072028555
 30
0.0
  0
SEQEND
  5
C7
330
C4
100
AcDbEntity
  8
_U+30EC_U+30A4_U+30E4_U+30FC 1
 62
   179
420
  2234388
370
     9
  0
POLYLINE
  5
C8
330
1F
100
AcDbEntity
  8
_U+30EC_U+30A4_U+30E4_U+30FC 1
 62
   179
420
  2234388
370
     9
100
AcDb2dPolyline
 66
     1
 10
0.0
 20
0.0
 30
0.0
  0
VERTEX
  5
C9
330
C8
100
AcDbEntity
  8
_U+30EC_U+30A4_U+30E4_U+30FC 1
 62
   179
420
  2234388
370
     9
100
AcDbVertex
100
AcDb2dVertex
 10
49.11121624706849
 20
-78.92714859137921
 30
0.0
  0
VERTEX
  5
CA
330
C8
100
AcDbEntity
  8
_U+30EC_U+30A4_U+30E4_U+30FC 1
 62
   179
420
  2234388
370
     9
100
AcDbVertex
100
AcDb2dVertex
 10
49.11121624706849
 20
-76.46733498088328
 30
0.0
  0
SEQEND
  5
CB
330
C8
100
AcDbEntity
  8
_U+30EC_U+30A4_U+30E4_U+30FC 1
 62
   179
420
  2234388
370
     9
  0
POLYLINE
  5
CC
330
1F
100
AcDbEntity
  8
_U+30EC_U+30A4_U+30E4_U+30FC 1
 62
   179
420
  2234388
370
     9
100
AcDb2dPolyline
 66
     1
 10
0.0
 20
0.0
 30
0.0
  0
VERTEX
  5
CD
330
CC
100
AcDbEntity
  8
_U+30EC_U+30A4_U+30E4_U+30FC 1
 62
   179
420
  2234388
370
     9
100
AcDbVertex
100
AcDb2dVertex
 10
74.11158894258918
 20
-78.92714859137921
 30
0.0
  0
VERTEX
  5
CE
330
CC
100
AcDbEntity
  8
_U+30EC_U+30A4_U+30E4_U+30FC 1
 62
   179
420
  2234388
370
     9
100
AcDbVertex
100
AcDb2dVertex
 10
74.11158894258918
 20
-76.46733498088328
 30
0.0
  0
SEQEND
  5
CF
330
CC
100
AcDbEntity
  8
_U+30EC_U+30A4_U+30E4_U+30FC 1
 62
   179
420
  2234388
370
     9
  0
INSERT
  5
D1
330
1F
100
AcDbEntity
  8
_U+30EC_U+30A4_U+30E4_U+30FC 1
100
AcDbBlockReference
  2
block 6
 10
0.0
 20
0.0
 30
0.0
  0
POLYLINE
  5
D8
330
1F
100
AcDbEntity
  8
_U+30EC_U+30A4_U+30E4_U+30FC 1
 62
   179
420
  2234388
370
     9
100
AcDb2dPolyline
 66
     1
 10
0.0
 20
0.0
 30
0.0
  0
VERTEX
  5
D9
330
D8
100
AcDbEntity
  8
_U+30EC_U+30A4_U+30E4_U+30FC 1
 62
   179
420
  2234388
370
     9
100
AcDbVertex
100
AcDb2dVertex
 10
78.11134998047204
 20
-95.4670288650222
 30
0.0
  0
VERTEX
  5
DA
330
D8
100
AcDbEntity
  8
_U+30EC_U+30A4_U+30E4_U+30FC 1
 62
   179
420
  2234388
370
     9
100
AcDbVertex
100
AcDb2dVertex
 10
78.11134998047204
 20
-82.46730886827197
 30
0.0
  0
SEQEND
  5
DB
330
D8
100
AcDbEntity
  8
_U+30EC_U+30A4_U+30E4_U+30FC 1
 62
   179
420
  2234388
370
     9
  0
POLYLINE
  5
DC
330
1F
100
AcDbEntity
  8
_U+30EC_U+30A4_U+30E4_U+30FC 1
 62
   179
420
  2234388
370
     9
100
AcDb2dPolyline
 66
     1
 10
0.0
 20
0.0
 30
0.0
  0
VERTEX
  5
DD
330
DC
100
AcDbEntity
  8
_U+30EC_U+30A4_U+30E4_U+30FC 1
 62
   179
420
  2234388
370
     9
100
AcDbVertex
100
AcDb2dVertex
 10
76.65130665557336
 20
-82.46730886827197
 30
0.0
  0
VERTEX
  5
DE
330
DC
100
AcDbEntity
  8
_U+30EC_U+30A4_U+30E4_U+30FC 1
 62
   179
420
  2234388
370
     9
100
AcDbVertex
100
AcDb2dVertex
 10
79.11112220244459
 20
-82.46730886827197
 30
0.0
  0
SEQEND
  5
DF
330
DC
100
AcDbEntity
  8
_U+30EC_U+30A4_U+30E4_U+30FC 1
 62
   179
420
  2234388
370
     9
  0
INSERT
  5
E1
330
1F
100
AcDbEntity
  8
_U+30EC_U+30A4_U+30E4_U+30FC 1
100
AcDbBlockReference
  2
block 7
 10
0.0
 20
0.0
 30
0.0
  0
ENDSEC
  0
SECTION
  2
OBJECTS
  0
DICTIONARY
  5
C
330
0
100
AcDbDictionary
281
     1
  3
ACAD_GROUP
350
D
  3
ACAD_LAYOUT
350
1A
  3
ACAD_MATERIAL
350
3B
  3
ACAD_MLEADERSTYLE
350
E9
  3
ACAD_MLINESTYLE
350
17
  3
ACAD_PLOTSETTINGS
350
19
  3
ACAD_PLOTSTYLENAME
350
E
  3
ACAD_TABLESTYLE
350
E8
  3
ACAD_VISUALSTYLE
350
2A
  0
SUN
  5
3F
330
29
100
AcDbSun
 90
        1
290
     0
 63
     7
421
 16777215
 40
1.0
291
     1
 91
  2455826
 92
 54000000
292
     0
 70
     2
 71
   256
280
     1
  0
DICTIONARY
  5
D
102
{ACAD_REACTORS
330
C
102
}
330
C
100
AcDbDictionary
281
     1
  0
DICTIONARY
  5
1A
102
{ACAD_REACTORS
330
C
102
}
330
C
100
AcDbDictionary
281
     1
  3
Layout1
350
1E
  3
Layout2
350
26
  3
Model
350
22
  0
DICTIONARY
  5
3B
102
{ACAD_REACTORS
330
C
102
}
330
C
100
AcDbDictionary
281
     1
  3
ByBlock
350
3D
  3
ByLayer
350
3C
  3
Global
350
3E
  0
DICTIONARY
  5
E9
102
{ACAD_REACTORS
330
C
102
}
330
C
100
AcDbDictionary
281
     1
  0
DICTIONARY
  5
17
102
{ACAD_REACTORS
330
C
102
}
330
C
100
AcDbDictionary
281
     1
  3
Standard
350
18
  0
DICTIONARY
  5
19
102
{ACAD_REACTORS
330
C
102
}
330
C
100
AcDbDictionary
281
     1
  0
ACDBDICTIONARYWDFLT
  5
E
102
{ACAD_REACTORS
330
C
102
}
330
C
100
AcDbDictionary
281
     1
  3
Normal
350
F
100
AcDbDictionaryWithDefault
340
F
  0
DICTIONARY
  5
E8
102
{ACAD_REACTORS
330
C
102
}
330
C
100
AcDbDictionary
281
     1
  0
DICTIONARY
  5
2A
102
{ACAD_REACTORS
330
C
102
}
330
C
100
AcDbDictionary
281
     1
  3
2dWireframe
350
2F
  3
3D Hidden
350
31
  3
3dWireframe
350
30
  3
Basic
350
32
  3
Brighten
350
36
  3
ColorChange
350
3A
  3
Conceptual
350
34
  3
Dim
350
35
  3
Facepattern
350
39
  3
Flat
350
2B
  3
FlatWithEdges
350
2C
  3
Gouraud
350
2D
  3
GouraudWithEdges
350
2E
  3
Linepattern
350
38
  3
Realistic
350
33
  3
Thicken
350
37
  0
LAYOUT
  5
1E
102
{ACAD_REACTORS
330
1A
102
}
330
1A
100
AcDbPlotSettings
  1

  2
none_device
  4

  6

 40
0.0
 41
0.0
 42
0.0
 43
0.0
 44
0.0
 45
0.0
 46
0.0
 47
0.0
 48
0.0
 49
0.0
140
0.0
141
0.0
142
1.0
143
1.0
 70
   688
 72
     0
 73
     0
 74
     5
  7

 75
    16
 76
     0
 77
     2
 78
   300
147
1.0
148
0.0
149
0.0
100
AcDbLayout
  1
Layout1
 70
     1
 71
     1
 10
0.0
 20
0.0
 11
12.0
 21
9.0
 12
0.0
 22
0.0
 32
0.0
 14
1.000000000000000E+20
 24
1.000000000000000E+20
 34
1.000000000000000E+20
 15
-1.000000000000000E+20
 25
-1.000000000000000E+20
 35
-1.000000000000000E+20
146
0.0
 13
0.0
 23
0.0
 33
0.0
 16
1.0
 26
0.0
 36
0.0
 17
0.0
 27
1.0
 37
0.0
 76
     0
330
1B
  0
LAYOUT
  5
26
102
{ACAD_REACTORS
330
1A
102
}
330
1A
100
AcDbPlotSettings
  1

  2
none_device
  4

  6

 40
0.0
 41
0.0
 42
0.0
 43
0.0
 44
0.0
 45
0.0
 46
0.0
 47
0.0
 48
0.0
 49
0.0
140
0.0
141
0.0
142
1.0
143
1.0
 70
   688
 72
     0
 73
     0
 74
     5
  7

 75
    16
 76
     0
 77
     2
 78
   300
147
1.0
148
0.0
149
0.0
100
AcDbLayout
  1
Layout2
 70
     1
 71
     2
 10
0.0
 20
0.0
 11
0.0
 21
0.0
 12
0.0
 22
0.0
 32
0.0
 14
0.0
 24
0.0
 34
0.0
 15
0.0
 25
0.0
 35
0.0
146
0.0
 13
0.0
 23
0.0
 33
0.0
 16
1.0
 26
0.0
 36
0.0
 17
0.0
 27
1.0
 37
0.0
 76
     0
330
23
  0
LAYOUT
  5
22
102
{ACAD_REACTORS
330
1A
102
}
330
1A
100
AcDbPlotSettings
  1

  2
none_device
  4

  6

 40
0.0
 41
0.0
 42
0.0
 43
0.0
 44
0.0
 45
0.0
 46
0.0
 47
0.0
 48
0.0
 49
0.0
140
0.0
141
0.0
142
1.0
143
1.0
 70
  1712
 72
     0
 73
     0
 74
     0
  7

 75
     0
 76
     0
 77
     2
 78
   300
147
1.0
148
0.0
149
0.0
100
AcDbLayout
  1
Model
 70
     1
 71
     0
 10
0.0
 20
0.0
 11
12.0
 21
9.0
 12
0.0
 22
0.0
 32
0.0
 14
1.000000000000000E+20
 24
1.000000000000000E+20
 34
1.000000000000000E+20
 15
-1.000000000000000E+20
 25
-1.000000000000000E+20
 35
-1.000000000000000E+20
146
0.0
 13
0.0
 23
0.0
 33
0.0
 16
1.0
 26
0.0
 36
0.0
 17
0.0
 27
1.0
 37
0.0
 76
     0
330
1F
331
29
  0
MATERIAL
  5
3D
102
{ACAD_REACTORS
330
3B
102
}
330
3B
100
AcDbMaterial
  1
ByBlock
 72
     1
 94
      127
  0
MATERIAL
  5
3C
102
{ACAD_REACTORS
330
3B
102
}
330
3B
100
AcDbMaterial
  1
ByLayer
 72
     1
 94
      127
  0
MATERIAL
  5
3E
102
{ACAD_REACTORS
330
3B
102
}
330
3B
100
AcDbMaterial
  1
Global
 72
     1
 94
      127
  0
MLINESTYLE
  5
18
102
{ACAD_REACTORS
330
17
102
}
330
17
100
AcDbMlineStyle
  2
Standard
 70
     0
  3

 62
   256
 51
90.0
 52
90.0
 71
     2
 49
0.5
 62
   256
  6
BYLAYER
 49
-0.5
 62
   256
  6
BYLAYER
  0
ACDBPLACEHOLDER
  5
F
102
{ACAD_REACTORS
330
E
102
}
330
E
  0
VISUALSTYLE
  5
2F
102
{ACAD_REACTORS
330
2A
102
}
330
2A
100
AcDbVisualStyle
  2
2dWireframe
 70
     4
177
     2
291
     0
 71
     0
176
     1
 72
     2
176
     1
 73
     0
176
     1
 90
        0
176
     1
 40
-0.6
176
     1
 41
-30.0
176
     1
 62
     5
 63
     7
421
 16777215
176
     1
 74
     1
176
     1
 91
        4
176
     1
 64
     7
176
     1
 65
   257
176
     1
 75
     1
176
     1
175
     1
176
     1
 42
1.0
176
     1
 92
        0
176
     1
 66
   257
176
     1
 43
1.0
176
     1
 76
     1
176
     1
 77
     6
176
     1
 78
     2
176
     1
 67
     7
176
     1
 79
     5
176
     1
170
     0
176
     1
171
     0
176
     1
290
     0
176
     1
 93
        1
176
     1
 44
0.0
176
     1
173
     0
176
     1
  0
VISUALSTYLE
  5
31
102
{ACAD_REACTORS
330
2A
102
}
330
2A
100
AcDbVisualStyle
  2
3D Hidden
 70
     6
177
     2
291
     0
 71
     1
176
     1
 72
     2
176
     1
 73
     2
176
     1
 90
        0
176
     1
 40
-0.6
176
     1
 41
-30.0
176
     1
 62
     5
 63
     7
421
 16777215
176
     1
 74
     2
176
     1
 91
        2
176
     1
 64
     7
176
     1
 65
   257
176
     1
 75
     2
176
     1
175
     1
176
     1
 42
40.0
176
     1
 92
        0
176
     1
 66
   257
176
     1
 43
1.0
176
     1
 76
     1
176
     1
 77
     6
176
     1
 78
     2
176
     1
 67
     7
176
     1
 79
     3
176
     1
170
     0
176
     1
171
     0
176
     1
290
     0
176
     1
 93
        1
176
     1
 44
0.0
176
     1
173
     0
176
     1
  0
VISUALSTYLE
  5
30
102
{ACAD_REACTORS
330
2A
102
}
330
2A
100
AcDbVisualStyle
  2
3dWireframe
 70
     5
177
     2
291
     0
 71
     0
176
     1
 72
     2
176
     1
 73
     0
176
     1
 90
        0
176
     1
 40
-0.6
176
     1
 41
-30.0
176
     1
 62
     5
 63
     7
421
 16777215
176
     1
 74
     1
176
     1
 91
        4
176
     1
 64
     7
176
     1
 65
   257
176
     1
 75
     1
176
     1
175
     1
176
     1
 42
1.0
176
     1
 92
        0
176
     1
 66
   257
176
     1
 43
1.0
176
     1
 76
     1
176
     1
 77
     6
176
     1
 78
     2
176
     1
 67
     7
176
     1
 79
     5
176
     1
170
     0
176
     1
171
     0
176
     1
290
     0
176
     1
 93
        1
176
     1
 44
0.0
176
     1
173
     0
176
     1
  0
VISUALSTYLE
  5
32
102
{ACAD_REACTORS
330
2A
102
}
330
2A
100
AcDbVisualStyle
  2
Basic
 70
     7
177
     2
291
     1
 71
     1
176
     1
 72
     0
176
     1
 73
     1
176
     1
 90
        0
176
     1
 40
-0.6
176
     1
 41
-30.0
176
     1
 62
     5
 63
     7
421
 16777215
176
     1
 74
     0
176
     1
 91
        4
176
     1
 64
     7
176
     1
 65
   257
176
     1
 75
     1
176
     1
175
     1
176
     1
 42
1.0
176
     1
 92
        8
176
     1
 66
     7
176
     1
 43
1.0
176
     1
 76
     1
176
     1
 77
     6
176
     1
 78
     2
176
     1
 67
     7
176
     1
 79
     5
176
     1
170
     0
176
     1
171
     0
176
     1
290
     0
176
     1
 93
        1
176
     1
 44
0.0
176
     1
173
     0
176
     1
  0
VISUALSTYLE
  5
36
102
{ACAD_REACTORS
330
2A
102
}
330
2A
100
AcDbVisualStyle
  2
Brighten
 70
    12
177
     2
291
     1
 71
     2
176
     1
 72
     2
176
     1
 73
     0
176
     1
 90
        0
176
     1
 40
-0.6
176
     1
 41
-30.0
176
     1
 62
     5
 63
     7
421
 16777215
176
     1
 74
     1
176
     1
 91
        4
176
     1
 64
     7
176
     1
 65
   257
176
     1
 75
     1
176
     1
175
     1
176
     1
 42
1.0
176
     1
 92
        8
176
     1
 66
     7
176
     1
 43
1.0
176
     1
 76
     1
176
     1
 77
     6
176
     1
 78
     2
176
     1
 67
     7
176
     1
 79
     5
176
     1
170
     0
176
     1
171
     0
176
     1
290
     0
176
     1
 93
        1
176
     1
 44
50.0
176
     1
173
     0
176
     1
  0
VISUALSTYLE
  5
3A
102
{ACAD_REACTORS
330
2A
102
}
330
2A
100
AcDbVisualStyle
  2
ColorChange
 70
    16
177
     2
291
     1
 71
     2
176
     1
 72
     2
176
     1
 73
     3
176
     1
 90
        0
176
     1
 40
-0.6
176
     1
 41
-30.0
176
     1
 62
     5
 63
     8
421
  8421504
176
     1
 74
     1
176
     1
 91
        4
176
     1
 64
     7
176
     1
 65
   257
176
     1
 75
     1
176
     1
175
     1
176
     1
 42
1.0
176
     1
 92
        8
176
     1
 66
     8
424
  8421504
176
     1
 43
1.0
176
     1
 76
     1
176
     1
 77
     6
176
     1
 78
     2
176
     1
 67
     7
176
     1
 79
     5
176
     1
170
     0
176
     1
171
     0
176
     1
290
     0
176
     1
 93
        1
176
     1
 44
0.0
176
     1
173
     0
176
     1
  0
VISUALSTYLE
  5
34
102
{ACAD_REACTORS
330
2A
102
}
330
2A
100
AcDbVisualStyle
  2
Conceptual
 70
     9
177
     2
291
     0
 71
     3
176
     1
 72
     2
176
     1
 73
     0
176
     1
 90
        0
176
     1
 40
-0.6
176
     1
 41
-30.0
176
     1
 62
     5
 63
     7
421
 16777215
176
     1
 74
     2
176
     1
 91
        2
176
     1
 64
     7
176
     1
 65
   257
176
     1
 75
     1
176
     1
175
     1
176
     1
 42
40.0
176
     1
 92
        8
176
     1
 66
     7
176
     1
 43
1.0
176
     1
 76
     1
176
     1
 77
     6
176
     1
 78
     2
176
     1
 67
     7
176
     1
 79
     3
176
     1
170
     0
176
     1
171
     0
176
     1
290
     0
176
     1
 93
        1
176
     1
 44
0.0
176
     1
173
     0
176
     1
  0
VISUALSTYLE
  5
35
102
{ACAD_REACTORS
330
2A
102
}
330
2A
100
AcDbVisualStyle
  2
Dim
 70
    11
177
     2
291
     1
 71
     2
176
     1
 72
     2
176
     1
 73
     0
176
     1
 90
        0
176
     1
 40
-0.6
176
     1
 41
-30.0
176
     1
 62
     5
 63
     7
421
 16777215
176
     1
 74
     1
176
     1
 91
        4
176
     1
 64
     7
176
     1
 65
   257
176
     1
 75
     1
176
     1
175
     1
176
     1
 42
1.0
176
     1
 92
        8
176
     1
 66
     7
176
     1
 43
1.0
176
     1
 76
     1
176
     1
 77
     6
176
     1
 78
     2
176
     1
 67
     7
176
     1
 79
     5
176
     1
170
     0
176
     1
171
     0
176
     1
290
     0
176
     1
 93
        1
176
     1
 44
-50.0
176
     1
173
     0
176
     1
  0
VISUALSTYLE
  5
39
102
{ACAD_REACTORS
330
2A
102
}
330
2A
100
AcDbVisualStyle
  2
Facepattern
 70
    15
177
     2
291
     1
 71
     2
176
     1
 72
     2
176
     1
 73
     0
176
     1
 90
        0
176
     1
 40
-0.6
176
     1
 41
-30.0
176
     1
 62
     5
 63
     7
421
 16777215
176
     1
 74
     1
176
     1
 91
        4
176
     1
 64
     7
176
     1
 65
   257
176
     1
 75
     1
176
     1
175
     1
176
     1
 42
1.0
176
     1
 92
        8
176
     1
 66
     7
176
     1
 43
1.0
176
     1
 76
     1
176
     1
 77
     6
176
     1
 78
     2
176
     1
 67
     7
176
     1
 79
     5
176
     1
170
     0
176
     1
171
     0
176
     1
290
     0
176
     1
 93
        1
176
     1
 44
0.0
176
     1
173
     0
176
     1
  0
VISUALSTYLE
  5
2B
102
{ACAD_REACTORS
330
2A
102
}
330
2A
100
AcDbVisualStyle
  2
Flat
 70
     0
177
     2
291
     1
 71
     2
176
     1
 72
     1
176
     1
 73
     1
176
     1
 90
        2
176
     1
 40
-0.6
176
     1
 41
30.0
176
     1
 62
     5
 63
     7
421
 16777215
176
     1
 74
     0
176
     1
 91
        4
176
     1
 64
     7
176
     1
 65
   257
176
     1
 75
     1
176
     1
175
     1
176
     1
 42
1.0
176
     1
 92
        8
176
     1
 66
     7
176
     1
 43
1.0
176
     1
 76
     1
176
     1
 77
     6
176
     1
 78
     2
176
     1
 67
     7
176
     1
 79
     5
176
     1
170
     0
176
     1
171
     0
176
     1
290
     0
176
     1
 93
       13
176
     1
 44
0.0
176
     1
173
     0
176
     1
  0
VISUALSTYLE
  5
2C
102
{ACAD_REACTORS
330
2A
102
}
330
2A
100
AcDbVisualStyle
  2
FlatWithEdges
 70
     1
177
     2
291
     1
 71
     2
176
     1
 72
     1
176
     1
 73
     1
176
     1
 90
        2
176
     1
 40
-0.6
176
     1
 41
30.0
176
     1
 62
     5
 63
     7
421
 16777215
176
     1
 74
     1
176
     1
 91
        4
176
     1
 64
     7
176
     1
 65
   257
176
     1
 75
     1
176
     1
175
     1
176
     1
 42
1.0
176
     1
 92
        0
176
     1
 66
   257
176
     1
 43
1.0
176
     1
 76
     1
176
     1
 77
     6
176
     1
 78
     2
176
     1
 67
     7
176
     1
 79
     5
176
     1
170
     0
176
     1
171
     0
176
     1
290
     0
176
     1
 93
       13
176
     1
 44
0.0
176
     1
173
     0
176
     1
  0
VISUALSTYLE
  5
2D
102
{ACAD_REACTORS
330
2A
102
}
330
2A
100
AcDbVisualStyle
  2
Gouraud
 70
     2
177
     2
291
     1
 71
     2
176
     1
 72
     2
176
     1
 73
     1
176
     1
 90
        2
176
     1
 40
-0.6
176
     1
 41
30.0
176
     1
 62
     5
 63
     7
421
 16777215
176
     1
 74
     0
176
     1
 91
        4
176
     1
 64
     7
176
     1
 65
   257
176
     1
 75
     1
176
     1
175
     1
176
     1
 42
1.0
176
     1
 92
        0
176
     1
 66
     7
176
     1
 43
1.0
176
     1
 76
     1
176
     1
 77
     6
176
     1
 78
     2
176
     1
 67
     7
176
     1
 79
     5
176
     1
170
     0
176
     1
171
     0
176
     1
290
     0
176
     1
 93
       13
176
     1
 44
0.0
176
     1
173
     0
176
     1
  0
VISUALSTYLE
  5
2E
102
{ACAD_REACTORS
330
2A
102
}
330
2A
100
AcDbVisualStyle
  2
GouraudWithEdges
 70
     3
177
     2
291
     1
 71
     2
176
     1
 72
     2
176
     1
 73
     1
176
     1
 90
        2
176
     1
 40
-0.6
176
     1
 41
30.0
176
     1
 62
     5
 63
     7
421
 16777215
176
     1
 74
     1
176
     1
 91
        4
176
     1
 64
     7
176
     1
 65
   257
176
     1
 75
     1
176
     1
175
     1
176
     1
 42
1.0
176
     1
 92
        0
176
     1
 66
   257
176
     1
 43
1.0
176
     1
 76
     1
176
     1
 77
     6
176
     1
 78
     2
176
     1
 67
     7
176
     1
 79
     5
176
     1
170
     0
176
     1
171
     0
176
     1
290
     0
176
     1
 93
       13
176
     1
 44
0.0
176
     1
173
     0
176
     1
  0
VISUALSTYLE
  5
38
102
{ACAD_REACTORS
330
2A
102
}
330
2A
100
AcDbVisualStyle
  2
Linepattern
 70
    14
177
     2
291
     1
 71
     2
176
     1
 72
     2
176
     1
 73
     0
176
     1
 90
        0
176
     1
 40
-0.6
176
     1
 41
-30.0
176
     1
 62
     5
 63
     7
421
 16777215
176
     1
 74
     1
176
     1
 91
        4
176
     1
 64
     7
176
     1
 65
   257
176
     1
 75
     7
176
     1
175
     7
176
     1
 42
1.0
176
     1
 92
        8
176
     1
 66
     7
176
     1
 43
1.0
176
     1
 76
     1
176
     1
 77
     6
176
     1
 78
     2
176
     1
 67
     7
176
     1
 79
     5
176
     1
170
     0
176
     1
171
     0
176
     1
290
     0
176
     1
 93
        1
176
     1
 44
0.0
176
     1
173
     0
176
     1
  0
VISUALSTYLE
  5
33
102
{ACAD_REACTORS
330
2A
102
}
330
2A
100
AcDbVisualStyle
  2
Realistic
 70
     8
177
     2
291
     0
 71
     2
176
     1
 72
     2
176
     1
 73
     0
176
     1
 90
        0
176
     1
 40
-0.6
176
     1
 41
-30.0
176
     1
 62
     5
 63
     7
421
 16777215
176
     1
 74
     1
176
     1
 91
        0
176
     1
 64
     7
176
     1
 65
   257
176
     1
 75
     1
176
     1
175
     1
176
     1
 42
1.0
176
     1
 92
        8
176
     1
 66
     8
424
  7895160
176
     1
 43
1.0
176
     1
 76
     1
176
     1
 77
     6
176
     1
 78
     2
176
     1
 67
     7
176
     1
 79
     5
176
     1
170
     0
176
     1
171
     0
176
     1
290
     0
176
     1
 93
       13
176
     1
 44
0.0
176
     1
173
     0
176
     1
  0
VISUALSTYLE
  5
37
102
{ACAD_REACTORS
330
2A
102
}
330
2A
100
AcDbVisualStyle
  2
Thicken
 70
    13
177
     2
291
     1
 71
     2
176
     1
 72
     2
176
     1
 73
     0
176
     1
 90
        0
176
     1
 40
-0.6
176
     1
 41
-30.0
176
     1
 62
     5
 63
     7
421
 16777215
176
     1
 74
     1
176
     1
 91
        4
176
     1
 64
     7
176
     1
 65
   257
176
     1
 75
     1
176
     1
175
     1
176
     1
 42
1.0
176
     1
 92
       12
176
     1
 66
     7
176
     1
 43
1.0
176
     1
 76
     1
176
     1
 77
     6
176
     1
 78
     2
176
     1
 67
     7
176
     1
 79
     5
176
     1
170
     0
176
     1
171
     0
176
     1
290
     0
176
     1
 93
        1
176
     1
 44
0.0
176
     1
173
     0
176
     1
  0
ENDSEC
  0
EOF
