  0
SECTION
  2
HEADER
  9
$ACADVER
  1
AC1024
  9
$ACADMAINTVER
 70
     6
  9
$DWGCODEPAGE
  3
UNDEFINED
  9
$INSBASE
 10
0.0
 20
0.0
 30
0.0
  9
$EXTMIN
 10
1.000000000000000E+20
 20
1.000000000000000E+20
 30
1.000000000000000E+20
  9
$EXTMAX
 10
-1.000000000000000E+20
 20
-1.000000000000000E+20
 30
-1.000000000000000E+20
  9
$LIMMIN
 10
0.0
 20
0.0
  9
$LIMMAX
 10
12.0
 20
9.0
  9
$ORTHOMODE
 70
     0
  9
$REGENMODE
 70
     1
  9
$FILLMODE
 70
     1
  9
$QTEXTMODE
 70
     0
  9
$MIRRTEXT
 70
     1
  9
$LTSCALE
 40
1.0
  9
$ATTMODE
 70
     1
  9
$TEXTSIZE
 40
0.2
  9
$TRACEWID
 40
0.05
  9
$TEXTSTYLE
  7
Standard
  9
$CLAYER
  8
0
  9
$CELTYPE
  6
ByLayer
  9
$CECOLOR
 62
   256
  9
$CELTSCALE
 40
1.0
  9
$DISPSILH
 70
     0
  9
$DIMSCALE
 40
1.0
  9
$DIMASZ
 40
0.18
  9
$DIMEXO
 40
0.0625
  9
$DIMDLI
 40
0.38
  9
$DIMRND
 40
0.0
  9
$DIMDLE
 40
0.0
  9
$DIMEXE
 40
0.18
  9
$DIMTP
 40
0.0
  9
$DIMTM
 40
0.0
  9
$DIMTXT
 40
0.18
  9
$DIMCEN
 40
0.09
  9
$DIMTSZ
 40
0.0
  9
$DIMTOL
 70
     0
  9
$DIMLIM
 70
     0
  9
$DIMTIH
 70
     1
  9
$DIMTOH
 70
     1
  9
$DIMSE1
 70
     0
  9
$DIMSE2
 70
     0
  9
$DIMTAD
 70
     0
  9
$DIMZIN
 70
     0
  9
$DIMBLK
  1

  9
$DIMASO
 70
     1
  9
$DIMSHO
 70
     1
  9
$DIMPOST
  1

  9
$DIMAPOST
  1

  9
$DIMALT
 70
     0
  9
$DIMALTD
 70
     2
  9
$DIMALTF
 40
25.4
  9
$DIMLFAC
 40
1.0
  9
$DIMTOFL
 70
     0
  9
$DIMTVP
 40
0.0
  9
$DIMTIX
 70
     0
  9
$DIMSOXD
 70
     0
  9
$DIMSAH
 70
     0
  9
$DIMBLK1
  1

  9
$DIMBLK2
  1

  9
$DIMSTYLE
  2
Standard
  9
$DIMCLRD
 70
     0
  9
$DIMCLRE
 70
     0
  9
$DIMCLRT
 70
     0
  9
$DIMTFAC
 40
1.0
  9
$DIMGAP
 40
0.09
  9
$DIMJUST
 70
     0
  9
$DIMSD1
 70
     0
  9
$DIMSD2
 70
     0
  9
$DIMTOLJ
 70
     1
  9
$DIMTZIN
 70
     0
  9
$DIMALTZ
 70
     0
  9
$DIMALTTZ
 70
     0
  9
$DIMUPT
 70
     0
  9
$DIMDEC
 70
     4
  9
$DIMTDEC
 70
     4
  9
$DIMALTU
 70
     2
  9
$DIMALTTD
 70
     2
  9
$DIMTXSTY
  7
Standard
  9
$DIMAUNIT
 70
     0
  9
$DIMADEC
 70
     0
  9
$DIMALTRND
 40
0.0
  9
$DIMAZIN
 70
     0
  9
$DIMDSEP
 70
    46
  9
$DIMATFIT
 70
     3
  9
$DIMFRAC
 70
     0
  9
$DIMLDRBLK
  1

  9
$DIMLUNIT
 70
     2
  9
$DIMLWD
 70
    -2
  9
$DIMLWE
 70
    -2
  9
$DIMTMOVE
 70
     0
  9
$DIMFXL
 40
1.0
  9
$DIMFXLON
 70
     0
  9
$DIMJOGANG
 40
0.7853981633974483
  9
$DIMTFILL
 70
     0
  9
$DIMTFILLCLR
 70
     0
  9
$DIMARCSYM
 70
     0
  9
$DIMLTYPE
  6

  9
$DIMLTEX1
  6

  9
$DIMLTEX2
  6

  9
$DIMTXTDIRECTION
 70
     0
  9
$LUNITS
 70
     2
  9
$LUPREC
 70
     4
  9
$SKETCHINC
 40
0.1
  9
$FILLETRAD
 40
0.5
  9
$AUNITS
 70
     0
  9
$AUPREC
 70
     0
  9
$MENU
  1
.
  9
$ELEVATION
 40
0.0
  9
$PELEVATION
 40
0.0
  9
$THICKNESS
 40
0.0
  9
$LIMCHECK
 70
     0
  9
$CHAMFERA
 40
0.5
  9
$CHAMFERB
 40
0.5
  9
$CHAMFERC
 40
1.0
  9
$CHAMFERD
 40
0.0
  9
$SKPOLY
 70
     0
  9
$TDCREATE
 40
2457917.588518507
  9
$TDUCREATE
 40
2457917.213518518
  9
$TDUPDATE
 40
2457917.588518507
  9
$TDUUPDATE
 40
2457917.213518518
  9
$TDINDWG
 40
0.0000000116
  9
$TDUSRTIMER
 40
0.0000000116
  9
$USRTIMER
 70
     1
  9
$ANGBASE
 50
0.0
  9
$ANGDIR
 70
     0
  9
$PDMODE
 70
     0
  9
$PDSIZE
 40
0.0
  9
$PLINEWID
 40
0.0
  9
$SPLFRAME
 70
     0
  9
$SPLINETYPE
 70
     6
  9
$SPLINESEGS
 70
     8
  9
$HANDSEED
  5
E7
  9
$SURFTAB1
 70
     6
  9
$SURFTAB2
 70
     6
  9
$SURFTYPE
 70
     6
  9
$SURFU
 70
     6
  9
$SURFV
 70
     6
  9
$UCSBASE
  2

  9
$UCSNAME
  2

  9
$UCSORG
 10
0.0
 20
0.0
 30
0.0
  9
$UCSXDIR
 10
1.0
 20
0.0
 30
0.0
  9
$UCSYDIR
 10
0.0
 20
1.0
 30
0.0
  9
$UCSORTHOREF
  2

  9
$UCSORTHOVIEW
 70
     0
  9
$UCSORGTOP
 10
0.0
 20
0.0
 30
0.0
  9
$UCSORGBOTTOM
 10
0.0
 20
0.0
 30
0.0
  9
$UCSORGLEFT
 10
0.0
 20
0.0
 30
0.0
  9
$UCSORGRIGHT
 10
0.0
 20
0.0
 30
0.0
  9
$UCSORGFRONT
 10
0.0
 20
0.0
 30
0.0
  9
$UCSORGBACK
 10
0.0
 20
0.0
 30
0.0
  9
$PUCSBASE
  2

  9
$PUCSNAME
  2

  9
$PUCSORG
 10
0.0
 20
0.0
 30
0.0
  9
$PUCSXDIR
 10
1.0
 20
0.0
 30
0.0
  9
$PUCSYDIR
 10
0.0
 20
1.0
 30
0.0
  9
$PUCSORTHOREF
  2

  9
$PUCSORTHOVIEW
 70
     0
  9
$PUCSORGTOP
 10
0.0
 20
0.0
 30
0.0
  9
$PUCSORGBOTTOM
 10
0.0
 20
0.0
 30
0.0
  9
$PUCSORGLEFT
 10
0.0
 20
0.0
 30
0.0
  9
$PUCSORGRIGHT
 10
0.0
 20
0.0
 30
0.0
  9
$PUCSORGFRONT
 10
0.0
 20
0.0
 30
0.0
  9
$PUCSORGBACK
 10
0.0
 20
0.0
 30
0.0
  9
$USERI1
 70
     0
  9
$USERI2
 70
     0
  9
$USERI3
 70
     0
  9
$USERI4
 70
     0
  9
$USERI5
 70
     0
  9
$USERR1
 40
0.0
  9
$USERR2
 40
0.0
  9
$USERR3
 40
0.0
  9
$USERR4
 40
0.0
  9
$USERR5
 40
0.0
  9
$WORLDVIEW
 70
     1
  9
$SHADEDGE
 70
     3
  9
$SHADEDIF
 70
    70
  9
$TILEMODE
 70
     1
  9
$MAXACTVP
 70
    64
  9
$PINSBASE
 10
0.0
 20
0.0
 30
0.0
  9
$PLIMCHECK
 70
     0
  9
$PEXTMIN
 10
1.000000000000000E+20
 20
1.000000000000000E+20
 30
1.000000000000000E+20
  9
$PEXTMAX
 10
-1.000000000000000E+20
 20
-1.000000000000000E+20
 30
-1.000000000000000E+20
  9
$PLIMMIN
 10
0.0
 20
0.0
  9
$PLIMMAX
 10
12.0
 20
9.0
  9
$UNITMODE
 70
     0
  9
$VISRETAIN
 70
     1
  9
$PLINEGEN
 70
     0
  9
$PSLTSCALE
 70
     1
  9
$TREEDEPTH
 70
  3020
  9
$CMLSTYLE
  2
Standard
  9
$CMLJUST
 70
     0
  9
$CMLSCALE
 40
1.0
  9
$PROXYGRAPHICS
 70
     1
  9
$MEASUREMENT
 70
     0
  9
$CELWEIGHT
370
    -1
  9
$ENDCAPS
280
     0
  9
$JOINSTYLE
280
     0
  9
$LWDISPLAY
290
     1
  9
$INSUNITS
 70
     1
  9
$HYPERLINKBASE
  1

  9
$STYLESHEET
  1

  9
$XEDIT
290
     1
  9
$CEPSNTYPE
380
     0
  9
$PSTYLEMODE
290
     1
  9
$FINGERPRINTGUID
  2
{3E482527-4F40-6C35-782E-B30231DD83CD}
  9
$VERSIONGUID
  2
{FAEB1C32-E019-11D5-929B-00C0DF256EC4}
  9
$EXTNAMES
290
     1
  9
$PSVPSCALE
 40
0.0
  9
$OLESTARTUP
290
     0
  9
$SORTENTS
280
   127
  9
$INDEXCTL
280
     0
  9
$HIDETEXT
280
     1
  9
$XCLIPFRAME
280
     2
  9
$HALOGAP
280
     0
  9
$OBSCOLOR
 70
   257
  9
$OBSLTYPE
280
     0
  9
$INTERSECTIONDISPLAY
280
     0
  9
$INTERSECTIONCOLOR
 70
   257
  9
$DIMASSOC
280
     2
  9
$PROJECTNAME
  1

  9
$CAMERADISPLAY
290
     0
  9
$LENSLENGTH
 40
50.0
  9
$CAMERAHEIGHT
 40
0.0
  9
$STEPSPERSEC
 40
2.0
  9
$STEPSIZE
 40
6.0
  9
$3DDWFPREC
 40
2.0
  9
$PSOLWIDTH
 40
0.25
  9
$PSOLHEIGHT
 40
4.0
  9
$LOFTANG1
 40
1.570796326794897
  9
$LOFTANG2
 40
1.570796326794897
  9
$LOFTMAG1
 40
0.0
  9
$LOFTMAG2
 40
0.0
  9
$LOFTPARAM
 70
     7
  9
$LOFTNORMALS
280
     1
  9
$LATITUDE
 40
37.795
  9
$LONGITUDE
 40
-122.394
  9
$NORTHDIRECTION
 40
0.0
  9
$TIMEZONE
 70
 -8000
  9
$LIGHTGLYPHDISPLAY
280
     1
  9
$TILEMODELIGHTSYNCH
280
     1
  9
$CMATERIAL
347
3C
  9
$SOLIDHIST
280
     1
  9
$SHOWHIST
280
     1
  9
$DWFFRAME
280
     2
  9
$DGNFRAME
280
     2
  9
$REALWORLDSCALE
290
     1
  9
$INTERFERECOLOR
 62
   256
  9
$CSHADOW
280
     0
  9
$SHADOWPLANELOCATION
 40
0.0
  0
ENDSEC
  0
SECTION
  2
CLASSES
  0
CLASS
  1
ACDBDICTIONARYWDFLT
  2
AcDbDictionaryWithDefault
  3
ObjectDBX Classes
 90
        0
 91
        4
280
     0
281
     0
  0
CLASS
  1
VISUALSTYLE
  2
AcDbVisualStyle
  3
ObjectDBX Classes
 90
     4095
 91
        4
280
     0
281
     0
  0
CLASS
  1
MATERIAL
  2
AcDbMaterial
  3
ObjectDBX Classes
 90
     1153
 91
        4
280
     0
281
     0
  0
CLASS
  1
SUN
  2
AcDbSun
  3
SCENEOE
 90
     1024
 91
        4
280
     0
281
     0
  0
ENDSEC
  0
SECTION
  2
TABLES
  0
TABLE
  2
VPORT
  5
8
330
0
100
AcDbSymbolTable
 70
     1
  0
VPORT
  5
29
330
8
100
AcDbSymbolTableRecord
100
AcDbViewportTableRecord
  2
*Active
 70
     0
 10
0.0
 20
0.0
 11
1.0
 21
1.0
 12
0.0
 22
0.0
 13
0.0
 23
0.0
 14
0.5
 24
0.5
 15
0.5
 25
0.5
 16
0.0
 26
0.0
 36
1.0
 17
63.499999984125
 27
-89.00059456108309
 37
0.0
 40
178.0011891221662
 41
0.7134783795241226
 42
50.0
 43
0.0
 44
0.0
 50
0.0
 51
0.0
 71
     0
 72
   100
 73
     1
 74
     3
 75
     0
 76
     0
 77
     0
 78
     0
281
     0
 65
     1
110
0.0
120
0.0
130
0.0
111
1.0
121
0.0
131
0.0
112
0.0
122
1.0
132
0.0
 79
     0
146
0.0
 60
     3
 61
     5
292
     1
282
     1
141
0.0
142
0.0
 63
   250
361
3F
  0
ENDTAB
  0
TABLE
  2
LTYPE
  5
5
330
0
100
AcDbSymbolTable
 70
     1
  0
LTYPE
  5
14
330
5
100
AcDbSymbolTableRecord
100
AcDbLinetypeTableRecord
  2
ByBlock
 70
     0
  3

 72
    65
 73
     0
 40
0.0
  0
LTYPE
  5
15
330
5
100
AcDbSymbolTableRecord
100
AcDbLinetypeTableRecord
  2
ByLayer
 70
     0
  3

 72
    65
 73
     0
 40
0.0
  0
LTYPE
  5
16
330
5
100
AcDbSymbolTableRecord
100
AcDbLinetypeTableRecord
  2
Continuous
 70
     0
  3
Solid line
 72
    65
 73
     0
 40
0.0
  0
ENDTAB
  0
TABLE
  2
LAYER
  5
2
330
0
100
AcDbSymbolTable
 70
     2
  0
LAYER
  5
10
330
2
100
AcDbSymbolTableRecord
100
AcDbLayerTableRecord
  2
0
 70
     0
 62
     7
  6
Continuous
370
    -3
390
F
347
3E
  0
LAYER
  5
40
330
2
100
AcDbSymbolTableRecord
100
AcDbLayerTableRecord
  2
_U+30EC_U+30A4_U+30E4_U+30FC 1
 70
     0
 62
     7
  6
Continuous
370
    -3
390
F
347
3E
  0
ENDTAB
  0
TABLE
  2
STYLE
  5
3
330
0
100
AcDbSymbolTable
 70
     1
  0
STYLE
  5
11
330
3
100
AcDbSymbolTableRecord
100
AcDbTextStyleTableRecord
  2
Standard
 70
     0
 40
0.0
 41
1.0
 50
0.0
 71
     0
 42
0.2
  3
txt
  4

  0
ENDTAB
  0
TABLE
  2
VIEW
  5
6
330
0
100
AcDbSymbolTable
 70
     0
  0
ENDTAB
  0
TABLE
  2
UCS
  5
7
330
0
100
AcDbSymbolTable
 70
     0
  0
ENDTAB
  0
TABLE
  2
APPID
  5
9
330
0
100
AcDbSymbolTable
 70
     1
  0
APPID
  5
12
330
9
100
AcDbSymbolTableRecord
100
AcDbRegAppTableRecord
  2
ACAD
 70
     0
  0
ENDTAB
  0
TABLE
  2
DIMSTYLE
  5
A
330
0
100
AcDbSymbolTable
 70
     1
100
AcDbDimStyleTable
  0
DIMSTYLE
105
27
330
A
100
AcDbSymbolTableRecord
100
AcDbDimStyleTableRecord
  2
Standard
 70
     0
178
     0
340
11
  0
ENDTAB
  0
TABLE
  2
BLOCK_RECORD
  5
1
330
0
100
AcDbSymbolTable
 70
     6
  0
BLOCK_RECORD
  5
1F
330
1
100
AcDbSymbolTableRecord
100
AcDbBlockTableRecord
  2
*Model_Space
340
22
 70
     0
280
     1
281
     0
  0
BLOCK_RECORD
  5
1B
330
1
100
AcDbSymbolTableRecord
100
AcDbBlockTableRecord
  2
*Paper_Space
340
1E
 70
     0
280
     1
281
     0
  0
BLOCK_RECORD
  5
23
330
1
100
AcDbSymbolTableRecord
100
AcDbBlockTableRecord
  2
*Paper_Space0
340
26
 70
     0
280
     1
281
     0
  0
BLOCK_RECORD
  5
8D
330
1
100
AcDbSymbolTableRecord
100
AcDbBlockTableRecord
  2
block 2
340
0
102
{BLKREFS
331
8E
102
}
 70
     0
280
     1
281
     0
  0
BLOCK_RECORD
  5
A2
330
1
100
AcDbSymbolTableRecord
100
AcDbBlockTableRecord
  2
block 3
340
0
102
{BLKREFS
331
A3
102
}
 70
     0
280
     1
281
     0
  0
BLOCK_RECORD
  5
BA
330
1
100
AcDbSymbolTableRecord
100
AcDbBlockTableRecord
  2
block 4
340
0
102
{BLKREFS
331
BB
102
}
 70
     0
280
     1
281
     0
  0
BLOCK_RECORD
  5
CC
330
1
100
AcDbSymbolTableRecord
100
AcDbBlockTableRecord
  2
block 5
340
0
102
{BLKREFS
331
CD
102
}
 70
     0
280
     1
281
     0
  0
BLOCK_RECORD
  5
DC
330
1
100
AcDbSymbolTableRecord
100
AcDbBlockTableRecord
  2
block 6
340
0
102
{BLKREFS
331
DD
102
}
 70
     0
280
     1
281
     0
  0
ENDTAB
  0
ENDSEC
  0
SECTION
  2
BLOCKS
  0
BLOCK
  5
20
330
1F
100
AcDbEntity
  8
0
100
AcDbBlockBegin
  2
*Model_Space
 70
     0
 10
0.0
 20
0.0
 30
0.0
  3
*Model_Space
  1

  0
ENDBLK
  5
21
330
1F
100
AcDbEntity
  8
0
100
AcDbBlockEnd
  0
BLOCK
  5
1C
330
1B
100
AcDbEntity
 67
     1
  8
0
100
AcDbBlockBegin
  2
*Paper_Space
 70
     0
 10
0.0
 20
0.0
 30
0.0
  3
*Paper_Space
  1

  0
ENDBLK
  5
1D
330
1B
100
AcDbEntity
 67
     1
  8
0
100
AcDbBlockEnd
  0
BLOCK
  5
24
330
23
100
AcDbEntity
  8
0
100
AcDbBlockBegin
  2
*Paper_Space0
 70
     0
 10
0.0
 20
0.0
 30
0.0
  3
*Paper_Space0
  1

  0
ENDBLK
  5
25
330
23
100
AcDbEntity
  8
0
100
AcDbBlockEnd
  0
BLOCK
  5
8F
330
8D
100
AcDbEntity
  8
0
100
AcDbBlockBegin
  2
block 2
 70
     0
 10
0.0
 20
0.0
 30
0.0
  3
block 2
  1

  0
SPLINE
  5
91
330
8D
100
AcDbEntity
  8
_U+30EC_U+30A4_U+30E4_U+30FC 1
370
     0
100
AcDbSpline
210
0.0
220
0.0
230
1.0
 70
    11
 71
     3
 72
    26
 73
    22
 74
     0
 42
0.0000000001
 43
0.0000000001
 12
1.0
 22
0.0
 32
0.0
 13
1.0
 23
0.0
 33
0.0
 40
0.0
 40
0.0
 40
0.0
 40
0.0
 40
1.0
 40
1.0
 40
1.0
 40
2.0
 40
2.0
 40
2.0
 40
3.0
 40
3.0
 40
3.0
 40
4.0
 40
4.0
 40
4.0
 40
5.0
 40
5.0
 40
5.0
 40
6.0
 40
6.0
 40
6.0
 40
7.0
 40
7.0
 40
7.0
 40
7.0
 10
51.31486950757059
 20
-100.6098795321392
 30
0.0
 10
51.31486950757059
 20
-100.6098795321392
 30
0.0
 10
51.31486950757059
 20
-99.50572642911663
 30
0.0
 10
51.31486950757059
 20
-99.50572642911663
 30
0.0
 10
51.31486950757059
 20
-99.50572642911663
 30
0.0
 10
50.98569063395497
 20
-99.50572642911663
 30
0.0
 10
50.98569063395497
 20
-99.50572642911663
 30
0.0
 10
50.98569063395497
 20
-99.50572642911663
 30
0.0
 10
50.98569063395497
 20
-99.35758732325088
 30
0.0
 10
50.98569063395497
 20
-99.35758732325088
 30
0.0
 10
51.31693656486174
 20
-99.34277341266431
 30
0.0
 10
51.36327309913835
 20
-99.179820396212
 30
0.0
 10
51.3929009203115
 20
-99.06544322610169
 30
0.0
 10
51.3929009203115
 20
-99.06544322610169
 30
0.0
 10
51.5384562045633
 20
-99.06544322610169
 30
0.0
 10
51.5384562045633
 20
-99.06544322610169
 30
0.0
 10
51.5384562045633
 20
-99.06544322610169
 30
0.0
 10
51.5384562045633
 20
-100.6098795321392
 30
0.0
 10
51.5384562045633
 20
-100.6098795321392
 30
0.0
 10
51.5384562045633
 20
-100.6098795321392
 30
0.0
 10
51.31486950757059
 20
-100.6098795321392
 30
0.0
 10
51.31486950757059
 20
-100.6098795321392
 30
0.0
  0
HATCH
  5
92
330
8D
100
AcDbEntity
  8
_U+30EC_U+30A4_U+30E4_U+30FC 1
 62
   179
420
  2234388
100
AcDbHatch
 10
0.0
 20
0.0
 30
0.0
210
0.0
220
0.0
230
1.0
  2
SOLID
 70
     1
 71
     0
 91
        1
 92
        1
 93
        1
 72
     4
 94
        3
 73
     0
 74
     1
 95
       26
 96
       22
 40
0.0
 40
0.0
 40
0.0
 40
0.0
 40
1.0
 40
1.0
 40
1.0
 40
2.0
 40
2.0
 40
2.0
 40
3.0
 40
3.0
 40
3.0
 40
4.0
 40
4.0
 40
4.0
 40
5.0
 40
5.0
 40
5.0
 40
6.0
 40
6.0
 40
6.0
 40
7.0
 40
7.0
 40
7.0
 40
7.0
 10
51.31486950757059
 20
-100.6098795321392
 10
51.31486950757059
 20
-100.6098795321392
 10
51.31486950757059
 20
-99.50572642911663
 10
51.31486950757059
 20
-99.50572642911663
 10
51.31486950757059
 20
-99.50572642911663
 10
50.98569063395497
 20
-99.50572642911663
 10
50.98569063395497
 20
-99.50572642911663
 10
50.98569063395497
 20
-99.50572642911663
 10
50.98569063395497
 20
-99.35758732325088
 10
50.98569063395497
 20
-99.35758732325088
 10
51.31693656486174
 20
-99.34277341266431
 10
51.36327309913835
 20
-99.179820396212
 10
51.3929009203115
 20
-99.06544322610169
 10
51.3929009203115
 20
-99.06544322610169
 10
51.5384562045633
 20
-99.06544322610169
 10
51.5384562045633
 20
-99.06544322610169
 10
51.5384562045633
 20
-99.06544322610169
 10
51.5384562045633
 20
-100.6098795321392
 10
51.5384562045633
 20
-100.6098795321392
 10
51.5384562045633
 20
-100.6098795321392
 10
51.31486950757059
 20
-100.6098795321392
 10
51.31486950757059
 20
-100.6098795321392
 97
        0
 97
        0
 75
     2
 76
     1
 98
        0
  0
SPLINE
  5
93
330
8D
100
AcDbEntity
  8
_U+30EC_U+30A4_U+30E4_U+30FC 1
370
     0
100
AcDbSpline
210
0.0
220
0.0
230
1.0
 70
    11
 71
     3
 72
    29
 73
    25
 74
     0
 42
0.0000000001
 43
0.0000000001
 12
1.0
 22
0.0
 32
0.0
 13
1.0
 23
0.0
 33
0.0
 40
0.0
 40
0.0
 40
0.0
 40
0.0
 40
1.0
 40
1.0
 40
1.0
 40
2.0
 40
2.0
 40
2.0
 40
3.0
 40
3.0
 40
3.0
 40
4.0
 40
4.0
 40
4.0
 40
5.0
 40
5.0
 40
5.0
 40
6.0
 40
6.0
 40
6.0
 40
7.0
 40
7.0
 40
7.0
 40
8.0
 40
8.0
 40
8.0
 40
8.0
 10
52.93216958312113
 20
-100.4321126051003
 30
0.0
 10
52.82468260398133
 20
-100.6415744106035
 30
0.0
 10
52.65156655584753
 20
-100.6605224357724
 30
0.0
 10
52.53563909276887
 20
-100.6605224357724
 30
0.0
 10
52.37509764315623
 20
-100.6605224357724
 30
0.0
 10
52.23384872826099
 20
-100.6140136467215
 30
0.0
 10
52.13876409286809
 20
-100.4321126051003
 30
0.0
 10
52.03541122831059
 20
-100.2374647101837
 30
0.0
 10
52.01646320314172
 20
-100.000786650347
 30
0.0
 10
52.01646320314172
 20
-99.83783363389472
 30
0.0
 10
52.01646320314172
 20
-99.69382864261127
 30
0.0
 10
52.03334417101944
 20
-99.44199216263951
 30
0.0
 10
52.13876409286809
 20
-99.2432101531406
 30
0.0
 10
52.24642332678215
 20
-99.04029402905938
 30
0.0
 10
52.40679252162052
 20
-99.01686737975967
 30
0.0
 10
52.53563909276887
 20
-99.01686737975967
 30
0.0
 10
52.69376897554184
 20
-99.01686737975967
 30
0.0
 10
52.83725720250249
 20
-99.06130911151939
 30
0.0
 10
52.93216958312113
 20
-99.2432101531406
 30
0.0
 10
53.03138833309632
 20
-99.43579099076605
 30
0.0
 10
53.05464272762176
 20
-99.66420082143811
 30
0.0
 10
53.05464272762176
 20
-99.83783363389472
 30
0.0
 10
53.05464272762176
 20
-100.0090548795116
 30
0.0
 10
53.03345539038747
 20
-100.2395317674748
 30
0.0
 10
52.93216958312113
 20
-100.4321126051003
 30
0.0
  0
SPLINE
  5
94
330
8D
100
AcDbEntity
  8
_U+30EC_U+30A4_U+30E4_U+30FC 1
370
     0
100
AcDbSpline
210
0.0
220
0.0
230
1.0
 70
    11
 71
     3
 72
    17
 73
    13
 74
     0
 42
0.0000000001
 43
0.0000000001
 12
1.0
 22
0.0
 32
0.0
 13
1.0
 23
0.0
 33
0.0
 40
0.0
 40
0.0
 40
0.0
 40
0.0
 40
1.0
 40
1.0
 40
1.0
 40
2.0
 40
2.0
 40
2.0
 40
3.0
 40
3.0
 40
3.0
 40
4.0
 40
4.0
 40
4.0
 40
4.0
 10
52.53563909276887
 20
-99.20944821738514
 30
0.0
 10
52.28655868918531
 20
-99.20944821738514
 30
0.0
 10
52.24004990013444
 20
-99.49297957582121
 30
0.0
 10
52.24004990013444
 20
-99.83783363389472
 30
0.0
 10
52.24004990013444
 20
-100.1571939853774
 30
0.0
 10
52.27605114795529
 20
-100.4658745408558
 30
0.0
 10
52.53563909276887
 20
-100.4658745408558
 30
0.0
 10
52.78248018428702
 20
-100.4658745408558
 30
0.0
 10
52.83088377585478
 20
-100.1847547492594
 30
0.0
 10
52.83088377585478
 20
-99.83783363389472
 30
0.0
 10
52.83088377585478
 20
-99.51812877286353
 30
0.0
 10
52.79298772551704
 20
-99.20944821738514
 30
0.0
 10
52.53563909276887
 20
-99.20944821738514
 30
0.0
  0
HATCH
  5
95
330
8D
100
AcDbEntity
  8
_U+30EC_U+30A4_U+30E4_U+30FC 1
 62
   179
420
  2234388
100
AcDbHatch
 10
0.0
 20
0.0
 30
0.0
210
0.0
220
0.0
230
1.0
  2
SOLID
 70
     1
 71
     0
 91
        2
 92
        1
 93
        1
 72
     4
 94
        3
 73
     0
 74
     1
 95
       29
 96
       25
 40
0.0
 40
0.0
 40
0.0
 40
0.0
 40
1.0
 40
1.0
 40
1.0
 40
2.0
 40
2.0
 40
2.0
 40
3.0
 40
3.0
 40
3.0
 40
4.0
 40
4.0
 40
4.0
 40
5.0
 40
5.0
 40
5.0
 40
6.0
 40
6.0
 40
6.0
 40
7.0
 40
7.0
 40
7.0
 40
8.0
 40
8.0
 40
8.0
 40
8.0
 10
52.93216958312113
 20
-100.4321126051003
 10
52.82468260398133
 20
-100.6415744106035
 10
52.65156655584753
 20
-100.6605224357724
 10
52.53563909276887
 20
-100.6605224357724
 10
52.37509764315623
 20
-100.6605224357724
 10
52.23384872826099
 20
-100.6140136467215
 10
52.13876409286809
 20
-100.4321126051003
 10
52.03541122831059
 20
-100.2374647101837
 10
52.01646320314172
 20
-100.000786650347
 10
52.01646320314172
 20
-99.83783363389472
 10
52.01646320314172
 20
-99.69382864261127
 10
52.03334417101944
 20
-99.44199216263951
 10
52.13876409286809
 20
-99.2432101531406
 10
52.24642332678215
 20
-99.04029402905938
 10
52.40679252162052
 20
-99.01686737975967
 10
52.53563909276887
 20
-99.01686737975967
 10
52.69376897554184
 20
-99.01686737975967
 10
52.83725720250249
 20
-99.06130911151939
 10
52.93216958312113
 20
-99.2432101531406
 10
53.03138833309632
 20
-99.43579099076605
 10
53.05464272762176
 20
-99.66420082143811
 10
53.05464272762176
 20
-99.83783363389472
 10
53.05464272762176
 20
-100.0090548795116
 10
53.03345539038747
 20
-100.2395317674748
 10
52.93216958312113
 20
-100.4321126051003
 97
        0
 97
        0
 92
        1
 93
        1
 72
     4
 94
        3
 73
     0
 74
     1
 95
       17
 96
       13
 40
0.0
 40
0.0
 40
0.0
 40
0.0
 40
1.0
 40
1.0
 40
1.0
 40
2.0
 40
2.0
 40
2.0
 40
3.0
 40
3.0
 40
3.0
 40
4.0
 40
4.0
 40
4.0
 40
4.0
 10
52.53563909276887
 20
-99.20944821738514
 10
52.28655868918531
 20
-99.20944821738514
 10
52.24004990013444
 20
-99.49297957582121
 10
52.24004990013444
 20
-99.83783363389472
 10
52.24004990013444
 20
-100.1571939853774
 10
52.27605114795529
 20
-100.4658745408558
 10
52.53563909276887
 20
-100.4658745408558
 10
52.78248018428702
 20
-100.4658745408558
 10
52.83088377585478
 20
-100.1847547492594
 10
52.83088377585478
 20
-99.83783363389472
 10
52.83088377585478
 20
-99.51812877286353
 10
52.79298772551704
 20
-99.20944821738514
 10
52.53563909276887
 20
-99.20944821738514
 97
        0
 97
        0
 75
     2
 76
     1
 98
        0
  0
ENDBLK
  5
90
330
8D
100
AcDbEntity
  8
0
100
AcDbBlockEnd
  0
BLOCK
  5
A4
330
A2
100
AcDbEntity
  8
0
100
AcDbBlockBegin
  2
block 3
 70
     0
 10
0.0
 20
0.0
 30
0.0
  3
block 3
  1

  0
SPLINE
  5
A6
330
A2
100
AcDbEntity
  8
_U+30EC_U+30A4_U+30E4_U+30FC 1
370
     0
100
AcDbSpline
210
0.0
220
0.0
230
1.0
 70
    11
 71
     3
 72
    62
 73
    58
 74
     0
 42
0.0000000001
 43
0.0000000001
 12
1.0
 22
0.0
 32
0.0
 13
1.0
 23
0.0
 33
0.0
 40
0.0
 40
0.0
 40
0.0
 40
0.0
 40
1.0
 40
1.0
 40
1.0
 40
2.0
 40
2.0
 40
2.0
 40
3.0
 40
3.0
 40
3.0
 40
4.0
 40
4.0
 40
4.0
 40
5.0
 40
5.0
 40
5.0
 40
6.0
 40
6.0
 40
6.0
 40
7.0
 40
7.0
 40
7.0
 40
8.0
 40
8.0
 40
8.0
 40
9.0
 40
9.0
 40
9.0
 40
10.0
 40
10.0
 40
10.0
 40
11.0
 40
11.0
 40
11.0
 40
12.0
 40
12.0
 40
12.0
 40
13.0
 40
13.0
 40
13.0
 40
14.0
 40
14.0
 40
14.0
 40
15.0
 40
15.0
 40
15.0
 40
16.0
 40
16.0
 40
16.0
 40
17.0
 40
17.0
 40
17.0
 40
18.0
 40
18.0
 40
18.0
 40
19.0
 40
19.0
 40
19.0
 40
19.0
 10
77.35341794941165
 20
-96.4743869116453
 30
0.0
 10
77.35341794941165
 20
-96.56912703748966
 30
0.0
 10
77.33240286695163
 20
-96.78651256260893
 30
0.0
 10
77.14636771074814
 20
-96.91122501917498
 30
0.0
 10
77.03405759792899
 20
-96.98495006255932
 30
0.0
 10
76.9348388479538
 20
-96.98908417714162
 30
0.0
 10
76.85008949901665
 20
-96.99321829172392
 30
0.0
 10
76.85008949901665
 20
-96.99321829172392
 30
0.0
 10
76.85008949901665
 20
-96.77411021886203
 30
0.0
 10
76.85008949901665
 20
-96.77411021886203
 30
0.0
 10
76.92415905194952
 20
-96.77169865202235
 30
0.0
 10
77.15877005449504
 20
-96.76136336556661
 30
0.0
 10
77.15877005449504
 20
-96.4785210262276
 30
0.0
 10
77.15877005449504
 20
-96.34140622591465
 30
0.0
 10
77.089179125693
 20
-96.18947751501514
 30
0.0
 10
76.86076929502092
 20
-96.18947751501514
 30
0.0
 10
76.74432506761947
 20
-96.18947751501514
 30
0.0
 10
76.69574922127745
 20
-96.22737356535288
 30
0.0
 10
76.66405434281316
 20
-96.25906844381718
 30
0.0
 10
76.58998478988029
 20
-96.33279348720153
 30
0.0
 10
76.57723793658486
 20
-96.44889320505445
 30
0.0
 10
76.57723793658486
 20
-96.50401473281845
 30
0.0
 10
76.57723793658486
 20
-96.52296275798732
 30
0.0
 10
76.57930499387601
 20
-96.55879175103392
 30
0.0
 10
76.58343910845831
 20
-96.58600800536739
 30
0.0
 10
76.58343910845831
 20
-96.58600800536739
 30
0.0
 10
76.3887912135417
 20
-96.58600800536739
 30
0.0
 10
76.3887912135417
 20
-96.58600800536739
 30
0.0
 10
76.39533689496366
 20
-96.54811195502964
 30
0.0
 10
76.39740395225482
 20
-96.50608179010959
 30
0.0
 10
76.39740395225482
 20
-96.49953610868762
 30
0.0
 10
76.39740395225482
 20
-96.43407929446788
 30
0.0
 10
76.37604436024627
 20
-96.235986304066
 30
0.0
 10
76.1393663004096
 20
-96.235986304066
 30
0.0
 10
75.96159937337072
 20
-96.235986304066
 30
0.0
 10
75.90647784560672
 20
-96.36655542295698
 30
0.0
 10
75.90647784560672
 20
-96.47645396893644
 30
0.0
 10
75.90647784560672
 20
-96.74034828310658
 30
0.0
 10
76.1393663004096
 20
-96.74861651227118
 30
0.0
 10
76.2110242865028
 20
-96.75275062685348
 30
0.0
 10
76.2110242865028
 20
-96.75275062685348
 30
0.0
 10
76.2110242865028
 20
-96.95532224138617
 30
0.0
 10
76.2110242865028
 20
-96.95532224138617
 30
0.0
 10
76.08631182993676
 20
-96.94705401222157
 30
0.0
 10
75.70976289339895
 20
-96.91949324833958
 30
0.0
 10
75.70976289339895
 20
-96.46370711564103
 30
0.0
 10
75.70976289339895
 20
-96.2401204186483
 30
0.0
 10
75.83688691680467
 20
-95.99965275377787
 30
0.0
 10
76.13282061898764
 20
-95.99965275377787
 30
0.0
 10
76.31920028473965
 20
-95.99965275377787
 30
0.0
 10
76.40153806683712
 20
-96.09439287962223
 30
0.0
 10
76.46286076647456
 20
-96.19361162959744
 30
0.0
 10
76.49042153035657
 20
-96.13263343950851
 30
0.0
 10
76.57069225516288
 20
-95.95107690743585
 30
0.0
 10
76.8480224417255
 20
-95.95107690743585
 30
0.0
 10
77.18633081837703
 20
-95.95107690743585
 30
0.0
 10
77.35341794941165
 20
-96.19774574417974
 30
0.0
 10
77.35341794941165
 20
-96.4743869116453
 30
0.0
  0
HATCH
  5
A7
330
A2
100
AcDbEntity
  8
_U+30EC_U+30A4_U+30E4_U+30FC 1
 62
   179
420
  2234388
100
AcDbHatch
 10
0.0
 20
0.0
 30
0.0
210
0.0
220
0.0
230
1.0
  2
SOLID
 70
     1
 71
     0
 91
        1
 92
        1
 93
        1
 72
     4
 94
        3
 73
     0
 74
     1
 95
       62
 96
       58
 40
0.0
 40
0.0
 40
0.0
 40
0.0
 40
1.0
 40
1.0
 40
1.0
 40
2.0
 40
2.0
 40
2.0
 40
3.0
 40
3.0
 40
3.0
 40
4.0
 40
4.0
 40
4.0
 40
5.0
 40
5.0
 40
5.0
 40
6.0
 40
6.0
 40
6.0
 40
7.0
 40
7.0
 40
7.0
 40
8.0
 40
8.0
 40
8.0
 40
9.0
 40
9.0
 40
9.0
 40
10.0
 40
10.0
 40
10.0
 40
11.0
 40
11.0
 40
11.0
 40
12.0
 40
12.0
 40
12.0
 40
13.0
 40
13.0
 40
13.0
 40
14.0
 40
14.0
 40
14.0
 40
15.0
 40
15.0
 40
15.0
 40
16.0
 40
16.0
 40
16.0
 40
17.0
 40
17.0
 40
17.0
 40
18.0
 40
18.0
 40
18.0
 40
19.0
 40
19.0
 40
19.0
 40
19.0
 10
77.35341794941165
 20
-96.4743869116453
 10
77.35341794941165
 20
-96.56912703748966
 10
77.33240286695163
 20
-96.78651256260893
 10
77.14636771074814
 20
-96.91122501917498
 10
77.03405759792899
 20
-96.98495006255932
 10
76.9348388479538
 20
-96.98908417714162
 10
76.85008949901665
 20
-96.99321829172392
 10
76.85008949901665
 20
-96.99321829172392
 10
76.85008949901665
 20
-96.77411021886203
 10
76.85008949901665
 20
-96.77411021886203
 10
76.92415905194952
 20
-96.77169865202235
 10
77.15877005449504
 20
-96.76136336556661
 10
77.15877005449504
 20
-96.4785210262276
 10
77.15877005449504
 20
-96.34140622591465
 10
77.089179125693
 20
-96.18947751501514
 10
76.86076929502092
 20
-96.18947751501514
 10
76.74432506761947
 20
-96.18947751501514
 10
76.69574922127745
 20
-96.22737356535288
 10
76.66405434281316
 20
-96.25906844381718
 10
76.58998478988029
 20
-96.33279348720153
 10
76.57723793658486
 20
-96.44889320505445
 10
76.57723793658486
 20
-96.50401473281845
 10
76.57723793658486
 20
-96.52296275798732
 10
76.57930499387601
 20
-96.55879175103392
 10
76.58343910845831
 20
-96.58600800536739
 10
76.58343910845831
 20
-96.58600800536739
 10
76.3887912135417
 20
-96.58600800536739
 10
76.3887912135417
 20
-96.58600800536739
 10
76.39533689496366
 20
-96.54811195502964
 10
76.39740395225482
 20
-96.50608179010959
 10
76.39740395225482
 20
-96.49953610868762
 10
76.39740395225482
 20
-96.43407929446788
 10
76.37604436024627
 20
-96.235986304066
 10
76.1393663004096
 20
-96.235986304066
 10
75.96159937337072
 20
-96.235986304066
 10
75.90647784560672
 20
-96.36655542295698
 10
75.90647784560672
 20
-96.47645396893644
 10
75.90647784560672
 20
-96.74034828310658
 10
76.1393663004096
 20
-96.74861651227118
 10
76.2110242865028
 20
-96.75275062685348
 10
76.2110242865028
 20
-96.75275062685348
 10
76.2110242865028
 20
-96.95532224138617
 10
76.2110242865028
 20
-96.95532224138617
 10
76.08631182993676
 20
-96.94705401222157
 10
75.70976289339895
 20
-96.91949324833958
 10
75.70976289339895
 20
-96.46370711564103
 10
75.70976289339895
 20
-96.2401204186483
 10
75.83688691680467
 20
-95.99965275377787
 10
76.13282061898764
 20
-95.99965275377787
 10
76.31920028473965
 20
-95.99965275377787
 10
76.40153806683712
 20
-96.09439287962223
 10
76.46286076647456
 20
-96.19361162959744
 10
76.49042153035657
 20
-96.13263343950851
 10
76.57069225516288
 20
-95.95107690743585
 10
76.8480224417255
 20
-95.95107690743585
 10
77.18633081837703
 20
-95.95107690743585
 10
77.35341794941165
 20
-96.19774574417974
 10
77.35341794941165
 20
-96.4743869116453
 97
        0
 97
        0
 75
     2
 76
     1
 98
        0
  0
POLYLINE
  5
A8
330
A2
100
AcDbEntity
  8
_U+30EC_U+30A4_U+30E4_U+30FC 1
370
     0
100
AcDb2dPolyline
 66
     1
 10
0.0
 20
0.0
 30
0.0
  0
VERTEX
  5
A9
330
A8
100
AcDbEntity
  8
_U+30EC_U+30A4_U+30E4_U+30FC 1
370
     0
100
AcDbVertex
100
AcDb2dVertex
 10
77.30277504577847
 20
-95.73231334412249
 30
0.0
  0
VERTEX
  5
AA
330
A8
100
AcDbEntity
  8
_U+30EC_U+30A4_U+30E4_U+30FC 1
370
     0
100
AcDbVertex
100
AcDb2dVertex
 10
77.05093856580672
 20
-95.73231334412249
 30
0.0
  0
VERTEX
  5
AB
330
A8
100
AcDbEntity
  8
_U+30EC_U+30A4_U+30E4_U+30FC 1
370
     0
100
AcDbVertex
100
AcDb2dVertex
 10
77.05093856580672
 20
-95.48116588324777
 30
0.0
  0
VERTEX
  5
AC
330
A8
100
AcDbEntity
  8
_U+30EC_U+30A4_U+30E4_U+30FC 1
370
     0
100
AcDbVertex
100
AcDb2dVertex
 10
77.30277504577847
 20
-95.48116588324777
 30
0.0
  0
VERTEX
  5
AD
330
A8
100
AcDbEntity
  8
_U+30EC_U+30A4_U+30E4_U+30FC 1
370
     0
100
AcDbVertex
100
AcDb2dVertex
 10
77.30277504577847
 20
-95.73231334412249
 30
0.0
  0
SEQEND
  5
AE
330
A8
100
AcDbEntity
  8
_U+30EC_U+30A4_U+30E4_U+30FC 1
370
     0
  0
HATCH
  5
AF
330
A2
100
AcDbEntity
  8
_U+30EC_U+30A4_U+30E4_U+30FC 1
 62
   179
420
  2234388
100
AcDbHatch
 10
0.0
 20
0.0
 30
0.0
210
0.0
220
0.0
230
1.0
  2
SOLID
 70
     1
 71
     0
 91
        1
 92
        1
 93
        4
 72
     1
 10
77.30277504577847
 20
-95.73231334412249
 11
77.05093856580672
 21
-95.73231334412249
 72
     1
 10
77.05093856580672
 20
-95.73231334412249
 11
77.05093856580672
 21
-95.48116588324777
 72
     1
 10
77.05093856580672
 20
-95.48116588324777
 11
77.30277504577847
 21
-95.48116588324777
 72
     1
 10
77.30277504577847
 20
-95.48116588324777
 11
77.30277504577847
 21
-95.73231334412249
 97
        0
 75
     2
 76
     1
 98
        0
  0
SPLINE
  5
B0
330
A2
100
AcDbEntity
  8
_U+30EC_U+30A4_U+30E4_U+30FC 1
370
     0
100
AcDbSpline
210
0.0
220
0.0
230
1.0
 70
    11
 71
     3
 72
    44
 73
    40
 74
     0
 42
0.0000000001
 43
0.0000000001
 12
1.0
 22
0.0
 32
0.0
 13
1.0
 23
0.0
 33
0.0
 40
0.0
 40
0.0
 40
0.0
 40
0.0
 40
1.0
 40
1.0
 40
1.0
 40
2.0
 40
2.0
 40
2.0
 40
3.0
 40
3.0
 40
3.0
 40
4.0
 40
4.0
 40
4.0
 40
5.0
 40
5.0
 40
5.0
 40
6.0
 40
6.0
 40
6.0
 40
7.0
 40
7.0
 40
7.0
 40
8.0
 40
8.0
 40
8.0
 40
9.0
 40
9.0
 40
9.0
 40
10.0
 40
10.0
 40
10.0
 40
11.0
 40
11.0
 40
11.0
 40
12.0
 40
12.0
 40
12.0
 40
13.0
 40
13.0
 40
13.0
 40
13.0
 10
76.72089841831978
 20
-94.65468747633633
 30
0.0
 10
76.8797173201898
 20
-94.8720730014556
 30
0.0
 10
76.95378687312267
 20
-94.96474607000881
 30
0.0
 10
77.0974473548576
 20
-95.01332191635085
 30
0.0
 10
77.0974473548576
 20
-95.01332191635085
 30
0.0
 10
77.0974473548576
 20
-94.23679739397552
 30
0.0
 10
77.0974473548576
 20
-94.23679739397552
 30
0.0
 10
77.0974473548576
 20
-94.23679739397552
 30
0.0
 10
77.30277504577847
 20
-94.23679739397552
 30
0.0
 10
77.30277504577847
 20
-94.23679739397552
 30
0.0
 10
77.30277504577847
 20
-94.23679739397552
 30
0.0
 10
77.30277504577847
 20
-95.26240231993441
 30
0.0
 10
77.30277504577847
 20
-95.26240231993441
 30
0.0
 10
76.94517413440954
 20
-95.2307074414701
 30
0.0
 10
76.86697046689437
 20
-95.16525062725036
 30
0.0
 10
76.56862519787174
 20
-94.781122480645
 30
0.0
 10
76.36984318837283
 20
-94.52584090518799
 30
0.0
 10
76.3019748073134
 20
-94.46038409096825
 30
0.0
 10
76.16451549745193
 20
-94.46038409096825
 30
0.0
 10
76.04600421275934
 20
-94.46038409096825
 30
0.0
 10
75.91509058431984
 20
-94.53204207706143
 30
0.0
 10
75.91509058431984
 20
-94.72841251972068
 30
0.0
 10
75.91509058431984
 20
-94.98817271930852
 30
0.0
 10
76.14556747228306
 20
-94.99644094847312
 30
0.0
 10
76.2620116996845
 20
-95.00057506305542
 30
0.0
 10
76.2620116996845
 20
-95.00057506305542
 30
0.0
 10
76.2620116996845
 20
-95.22450626959666
 30
0.0
 10
76.2620116996845
 20
-95.22450626959666
 30
0.0
 10
76.13488767627878
 20
-95.21589353088353
 30
0.0
 10
76.02292207300816
 20
-95.20521373487925
 30
0.0
 10
75.90441078831557
 20
-95.12528751962147
 30
0.0
 10
75.7435248291544
 20
-95.01538897364199
 30
0.0
 10
75.70976289339895
 20
-94.82969832698703
 30
0.0
 10
75.70976289339895
 20
-94.71359860913411
 30
0.0
 10
75.70976289339895
 20
-94.43730195121707
 30
0.0
 10
75.89373099231129
 20
-94.23059622210208
 30
0.0
 10
76.16658255474309
 20
-94.23059622210208
 30
0.0
 10
76.39533689496366
 20
-94.23059622210208
 30
0.0
 10
76.49455564493887
 20
-94.346695939955
 30
0.0
 10
76.72089841831978
 20
-94.65468747633633
 30
0.0
  0
HATCH
  5
B1
330
A2
100
AcDbEntity
  8
_U+30EC_U+30A4_U+30E4_U+30FC 1
 62
   179
420
  2234388
100
AcDbHatch
 10
0.0
 20
0.0
 30
0.0
210
0.0
220
0.0
230
1.0
  2
SOLID
 70
     1
 71
     0
 91
        1
 92
        1
 93
        1
 72
     4
 94
        3
 73
     0
 74
     1
 95
       44
 96
       40
 40
0.0
 40
0.0
 40
0.0
 40
0.0
 40
1.0
 40
1.0
 40
1.0
 40
2.0
 40
2.0
 40
2.0
 40
3.0
 40
3.0
 40
3.0
 40
4.0
 40
4.0
 40
4.0
 40
5.0
 40
5.0
 40
5.0
 40
6.0
 40
6.0
 40
6.0
 40
7.0
 40
7.0
 40
7.0
 40
8.0
 40
8.0
 40
8.0
 40
9.0
 40
9.0
 40
9.0
 40
10.0
 40
10.0
 40
10.0
 40
11.0
 40
11.0
 40
11.0
 40
12.0
 40
12.0
 40
12.0
 40
13.0
 40
13.0
 40
13.0
 40
13.0
 10
76.72089841831978
 20
-94.65468747633633
 10
76.8797173201898
 20
-94.8720730014556
 10
76.95378687312267
 20
-94.96474607000881
 10
77.0974473548576
 20
-95.01332191635085
 10
77.0974473548576
 20
-95.01332191635085
 10
77.0974473548576
 20
-94.23679739397552
 10
77.0974473548576
 20
-94.23679739397552
 10
77.0974473548576
 20
-94.23679739397552
 10
77.30277504577847
 20
-94.23679739397552
 10
77.30277504577847
 20
-94.23679739397552
 10
77.30277504577847
 20
-94.23679739397552
 10
77.30277504577847
 20
-95.26240231993441
 10
77.30277504577847
 20
-95.26240231993441
 10
76.94517413440954
 20
-95.2307074414701
 10
76.86697046689437
 20
-95.16525062725036
 10
76.56862519787174
 20
-94.781122480645
 10
76.36984318837283
 20
-94.52584090518799
 10
76.3019748073134
 20
-94.46038409096825
 10
76.16451549745193
 20
-94.46038409096825
 10
76.04600421275934
 20
-94.46038409096825
 10
75.91509058431984
 20
-94.53204207706143
 10
75.91509058431984
 20
-94.72841251972068
 10
75.91509058431984
 20
-94.98817271930852
 10
76.14556747228306
 20
-94.99644094847312
 10
76.2620116996845
 20
-95.00057506305542
 10
76.2620116996845
 20
-95.00057506305542
 10
76.2620116996845
 20
-95.22450626959666
 10
76.2620116996845
 20
-95.22450626959666
 10
76.13488767627878
 20
-95.21589353088353
 10
76.02292207300816
 20
-95.20521373487925
 10
75.90441078831557
 20
-95.12528751962147
 10
75.7435248291544
 20
-95.01538897364199
 10
75.70976289339895
 20
-94.82969832698703
 10
75.70976289339895
 20
-94.71359860913411
 10
75.70976289339895
 20
-94.43730195121707
 10
75.89373099231129
 20
-94.23059622210208
 10
76.16658255474309
 20
-94.23059622210208
 10
76.39533689496366
 20
-94.23059622210208
 10
76.49455564493887
 20
-94.346695939955
 10
76.72089841831978
 20
-94.65468747633633
 97
        0
 97
        0
 75
     2
 76
     1
 98
        0
  0
ENDBLK
  5
A5
330
A2
100
AcDbEntity
  8
0
100
AcDbBlockEnd
  0
BLOCK
  5
BC
330
BA
100
AcDbEntity
  8
0
100
AcDbBlockBegin
  2
block 4
 70
     0
 10
0.0
 20
0.0
 30
0.0
  3
block 4
  1

  0
SPLINE
  5
BE
330
BA
100
AcDbEntity
  8
_U+30EC_U+30A4_U+30E4_U+30FC 1
370
     0
100
AcDbSpline
210
0.0
220
0.0
230
1.0
 70
    11
 71
     3
 72
    26
 73
    22
 74
     0
 42
0.0000000001
 43
0.0000000001
 12
1.0
 22
0.0
 32
0.0
 13
1.0
 23
0.0
 33
0.0
 40
0.0
 40
0.0
 40
0.0
 40
0.0
 40
1.0
 40
1.0
 40
1.0
 40
2.0
 40
2.0
 40
2.0
 40
3.0
 40
3.0
 40
3.0
 40
4.0
 40
4.0
 40
4.0
 40
5.0
 40
5.0
 40
5.0
 40
6.0
 40
6.0
 40
6.0
 40
7.0
 40
7.0
 40
7.0
 40
7.0
 10
77.30277504577847
 20
-83.63141545218242
 30
0.0
 10
77.30277504577847
 20
-83.63141545218242
 30
0.0
 10
76.1986219427559
 20
-83.63141545218242
 30
0.0
 10
76.1986219427559
 20
-83.63141545218242
 30
0.0
 10
76.1986219427559
 20
-83.63141545218242
 30
0.0
 10
76.1986219427559
 20
-83.96076658057231
 30
0.0
 10
76.1986219427559
 20
-83.96076658057231
 30
0.0
 10
76.1986219427559
 20
-83.96076658057231
 30
0.0
 10
76.05048283689015
 20
-83.96076658057231
 30
0.0
 10
76.05048283689015
 20
-83.96076658057231
 30
0.0
 10
76.03566892630359
 20
-83.62934839489128
 30
0.0
 10
75.87271590985127
 20
-83.5828396058404
 30
0.0
 10
75.75833873974098
 20
-83.55321178466725
 30
0.0
 10
75.75833873974098
 20
-83.55321178466725
 30
0.0
 10
75.75833873974098
 20
-83.40782875518971
 30
0.0
 10
75.75833873974098
 20
-83.40782875518971
 30
0.0
 10
75.75833873974098
 20
-83.40782875518971
 30
0.0
 10
77.30277504577847
 20
-83.40782875518971
 30
0.0
 10
77.30277504577847
 20
-83.40782875518971
 30
0.0
 10
77.30277504577847
 20
-83.40782875518971
 30
0.0
 10
77.30277504577847
 20
-83.63141545218242
 30
0.0
 10
77.30277504577847
 20
-83.63141545218242
 30
0.0
  0
HATCH
  5
BF
330
BA
100
AcDbEntity
  8
_U+30EC_U+30A4_U+30E4_U+30FC 1
 62
   179
420
  2234388
100
AcDbHatch
 10
0.0
 20
0.0
 30
0.0
210
0.0
220
0.0
230
1.0
  2
SOLID
 70
     1
 71
     0
 91
        1
 92
        1
 93
        1
 72
     4
 94
        3
 73
     0
 74
     1
 95
       26
 96
       22
 40
0.0
 40
0.0
 40
0.0
 40
0.0
 40
1.0
 40
1.0
 40
1.0
 40
2.0
 40
2.0
 40
2.0
 40
3.0
 40
3.0
 40
3.0
 40
4.0
 40
4.0
 40
4.0
 40
5.0
 40
5.0
 40
5.0
 40
6.0
 40
6.0
 40
6.0
 40
7.0
 40
7.0
 40
7.0
 40
7.0
 10
77.30277504577847
 20
-83.63141545218242
 10
77.30277504577847
 20
-83.63141545218242
 10
76.1986219427559
 20
-83.63141545218242
 10
76.1986219427559
 20
-83.63141545218242
 10
76.1986219427559
 20
-83.63141545218242
 10
76.1986219427559
 20
-83.96076658057231
 10
76.1986219427559
 20
-83.96076658057231
 10
76.1986219427559
 20
-83.96076658057231
 10
76.05048283689015
 20
-83.96076658057231
 10
76.05048283689015
 20
-83.96076658057231
 10
76.03566892630359
 20
-83.62934839489128
 10
75.87271590985127
 20
-83.5828396058404
 10
75.75833873974098
 20
-83.55321178466725
 10
75.75833873974098
 20
-83.55321178466725
 10
75.75833873974098
 20
-83.40782875518971
 10
75.75833873974098
 20
-83.40782875518971
 10
75.75833873974098
 20
-83.40782875518971
 10
77.30277504577847
 20
-83.40782875518971
 10
77.30277504577847
 20
-83.40782875518971
 10
77.30277504577847
 20
-83.40782875518971
 10
77.30277504577847
 20
-83.63141545218242
 10
77.30277504577847
 20
-83.63141545218242
 97
        0
 97
        0
 75
     2
 76
     1
 98
        0
  0
ENDBLK
  5
BD
330
BA
100
AcDbEntity
  8
0
100
AcDbBlockEnd
  0
BLOCK
  5
CE
330
CC
100
AcDbEntity
  8
0
100
AcDbBlockBegin
  2
block 5
 70
     0
 10
0.0
 20
0.0
 30
0.0
  3
block 5
  1

  0
SPLINE
  5
D0
330
CC
100
AcDbEntity
  8
_U+30EC_U+30A4_U+30E4_U+30FC 1
370
     0
100
AcDbSpline
210
0.0
220
0.0
230
1.0
 70
    11
 71
     3
 72
    44
 73
    40
 74
     0
 42
0.0000000001
 43
0.0000000001
 12
1.0
 22
0.0
 32
0.0
 13
1.0
 23
0.0
 33
0.0
 40
0.0
 40
0.0
 40
0.0
 40
0.0
 40
1.0
 40
1.0
 40
1.0
 40
2.0
 40
2.0
 40
2.0
 40
3.0
 40
3.0
 40
3.0
 40
4.0
 40
4.0
 40
4.0
 40
5.0
 40
5.0
 40
5.0
 40
6.0
 40
6.0
 40
6.0
 40
7.0
 40
7.0
 40
7.0
 40
8.0
 40
8.0
 40
8.0
 40
9.0
 40
9.0
 40
9.0
 40
10.0
 40
10.0
 40
10.0
 40
11.0
 40
11.0
 40
11.0
 40
12.0
 40
12.0
 40
12.0
 40
13.0
 40
13.0
 40
13.0
 40
13.0
 10
60.95614147781652
 20
-77.82832436205334
 30
0.0
 10
60.73892820747152
 20
-77.98697100914909
 30
0.0
 10
60.64608288414404
 20
-78.06104056208197
 30
0.0
 10
60.59750703780202
 20
-78.20487329859115
 30
0.0
 10
60.59750703780202
 20
-78.20487329859115
 30
0.0
 10
61.37403156017733
 20
-78.20487329859115
 30
0.0
 10
61.37403156017733
 20
-78.20487329859115
 30
0.0
 10
61.37403156017733
 20
-78.20487329859115
 30
0.0
 10
61.37403156017733
 20
-78.41002873473778
 30
0.0
 10
61.37403156017733
 20
-78.41002873473778
 30
0.0
 10
61.37403156017733
 20
-78.41002873473778
 30
0.0
 10
60.34842663421845
 20
-78.41002873473778
 30
0.0
 10
60.34842663421845
 20
-78.41002873473778
 30
0.0
 10
60.38012151268275
 20
-78.05242782336884
 30
0.0
 10
60.4455783269025
 20
-77.97422415585368
 30
0.0
 10
60.82970647350785
 20
-77.67587888683103
 30
0.0
 10
61.08498804896487
 20
-77.47709687733212
 30
0.0
 10
61.15044486318461
 20
-77.40940075104696
 30
0.0
 10
61.15044486318461
 20
-77.27194144118549
 30
0.0
 10
61.15044486318461
 20
-77.1534301564929
 30
0.0
 10
61.07878687709142
 20
-77.02234427327915
 30
0.0
 10
60.88241643443217
 20
-77.02234427327915
 30
0.0
 10
60.6228284896186
 20
-77.02234427327915
 30
0.0
 10
60.61438800567974
 20
-77.25282116124235
 30
0.0
 10
60.61025389109744
 20
-77.3692653886438
 30
0.0
 10
60.61025389109744
 20
-77.3692653886438
 30
0.0
 10
60.38649493933046
 20
-77.3692653886438
 30
0.0
 10
60.38649493933046
 20
-77.3692653886438
 30
0.0
 10
60.39493542326932
 20
-77.24231362001234
 30
0.0
 10
60.40544296449934
 20
-77.13017576196746
 30
0.0
 10
60.48571368930565
 20
-77.01166447727486
 30
0.0
 10
60.59543998051087
 20
-76.85095077288796
 30
0.0
 10
60.78113062716583
 20
-76.81701658235825
 30
0.0
 10
60.89723034501875
 20
-76.81701658235825
 30
0.0
 10
61.17352700293578
 20
-76.81701658235825
 30
0.0
 10
61.38023273205078
 20
-77.00115693604485
 30
0.0
 10
61.38023273205078
 20
-77.27400849847665
 30
0.0
 10
61.38023273205078
 20
-77.50241832914871
 30
0.0
 10
61.26413301419786
 20
-77.60198158867243
 30
0.0
 10
60.95614147781652
 20
-77.82832436205334
 30
0.0
  0
HATCH
  5
D1
330
CC
100
AcDbEntity
  8
_U+30EC_U+30A4_U+30E4_U+30FC 1
 62
   179
420
  2234388
100
AcDbHatch
 10
0.0
 20
0.0
 30
0.0
210
0.0
220
0.0
230
1.0
  2
SOLID
 70
     1
 71
     0
 91
        1
 92
        1
 93
        1
 72
     4
 94
        3
 73
     0
 74
     1
 95
       44
 96
       40
 40
0.0
 40
0.0
 40
0.0
 40
0.0
 40
1.0
 40
1.0
 40
1.0
 40
2.0
 40
2.0
 40
2.0
 40
3.0
 40
3.0
 40
3.0
 40
4.0
 40
4.0
 40
4.0
 40
5.0
 40
5.0
 40
5.0
 40
6.0
 40
6.0
 40
6.0
 40
7.0
 40
7.0
 40
7.0
 40
8.0
 40
8.0
 40
8.0
 40
9.0
 40
9.0
 40
9.0
 40
10.0
 40
10.0
 40
10.0
 40
11.0
 40
11.0
 40
11.0
 40
12.0
 40
12.0
 40
12.0
 40
13.0
 40
13.0
 40
13.0
 40
13.0
 10
60.95614147781652
 20
-77.82832436205334
 10
60.73892820747152
 20
-77.98697100914909
 10
60.64608288414404
 20
-78.06104056208197
 10
60.59750703780202
 20
-78.20487329859115
 10
60.59750703780202
 20
-78.20487329859115
 10
61.37403156017733
 20
-78.20487329859115
 10
61.37403156017733
 20
-78.20487329859115
 10
61.37403156017733
 20
-78.20487329859115
 10
61.37403156017733
 20
-78.41002873473778
 10
61.37403156017733
 20
-78.41002873473778
 10
61.37403156017733
 20
-78.41002873473778
 10
60.34842663421845
 20
-78.41002873473778
 10
60.34842663421845
 20
-78.41002873473778
 10
60.38012151268275
 20
-78.05242782336884
 10
60.4455783269025
 20
-77.97422415585368
 10
60.82970647350785
 20
-77.67587888683103
 10
61.08498804896487
 20
-77.47709687733212
 10
61.15044486318461
 20
-77.40940075104696
 10
61.15044486318461
 20
-77.27194144118549
 10
61.15044486318461
 20
-77.1534301564929
 10
61.07878687709142
 20
-77.02234427327915
 10
60.88241643443217
 20
-77.02234427327915
 10
60.6228284896186
 20
-77.02234427327915
 10
60.61438800567974
 20
-77.25282116124235
 10
60.61025389109744
 20
-77.3692653886438
 10
60.61025389109744
 20
-77.3692653886438
 10
60.38649493933046
 20
-77.3692653886438
 10
60.38649493933046
 20
-77.3692653886438
 10
60.39493542326932
 20
-77.24231362001234
 10
60.40544296449934
 20
-77.13017576196746
 10
60.48571368930565
 20
-77.01166447727486
 10
60.59543998051087
 20
-76.85095077288796
 10
60.78113062716583
 20
-76.81701658235825
 10
60.89723034501875
 20
-76.81701658235825
 10
61.17352700293578
 20
-76.81701658235825
 10
61.38023273205078
 20
-77.00115693604485
 10
61.38023273205078
 20
-77.27400849847665
 10
61.38023273205078
 20
-77.50241832914871
 10
61.26413301419786
 20
-77.60198158867243
 10
60.95614147781652
 20
-77.82832436205334
 97
        0
 97
        0
 75
     2
 76
     1
 98
        0
  0
SPLINE
  5
D2
330
CC
100
AcDbEntity
  8
_U+30EC_U+30A4_U+30E4_U+30FC 1
370
     0
100
AcDbSpline
210
0.0
220
0.0
230
1.0
 70
    11
 71
     3
 72
    53
 73
    49
 74
     0
 42
0.0000000001
 43
0.0000000001
 12
1.0
 22
0.0
 32
0.0
 13
1.0
 23
0.0
 33
0.0
 40
0.0
 40
0.0
 40
0.0
 40
0.0
 40
1.0
 40
1.0
 40
1.0
 40
2.0
 40
2.0
 40
2.0
 40
3.0
 40
3.0
 40
3.0
 40
4.0
 40
4.0
 40
4.0
 40
5.0
 40
5.0
 40
5.0
 40
6.0
 40
6.0
 40
6.0
 40
7.0
 40
7.0
 40
7.0
 40
8.0
 40
8.0
 40
8.0
 40
9.0
 40
9.0
 40
9.0
 40
10.0
 40
10.0
 40
10.0
 40
11.0
 40
11.0
 40
11.0
 40
12.0
 40
12.0
 40
12.0
 40
13.0
 40
13.0
 40
13.0
 40
14.0
 40
14.0
 40
14.0
 40
15.0
 40
15.0
 40
15.0
 40
16.0
 40
16.0
 40
16.0
 40
16.0
 10
62.01688637772495
 20
-78.46084389314521
 30
0.0
 10
61.93868271020978
 20
-78.46084389314521
 30
0.0
 10
61.83739690294343
 20
-78.44379067049323
 30
0.0
 10
61.73611109567709
 20
-78.38040091356463
 30
0.0
 10
61.56316730231755
 20
-78.2703301128109
 30
0.0
 10
61.54180771030899
 20
-78.13924422959714
 30
0.0
 10
61.52285968514012
 20
-78.03141274090882
 30
0.0
 10
61.52285968514012
 20
-78.03141274090882
 30
0.0
 10
61.74437932484169
 20
-78.03141274090882
 30
0.0
 10
61.74437932484169
 20
-78.03141274090882
 30
0.0
 10
61.79950085260568
 20
-78.23019475040773
 30
0.0
 10
61.92593585691435
 20
-78.25982257158088
 30
0.0
 10
62.0189534350161
 20
-78.25982257158088
 30
0.0
 10
62.15813529262019
 20
-78.25982257158088
 30
0.0
 10
62.31006400351971
 20
-78.16043156683142
 30
0.0
 10
62.31006400351971
 20
-77.9277153668028
 30
0.0
 10
62.31006400351971
 20
-77.67174477224873
 30
0.0
 10
62.13057452873819
 20
-77.60198158867243
 30
0.0
 10
62.01034069630298
 20
-77.60198158867243
 30
0.0
 10
61.97864581783868
 20
-77.60198158867243
 30
0.0
 10
61.83739690294343
 20
-77.60198158867243
 30
0.0
 10
61.74885794897251
 20
-77.73100041459503
 30
0.0
 10
61.74885794897251
 20
-77.73100041459503
 30
0.0
 10
61.57350258877329
 20
-77.71188013465189
 30
0.0
 10
61.57350258877329
 20
-77.71188013465189
 30
0.0
 10
61.57350258877329
 20
-77.71188013465189
 30
0.0
 10
61.69408093075704
 20
-76.86576468347454
 30
0.0
 10
61.69408093075704
 20
-76.86576468347454
 30
0.0
 10
61.69408093075704
 20
-76.86576468347454
 30
0.0
 10
62.47060545313235
 20
-76.86576468347454
 30
0.0
 10
62.47060545313235
 20
-76.86576468347454
 30
0.0
 10
62.47060545313235
 20
-76.86576468347454
 30
0.0
 10
62.47060545313235
 20
-77.06041257839115
 30
0.0
 10
62.47060545313235
 20
-77.06041257839115
 30
0.0
 10
62.47060545313235
 20
-77.06041257839115
 30
0.0
 10
61.85634492811231
 20
-77.06041257839115
 30
0.0
 10
61.85634492811231
 20
-77.06041257839115
 30
0.0
 10
61.85634492811231
 20
-77.06041257839115
 30
0.0
 10
61.79088811389256
 20
-77.48347030397983
 30
0.0
 10
61.79088811389256
 20
-77.48347030397983
 30
0.0
 10
61.85221081353001
 20
-77.44953611345012
 30
0.0
 10
61.93454859562748
 20
-77.40940075104696
 30
0.0
 10
62.05271537077154
 20
-77.40940075104696
 30
0.0
 10
62.30592988893741
 20
-77.40940075104696
 30
0.0
 10
62.54226343922555
 20
-77.59560816202472
 30
0.0
 10
62.54226343922555
 20
-77.90859508685966
 30
0.0
 10
62.54226343922555
 20
-78.22606063582543
 30
0.0
 10
62.31833223268431
 20
-78.46084389314521
 30
0.0
 10
62.01688637772495
 20
-78.46084389314521
 30
0.0
  0
HATCH
  5
D3
330
CC
100
AcDbEntity
  8
_U+30EC_U+30A4_U+30E4_U+30FC 1
 62
   179
420
  2234388
100
AcDbHatch
 10
0.0
 20
0.0
 30
0.0
210
0.0
220
0.0
230
1.0
  2
SOLID
 70
     1
 71
     0
 91
        1
 92
        1
 93
        1
 72
     4
 94
        3
 73
     0
 74
     1
 95
       53
 96
       49
 40
0.0
 40
0.0
 40
0.0
 40
0.0
 40
1.0
 40
1.0
 40
1.0
 40
2.0
 40
2.0
 40
2.0
 40
3.0
 40
3.0
 40
3.0
 40
4.0
 40
4.0
 40
4.0
 40
5.0
 40
5.0
 40
5.0
 40
6.0
 40
6.0
 40
6.0
 40
7.0
 40
7.0
 40
7.0
 40
8.0
 40
8.0
 40
8.0
 40
9.0
 40
9.0
 40
9.0
 40
10.0
 40
10.0
 40
10.0
 40
11.0
 40
11.0
 40
11.0
 40
12.0
 40
12.0
 40
12.0
 40
13.0
 40
13.0
 40
13.0
 40
14.0
 40
14.0
 40
14.0
 40
15.0
 40
15.0
 40
15.0
 40
16.0
 40
16.0
 40
16.0
 40
16.0
 10
62.01688637772495
 20
-78.46084389314521
 10
61.93868271020978
 20
-78.46084389314521
 10
61.83739690294343
 20
-78.44379067049323
 10
61.73611109567709
 20
-78.38040091356463
 10
61.56316730231755
 20
-78.2703301128109
 10
61.54180771030899
 20
-78.13924422959714
 10
61.52285968514012
 20
-78.03141274090882
 10
61.52285968514012
 20
-78.03141274090882
 10
61.74437932484169
 20
-78.03141274090882
 10
61.74437932484169
 20
-78.03141274090882
 10
61.79950085260568
 20
-78.23019475040773
 10
61.92593585691435
 20
-78.25982257158088
 10
62.0189534350161
 20
-78.25982257158088
 10
62.15813529262019
 20
-78.25982257158088
 10
62.31006400351971
 20
-78.16043156683142
 10
62.31006400351971
 20
-77.9277153668028
 10
62.31006400351971
 20
-77.67174477224873
 10
62.13057452873819
 20
-77.60198158867243
 10
62.01034069630298
 20
-77.60198158867243
 10
61.97864581783868
 20
-77.60198158867243
 10
61.83739690294343
 20
-77.60198158867243
 10
61.74885794897251
 20
-77.73100041459503
 10
61.74885794897251
 20
-77.73100041459503
 10
61.57350258877329
 20
-77.71188013465189
 10
61.57350258877329
 20
-77.71188013465189
 10
61.57350258877329
 20
-77.71188013465189
 10
61.69408093075704
 20
-76.86576468347454
 10
61.69408093075704
 20
-76.86576468347454
 10
61.69408093075704
 20
-76.86576468347454
 10
62.47060545313235
 20
-76.86576468347454
 10
62.47060545313235
 20
-76.86576468347454
 10
62.47060545313235
 20
-76.86576468347454
 10
62.47060545313235
 20
-77.06041257839115
 10
62.47060545313235
 20
-77.06041257839115
 10
62.47060545313235
 20
-77.06041257839115
 10
61.85634492811231
 20
-77.06041257839115
 10
61.85634492811231
 20
-77.06041257839115
 10
61.85634492811231
 20
-77.06041257839115
 10
61.79088811389256
 20
-77.48347030397983
 10
61.79088811389256
 20
-77.48347030397983
 10
61.85221081353001
 20
-77.44953611345012
 10
61.93454859562748
 20
-77.40940075104696
 10
62.05271537077154
 20
-77.40940075104696
 10
62.30592988893741
 20
-77.40940075104696
 10
62.54226343922555
 20
-77.59560816202472
 10
62.54226343922555
 20
-77.90859508685966
 10
62.54226343922555
 20
-78.22606063582543
 10
62.31833223268431
 20
-78.46084389314521
 10
62.01688637772495
 20
-78.46084389314521
 97
        0
 97
        0
 75
     2
 76
     1
 98
        0
  0
ENDBLK
  5
CF
330
CC
100
AcDbEntity
  8
0
100
AcDbBlockEnd
  0
BLOCK
  5
DE
330
DC
100
AcDbEntity
  8
0
100
AcDbBlockBegin
  2
block 6
 70
     0
 10
0.0
 20
0.0
 30
0.0
  3
block 6
  1

  0
SPLINE
  5
E0
330
DC
100
AcDbEntity
  8
_U+30EC_U+30A4_U+30E4_U+30FC 1
370
     0
100
AcDbSpline
210
0.0
220
0.0
230
1.0
 70
    11
 71
     3
 72
    26
 73
    22
 74
     0
 42
0.0000000001
 43
0.0000000001
 12
1.0
 22
0.0
 32
0.0
 13
1.0
 23
0.0
 33
0.0
 40
0.0
 40
0.0
 40
0.0
 40
0.0
 40
1.0
 40
1.0
 40
1.0
 40
2.0
 40
2.0
 40
2.0
 40
3.0
 40
3.0
 40
3.0
 40
4.0
 40
4.0
 40
4.0
 40
5.0
 40
5.0
 40
5.0
 40
6.0
 40
6.0
 40
6.0
 40
7.0
 40
7.0
 40
7.0
 40
7.0
 10
77.30277504577847
 20
-89.68961586299427
 30
0.0
 10
77.30277504577847
 20
-89.68961586299427
 30
0.0
 10
76.1986219427559
 20
-89.68961586299427
 30
0.0
 10
76.1986219427559
 20
-89.68961586299427
 30
0.0
 10
76.1986219427559
 20
-89.68961586299427
 30
0.0
 10
76.1986219427559
 20
-90.01896699138415
 30
0.0
 10
76.1986219427559
 20
-90.01896699138415
 30
0.0
 10
76.1986219427559
 20
-90.01896699138415
 30
0.0
 10
76.05048283689015
 20
-90.01896699138415
 30
0.0
 10
76.05048283689015
 20
-90.01896699138415
 30
0.0
 10
76.03566892630359
 20
-89.68754880570312
 30
0.0
 10
75.87271590985127
 20
-89.64104001665224
 30
0.0
 10
75.75833873974098
 20
-89.61175670502762
 30
0.0
 10
75.75833873974098
 20
-89.61175670502762
 30
0.0
 10
75.75833873974098
 20
-89.46602916600155
 30
0.0
 10
75.75833873974098
 20
-89.46602916600155
 30
0.0
 10
75.75833873974098
 20
-89.46602916600155
 30
0.0
 10
77.30277504577847
 20
-89.46602916600155
 30
0.0
 10
77.30277504577847
 20
-89.46602916600155
 30
0.0
 10
77.30277504577847
 20
-89.46602916600155
 30
0.0
 10
77.30277504577847
 20
-89.68961586299427
 30
0.0
 10
77.30277504577847
 20
-89.68961586299427
 30
0.0
  0
HATCH
  5
E1
330
DC
100
AcDbEntity
  8
_U+30EC_U+30A4_U+30E4_U+30FC 1
 62
   179
420
  2234388
100
AcDbHatch
 10
0.0
 20
0.0
 30
0.0
210
0.0
220
0.0
230
1.0
  2
SOLID
 70
     1
 71
     0
 91
        1
 92
        1
 93
        1
 72
     4
 94
        3
 73
     0
 74
     1
 95
       26
 96
       22
 40
0.0
 40
0.0
 40
0.0
 40
0.0
 40
1.0
 40
1.0
 40
1.0
 40
2.0
 40
2.0
 40
2.0
 40
3.0
 40
3.0
 40
3.0
 40
4.0
 40
4.0
 40
4.0
 40
5.0
 40
5.0
 40
5.0
 40
6.0
 40
6.0
 40
6.0
 40
7.0
 40
7.0
 40
7.0
 40
7.0
 10
77.30277504577847
 20
-89.68961586299427
 10
77.30277504577847
 20
-89.68961586299427
 10
76.1986219427559
 20
-89.68961586299427
 10
76.1986219427559
 20
-89.68961586299427
 10
76.1986219427559
 20
-89.68961586299427
 10
76.1986219427559
 20
-90.01896699138415
 10
76.1986219427559
 20
-90.01896699138415
 10
76.1986219427559
 20
-90.01896699138415
 10
76.05048283689015
 20
-90.01896699138415
 10
76.05048283689015
 20
-90.01896699138415
 10
76.03566892630359
 20
-89.68754880570312
 10
75.87271590985127
 20
-89.64104001665224
 10
75.75833873974098
 20
-89.61175670502762
 10
75.75833873974098
 20
-89.61175670502762
 10
75.75833873974098
 20
-89.46602916600155
 10
75.75833873974098
 20
-89.46602916600155
 10
75.75833873974098
 20
-89.46602916600155
 10
77.30277504577847
 20
-89.46602916600155
 10
77.30277504577847
 20
-89.46602916600155
 10
77.30277504577847
 20
-89.46602916600155
 10
77.30277504577847
 20
-89.68961586299427
 10
77.30277504577847
 20
-89.68961586299427
 97
        0
 97
        0
 75
     2
 76
     1
 98
        0
  0
SPLINE
  5
E2
330
DC
100
AcDbEntity
  8
_U+30EC_U+30A4_U+30E4_U+30FC 1
370
     0
100
AcDbSpline
210
0.0
220
0.0
230
1.0
 70
    11
 71
     3
 72
    29
 73
    25
 74
     0
 42
0.0000000001
 43
0.0000000001
 12
1.0
 22
0.0
 32
0.0
 13
1.0
 23
0.0
 33
0.0
 40
0.0
 40
0.0
 40
0.0
 40
0.0
 40
1.0
 40
1.0
 40
1.0
 40
2.0
 40
2.0
 40
2.0
 40
3.0
 40
3.0
 40
3.0
 40
4.0
 40
4.0
 40
4.0
 40
5.0
 40
5.0
 40
5.0
 40
6.0
 40
6.0
 40
6.0
 40
7.0
 40
7.0
 40
7.0
 40
8.0
 40
8.0
 40
8.0
 40
8.0
 10
77.12500811873959
 20
-88.07214353266947
 30
0.0
 10
77.33446992424277
 20
-88.17963051180926
 30
0.0
 10
77.35341794941165
 20
-88.3525743051688
 30
0.0
 10
77.35341794941165
 20
-88.46867402302172
 30
0.0
 10
77.35341794941165
 20
-88.62921547263437
 30
0.0
 10
77.30690916036077
 20
-88.77046438752961
 30
0.0
 10
77.12500811873959
 20
-88.86554902292251
 30
0.0
 10
76.93036022382297
 20
-88.96890188748
 30
0.0
 10
76.69368216398631
 20
-88.98784991264887
 30
0.0
 10
76.53072914753399
 20
-88.98784991264887
 30
0.0
 10
76.38672415625055
 20
-88.98784991264887
 30
0.0
 10
76.13488767627878
 20
-88.97096894477114
 30
0.0
 10
75.93610566677987
 20
-88.86554902292251
 30
0.0
 10
75.73318954269865
 20
-88.75771753423419
 30
0.0
 10
75.70976289339895
 20
-88.59752059417006
 30
0.0
 10
75.70976289339895
 20
-88.46867402302172
 30
0.0
 10
75.70976289339895
 20
-88.31054414024875
 30
0.0
 10
75.75420462515868
 20
-88.16688365851384
 30
0.0
 10
75.93610566677987
 20
-88.07214353266947
 30
0.0
 10
76.12868650440534
 20
-87.97292478269428
 30
0.0
 10
76.3570963350774
 20
-87.9498426429431
 30
0.0
 10
76.53072914753399
 20
-87.9498426429431
 30
0.0
 10
76.70195039315091
 20
-87.9498426429431
 30
0.0
 10
76.93242728111412
 20
-87.97085772540312
 30
0.0
 10
77.12500811873959
 20
-88.07214353266947
 30
0.0
  0
SPLINE
  5
E3
330
DC
100
AcDbEntity
  8
_U+30EC_U+30A4_U+30E4_U+30FC 1
370
     0
100
AcDbSpline
210
0.0
220
0.0
230
1.0
 70
    11
 71
     3
 72
    17
 73
    13
 74
     0
 42
0.0000000001
 43
0.0000000001
 12
1.0
 22
0.0
 32
0.0
 13
1.0
 23
0.0
 33
0.0
 40
0.0
 40
0.0
 40
0.0
 40
0.0
 40
1.0
 40
1.0
 40
1.0
 40
2.0
 40
2.0
 40
2.0
 40
3.0
 40
3.0
 40
3.0
 40
4.0
 40
4.0
 40
4.0
 40
4.0
 10
75.90234373102442
 20
-88.46867402302172
 30
0.0
 10
75.90234373102442
 20
-88.71775442660528
 30
0.0
 10
76.18587508946048
 20
-88.76426321565616
 30
0.0
 10
76.53072914753399
 20
-88.76426321565616
 30
0.0
 10
76.85008949901665
 20
-88.76426321565616
 30
0.0
 10
77.15877005449504
 20
-88.72843422260956
 30
0.0
 10
77.15877005449504
 20
-88.46867402302172
 30
0.0
 10
77.15877005449504
 20
-88.22200518627784
 30
0.0
 10
76.87765026289864
 20
-88.17342933993581
 30
0.0
 10
76.53072914753399
 20
-88.17342933993581
 30
0.0
 10
76.2110242865028
 20
-88.17342933993581
 30
0.0
 10
75.90234373102442
 20
-88.21132539027356
 30
0.0
 10
75.90234373102442
 20
-88.46867402302172
 30
0.0
  0
HATCH
  5
E4
330
DC
100
AcDbEntity
  8
_U+30EC_U+30A4_U+30E4_U+30FC 1
 62
   179
420
  2234388
100
AcDbHatch
 10
0.0
 20
0.0
 30
0.0
210
0.0
220
0.0
230
1.0
  2
SOLID
 70
     1
 71
     0
 91
        2
 92
        1
 93
        1
 72
     4
 94
        3
 73
     0
 74
     1
 95
       29
 96
       25
 40
0.0
 40
0.0
 40
0.0
 40
0.0
 40
1.0
 40
1.0
 40
1.0
 40
2.0
 40
2.0
 40
2.0
 40
3.0
 40
3.0
 40
3.0
 40
4.0
 40
4.0
 40
4.0
 40
5.0
 40
5.0
 40
5.0
 40
6.0
 40
6.0
 40
6.0
 40
7.0
 40
7.0
 40
7.0
 40
8.0
 40
8.0
 40
8.0
 40
8.0
 10
77.12500811873959
 20
-88.07214353266947
 10
77.33446992424277
 20
-88.17963051180926
 10
77.35341794941165
 20
-88.3525743051688
 10
77.35341794941165
 20
-88.46867402302172
 10
77.35341794941165
 20
-88.62921547263437
 10
77.30690916036077
 20
-88.77046438752961
 10
77.12500811873959
 20
-88.86554902292251
 10
76.93036022382297
 20
-88.96890188748
 10
76.69368216398631
 20
-88.98784991264887
 10
76.53072914753399
 20
-88.98784991264887
 10
76.38672415625055
 20
-88.98784991264887
 10
76.13488767627878
 20
-88.97096894477114
 10
75.93610566677987
 20
-88.86554902292251
 10
75.73318954269865
 20
-88.75771753423419
 10
75.70976289339895
 20
-88.59752059417006
 10
75.70976289339895
 20
-88.46867402302172
 10
75.70976289339895
 20
-88.31054414024875
 10
75.75420462515868
 20
-88.16688365851384
 10
75.93610566677987
 20
-88.07214353266947
 10
76.12868650440534
 20
-87.97292478269428
 10
76.3570963350774
 20
-87.9498426429431
 10
76.53072914753399
 20
-87.9498426429431
 10
76.70195039315091
 20
-87.9498426429431
 10
76.93242728111412
 20
-87.97085772540312
 10
77.12500811873959
 20
-88.07214353266947
 97
        0
 97
        0
 92
        1
 93
        1
 72
     4
 94
        3
 73
     0
 74
     1
 95
       17
 96
       13
 40
0.0
 40
0.0
 40
0.0
 40
0.0
 40
1.0
 40
1.0
 40
1.0
 40
2.0
 40
2.0
 40
2.0
 40
3.0
 40
3.0
 40
3.0
 40
4.0
 40
4.0
 40
4.0
 40
4.0
 10
75.90234373102442
 20
-88.46867402302172
 10
75.90234373102442
 20
-88.71775442660528
 10
76.18587508946048
 20
-88.76426321565616
 10
76.53072914753399
 20
-88.76426321565616
 10
76.85008949901665
 20
-88.76426321565616
 10
77.15877005449504
 20
-88.72843422260956
 10
77.15877005449504
 20
-88.46867402302172
 10
77.15877005449504
 20
-88.22200518627784
 10
76.87765026289864
 20
-88.17342933993581
 10
76.53072914753399
 20
-88.17342933993581
 10
76.2110242865028
 20
-88.17342933993581
 10
75.90234373102442
 20
-88.21132539027356
 10
75.90234373102442
 20
-88.46867402302172
 97
        0
 97
        0
 75
     2
 76
     1
 98
        0
  0
ENDBLK
  5
DF
330
DC
100
AcDbEntity
  8
0
100
AcDbBlockEnd
  0
ENDSEC
  0
SECTION
  2
ENTITIES
  0
POLYLINE
  5
41
330
1F
100
AcDbEntity
  8
_U+30EC_U+30A4_U+30E4_U+30FC 1
 62
   179
420
  2234388
370
    25
100
AcDb2dPolyline
 66
     1
 10
0.0
 20
0.0
 30
0.0
  0
VERTEX
  5
42
330
41
100
AcDbEntity
  8
_U+30EC_U+30A4_U+30E4_U+30FC 1
 62
   179
420
  2234388
370
    25
100
AcDbVertex
100
AcDb2dVertex
 10
53.94882251253976
 20
-94.05591775426387
 30
0.0
  0
VERTEX
  5
43
330
41
100
AcDbEntity
  8
_U+30EC_U+30A4_U+30E4_U+30FC 1
 62
   179
420
  2234388
370
    25
100
AcDbVertex
100
AcDb2dVertex
 10
56.94880938044817
 20
-94.05591775426387
 30
0.0
  0
SEQEND
  5
44
330
41
100
AcDbEntity
  8
_U+30EC_U+30A4_U+30E4_U+30FC 1
 62
   179
420
  2234388
370
    25
  0
POLYLINE
  5
45
330
1F
100
AcDbEntity
  8
_U+30EC_U+30A4_U+30E4_U+30FC 1
 62
   179
420
  2234388
370
    25
100
AcDb2dPolyline
 66
     1
 10
0.0
 20
0.0
 30
0.0
  0
VERTEX
  5
46
330
45
100
AcDbEntity
  8
_U+30EC_U+30A4_U+30E4_U+30FC 1
 62
   179
420
  2234388
370
    25
100
AcDbVertex
100
AcDb2dVertex
 10
46.94872498826269
 20
-97.25571803124149
 30
0.0
  0
VERTEX
  5
47
330
45
100
AcDbEntity
  8
_U+30EC_U+30A4_U+30E4_U+30FC 1
 62
   179
420
  2234388
370
    25
100
AcDbVertex
100
AcDb2dVertex
 10
56.94880938044817
 20
-97.25571803124149
 30
0.0
  0
SEQEND
  5
48
330
45
100
AcDbEntity
  8
_U+30EC_U+30A4_U+30E4_U+30FC 1
 62
   179
420
  2234388
370
    25
  0
POLYLINE
  5
49
330
1F
100
AcDbEntity
  8
_U+30EC_U+30A4_U+30E4_U+30FC 1
 62
   179
420
  2234388
370
    25
100
AcDb2dPolyline
 66
     1
 10
0.0
 20
0.0
 30
0.0
  0
VERTEX
  5
4A
330
49
100
AcDbEntity
  8
_U+30EC_U+30A4_U+30E4_U+30FC 1
 62
   179
420
  2234388
370
    25
100
AcDbVertex
100
AcDb2dVertex
 10
56.94880938044817
 20
-94.05591775426387
 30
0.0
  0
VERTEX
  5
4B
330
49
100
AcDbEntity
  8
_U+30EC_U+30A4_U+30E4_U+30FC 1
 62
   179
420
  2234388
370
    25
100
AcDbVertex
100
AcDb2dVertex
 10
56.94880938044817
 20
-97.25571803124149
 30
0.0
  0
SEQEND
  5
4C
330
49
100
AcDbEntity
  8
_U+30EC_U+30A4_U+30E4_U+30FC 1
 62
   179
420
  2234388
370
    25
  0
POLYLINE
  5
4D
330
1F
100
AcDbEntity
  8
_U+30EC_U+30A4_U+30E4_U+30FC 1
 62
   179
420
  2234388
370
    25
100
AcDb2dPolyline
 66
     1
 10
0.0
 20
0.0
 30
0.0
  0
VERTEX
  5
4E
330
4D
100
AcDbEntity
  8
_U+30EC_U+30A4_U+30E4_U+30FC 1
 62
   179
420
  2234388
370
    25
100
AcDbVertex
100
AcDb2dVertex
 10
53.94882251253976
 20
-95.0563955317913
 30
0.0
  0
VERTEX
  5
4F
330
4D
100
AcDbEntity
  8
_U+30EC_U+30A4_U+30E4_U+30FC 1
 62
   179
420
  2234388
370
    25
100
AcDbVertex
100
AcDb2dVertex
 10
55.94903718373226
 20
-95.0563955317913
 30
0.0
  0
SEQEND
  5
50
330
4D
100
AcDbEntity
  8
_U+30EC_U+30A4_U+30E4_U+30FC 1
 62
   179
420
  2234388
370
    25
  0
POLYLINE
  5
51
330
1F
100
AcDbEntity
  8
_U+30EC_U+30A4_U+30E4_U+30FC 1
 62
   179
420
  2234388
370
    25
100
AcDb2dPolyline
 66
     1
 10
0.0
 20
0.0
 30
0.0
  0
VERTEX
  5
52
330
51
100
AcDbEntity
  8
_U+30EC_U+30A4_U+30E4_U+30FC 1
 62
   179
420
  2234388
370
    25
100
AcDbVertex
100
AcDb2dVertex
 10
53.94882251253976
 20
-94.05591775426387
 30
0.0
  0
VERTEX
  5
53
330
51
100
AcDbEntity
  8
_U+30EC_U+30A4_U+30E4_U+30FC 1
 62
   179
420
  2234388
370
    25
100
AcDbVertex
100
AcDb2dVertex
 10
53.94882251253976
 20
-95.0563955317913
 30
0.0
  0
SEQEND
  5
54
330
51
100
AcDbEntity
  8
_U+30EC_U+30A4_U+30E4_U+30FC 1
 62
   179
420
  2234388
370
    25
  0
POLYLINE
  5
55
330
1F
100
AcDbEntity
  8
_U+30EC_U+30A4_U+30E4_U+30FC 1
 62
   179
420
  2234388
370
    25
100
AcDb2dPolyline
 66
     1
 10
0.0
 20
0.0
 30
0.0
  0
VERTEX
  5
56
330
55
100
AcDbEntity
  8
_U+30EC_U+30A4_U+30E4_U+30FC 1
 62
   179
420
  2234388
370
    25
100
AcDbVertex
100
AcDb2dVertex
 10
46.94872498826269
 20
-96.2559810870471
 30
0.0
  0
VERTEX
  5
57
330
55
100
AcDbEntity
  8
_U+30EC_U+30A4_U+30E4_U+30FC 1
 62
   179
420
  2234388
370
    25
100
AcDbVertex
100
AcDb2dVertex
 10
46.94872498826269
 20
-97.25571803124149
 30
0.0
  0
SEQEND
  5
58
330
55
100
AcDbEntity
  8
_U+30EC_U+30A4_U+30E4_U+30FC 1
 62
   179
420
  2234388
370
    25
  0
POLYLINE
  5
59
330
1F
100
AcDbEntity
  8
_U+30EC_U+30A4_U+30E4_U+30FC 1
 62
   179
420
  2234388
370
    25
100
AcDb2dPolyline
 66
     1
 10
0.0
 20
0.0
 30
0.0
  0
VERTEX
  5
5A
330
59
100
AcDbEntity
  8
_U+30EC_U+30A4_U+30E4_U+30FC 1
 62
   179
420
  2234388
370
    25
100
AcDbVertex
100
AcDb2dVertex
 10
46.94872498826269
 20
-96.2559810870471
 30
0.0
  0
VERTEX
  5
5B
330
59
100
AcDbEntity
  8
_U+30EC_U+30A4_U+30E4_U+30FC 1
 62
   179
420
  2234388
370
    25
100
AcDbVertex
100
AcDb2dVertex
 10
47.44896387702672
 20
-96.2559810870471
 30
0.0
  0
SEQEND
  5
5C
330
59
100
AcDbEntity
  8
_U+30EC_U+30A4_U+30E4_U+30FC 1
 62
   179
420
  2234388
370
    25
  0
POLYLINE
  5
5D
330
1F
100
AcDbEntity
  8
_U+30EC_U+30A4_U+30E4_U+30FC 1
 62
   179
420
  2234388
370
    25
100
AcDb2dPolyline
 66
     1
 10
0.0
 20
0.0
 30
0.0
  0
VERTEX
  5
5E
330
5D
100
AcDbEntity
  8
_U+30EC_U+30A4_U+30E4_U+30FC 1
 62
   179
420
  2234388
370
    25
100
AcDbVertex
100
AcDb2dVertex
 10
48.45561404157208
 20
-96.2559810870471
 30
0.0
  0
VERTEX
  5
5F
330
5D
100
AcDbEntity
  8
_U+30EC_U+30A4_U+30E4_U+30FC 1
 62
   179
420
  2234388
370
    25
100
AcDbVertex
100
AcDb2dVertex
 10
55.94903718373226
 20
-96.2559810870471
 30
0.0
  0
SEQEND
  5
60
330
5D
100
AcDbEntity
  8
_U+30EC_U+30A4_U+30E4_U+30FC 1
 62
   179
420
  2234388
370
    25
  0
POLYLINE
  5
61
330
1F
100
AcDbEntity
  8
_U+30EC_U+30A4_U+30E4_U+30FC 1
 62
   179
420
  2234388
370
    25
100
AcDb2dPolyline
 66
     1
 10
0.0
 20
0.0
 30
0.0
  0
VERTEX
  5
62
330
61
100
AcDbEntity
  8
_U+30EC_U+30A4_U+30E4_U+30FC 1
 62
   179
420
  2234388
370
    25
100
AcDbVertex
100
AcDb2dVertex
 10
55.94903718373226
 20
-95.0563955317913
 30
0.0
  0
VERTEX
  5
63
330
61
100
AcDbEntity
  8
_U+30EC_U+30A4_U+30E4_U+30FC 1
 62
   179
420
  2234388
370
    25
100
AcDbVertex
100
AcDb2dVertex
 10
55.94903718373226
 20
-96.2559810870471
 30
0.0
  0
SEQEND
  5
64
330
61
100
AcDbEntity
  8
_U+30EC_U+30A4_U+30E4_U+30FC 1
 62
   179
420
  2234388
370
    25
  0
POLYLINE
  5
65
330
1F
100
AcDbEntity
  8
_U+30EC_U+30A4_U+30E4_U+30FC 1
 62
   179
420
  2234388
370
    25
100
AcDb2dPolyline
 66
     1
 10
0.0
 20
0.0
 30
0.0
  0
VERTEX
  5
66
330
65
100
AcDbEntity
  8
_U+30EC_U+30A4_U+30E4_U+30FC 1
 62
   179
420
  2234388
370
    25
100
AcDbVertex
100
AcDb2dVertex
 10
49.84192483953768
 20
-84.0561847012083
 30
0.0
  0
VERTEX
  5
67
330
65
100
AcDbEntity
  8
_U+30EC_U+30A4_U+30E4_U+30FC 1
 62
   179
420
  2234388
370
    25
100
AcDbVertex
100
AcDb2dVertex
 10
73.94895839118267
 20
-84.0561847012083
 30
0.0
  0
SEQEND
  5
68
330
65
100
AcDbEntity
  8
_U+30EC_U+30A4_U+30E4_U+30FC 1
 62
   179
420
  2234388
370
    25
  0
POLYLINE
  5
69
330
1F
100
AcDbEntity
  8
_U+30EC_U+30A4_U+30E4_U+30FC 1
 62
   179
420
  2234388
370
    25
100
AcDb2dPolyline
 66
     1
 10
0.0
 20
0.0
 30
0.0
  0
VERTEX
  5
6A
330
69
100
AcDbEntity
  8
_U+30EC_U+30A4_U+30E4_U+30FC 1
 62
   179
420
  2234388
370
    25
100
AcDbVertex
100
AcDb2dVertex
 10
73.94895839118267
 20
-83.0557422014584
 30
0.0
  0
VERTEX
  5
6B
330
69
100
AcDbEntity
  8
_U+30EC_U+30A4_U+30E4_U+30FC 1
 62
   179
420
  2234388
370
    25
100
AcDbVertex
100
AcDb2dVertex
 10
73.94895839118267
 20
-84.0561847012083
 30
0.0
  0
SEQEND
  5
6C
330
69
100
AcDbEntity
  8
_U+30EC_U+30A4_U+30E4_U+30FC 1
 62
   179
420
  2234388
370
    25
  0
POLYLINE
  5
6D
330
1F
100
AcDbEntity
  8
_U+30EC_U+30A4_U+30E4_U+30FC 1
 62
   179
420
  2234388
370
    25
100
AcDb2dPolyline
 66
     1
 10
0.0
 20
0.0
 30
0.0
  0
VERTEX
  5
6E
330
6D
100
AcDbEntity
  8
_U+30EC_U+30A4_U+30E4_U+30FC 1
 62
   179
420
  2234388
370
    25
100
AcDbVertex
100
AcDb2dVertex
 10
48.94893847343076
 20
-83.0557422014584
 30
0.0
  0
VERTEX
  5
6F
330
6D
100
AcDbEntity
  8
_U+30EC_U+30A4_U+30E4_U+30FC 1
 62
   179
420
  2234388
370
    25
100
AcDbVertex
100
AcDb2dVertex
 10
73.94895839118267
 20
-83.0557422014584
 30
0.0
  0
SEQEND
  5
70
330
6D
100
AcDbEntity
  8
_U+30EC_U+30A4_U+30E4_U+30FC 1
 62
   179
420
  2234388
370
    25
  0
POLYLINE
  5
71
330
1F
100
AcDbEntity
  8
_U+30EC_U+30A4_U+30E4_U+30FC 1
 62
   179
420
  2234388
370
    25
100
AcDb2dPolyline
 66
     1
 10
0.0
 20
0.0
 30
0.0
  0
VERTEX
  5
72
330
71
100
AcDbEntity
  8
_U+30EC_U+30A4_U+30E4_U+30FC 1
 62
   179
420
  2234388
370
    25
100
AcDbVertex
100
AcDb2dVertex
 10
48.94893847343076
 20
-83.0557422014584
 30
0.0
  0
VERTEX
  5
73
330
71
100
AcDbEntity
  8
_U+30EC_U+30A4_U+30E4_U+30FC 1
 62
   179
420
  2234388
370
    25
100
AcDbVertex
100
AcDb2dVertex
 10
47.44896387702672
 20
-96.2559810870471
 30
0.0
  0
SEQEND
  5
74
330
71
100
AcDbEntity
  8
_U+30EC_U+30A4_U+30E4_U+30FC 1
 62
   179
420
  2234388
370
    25
  0
POLYLINE
  5
75
330
1F
100
AcDbEntity
  8
_U+30EC_U+30A4_U+30E4_U+30FC 1
 62
   179
420
  2234388
370
    25
100
AcDb2dPolyline
 66
     1
 10
0.0
 20
0.0
 30
0.0
  0
VERTEX
  5
76
330
75
100
AcDbEntity
  8
_U+30EC_U+30A4_U+30E4_U+30FC 1
 62
   179
420
  2234388
370
    25
100
AcDbVertex
100
AcDb2dVertex
 10
49.84192483953768
 20
-84.0561847012083
 30
0.0
  0
VERTEX
  5
77
330
75
100
AcDbEntity
  8
_U+30EC_U+30A4_U+30E4_U+30FC 1
 62
   179
420
  2234388
370
    25
100
AcDbVertex
100
AcDb2dVertex
 10
48.45561404157208
 20
-96.2559810870471
 30
0.0
  0
SEQEND
  5
78
330
75
100
AcDbEntity
  8
_U+30EC_U+30A4_U+30E4_U+30FC 1
 62
   179
420
  2234388
370
    25
  0
SPLINE
  5
79
330
1F
100
AcDbEntity
  8
_U+30EC_U+30A4_U+30E4_U+30FC 1
 62
   179
420
  2234388
370
     9
100
AcDbSpline
210
0.0
220
0.0
230
1.0
 70
    11
 71
     3
 72
    17
 73
    13
 74
     0
 42
0.0000000001
 43
0.0000000001
 12
1.0
 22
0.0
 32
0.0
 13
1.0
 23
0.0
 33
0.0
 40
0.0
 40
0.0
 40
0.0
 40
0.0
 40
1.0
 40
1.0
 40
1.0
 40
2.0
 40
2.0
 40
2.0
 40
3.0
 40
3.0
 40
3.0
 40
4.0
 40
4.0
 40
4.0
 40
4.0
 10
57.048716044566
 20
-101.2561827524639
 30
0.0
 10
57.048716044566
 20
-101.2010435858108
 30
0.0
 10
57.00391326793124
 20
-101.1562760858223
 30
0.0
 10
56.94880938044817
 20
-101.1562760858223
 30
0.0
 10
56.89367021518822
 20
-101.1562760858223
 30
0.0
 10
56.84890271633033
 20
-101.2010435858108
 30
0.0
 10
56.84890271633033
 20
-101.2561827524639
 30
0.0
 10
56.84890271633033
 20
-101.3112866413388
 30
0.0
 10
56.89367021518822
 20
-101.3560894191055
 30
0.0
 10
56.94880938044817
 20
-101.3560894191055
 30
0.0
 10
57.00391326793124
 20
-101.3560894191055
 30
0.0
 10
57.048716044566
 20
-101.3112866413388
 30
0.0
 10
57.048716044566
 20
-101.2561827524639
 30
0.0
  0
SPLINE
  5
7A
330
1F
100
AcDbEntity
  8
_U+30EC_U+30A4_U+30E4_U+30FC 1
 62
   179
420
  2234388
370
     9
100
AcDbSpline
210
0.0
220
0.0
230
1.0
 70
    11
 71
     3
 72
    17
 73
    13
 74
     0
 42
0.0000000001
 43
0.0000000001
 12
1.0
 22
0.0
 32
0.0
 13
1.0
 23
0.0
 33
0.0
 40
0.0
 40
0.0
 40
0.0
 40
0.0
 40
1.0
 40
1.0
 40
1.0
 40
2.0
 40
2.0
 40
2.0
 40
3.0
 40
3.0
 40
3.0
 40
4.0
 40
4.0
 40
4.0
 40
4.0
 10
47.04898324412488
 20
-101.2561827524639
 30
0.0
 10
47.04898324412488
 20
-101.2010435858108
 30
0.0
 10
47.00418046749012
 20
-101.1562760858223
 30
0.0
 10
46.94872498826269
 20
-101.1562760858223
 30
0.0
 10
46.8936199147552
 20
-101.1562760858223
 30
0.0
 10
46.84881713812043
 20
-101.2010435858108
 30
0.0
 10
46.84881713812043
 20
-101.2561827524639
 30
0.0
 10
46.84881713812043
 20
-101.3112866413388
 30
0.0
 10
46.8936199147552
 20
-101.3560894191055
 30
0.0
 10
46.94872498826269
 20
-101.3560894191055
 30
0.0
 10
47.00418046749012
 20
-101.3560894191055
 30
0.0
 10
47.04898324412488
 20
-101.3112866413388
 30
0.0
 10
47.04898324412488
 20
-101.2561827524639
 30
0.0
  0
SPLINE
  5
7B
330
1F
100
AcDbEntity
  8
_U+30EC_U+30A4_U+30E4_U+30FC 1
 62
   179
420
  2234388
370
     9
100
AcDbSpline
210
0.0
220
0.0
230
1.0
 70
    11
 71
     3
 72
    17
 73
    13
 74
     0
 42
0.0000000001
 43
0.0000000001
 12
1.0
 22
0.0
 32
0.0
 13
1.0
 23
0.0
 33
0.0
 40
0.0
 40
0.0
 40
0.0
 40
0.0
 40
1.0
 40
1.0
 40
1.0
 40
2.0
 40
2.0
 40
2.0
 40
3.0
 40
3.0
 40
3.0
 40
4.0
 40
4.0
 40
4.0
 40
4.0
 10
78.0489768976936
 20
-83.0557422014584
 30
0.0
 10
78.0489768976936
 20
-83.00060303480532
 30
0.0
 10
78.00420939883571
 20
-82.95583553481676
 30
0.0
 10
77.94907220273515
 20
-82.95583553481676
 30
0.0
 10
77.89361356832391
 20
-82.95583553481676
 30
0.0
 10
77.84881079168915
 20
-83.00060303480532
 30
0.0
 10
77.84881079168915
 20
-83.0557422014584
 30
0.0
 10
77.84881079168915
 20
-83.11155164588884
 30
0.0
 10
77.89361356832391
 20
-83.15564886810003
 30
0.0
 10
77.94907220273515
 20
-83.15564886810003
 30
0.0
 10
78.00420939883571
 20
-83.15564886810003
 30
0.0
 10
78.0489768976936
 20
-83.11155164588884
 30
0.0
 10
78.0489768976936
 20
-83.0557422014584
 30
0.0
  0
SPLINE
  5
7C
330
1F
100
AcDbEntity
  8
_U+30EC_U+30A4_U+30E4_U+30FC 1
 62
   179
420
  2234388
370
     9
100
AcDbSpline
210
0.0
220
0.0
230
1.0
 70
    11
 71
     3
 72
    17
 73
    13
 74
     0
 42
0.0000000001
 43
0.0000000001
 12
1.0
 22
0.0
 32
0.0
 13
1.0
 23
0.0
 33
0.0
 40
0.0
 40
0.0
 40
0.0
 40
0.0
 40
1.0
 40
1.0
 40
1.0
 40
2.0
 40
2.0
 40
2.0
 40
3.0
 40
3.0
 40
3.0
 40
4.0
 40
4.0
 40
4.0
 40
4.0
 10
78.0489768976936
 20
-84.0561847012083
 30
0.0
 10
78.0489768976936
 20
-84.00108081233306
 30
0.0
 10
78.00420939883571
 20
-83.95627803456634
 30
0.0
 10
77.94907220273515
 20
-83.95627803456634
 30
0.0
 10
77.89361356832391
 20
-83.95627803456634
 30
0.0
 10
77.84881079168915
 20
-84.00108081233306
 30
0.0
 10
77.84881079168915
 20
-84.0561847012083
 30
0.0
 10
77.84881079168915
 20
-84.11132386786106
 30
0.0
 10
77.89361356832391
 20
-84.15609136784994
 30
0.0
 10
77.94907220273515
 20
-84.15609136784994
 30
0.0
 10
78.00420939883571
 20
-84.15609136784994
 30
0.0
 10
78.0489768976936
 20
-84.11132386786106
 30
0.0
 10
78.0489768976936
 20
-84.0561847012083
 30
0.0
  0
SPLINE
  5
7D
330
1F
100
AcDbEntity
  8
_U+30EC_U+30A4_U+30E4_U+30FC 1
 62
   179
420
  2234388
370
     9
100
AcDbSpline
210
0.0
220
0.0
230
1.0
 70
    11
 71
     3
 72
    17
 73
    13
 74
     0
 42
0.0000000001
 43
0.0000000001
 12
1.0
 22
0.0
 32
0.0
 13
1.0
 23
0.0
 33
0.0
 40
0.0
 40
0.0
 40
0.0
 40
0.0
 40
1.0
 40
1.0
 40
1.0
 40
2.0
 40
2.0
 40
2.0
 40
3.0
 40
3.0
 40
3.0
 40
4.0
 40
4.0
 40
4.0
 40
4.0
 10
78.0489768976936
 20
-94.05591775426387
 30
0.0
 10
78.0489768976936
 20
-94.00081386538895
 30
0.0
 10
78.00420939883571
 20
-93.95601108762223
 30
0.0
 10
77.94907220273515
 20
-93.95601108762223
 30
0.0
 10
77.89361356832391
 20
-93.95601108762223
 30
0.0
 10
77.84881079168915
 20
-94.00081386538895
 30
0.0
 10
77.84881079168915
 20
-94.05591775426387
 30
0.0
 10
77.84881079168915
 20
-94.11105692091695
 30
0.0
 10
77.89361356832391
 20
-94.1558244209055
 30
0.0
 10
77.94907220273515
 20
-94.1558244209055
 30
0.0
 10
78.00420939883571
 20
-94.1558244209055
 30
0.0
 10
78.0489768976936
 20
-94.11105692091695
 30
0.0
 10
78.0489768976936
 20
-94.05591775426387
 30
0.0
  0
SPLINE
  5
7E
330
1F
100
AcDbEntity
  8
_U+30EC_U+30A4_U+30E4_U+30FC 1
 62
   179
420
  2234388
370
     9
100
AcDbSpline
210
0.0
220
0.0
230
1.0
 70
    11
 71
     3
 72
    17
 73
    13
 74
     0
 42
0.0000000001
 43
0.0000000001
 12
1.0
 22
0.0
 32
0.0
 13
1.0
 23
0.0
 33
0.0
 40
0.0
 40
0.0
 40
0.0
 40
0.0
 40
1.0
 40
1.0
 40
1.0
 40
2.0
 40
2.0
 40
2.0
 40
3.0
 40
3.0
 40
3.0
 40
4.0
 40
4.0
 40
4.0
 40
4.0
 10
78.0489768976936
 20
-97.25571803124149
 30
0.0
 10
78.0489768976936
 20
-97.20061414236658
 30
0.0
 10
78.00420939883571
 20
-97.15581136459986
 30
0.0
 10
77.94907220273515
 20
-97.15581136459986
 30
0.0
 10
77.89361356832391
 20
-97.15581136459986
 30
0.0
 10
77.84881079168915
 20
-97.20061414236658
 30
0.0
 10
77.84881079168915
 20
-97.25571803124149
 30
0.0
 10
77.84881079168915
 20
-97.31156275345009
 30
0.0
 10
77.89361356832391
 20
-97.35633025343864
 30
0.0
 10
77.94907220273515
 20
-97.35633025343864
 30
0.0
 10
78.00420939883571
 20
-97.35633025343864
 30
0.0
 10
78.0489768976936
 20
-97.31156275345009
 30
0.0
 10
78.0489768976936
 20
-97.25571803124149
 30
0.0
  0
SPLINE
  5
7F
330
1F
100
AcDbEntity
  8
_U+30EC_U+30A4_U+30E4_U+30FC 1
 62
   179
420
  2234388
370
     9
100
AcDbSpline
210
0.0
220
0.0
230
1.0
 70
    11
 71
     3
 72
    17
 73
    13
 74
     0
 42
0.0000000001
 43
0.0000000001
 12
1.0
 22
0.0
 32
0.0
 13
1.0
 23
0.0
 33
0.0
 40
0.0
 40
0.0
 40
0.0
 40
0.0
 40
1.0
 40
1.0
 40
1.0
 40
2.0
 40
2.0
 40
2.0
 40
3.0
 40
3.0
 40
3.0
 40
4.0
 40
4.0
 40
4.0
 40
4.0
 10
74.04886505530051
 20
-79.05598303579151
 30
0.0
 10
74.04886505530051
 20
-79.00087914691659
 30
0.0
 10
74.00409755644263
 20
-78.95607636914987
 30
0.0
 10
73.94895839118267
 20
-78.95607636914987
 30
0.0
 10
73.8938545036996
 20
-78.95607636914987
 30
0.0
 10
73.84905172706485
 20
-79.00087914691659
 30
0.0
 10
73.84905172706485
 20
-79.05598303579151
 30
0.0
 10
73.84905172706485
 20
-79.11112220244459
 30
0.0
 10
73.8938545036996
 20
-79.15588970243314
 30
0.0
 10
73.94895839118267
 20
-79.15588970243314
 30
0.0
 10
74.00409755644263
 20
-79.15588970243314
 30
0.0
 10
74.04886505530051
 20
-79.11112220244459
 30
0.0
 10
74.04886505530051
 20
-79.05598303579151
 30
0.0
  0
SPLINE
  5
80
330
1F
100
AcDbEntity
  8
_U+30EC_U+30A4_U+30E4_U+30FC 1
 62
   179
420
  2234388
370
     9
100
AcDbSpline
210
0.0
220
0.0
230
1.0
 70
    11
 71
     3
 72
    17
 73
    13
 74
     0
 42
0.0000000001
 43
0.0000000001
 12
1.0
 22
0.0
 32
0.0
 13
1.0
 23
0.0
 33
0.0
 40
0.0
 40
0.0
 40
0.0
 40
0.0
 40
1.0
 40
1.0
 40
1.0
 40
2.0
 40
2.0
 40
2.0
 40
3.0
 40
3.0
 40
3.0
 40
4.0
 40
4.0
 40
4.0
 40
4.0
 10
49.0488451375486
 20
-79.05598303579151
 30
0.0
 10
49.0488451375486
 20
-79.00087914691659
 30
0.0
 10
49.00407763869072
 20
-78.95607636914987
 30
0.0
 10
48.94893847343076
 20
-78.95607636914987
 30
0.0
 10
48.89383458594769
 20
-78.95607636914987
 30
0.0
 10
48.84903180931293
 20
-79.00087914691659
 30
0.0
 10
48.84903180931293
 20
-79.05598303579151
 30
0.0
 10
48.84903180931293
 20
-79.11112220244459
 30
0.0
 10
48.89383458594769
 20
-79.15588970243314
 30
0.0
 10
48.94893847343076
 20
-79.15588970243314
 30
0.0
 10
49.00407763869072
 20
-79.15588970243314
 30
0.0
 10
49.0488451375486
 20
-79.11112220244459
 30
0.0
 10
49.0488451375486
 20
-79.05598303579151
 30
0.0
  0
POLYLINE
  5
81
330
1F
100
AcDbEntity
  8
_U+30EC_U+30A4_U+30E4_U+30FC 1
 62
   179
420
  2234388
370
     9
100
AcDb2dPolyline
 66
     1
 10
0.0
 20
0.0
 30
0.0
  0
VERTEX
  5
82
330
81
100
AcDbEntity
  8
_U+30EC_U+30A4_U+30E4_U+30FC 1
 62
   179
420
  2234388
370
     9
100
AcDbVertex
100
AcDb2dVertex
 10
46.94872498826269
 20
-101.2561827524639
 30
0.0
  0
VERTEX
  5
83
330
81
100
AcDbEntity
  8
_U+30EC_U+30A4_U+30E4_U+30FC 1
 62
   179
420
  2234388
370
     9
100
AcDbVertex
100
AcDb2dVertex
 10
56.94880938044817
 20
-101.2561827524639
 30
0.0
  0
SEQEND
  5
84
330
81
100
AcDbEntity
  8
_U+30EC_U+30A4_U+30E4_U+30FC 1
 62
   179
420
  2234388
370
     9
  0
POLYLINE
  5
85
330
1F
100
AcDbEntity
  8
_U+30EC_U+30A4_U+30E4_U+30FC 1
 62
   179
420
  2234388
370
     9
100
AcDb2dPolyline
 66
     1
 10
0.0
 20
0.0
 30
0.0
  0
VERTEX
  5
86
330
85
100
AcDbEntity
  8
_U+30EC_U+30A4_U+30E4_U+30FC 1
 62
   179
420
  2234388
370
     9
100
AcDbVertex
100
AcDb2dVertex
 10
46.94872498826269
 20
-99.79614136393954
 30
0.0
  0
VERTEX
  5
87
330
85
100
AcDbEntity
  8
_U+30EC_U+30A4_U+30E4_U+30FC 1
 62
   179
420
  2234388
370
     9
100
AcDbVertex
100
AcDb2dVertex
 10
46.94872498826269
 20
-102.2559549744358
 30
0.0
  0
SEQEND
  5
88
330
85
100
AcDbEntity
  8
_U+30EC_U+30A4_U+30E4_U+30FC 1
 62
   179
420
  2234388
370
     9
  0
POLYLINE
  5
89
330
1F
100
AcDbEntity
  8
_U+30EC_U+30A4_U+30E4_U+30FC 1
 62
   179
420
  2234388
370
     9
100
AcDb2dPolyline
 66
     1
 10
0.0
 20
0.0
 30
0.0
  0
VERTEX
  5
8A
330
89
100
AcDbEntity
  8
_U+30EC_U+30A4_U+30E4_U+30FC 1
 62
   179
420
  2234388
370
     9
100
AcDbVertex
100
AcDb2dVertex
 10
56.94880938044817
 20
-99.79614136393954
 30
0.0
  0
VERTEX
  5
8B
330
89
100
AcDbEntity
  8
_U+30EC_U+30A4_U+30E4_U+30FC 1
 62
   179
420
  2234388
370
     9
100
AcDbVertex
100
AcDb2dVertex
 10
56.94880938044817
 20
-102.2559549744358
 30
0.0
  0
SEQEND
  5
8C
330
89
100
AcDbEntity
  8
_U+30EC_U+30A4_U+30E4_U+30FC 1
 62
   179
420
  2234388
370
     9
  0
INSERT
  5
8E
330
1F
100
AcDbEntity
  8
_U+30EC_U+30A4_U+30E4_U+30FC 1
100
AcDbBlockReference
  2
block 2
 10
0.0
 20
0.0
 30
0.0
  0
POLYLINE
  5
96
330
1F
100
AcDbEntity
  8
_U+30EC_U+30A4_U+30E4_U+30FC 1
 62
   179
420
  2234388
370
     9
100
AcDb2dPolyline
 66
     1
 10
0.0
 20
0.0
 30
0.0
  0
VERTEX
  5
97
330
96
100
AcDbEntity
  8
_U+30EC_U+30A4_U+30E4_U+30FC 1
 62
   179
420
  2234388
370
     9
100
AcDbVertex
100
AcDb2dVertex
 10
77.94907220273515
 20
-94.05591775426387
 30
0.0
  0
VERTEX
  5
98
330
96
100
AcDbEntity
  8
_U+30EC_U+30A4_U+30E4_U+30FC 1
 62
   179
420
  2234388
370
     9
100
AcDbVertex
100
AcDb2dVertex
 10
77.94907220273515
 20
-97.25571803124149
 30
0.0
  0
SEQEND
  5
99
330
96
100
AcDbEntity
  8
_U+30EC_U+30A4_U+30E4_U+30FC 1
 62
   179
420
  2234388
370
     9
  0
POLYLINE
  5
9A
330
1F
100
AcDbEntity
  8
_U+30EC_U+30A4_U+30E4_U+30FC 1
 62
   179
420
  2234388
370
     9
100
AcDb2dPolyline
 66
     1
 10
0.0
 20
0.0
 30
0.0
  0
VERTEX
  5
9B
330
9A
100
AcDbEntity
  8
_U+30EC_U+30A4_U+30E4_U+30FC 1
 62
   179
420
  2234388
370
     9
100
AcDbVertex
100
AcDb2dVertex
 10
59.48887987120112
 20
-94.05591775426387
 30
0.0
  0
VERTEX
  5
9C
330
9A
100
AcDbEntity
  8
_U+30EC_U+30A4_U+30E4_U+30FC 1
 62
   179
420
  2234388
370
     9
100
AcDbVertex
100
AcDb2dVertex
 10
78.94884442470705
 20
-94.05591775426387
 30
0.0
  0
SEQEND
  5
9D
330
9A
100
AcDbEntity
  8
_U+30EC_U+30A4_U+30E4_U+30FC 1
 62
   179
420
  2234388
370
     9
  0
POLYLINE
  5
9E
330
1F
100
AcDbEntity
  8
_U+30EC_U+30A4_U+30E4_U+30FC 1
 62
   179
420
  2234388
370
     9
100
AcDb2dPolyline
 66
     1
 10
0.0
 20
0.0
 30
0.0
  0
VERTEX
  5
9F
330
9E
100
AcDbEntity
  8
_U+30EC_U+30A4_U+30E4_U+30FC 1
 62
   179
420
  2234388
370
     9
100
AcDbVertex
100
AcDb2dVertex
 10
59.48887987120112
 20
-97.25571803124149
 30
0.0
  0
VERTEX
  5
A0
330
9E
100
AcDbEntity
  8
_U+30EC_U+30A4_U+30E4_U+30FC 1
 62
   179
420
  2234388
370
     9
100
AcDbVertex
100
AcDb2dVertex
 10
78.94884442470705
 20
-97.25571803124149
 30
0.0
  0
SEQEND
  5
A1
330
9E
100
AcDbEntity
  8
_U+30EC_U+30A4_U+30E4_U+30FC 1
 62
   179
420
  2234388
370
     9
  0
INSERT
  5
A3
330
1F
100
AcDbEntity
  8
_U+30EC_U+30A4_U+30E4_U+30FC 1
100
AcDbBlockReference
  2
block 3
 10
0.0
 20
0.0
 30
0.0
  0
POLYLINE
  5
B2
330
1F
100
AcDbEntity
  8
_U+30EC_U+30A4_U+30E4_U+30FC 1
 62
   179
420
  2234388
370
     9
100
AcDb2dPolyline
 66
     1
 10
0.0
 20
0.0
 30
0.0
  0
VERTEX
  5
B3
330
B2
100
AcDbEntity
  8
_U+30EC_U+30A4_U+30E4_U+30FC 1
 62
   179
420
  2234388
370
     9
100
AcDbVertex
100
AcDb2dVertex
 10
77.94907220273515
 20
-84.0561847012083
 30
0.0
  0
VERTEX
  5
B4
330
B2
100
AcDbEntity
  8
_U+30EC_U+30A4_U+30E4_U+30FC 1
 62
   179
420
  2234388
370
     9
100
AcDbVertex
100
AcDb2dVertex
 10
77.94907220273515
 20
-83.0557422014584
 30
0.0
  0
SEQEND
  5
B5
330
B2
100
AcDbEntity
  8
_U+30EC_U+30A4_U+30E4_U+30FC 1
 62
   179
420
  2234388
370
     9
  0
POLYLINE
  5
B6
330
1F
100
AcDbEntity
  8
_U+30EC_U+30A4_U+30E4_U+30FC 1
 62
   179
420
  2234388
370
     9
100
AcDb2dPolyline
 66
     1
 10
0.0
 20
0.0
 30
0.0
  0
VERTEX
  5
B7
330
B6
100
AcDbEntity
  8
_U+30EC_U+30A4_U+30E4_U+30FC 1
 62
   179
420
  2234388
370
     9
100
AcDbVertex
100
AcDb2dVertex
 10
76.48902888193564
 20
-83.0557422014584
 30
0.0
  0
VERTEX
  5
B8
330
B6
100
AcDbEntity
  8
_U+30EC_U+30A4_U+30E4_U+30FC 1
 62
   179
420
  2234388
370
     9
100
AcDbVertex
100
AcDb2dVertex
 10
78.94884442470705
 20
-83.0557422014584
 30
0.0
  0
SEQEND
  5
B9
330
B6
100
AcDbEntity
  8
_U+30EC_U+30A4_U+30E4_U+30FC 1
 62
   179
420
  2234388
370
     9
  0
INSERT
  5
BB
330
1F
100
AcDbEntity
  8
_U+30EC_U+30A4_U+30E4_U+30FC 1
100
AcDbBlockReference
  2
block 4
 10
0.0
 20
0.0
 30
0.0
  0
POLYLINE
  5
C0
330
1F
100
AcDbEntity
  8
_U+30EC_U+30A4_U+30E4_U+30FC 1
 62
   179
420
  2234388
370
     9
100
AcDb2dPolyline
 66
     1
 10
0.0
 20
0.0
 30
0.0
  0
VERTEX
  5
C1
330
C0
100
AcDbEntity
  8
_U+30EC_U+30A4_U+30E4_U+30FC 1
 62
   179
420
  2234388
370
     9
100
AcDbVertex
100
AcDb2dVertex
 10
48.94893847343076
 20
-79.05598303579151
 30
0.0
  0
VERTEX
  5
C2
330
C0
100
AcDbEntity
  8
_U+30EC_U+30A4_U+30E4_U+30FC 1
 62
   179
420
  2234388
370
     9
100
AcDbVertex
100
AcDb2dVertex
 10
73.94895839118267
 20
-79.05598303579151
 30
0.0
  0
SEQEND
  5
C3
330
C0
100
AcDbEntity
  8
_U+30EC_U+30A4_U+30E4_U+30FC 1
 62
   179
420
  2234388
370
     9
  0
POLYLINE
  5
C4
330
1F
100
AcDbEntity
  8
_U+30EC_U+30A4_U+30E4_U+30FC 1
 62
   179
420
  2234388
370
     9
100
AcDb2dPolyline
 66
     1
 10
0.0
 20
0.0
 30
0.0
  0
VERTEX
  5
C5
330
C4
100
AcDbEntity
  8
_U+30EC_U+30A4_U+30E4_U+30FC 1
 62
   179
420
  2234388
370
     9
100
AcDbVertex
100
AcDb2dVertex
 10
48.94893847343076
 20
-80.51602442431555
 30
0.0
  0
VERTEX
  5
C6
330
C4
100
AcDbEntity
  8
_U+30EC_U+30A4_U+30E4_U+30FC 1
 62
   179
420
  2234388
370
     9
100
AcDbVertex
100
AcDb2dVertex
 10
48.94893847343076
 20
-78.05621081381929
 30
0.0
  0
SEQEND
  5
C7
330
C4
100
AcDbEntity
  8
_U+30EC_U+30A4_U+30E4_U+30FC 1
 62
   179
420
  2234388
370
     9
  0
POLYLINE
  5
C8
330
1F
100
AcDbEntity
  8
_U+30EC_U+30A4_U+30E4_U+30FC 1
 62
   179
420
  2234388
370
     9
100
AcDb2dPolyline
 66
     1
 10
0.0
 20
0.0
 30
0.0
  0
VERTEX
  5
C9
330
C8
100
AcDbEntity
  8
_U+30EC_U+30A4_U+30E4_U+30FC 1
 62
   179
420
  2234388
370
     9
100
AcDbVertex
100
AcDb2dVertex
 10
73.94895839118267
 20
-80.51602442431555
 30
0.0
  0
VERTEX
  5
CA
330
C8
100
AcDbEntity
  8
_U+30EC_U+30A4_U+30E4_U+30FC 1
 62
   179
420
  2234388
370
     9
100
AcDbVertex
100
AcDb2dVertex
 10
73.94895839118267
 20
-78.05621081381929
 30
0.0
  0
SEQEND
  5
CB
330
C8
100
AcDbEntity
  8
_U+30EC_U+30A4_U+30E4_U+30FC 1
 62
   179
420
  2234388
370
     9
  0
INSERT
  5
CD
330
1F
100
AcDbEntity
  8
_U+30EC_U+30A4_U+30E4_U+30FC 1
100
AcDbBlockReference
  2
block 5
 10
0.0
 20
0.0
 30
0.0
  0
POLYLINE
  5
D4
330
1F
100
AcDbEntity
  8
_U+30EC_U+30A4_U+30E4_U+30FC 1
 62
   179
420
  2234388
370
     9
100
AcDb2dPolyline
 66
     1
 10
0.0
 20
0.0
 30
0.0
  0
VERTEX
  5
D5
330
D4
100
AcDbEntity
  8
_U+30EC_U+30A4_U+30E4_U+30FC 1
 62
   179
420
  2234388
370
     9
100
AcDbVertex
100
AcDb2dVertex
 10
77.94907220273515
 20
-84.0561847012083
 30
0.0
  0
VERTEX
  5
D6
330
D4
100
AcDbEntity
  8
_U+30EC_U+30A4_U+30E4_U+30FC 1
 62
   179
420
  2234388
370
     9
100
AcDbVertex
100
AcDb2dVertex
 10
77.94907220273515
 20
-94.05591775426387
 30
0.0
  0
SEQEND
  5
D7
330
D4
100
AcDbEntity
  8
_U+30EC_U+30A4_U+30E4_U+30FC 1
 62
   179
420
  2234388
370
     9
  0
POLYLINE
  5
D8
330
1F
100
AcDbEntity
  8
_U+30EC_U+30A4_U+30E4_U+30FC 1
 62
   179
420
  2234388
370
     9
100
AcDb2dPolyline
 66
     1
 10
0.0
 20
0.0
 30
0.0
  0
VERTEX
  5
D9
330
D8
100
AcDbEntity
  8
_U+30EC_U+30A4_U+30E4_U+30FC 1
 62
   179
420
  2234388
370
     9
100
AcDbVertex
100
AcDb2dVertex
 10
76.48902888193564
 20
-84.0561847012083
 30
0.0
  0
VERTEX
  5
DA
330
D8
100
AcDbEntity
  8
_U+30EC_U+30A4_U+30E4_U+30FC 1
 62
   179
420
  2234388
370
     9
100
AcDbVertex
100
AcDb2dVertex
 10
78.94884442470705
 20
-84.0561847012083
 30
0.0
  0
SEQEND
  5
DB
330
D8
100
AcDbEntity
  8
_U+30EC_U+30A4_U+30E4_U+30FC 1
 62
   179
420
  2234388
370
     9
  0
INSERT
  5
DD
330
1F
100
AcDbEntity
  8
_U+30EC_U+30A4_U+30E4_U+30FC 1
100
AcDbBlockReference
  2
block 6
 10
0.0
 20
0.0
 30
0.0
  0
ENDSEC
  0
SECTION
  2
OBJECTS
  0
DICTIONARY
  5
C
330
0
100
AcDbDictionary
281
     1
  3
ACAD_GROUP
350
D
  3
ACAD_LAYOUT
350
1A
  3
ACAD_MATERIAL
350
3B
  3
ACAD_MLEADERSTYLE
350
E6
  3
ACAD_MLINESTYLE
350
17
  3
ACAD_PLOTSETTINGS
350
19
  3
ACAD_PLOTSTYLENAME
350
E
  3
ACAD_TABLESTYLE
350
E5
  3
ACAD_VISUALSTYLE
350
2A
  0
SUN
  5
3F
330
29
100
AcDbSun
 90
        1
290
     0
 63
     7
421
 16777215
 40
1.0
291
     1
 91
  2455826
 92
 54000000
292
     0
 70
     2
 71
   256
280
     1
  0
DICTIONARY
  5
D
102
{ACAD_REACTORS
330
C
102
}
330
C
100
AcDbDictionary
281
     1
  0
DICTIONARY
  5
1A
102
{ACAD_REACTORS
330
C
102
}
330
C
100
AcDbDictionary
281
     1
  3
Layout1
350
1E
  3
Layout2
350
26
  3
Model
350
22
  0
DICTIONARY
  5
3B
102
{ACAD_REACTORS
330
C
102
}
330
C
100
AcDbDictionary
281
     1
  3
ByBlock
350
3D
  3
ByLayer
350
3C
  3
Global
350
3E
  0
DICTIONARY
  5
E6
102
{ACAD_REACTORS
330
C
102
}
330
C
100
AcDbDictionary
281
     1
  0
DICTIONARY
  5
17
102
{ACAD_REACTORS
330
C
102
}
330
C
100
AcDbDictionary
281
     1
  3
Standard
350
18
  0
DICTIONARY
  5
19
102
{ACAD_REACTORS
330
C
102
}
330
C
100
AcDbDictionary
281
     1
  0
ACDBDICTIONARYWDFLT
  5
E
102
{ACAD_REACTORS
330
C
102
}
330
C
100
AcDbDictionary
281
     1
  3
Normal
350
F
100
AcDbDictionaryWithDefault
340
F
  0
DICTIONARY
  5
E5
102
{ACAD_REACTORS
330
C
102
}
330
C
100
AcDbDictionary
281
     1
  0
DICTIONARY
  5
2A
102
{ACAD_REACTORS
330
C
102
}
330
C
100
AcDbDictionary
281
     1
  3
2dWireframe
350
2F
  3
3D Hidden
350
31
  3
3dWireframe
350
30
  3
Basic
350
32
  3
Brighten
350
36
  3
ColorChange
350
3A
  3
Conceptual
350
34
  3
Dim
350
35
  3
Facepattern
350
39
  3
Flat
350
2B
  3
FlatWithEdges
350
2C
  3
Gouraud
350
2D
  3
GouraudWithEdges
350
2E
  3
Linepattern
350
38
  3
Realistic
350
33
  3
Thicken
350
37
  0
LAYOUT
  5
1E
102
{ACAD_REACTORS
330
1A
102
}
330
1A
100
AcDbPlotSettings
  1

  2
none_device
  4

  6

 40
0.0
 41
0.0
 42
0.0
 43
0.0
 44
0.0
 45
0.0
 46
0.0
 47
0.0
 48
0.0
 49
0.0
140
0.0
141
0.0
142
1.0
143
1.0
 70
   688
 72
     0
 73
     0
 74
     5
  7

 75
    16
 76
     0
 77
     2
 78
   300
147
1.0
148
0.0
149
0.0
100
AcDbLayout
  1
Layout1
 70
     1
 71
     1
 10
0.0
 20
0.0
 11
12.0
 21
9.0
 12
0.0
 22
0.0
 32
0.0
 14
1.000000000000000E+20
 24
1.000000000000000E+20
 34
1.000000000000000E+20
 15
-1.000000000000000E+20
 25
-1.000000000000000E+20
 35
-1.000000000000000E+20
146
0.0
 13
0.0
 23
0.0
 33
0.0
 16
1.0
 26
0.0
 36
0.0
 17
0.0
 27
1.0
 37
0.0
 76
     0
330
1B
  0
LAYOUT
  5
26
102
{ACAD_REACTORS
330
1A
102
}
330
1A
100
AcDbPlotSettings
  1

  2
none_device
  4

  6

 40
0.0
 41
0.0
 42
0.0
 43
0.0
 44
0.0
 45
0.0
 46
0.0
 47
0.0
 48
0.0
 49
0.0
140
0.0
141
0.0
142
1.0
143
1.0
 70
   688
 72
     0
 73
     0
 74
     5
  7

 75
    16
 76
     0
 77
     2
 78
   300
147
1.0
148
0.0
149
0.0
100
AcDbLayout
  1
Layout2
 70
     1
 71
     2
 10
0.0
 20
0.0
 11
0.0
 21
0.0
 12
0.0
 22
0.0
 32
0.0
 14
0.0
 24
0.0
 34
0.0
 15
0.0
 25
0.0
 35
0.0
146
0.0
 13
0.0
 23
0.0
 33
0.0
 16
1.0
 26
0.0
 36
0.0
 17
0.0
 27
1.0
 37
0.0
 76
     0
330
23
  0
LAYOUT
  5
22
102
{ACAD_REACTORS
330
1A
102
}
330
1A
100
AcDbPlotSettings
  1

  2
none_device
  4

  6

 40
0.0
 41
0.0
 42
0.0
 43
0.0
 44
0.0
 45
0.0
 46
0.0
 47
0.0
 48
0.0
 49
0.0
140
0.0
141
0.0
142
1.0
143
1.0
 70
  1712
 72
     0
 73
     0
 74
     0
  7

 75
     0
 76
     0
 77
     2
 78
   300
147
1.0
148
0.0
149
0.0
100
AcDbLayout
  1
Model
 70
     1
 71
     0
 10
0.0
 20
0.0
 11
12.0
 21
9.0
 12
0.0
 22
0.0
 32
0.0
 14
1.000000000000000E+20
 24
1.000000000000000E+20
 34
1.000000000000000E+20
 15
-1.000000000000000E+20
 25
-1.000000000000000E+20
 35
-1.000000000000000E+20
146
0.0
 13
0.0
 23
0.0
 33
0.0
 16
1.0
 26
0.0
 36
0.0
 17
0.0
 27
1.0
 37
0.0
 76
     0
330
1F
331
29
  0
MATERIAL
  5
3D
102
{ACAD_REACTORS
330
3B
102
}
330
3B
100
AcDbMaterial
  1
ByBlock
 72
     1
 94
      127
  0
MATERIAL
  5
3C
102
{ACAD_REACTORS
330
3B
102
}
330
3B
100
AcDbMaterial
  1
ByLayer
 72
     1
 94
      127
  0
MATERIAL
  5
3E
102
{ACAD_REACTORS
330
3B
102
}
330
3B
100
AcDbMaterial
  1
Global
 72
     1
 94
      127
  0
MLINESTYLE
  5
18
102
{ACAD_REACTORS
330
17
102
}
330
17
100
AcDbMlineStyle
  2
Standard
 70
     0
  3

 62
   256
 51
90.0
 52
90.0
 71
     2
 49
0.5
 62
   256
  6
BYLAYER
 49
-0.5
 62
   256
  6
BYLAYER
  0
ACDBPLACEHOLDER
  5
F
102
{ACAD_REACTORS
330
E
102
}
330
E
  0
VISUALSTYLE
  5
2F
102
{ACAD_REACTORS
330
2A
102
}
330
2A
100
AcDbVisualStyle
  2
2dWireframe
 70
     4
177
     2
291
     0
 71
     0
176
     1
 72
     2
176
     1
 73
     0
176
     1
 90
        0
176
     1
 40
-0.6
176
     1
 41
-30.0
176
     1
 62
     5
 63
     7
421
 16777215
176
     1
 74
     1
176
     1
 91
        4
176
     1
 64
     7
176
     1
 65
   257
176
     1
 75
     1
176
     1
175
     1
176
     1
 42
1.0
176
     1
 92
        0
176
     1
 66
   257
176
     1
 43
1.0
176
     1
 76
     1
176
     1
 77
     6
176
     1
 78
     2
176
     1
 67
     7
176
     1
 79
     5
176
     1
170
     0
176
     1
171
     0
176
     1
290
     0
176
     1
 93
        1
176
     1
 44
0.0
176
     1
173
     0
176
     1
  0
VISUALSTYLE
  5
31
102
{ACAD_REACTORS
330
2A
102
}
330
2A
100
AcDbVisualStyle
  2
3D Hidden
 70
     6
177
     2
291
     0
 71
     1
176
     1
 72
     2
176
     1
 73
     2
176
     1
 90
        0
176
     1
 40
-0.6
176
     1
 41
-30.0
176
     1
 62
     5
 63
     7
421
 16777215
176
     1
 74
     2
176
     1
 91
        2
176
     1
 64
     7
176
     1
 65
   257
176
     1
 75
     2
176
     1
175
     1
176
     1
 42
40.0
176
     1
 92
        0
176
     1
 66
   257
176
     1
 43
1.0
176
     1
 76
     1
176
     1
 77
     6
176
     1
 78
     2
176
     1
 67
     7
176
     1
 79
     3
176
     1
170
     0
176
     1
171
     0
176
     1
290
     0
176
     1
 93
        1
176
     1
 44
0.0
176
     1
173
     0
176
     1
  0
VISUALSTYLE
  5
30
102
{ACAD_REACTORS
330
2A
102
}
330
2A
100
AcDbVisualStyle
  2
3dWireframe
 70
     5
177
     2
291
     0
 71
     0
176
     1
 72
     2
176
     1
 73
     0
176
     1
 90
        0
176
     1
 40
-0.6
176
     1
 41
-30.0
176
     1
 62
     5
 63
     7
421
 16777215
176
     1
 74
     1
176
     1
 91
        4
176
     1
 64
     7
176
     1
 65
   257
176
     1
 75
     1
176
     1
175
     1
176
     1
 42
1.0
176
     1
 92
        0
176
     1
 66
   257
176
     1
 43
1.0
176
     1
 76
     1
176
     1
 77
     6
176
     1
 78
     2
176
     1
 67
     7
176
     1
 79
     5
176
     1
170
     0
176
     1
171
     0
176
     1
290
     0
176
     1
 93
        1
176
     1
 44
0.0
176
     1
173
     0
176
     1
  0
VISUALSTYLE
  5
32
102
{ACAD_REACTORS
330
2A
102
}
330
2A
100
AcDbVisualStyle
  2
Basic
 70
     7
177
     2
291
     1
 71
     1
176
     1
 72
     0
176
     1
 73
     1
176
     1
 90
        0
176
     1
 40
-0.6
176
     1
 41
-30.0
176
     1
 62
     5
 63
     7
421
 16777215
176
     1
 74
     0
176
     1
 91
        4
176
     1
 64
     7
176
     1
 65
   257
176
     1
 75
     1
176
     1
175
     1
176
     1
 42
1.0
176
     1
 92
        8
176
     1
 66
     7
176
     1
 43
1.0
176
     1
 76
     1
176
     1
 77
     6
176
     1
 78
     2
176
     1
 67
     7
176
     1
 79
     5
176
     1
170
     0
176
     1
171
     0
176
     1
290
     0
176
     1
 93
        1
176
     1
 44
0.0
176
     1
173
     0
176
     1
  0
VISUALSTYLE
  5
36
102
{ACAD_REACTORS
330
2A
102
}
330
2A
100
AcDbVisualStyle
  2
Brighten
 70
    12
177
     2
291
     1
 71
     2
176
     1
 72
     2
176
     1
 73
     0
176
     1
 90
        0
176
     1
 40
-0.6
176
     1
 41
-30.0
176
     1
 62
     5
 63
     7
421
 16777215
176
     1
 74
     1
176
     1
 91
        4
176
     1
 64
     7
176
     1
 65
   257
176
     1
 75
     1
176
     1
175
     1
176
     1
 42
1.0
176
     1
 92
        8
176
     1
 66
     7
176
     1
 43
1.0
176
     1
 76
     1
176
     1
 77
     6
176
     1
 78
     2
176
     1
 67
     7
176
     1
 79
     5
176
     1
170
     0
176
     1
171
     0
176
     1
290
     0
176
     1
 93
        1
176
     1
 44
50.0
176
     1
173
     0
176
     1
  0
VISUALSTYLE
  5
3A
102
{ACAD_REACTORS
330
2A
102
}
330
2A
100
AcDbVisualStyle
  2
ColorChange
 70
    16
177
     2
291
     1
 71
     2
176
     1
 72
     2
176
     1
 73
     3
176
     1
 90
        0
176
     1
 40
-0.6
176
     1
 41
-30.0
176
     1
 62
     5
 63
     8
421
  8421504
176
     1
 74
     1
176
     1
 91
        4
176
     1
 64
     7
176
     1
 65
   257
176
     1
 75
     1
176
     1
175
     1
176
     1
 42
1.0
176
     1
 92
        8
176
     1
 66
     8
424
  8421504
176
     1
 43
1.0
176
     1
 76
     1
176
     1
 77
     6
176
     1
 78
     2
176
     1
 67
     7
176
     1
 79
     5
176
     1
170
     0
176
     1
171
     0
176
     1
290
     0
176
     1
 93
        1
176
     1
 44
0.0
176
     1
173
     0
176
     1
  0
VISUALSTYLE
  5
34
102
{ACAD_REACTORS
330
2A
102
}
330
2A
100
AcDbVisualStyle
  2
Conceptual
 70
     9
177
     2
291
     0
 71
     3
176
     1
 72
     2
176
     1
 73
     0
176
     1
 90
        0
176
     1
 40
-0.6
176
     1
 41
-30.0
176
     1
 62
     5
 63
     7
421
 16777215
176
     1
 74
     2
176
     1
 91
        2
176
     1
 64
     7
176
     1
 65
   257
176
     1
 75
     1
176
     1
175
     1
176
     1
 42
40.0
176
     1
 92
        8
176
     1
 66
     7
176
     1
 43
1.0
176
     1
 76
     1
176
     1
 77
     6
176
     1
 78
     2
176
     1
 67
     7
176
     1
 79
     3
176
     1
170
     0
176
     1
171
     0
176
     1
290
     0
176
     1
 93
        1
176
     1
 44
0.0
176
     1
173
     0
176
     1
  0
VISUALSTYLE
  5
35
102
{ACAD_REACTORS
330
2A
102
}
330
2A
100
AcDbVisualStyle
  2
Dim
 70
    11
177
     2
291
     1
 71
     2
176
     1
 72
     2
176
     1
 73
     0
176
     1
 90
        0
176
     1
 40
-0.6
176
     1
 41
-30.0
176
     1
 62
     5
 63
     7
421
 16777215
176
     1
 74
     1
176
     1
 91
        4
176
     1
 64
     7
176
     1
 65
   257
176
     1
 75
     1
176
     1
175
     1
176
     1
 42
1.0
176
     1
 92
        8
176
     1
 66
     7
176
     1
 43
1.0
176
     1
 76
     1
176
     1
 77
     6
176
     1
 78
     2
176
     1
 67
     7
176
     1
 79
     5
176
     1
170
     0
176
     1
171
     0
176
     1
290
     0
176
     1
 93
        1
176
     1
 44
-50.0
176
     1
173
     0
176
     1
  0
VISUALSTYLE
  5
39
102
{ACAD_REACTORS
330
2A
102
}
330
2A
100
AcDbVisualStyle
  2
Facepattern
 70
    15
177
     2
291
     1
 71
     2
176
     1
 72
     2
176
     1
 73
     0
176
     1
 90
        0
176
     1
 40
-0.6
176
     1
 41
-30.0
176
     1
 62
     5
 63
     7
421
 16777215
176
     1
 74
     1
176
     1
 91
        4
176
     1
 64
     7
176
     1
 65
   257
176
     1
 75
     1
176
     1
175
     1
176
     1
 42
1.0
176
     1
 92
        8
176
     1
 66
     7
176
     1
 43
1.0
176
     1
 76
     1
176
     1
 77
     6
176
     1
 78
     2
176
     1
 67
     7
176
     1
 79
     5
176
     1
170
     0
176
     1
171
     0
176
     1
290
     0
176
     1
 93
        1
176
     1
 44
0.0
176
     1
173
     0
176
     1
  0
VISUALSTYLE
  5
2B
102
{ACAD_REACTORS
330
2A
102
}
330
2A
100
AcDbVisualStyle
  2
Flat
 70
     0
177
     2
291
     1
 71
     2
176
     1
 72
     1
176
     1
 73
     1
176
     1
 90
        2
176
     1
 40
-0.6
176
     1
 41
30.0
176
     1
 62
     5
 63
     7
421
 16777215
176
     1
 74
     0
176
     1
 91
        4
176
     1
 64
     7
176
     1
 65
   257
176
     1
 75
     1
176
     1
175
     1
176
     1
 42
1.0
176
     1
 92
        8
176
     1
 66
     7
176
     1
 43
1.0
176
     1
 76
     1
176
     1
 77
     6
176
     1
 78
     2
176
     1
 67
     7
176
     1
 79
     5
176
     1
170
     0
176
     1
171
     0
176
     1
290
     0
176
     1
 93
       13
176
     1
 44
0.0
176
     1
173
     0
176
     1
  0
VISUALSTYLE
  5
2C
102
{ACAD_REACTORS
330
2A
102
}
330
2A
100
AcDbVisualStyle
  2
FlatWithEdges
 70
     1
177
     2
291
     1
 71
     2
176
     1
 72
     1
176
     1
 73
     1
176
     1
 90
        2
176
     1
 40
-0.6
176
     1
 41
30.0
176
     1
 62
     5
 63
     7
421
 16777215
176
     1
 74
     1
176
     1
 91
        4
176
     1
 64
     7
176
     1
 65
   257
176
     1
 75
     1
176
     1
175
     1
176
     1
 42
1.0
176
     1
 92
        0
176
     1
 66
   257
176
     1
 43
1.0
176
     1
 76
     1
176
     1
 77
     6
176
     1
 78
     2
176
     1
 67
     7
176
     1
 79
     5
176
     1
170
     0
176
     1
171
     0
176
     1
290
     0
176
     1
 93
       13
176
     1
 44
0.0
176
     1
173
     0
176
     1
  0
VISUALSTYLE
  5
2D
102
{ACAD_REACTORS
330
2A
102
}
330
2A
100
AcDbVisualStyle
  2
Gouraud
 70
     2
177
     2
291
     1
 71
     2
176
     1
 72
     2
176
     1
 73
     1
176
     1
 90
        2
176
     1
 40
-0.6
176
     1
 41
30.0
176
     1
 62
     5
 63
     7
421
 16777215
176
     1
 74
     0
176
     1
 91
        4
176
     1
 64
     7
176
     1
 65
   257
176
     1
 75
     1
176
     1
175
     1
176
     1
 42
1.0
176
     1
 92
        0
176
     1
 66
     7
176
     1
 43
1.0
176
     1
 76
     1
176
     1
 77
     6
176
     1
 78
     2
176
     1
 67
     7
176
     1
 79
     5
176
     1
170
     0
176
     1
171
     0
176
     1
290
     0
176
     1
 93
       13
176
     1
 44
0.0
176
     1
173
     0
176
     1
  0
VISUALSTYLE
  5
2E
102
{ACAD_REACTORS
330
2A
102
}
330
2A
100
AcDbVisualStyle
  2
GouraudWithEdges
 70
     3
177
     2
291
     1
 71
     2
176
     1
 72
     2
176
     1
 73
     1
176
     1
 90
        2
176
     1
 40
-0.6
176
     1
 41
30.0
176
     1
 62
     5
 63
     7
421
 16777215
176
     1
 74
     1
176
     1
 91
        4
176
     1
 64
     7
176
     1
 65
   257
176
     1
 75
     1
176
     1
175
     1
176
     1
 42
1.0
176
     1
 92
        0
176
     1
 66
   257
176
     1
 43
1.0
176
     1
 76
     1
176
     1
 77
     6
176
     1
 78
     2
176
     1
 67
     7
176
     1
 79
     5
176
     1
170
     0
176
     1
171
     0
176
     1
290
     0
176
     1
 93
       13
176
     1
 44
0.0
176
     1
173
     0
176
     1
  0
VISUALSTYLE
  5
38
102
{ACAD_REACTORS
330
2A
102
}
330
2A
100
AcDbVisualStyle
  2
Linepattern
 70
    14
177
     2
291
     1
 71
     2
176
     1
 72
     2
176
     1
 73
     0
176
     1
 90
        0
176
     1
 40
-0.6
176
     1
 41
-30.0
176
     1
 62
     5
 63
     7
421
 16777215
176
     1
 74
     1
176
     1
 91
        4
176
     1
 64
     7
176
     1
 65
   257
176
     1
 75
     7
176
     1
175
     7
176
     1
 42
1.0
176
     1
 92
        8
176
     1
 66
     7
176
     1
 43
1.0
176
     1
 76
     1
176
     1
 77
     6
176
     1
 78
     2
176
     1
 67
     7
176
     1
 79
     5
176
     1
170
     0
176
     1
171
     0
176
     1
290
     0
176
     1
 93
        1
176
     1
 44
0.0
176
     1
173
     0
176
     1
  0
VISUALSTYLE
  5
33
102
{ACAD_REACTORS
330
2A
102
}
330
2A
100
AcDbVisualStyle
  2
Realistic
 70
     8
177
     2
291
     0
 71
     2
176
     1
 72
     2
176
     1
 73
     0
176
     1
 90
        0
176
     1
 40
-0.6
176
     1
 41
-30.0
176
     1
 62
     5
 63
     7
421
 16777215
176
     1
 74
     1
176
     1
 91
        0
176
     1
 64
     7
176
     1
 65
   257
176
     1
 75
     1
176
     1
175
     1
176
     1
 42
1.0
176
     1
 92
        8
176
     1
 66
     8
424
  7895160
176
     1
 43
1.0
176
     1
 76
     1
176
     1
 77
     6
176
     1
 78
     2
176
     1
 67
     7
176
     1
 79
     5
176
     1
170
     0
176
     1
171
     0
176
     1
290
     0
176
     1
 93
       13
176
     1
 44
0.0
176
     1
173
     0
176
     1
  0
VISUALSTYLE
  5
37
102
{ACAD_REACTORS
330
2A
102
}
330
2A
100
AcDbVisualStyle
  2
Thicken
 70
    13
177
     2
291
     1
 71
     2
176
     1
 72
     2
176
     1
 73
     0
176
     1
 90
        0
176
     1
 40
-0.6
176
     1
 41
-30.0
176
     1
 62
     5
 63
     7
421
 16777215
176
     1
 74
     1
176
     1
 91
        4
176
     1
 64
     7
176
     1
 65
   257
176
     1
 75
     1
176
     1
175
     1
176
     1
 42
1.0
176
     1
 92
       12
176
     1
 66
     7
176
     1
 43
1.0
176
     1
 76
     1
176
     1
 77
     6
176
     1
 78
     2
176
     1
 67
     7
176
     1
 79
     5
176
     1
170
     0
176
     1
171
     0
176
     1
290
     0
176
     1
 93
        1
176
     1
 44
0.0
176
     1
173
     0
176
     1
  0
ENDSEC
  0
EOF
