  0
SECTION
  2
HEADER
  9
$ACADVER
  1
AC1024
  9
$ACADMAINTVER
 70
     6
  9
$DWGCODEPAGE
  3
UNDEFINED
  9
$INSBASE
 10
0.0
 20
0.0
 30
0.0
  9
$EXTMIN
 10
1.000000000000000E+20
 20
1.000000000000000E+20
 30
1.000000000000000E+20
  9
$EXTMAX
 10
-1.000000000000000E+20
 20
-1.000000000000000E+20
 30
-1.000000000000000E+20
  9
$LIMMIN
 10
0.0
 20
0.0
  9
$LIMMAX
 10
12.0
 20
9.0
  9
$ORTHOMODE
 70
     0
  9
$REGENMODE
 70
     1
  9
$FILLMODE
 70
     1
  9
$QTEXTMODE
 70
     0
  9
$MIRRTEXT
 70
     1
  9
$LTSCALE
 40
1.0
  9
$ATTMODE
 70
     1
  9
$TEXTSIZE
 40
0.2
  9
$TRACEWID
 40
0.05
  9
$TEXTSTYLE
  7
Standard
  9
$CLAYER
  8
0
  9
$CELTYPE
  6
ByLayer
  9
$CECOLOR
 62
   256
  9
$CELTSCALE
 40
1.0
  9
$DISPSILH
 70
     0
  9
$DIMSCALE
 40
1.0
  9
$DIMASZ
 40
0.18
  9
$DIMEXO
 40
0.0625
  9
$DIMDLI
 40
0.38
  9
$DIMRND
 40
0.0
  9
$DIMDLE
 40
0.0
  9
$DIMEXE
 40
0.18
  9
$DIMTP
 40
0.0
  9
$DIMTM
 40
0.0
  9
$DIMTXT
 40
0.18
  9
$DIMCEN
 40
0.09
  9
$DIMTSZ
 40
0.0
  9
$DIMTOL
 70
     0
  9
$DIMLIM
 70
     0
  9
$DIMTIH
 70
     1
  9
$DIMTOH
 70
     1
  9
$DIMSE1
 70
     0
  9
$DIMSE2
 70
     0
  9
$DIMTAD
 70
     0
  9
$DIMZIN
 70
     0
  9
$DIMBLK
  1

  9
$DIMASO
 70
     1
  9
$DIMSHO
 70
     1
  9
$DIMPOST
  1

  9
$DIMAPOST
  1

  9
$DIMALT
 70
     0
  9
$DIMALTD
 70
     2
  9
$DIMALTF
 40
25.4
  9
$DIMLFAC
 40
1.0
  9
$DIMTOFL
 70
     0
  9
$DIMTVP
 40
0.0
  9
$DIMTIX
 70
     0
  9
$DIMSOXD
 70
     0
  9
$DIMSAH
 70
     0
  9
$DIMBLK1
  1

  9
$DIMBLK2
  1

  9
$DIMSTYLE
  2
Standard
  9
$DIMCLRD
 70
     0
  9
$DIMCLRE
 70
     0
  9
$DIMCLRT
 70
     0
  9
$DIMTFAC
 40
1.0
  9
$DIMGAP
 40
0.09
  9
$DIMJUST
 70
     0
  9
$DIMSD1
 70
     0
  9
$DIMSD2
 70
     0
  9
$DIMTOLJ
 70
     1
  9
$DIMTZIN
 70
     0
  9
$DIMALTZ
 70
     0
  9
$DIMALTTZ
 70
     0
  9
$DIMUPT
 70
     0
  9
$DIMDEC
 70
     4
  9
$DIMTDEC
 70
     4
  9
$DIMALTU
 70
     2
  9
$DIMALTTD
 70
     2
  9
$DIMTXSTY
  7
Standard
  9
$DIMAUNIT
 70
     0
  9
$DIMADEC
 70
     0
  9
$DIMALTRND
 40
0.0
  9
$DIMAZIN
 70
     0
  9
$DIMDSEP
 70
    46
  9
$DIMATFIT
 70
     3
  9
$DIMFRAC
 70
     0
  9
$DIMLDRBLK
  1

  9
$DIMLUNIT
 70
     2
  9
$DIMLWD
 70
    -2
  9
$DIMLWE
 70
    -2
  9
$DIMTMOVE
 70
     0
  9
$DIMFXL
 40
1.0
  9
$DIMFXLON
 70
     0
  9
$DIMJOGANG
 40
0.7853981633974483
  9
$DIMTFILL
 70
     0
  9
$DIMTFILLCLR
 70
     0
  9
$DIMARCSYM
 70
     0
  9
$DIMLTYPE
  6

  9
$DIMLTEX1
  6

  9
$DIMLTEX2
  6

  9
$DIMTXTDIRECTION
 70
     0
  9
$LUNITS
 70
     2
  9
$LUPREC
 70
     4
  9
$SKETCHINC
 40
0.1
  9
$FILLETRAD
 40
0.5
  9
$AUNITS
 70
     0
  9
$AUPREC
 70
     0
  9
$MENU
  1
.
  9
$ELEVATION
 40
0.0
  9
$PELEVATION
 40
0.0
  9
$THICKNESS
 40
0.0
  9
$LIMCHECK
 70
     0
  9
$CHAMFERA
 40
0.5
  9
$CHAMFERB
 40
0.5
  9
$CHAMFERC
 40
1.0
  9
$CHAMFERD
 40
0.0
  9
$SKPOLY
 70
     0
  9
$TDCREATE
 40
2457917.588483796
  9
$TDUCREATE
 40
2457917.213483796
  9
$TDUPDATE
 40
2457917.588483796
  9
$TDUUPDATE
 40
2457917.213483796
  9
$TDINDWG
 40
0.0000000116
  9
$TDUSRTIMER
 40
0.0000000116
  9
$USRTIMER
 70
     1
  9
$ANGBASE
 50
0.0
  9
$ANGDIR
 70
     0
  9
$PDMODE
 70
     0
  9
$PDSIZE
 40
0.0
  9
$PLINEWID
 40
0.0
  9
$SPLFRAME
 70
     0
  9
$SPLINETYPE
 70
     6
  9
$SPLINESEGS
 70
     8
  9
$HANDSEED
  5
E5
  9
$SURFTAB1
 70
     6
  9
$SURFTAB2
 70
     6
  9
$SURFTYPE
 70
     6
  9
$SURFU
 70
     6
  9
$SURFV
 70
     6
  9
$UCSBASE
  2

  9
$UCSNAME
  2

  9
$UCSORG
 10
0.0
 20
0.0
 30
0.0
  9
$UCSXDIR
 10
1.0
 20
0.0
 30
0.0
  9
$UCSYDIR
 10
0.0
 20
1.0
 30
0.0
  9
$UCSORTHOREF
  2

  9
$UCSORTHOVIEW
 70
     0
  9
$UCSORGTOP
 10
0.0
 20
0.0
 30
0.0
  9
$UCSORGBOTTOM
 10
0.0
 20
0.0
 30
0.0
  9
$UCSORGLEFT
 10
0.0
 20
0.0
 30
0.0
  9
$UCSORGRIGHT
 10
0.0
 20
0.0
 30
0.0
  9
$UCSORGFRONT
 10
0.0
 20
0.0
 30
0.0
  9
$UCSORGBACK
 10
0.0
 20
0.0
 30
0.0
  9
$PUCSBASE
  2

  9
$PUCSNAME
  2

  9
$PUCSORG
 10
0.0
 20
0.0
 30
0.0
  9
$PUCSXDIR
 10
1.0
 20
0.0
 30
0.0
  9
$PUCSYDIR
 10
0.0
 20
1.0
 30
0.0
  9
$PUCSORTHOREF
  2

  9
$PUCSORTHOVIEW
 70
     0
  9
$PUCSORGTOP
 10
0.0
 20
0.0
 30
0.0
  9
$PUCSORGBOTTOM
 10
0.0
 20
0.0
 30
0.0
  9
$PUCSORGLEFT
 10
0.0
 20
0.0
 30
0.0
  9
$PUCSORGRIGHT
 10
0.0
 20
0.0
 30
0.0
  9
$PUCSORGFRONT
 10
0.0
 20
0.0
 30
0.0
  9
$PUCSORGBACK
 10
0.0
 20
0.0
 30
0.0
  9
$USERI1
 70
     0
  9
$USERI2
 70
     0
  9
$USERI3
 70
     0
  9
$USERI4
 70
     0
  9
$USERI5
 70
     0
  9
$USERR1
 40
0.0
  9
$USERR2
 40
0.0
  9
$USERR3
 40
0.0
  9
$USERR4
 40
0.0
  9
$USERR5
 40
0.0
  9
$WORLDVIEW
 70
     1
  9
$SHADEDGE
 70
     3
  9
$SHADEDIF
 70
    70
  9
$TILEMODE
 70
     1
  9
$MAXACTVP
 70
    64
  9
$PINSBASE
 10
0.0
 20
0.0
 30
0.0
  9
$PLIMCHECK
 70
     0
  9
$PEXTMIN
 10
1.000000000000000E+20
 20
1.000000000000000E+20
 30
1.000000000000000E+20
  9
$PEXTMAX
 10
-1.000000000000000E+20
 20
-1.000000000000000E+20
 30
-1.000000000000000E+20
  9
$PLIMMIN
 10
0.0
 20
0.0
  9
$PLIMMAX
 10
12.0
 20
9.0
  9
$UNITMODE
 70
     0
  9
$VISRETAIN
 70
     1
  9
$PLINEGEN
 70
     0
  9
$PSLTSCALE
 70
     1
  9
$TREEDEPTH
 70
  3020
  9
$CMLSTYLE
  2
Standard
  9
$CMLJUST
 70
     0
  9
$CMLSCALE
 40
1.0
  9
$PROXYGRAPHICS
 70
     1
  9
$MEASUREMENT
 70
     0
  9
$CELWEIGHT
370
    -1
  9
$ENDCAPS
280
     0
  9
$JOINSTYLE
280
     0
  9
$LWDISPLAY
290
     1
  9
$INSUNITS
 70
     1
  9
$HYPERLINKBASE
  1

  9
$STYLESHEET
  1

  9
$XEDIT
290
     1
  9
$CEPSNTYPE
380
     0
  9
$PSTYLEMODE
290
     1
  9
$FINGERPRINTGUID
  2
{3FB68645-8B7B-2505-268D-83E89894D595}
  9
$VERSIONGUID
  2
{FAEB1C32-E019-11D5-929B-00C0DF256EC4}
  9
$EXTNAMES
290
     1
  9
$PSVPSCALE
 40
0.0
  9
$OLESTARTUP
290
     0
  9
$SORTENTS
280
   127
  9
$INDEXCTL
280
     0
  9
$HIDETEXT
280
     1
  9
$XCLIPFRAME
280
     2
  9
$HALOGAP
280
     0
  9
$OBSCOLOR
 70
   257
  9
$OBSLTYPE
280
     0
  9
$INTERSECTIONDISPLAY
280
     0
  9
$INTERSECTIONCOLOR
 70
   257
  9
$DIMASSOC
280
     2
  9
$PROJECTNAME
  1

  9
$CAMERADISPLAY
290
     0
  9
$LENSLENGTH
 40
50.0
  9
$CAMERAHEIGHT
 40
0.0
  9
$STEPSPERSEC
 40
2.0
  9
$STEPSIZE
 40
6.0
  9
$3DDWFPREC
 40
2.0
  9
$PSOLWIDTH
 40
0.25
  9
$PSOLHEIGHT
 40
4.0
  9
$LOFTANG1
 40
1.570796326794897
  9
$LOFTANG2
 40
1.570796326794897
  9
$LOFTMAG1
 40
0.0
  9
$LOFTMAG2
 40
0.0
  9
$LOFTPARAM
 70
     7
  9
$LOFTNORMALS
280
     1
  9
$LATITUDE
 40
37.795
  9
$LONGITUDE
 40
-122.394
  9
$NORTHDIRECTION
 40
0.0
  9
$TIMEZONE
 70
 -8000
  9
$LIGHTGLYPHDISPLAY
280
     1
  9
$TILEMODELIGHTSYNCH
280
     1
  9
$CMATERIAL
347
3C
  9
$SOLIDHIST
280
     1
  9
$SHOWHIST
280
     1
  9
$DWFFRAME
280
     2
  9
$DGNFRAME
280
     2
  9
$REALWORLDSCALE
290
     1
  9
$INTERFERECOLOR
 62
   256
  9
$CSHADOW
280
     0
  9
$SHADOWPLANELOCATION
 40
0.0
  0
ENDSEC
  0
SECTION
  2
CLASSES
  0
CLASS
  1
ACDBDICTIONARYWDFLT
  2
AcDbDictionaryWithDefault
  3
ObjectDBX Classes
 90
        0
 91
        4
280
     0
281
     0
  0
CLASS
  1
VISUALSTYLE
  2
AcDbVisualStyle
  3
ObjectDBX Classes
 90
     4095
 91
        4
280
     0
281
     0
  0
CLASS
  1
MATERIAL
  2
AcDbMaterial
  3
ObjectDBX Classes
 90
     1153
 91
        4
280
     0
281
     0
  0
CLASS
  1
SUN
  2
AcDbSun
  3
SCENEOE
 90
     1024
 91
        4
280
     0
281
     0
  0
ENDSEC
  0
SECTION
  2
TABLES
  0
TABLE
  2
VPORT
  5
8
330
0
100
AcDbSymbolTable
 70
     1
  0
VPORT
  5
29
330
8
100
AcDbSymbolTableRecord
100
AcDbViewportTableRecord
  2
*Active
 70
     0
 10
0.0
 20
0.0
 11
1.0
 21
1.0
 12
0.0
 22
0.0
 13
0.0
 23
0.0
 14
0.5
 24
0.5
 15
0.5
 25
0.5
 16
0.0
 26
0.0
 36
1.0
 17
63.499999984125
 27
-89.00059456108309
 37
0.0
 40
178.0011891221662
 41
0.7134783795241226
 42
50.0
 43
0.0
 44
0.0
 50
0.0
 51
0.0
 71
     0
 72
   100
 73
     1
 74
     3
 75
     0
 76
     0
 77
     0
 78
     0
281
     0
 65
     1
110
0.0
120
0.0
130
0.0
111
1.0
121
0.0
131
0.0
112
0.0
122
1.0
132
0.0
 79
     0
146
0.0
 60
     3
 61
     5
292
     1
282
     1
141
0.0
142
0.0
 63
   250
361
3F
  0
ENDTAB
  0
TABLE
  2
LTYPE
  5
5
330
0
100
AcDbSymbolTable
 70
     1
  0
LTYPE
  5
14
330
5
100
AcDbSymbolTableRecord
100
AcDbLinetypeTableRecord
  2
ByBlock
 70
     0
  3

 72
    65
 73
     0
 40
0.0
  0
LTYPE
  5
15
330
5
100
AcDbSymbolTableRecord
100
AcDbLinetypeTableRecord
  2
ByLayer
 70
     0
  3

 72
    65
 73
     0
 40
0.0
  0
LTYPE
  5
16
330
5
100
AcDbSymbolTableRecord
100
AcDbLinetypeTableRecord
  2
Continuous
 70
     0
  3
Solid line
 72
    65
 73
     0
 40
0.0
  0
ENDTAB
  0
TABLE
  2
LAYER
  5
2
330
0
100
AcDbSymbolTable
 70
     2
  0
LAYER
  5
10
330
2
100
AcDbSymbolTableRecord
100
AcDbLayerTableRecord
  2
0
 70
     0
 62
     7
  6
Continuous
370
    -3
390
F
347
3E
  0
LAYER
  5
40
330
2
100
AcDbSymbolTableRecord
100
AcDbLayerTableRecord
  2
_U+30EC_U+30A4_U+30E4_U+30FC 1
 70
     0
 62
     7
  6
Continuous
370
    -3
390
F
347
3E
  0
ENDTAB
  0
TABLE
  2
STYLE
  5
3
330
0
100
AcDbSymbolTable
 70
     1
  0
STYLE
  5
11
330
3
100
AcDbSymbolTableRecord
100
AcDbTextStyleTableRecord
  2
Standard
 70
     0
 40
0.0
 41
1.0
 50
0.0
 71
     0
 42
0.2
  3
txt
  4

  0
ENDTAB
  0
TABLE
  2
VIEW
  5
6
330
0
100
AcDbSymbolTable
 70
     0
  0
ENDTAB
  0
TABLE
  2
UCS
  5
7
330
0
100
AcDbSymbolTable
 70
     0
  0
ENDTAB
  0
TABLE
  2
APPID
  5
9
330
0
100
AcDbSymbolTable
 70
     1
  0
APPID
  5
12
330
9
100
AcDbSymbolTableRecord
100
AcDbRegAppTableRecord
  2
ACAD
 70
     0
  0
ENDTAB
  0
TABLE
  2
DIMSTYLE
  5
A
330
0
100
AcDbSymbolTable
 70
     1
100
AcDbDimStyleTable
  0
DIMSTYLE
105
27
330
A
100
AcDbSymbolTableRecord
100
AcDbDimStyleTableRecord
  2
Standard
 70
     0
178
     0
340
11
  0
ENDTAB
  0
TABLE
  2
BLOCK_RECORD
  5
1
330
0
100
AcDbSymbolTable
 70
     6
  0
BLOCK_RECORD
  5
1F
330
1
100
AcDbSymbolTableRecord
100
AcDbBlockTableRecord
  2
*Model_Space
340
22
 70
     0
280
     1
281
     0
  0
BLOCK_RECORD
  5
1B
330
1
100
AcDbSymbolTableRecord
100
AcDbBlockTableRecord
  2
*Paper_Space
340
1E
 70
     0
280
     1
281
     0
  0
BLOCK_RECORD
  5
23
330
1
100
AcDbSymbolTableRecord
100
AcDbBlockTableRecord
  2
*Paper_Space0
340
26
 70
     0
280
     1
281
     0
  0
BLOCK_RECORD
  5
8D
330
1
100
AcDbSymbolTableRecord
100
AcDbBlockTableRecord
  2
block 2
340
0
102
{BLKREFS
331
8E
102
}
 70
     0
280
     1
281
     0
  0
BLOCK_RECORD
  5
A2
330
1
100
AcDbSymbolTableRecord
100
AcDbBlockTableRecord
  2
block 3
340
0
102
{BLKREFS
331
A3
102
}
 70
     0
280
     1
281
     0
  0
BLOCK_RECORD
  5
BA
330
1
100
AcDbSymbolTableRecord
100
AcDbBlockTableRecord
  2
block 4
340
0
102
{BLKREFS
331
BB
102
}
 70
     0
280
     1
281
     0
  0
BLOCK_RECORD
  5
CC
330
1
100
AcDbSymbolTableRecord
100
AcDbBlockTableRecord
  2
block 5
340
0
102
{BLKREFS
331
CD
102
}
 70
     0
280
     1
281
     0
  0
BLOCK_RECORD
  5
DC
330
1
100
AcDbSymbolTableRecord
100
AcDbBlockTableRecord
  2
block 6
340
0
102
{BLKREFS
331
DD
102
}
 70
     0
280
     1
281
     0
  0
ENDTAB
  0
ENDSEC
  0
SECTION
  2
BLOCKS
  0
BLOCK
  5
20
330
1F
100
AcDbEntity
  8
0
100
AcDbBlockBegin
  2
*Model_Space
 70
     0
 10
0.0
 20
0.0
 30
0.0
  3
*Model_Space
  1

  0
ENDBLK
  5
21
330
1F
100
AcDbEntity
  8
0
100
AcDbBlockEnd
  0
BLOCK
  5
1C
330
1B
100
AcDbEntity
 67
     1
  8
0
100
AcDbBlockBegin
  2
*Paper_Space
 70
     0
 10
0.0
 20
0.0
 30
0.0
  3
*Paper_Space
  1

  0
ENDBLK
  5
1D
330
1B
100
AcDbEntity
 67
     1
  8
0
100
AcDbBlockEnd
  0
BLOCK
  5
24
330
23
100
AcDbEntity
  8
0
100
AcDbBlockBegin
  2
*Paper_Space0
 70
     0
 10
0.0
 20
0.0
 30
0.0
  3
*Paper_Space0
  1

  0
ENDBLK
  5
25
330
23
100
AcDbEntity
  8
0
100
AcDbBlockEnd
  0
BLOCK
  5
8F
330
8D
100
AcDbEntity
  8
0
100
AcDbBlockBegin
  2
block 2
 70
     0
 10
0.0
 20
0.0
 30
0.0
  3
block 2
  1

  0
SPLINE
  5
91
330
8D
100
AcDbEntity
  8
_U+30EC_U+30A4_U+30E4_U+30FC 1
370
     0
100
AcDbSpline
210
0.0
220
0.0
230
1.0
 70
    11
 71
     3
 72
    26
 73
    22
 74
     0
 42
0.0000000001
 43
0.0000000001
 12
1.0
 22
0.0
 32
0.0
 13
1.0
 23
0.0
 33
0.0
 40
0.0
 40
0.0
 40
0.0
 40
0.0
 40
1.0
 40
1.0
 40
1.0
 40
2.0
 40
2.0
 40
2.0
 40
3.0
 40
3.0
 40
3.0
 40
4.0
 40
4.0
 40
4.0
 40
5.0
 40
5.0
 40
5.0
 40
6.0
 40
6.0
 40
6.0
 40
7.0
 40
7.0
 40
7.0
 40
7.0
 10
51.49918211603146
 20
-98.65685490155107
 30
0.0
 10
51.49918211603146
 20
-98.65685490155107
 30
0.0
 10
51.49918211603146
 20
-97.5527017985285
 30
0.0
 10
51.49918211603146
 20
-97.5527017985285
 30
0.0
 10
51.49918211603146
 20
-97.5527017985285
 30
0.0
 10
51.17000324241584
 20
-97.5527017985285
 30
0.0
 10
51.17000324241584
 20
-97.5527017985285
 30
0.0
 10
51.17000324241584
 20
-97.5527017985285
 30
0.0
 10
51.17000324241584
 20
-97.40456269266275
 30
0.0
 10
51.17000324241584
 20
-97.40456269266275
 30
0.0
 10
51.50124917332261
 20
-97.38974878207618
 30
0.0
 10
51.54758570759922
 20
-97.22679576562386
 30
0.0
 10
51.57721352877237
 20
-97.11241859551356
 30
0.0
 10
51.57721352877237
 20
-97.11241859551356
 30
0.0
 10
51.72276881302417
 20
-97.11241859551356
 30
0.0
 10
51.72276881302417
 20
-97.11241859551356
 30
0.0
 10
51.72276881302417
 20
-97.11241859551356
 30
0.0
 10
51.72276881302417
 20
-98.65685490155107
 30
0.0
 10
51.72276881302417
 20
-98.65685490155107
 30
0.0
 10
51.72276881302417
 20
-98.65685490155107
 30
0.0
 10
51.49918211603146
 20
-98.65685490155107
 30
0.0
 10
51.49918211603146
 20
-98.65685490155107
 30
0.0
  0
HATCH
  5
92
330
8D
100
AcDbEntity
  8
_U+30EC_U+30A4_U+30E4_U+30FC 1
 62
   179
420
  2234388
100
AcDbHatch
 10
0.0
 20
0.0
 30
0.0
210
0.0
220
0.0
230
1.0
  2
SOLID
 70
     1
 71
     0
 91
        1
 92
        1
 93
        1
 72
     4
 94
        3
 73
     0
 74
     1
 95
       26
 96
       22
 40
0.0
 40
0.0
 40
0.0
 40
0.0
 40
1.0
 40
1.0
 40
1.0
 40
2.0
 40
2.0
 40
2.0
 40
3.0
 40
3.0
 40
3.0
 40
4.0
 40
4.0
 40
4.0
 40
5.0
 40
5.0
 40
5.0
 40
6.0
 40
6.0
 40
6.0
 40
7.0
 40
7.0
 40
7.0
 40
7.0
 10
51.49918211603146
 20
-98.65685490155107
 10
51.49918211603146
 20
-98.65685490155107
 10
51.49918211603146
 20
-97.5527017985285
 10
51.49918211603146
 20
-97.5527017985285
 10
51.49918211603146
 20
-97.5527017985285
 10
51.17000324241584
 20
-97.5527017985285
 10
51.17000324241584
 20
-97.5527017985285
 10
51.17000324241584
 20
-97.5527017985285
 10
51.17000324241584
 20
-97.40456269266275
 10
51.17000324241584
 20
-97.40456269266275
 10
51.50124917332261
 20
-97.38974878207618
 10
51.54758570759922
 20
-97.22679576562386
 10
51.57721352877237
 20
-97.11241859551356
 10
51.57721352877237
 20
-97.11241859551356
 10
51.72276881302417
 20
-97.11241859551356
 10
51.72276881302417
 20
-97.11241859551356
 10
51.72276881302417
 20
-97.11241859551356
 10
51.72276881302417
 20
-98.65685490155107
 10
51.72276881302417
 20
-98.65685490155107
 10
51.72276881302417
 20
-98.65685490155107
 10
51.49918211603146
 20
-98.65685490155107
 10
51.49918211603146
 20
-98.65685490155107
 97
        0
 97
        0
 75
     2
 76
     1
 98
        0
  0
SPLINE
  5
93
330
8D
100
AcDbEntity
  8
_U+30EC_U+30A4_U+30E4_U+30FC 1
370
     0
100
AcDbSpline
210
0.0
220
0.0
230
1.0
 70
    11
 71
     3
 72
    29
 73
    25
 74
     0
 42
0.0000000001
 43
0.0000000001
 12
1.0
 22
0.0
 32
0.0
 13
1.0
 23
0.0
 33
0.0
 40
0.0
 40
0.0
 40
0.0
 40
0.0
 40
1.0
 40
1.0
 40
1.0
 40
2.0
 40
2.0
 40
2.0
 40
3.0
 40
3.0
 40
3.0
 40
4.0
 40
4.0
 40
4.0
 40
5.0
 40
5.0
 40
5.0
 40
6.0
 40
6.0
 40
6.0
 40
7.0
 40
7.0
 40
7.0
 40
8.0
 40
8.0
 40
8.0
 40
8.0
 10
53.11648219158199
 20
-98.47908797451218
 30
0.0
 10
53.0089952124422
 20
-98.68854978001536
 30
0.0
 10
52.83587916430839
 20
-98.70749780518425
 30
0.0
 10
52.71995170122974
 20
-98.70749780518425
 30
0.0
 10
52.55941025161709
 20
-98.70749780518425
 30
0.0
 10
52.41816133672185
 20
-98.66098901613337
 30
0.0
 10
52.32307670132896
 20
-98.47908797451218
 30
0.0
 10
52.21972383677146
 20
-98.28444007959556
 30
0.0
 10
52.20077581160259
 20
-98.04741751021037
 30
0.0
 10
52.20077581160259
 20
-97.88480900330659
 30
0.0
 10
52.20077581160259
 20
-97.74080401202313
 30
0.0
 10
52.21765677948031
 20
-97.48896753205138
 30
0.0
 10
52.32307670132896
 20
-97.29018552255246
 30
0.0
 10
52.43073593524301
 20
-97.08726939847124
 30
0.0
 10
52.5911051300814
 20
-97.06384274917154
 30
0.0
 10
52.71995170122974
 20
-97.06384274917154
 30
0.0
 10
52.87808158400271
 20
-97.06384274917154
 30
0.0
 10
53.02156981096336
 20
-97.10828448093126
 30
0.0
 10
53.11648219158199
 20
-97.29018552255246
 30
0.0
 10
53.21570094155719
 20
-97.48276636017792
 30
0.0
 10
53.23895533608263
 20
-97.71117619084998
 30
0.0
 10
53.23895533608263
 20
-97.88480900330659
 30
0.0
 10
53.23895533608263
 20
-98.05603024892349
 30
0.0
 10
53.21776799884834
 20
-98.28650713688671
 30
0.0
 10
53.11648219158199
 20
-98.47908797451218
 30
0.0
  0
SPLINE
  5
94
330
8D
100
AcDbEntity
  8
_U+30EC_U+30A4_U+30E4_U+30FC 1
370
     0
100
AcDbSpline
210
0.0
220
0.0
230
1.0
 70
    11
 71
     3
 72
    17
 73
    13
 74
     0
 42
0.0000000001
 43
0.0000000001
 12
1.0
 22
0.0
 32
0.0
 13
1.0
 23
0.0
 33
0.0
 40
0.0
 40
0.0
 40
0.0
 40
0.0
 40
1.0
 40
1.0
 40
1.0
 40
2.0
 40
2.0
 40
2.0
 40
3.0
 40
3.0
 40
3.0
 40
4.0
 40
4.0
 40
4.0
 40
4.0
 10
52.71995170122974
 20
-97.25642358679701
 30
0.0
 10
52.47087129764618
 20
-97.25642358679701
 30
0.0
 10
52.4243625085953
 20
-97.53995494523308
 30
0.0
 10
52.4243625085953
 20
-97.88480900330659
 30
0.0
 10
52.4243625085953
 20
-98.20416935478924
 30
0.0
 10
52.46036375641616
 20
-98.51284991026762
 30
0.0
 10
52.71995170122974
 20
-98.51284991026762
 30
0.0
 10
52.96679279274789
 20
-98.51284991026762
 30
0.0
 10
53.01519638431565
 20
-98.23173011867124
 30
0.0
 10
53.01519638431565
 20
-97.88480900330659
 30
0.0
 10
53.01519638431565
 20
-97.5651041422754
 30
0.0
 10
52.9773003339779
 20
-97.25642358679701
 30
0.0
 10
52.71995170122974
 20
-97.25642358679701
 30
0.0
  0
HATCH
  5
95
330
8D
100
AcDbEntity
  8
_U+30EC_U+30A4_U+30E4_U+30FC 1
 62
   179
420
  2234388
100
AcDbHatch
 10
0.0
 20
0.0
 30
0.0
210
0.0
220
0.0
230
1.0
  2
SOLID
 70
     1
 71
     0
 91
        2
 92
        1
 93
        1
 72
     4
 94
        3
 73
     0
 74
     1
 95
       29
 96
       25
 40
0.0
 40
0.0
 40
0.0
 40
0.0
 40
1.0
 40
1.0
 40
1.0
 40
2.0
 40
2.0
 40
2.0
 40
3.0
 40
3.0
 40
3.0
 40
4.0
 40
4.0
 40
4.0
 40
5.0
 40
5.0
 40
5.0
 40
6.0
 40
6.0
 40
6.0
 40
7.0
 40
7.0
 40
7.0
 40
8.0
 40
8.0
 40
8.0
 40
8.0
 10
53.11648219158199
 20
-98.47908797451218
 10
53.0089952124422
 20
-98.68854978001536
 10
52.83587916430839
 20
-98.70749780518425
 10
52.71995170122974
 20
-98.70749780518425
 10
52.55941025161709
 20
-98.70749780518425
 10
52.41816133672185
 20
-98.66098901613337
 10
52.32307670132896
 20
-98.47908797451218
 10
52.21972383677146
 20
-98.28444007959556
 10
52.20077581160259
 20
-98.04741751021037
 10
52.20077581160259
 20
-97.88480900330659
 10
52.20077581160259
 20
-97.74080401202313
 10
52.21765677948031
 20
-97.48896753205138
 10
52.32307670132896
 20
-97.29018552255246
 10
52.43073593524301
 20
-97.08726939847124
 10
52.5911051300814
 20
-97.06384274917154
 10
52.71995170122974
 20
-97.06384274917154
 10
52.87808158400271
 20
-97.06384274917154
 10
53.02156981096336
 20
-97.10828448093126
 10
53.11648219158199
 20
-97.29018552255246
 10
53.21570094155719
 20
-97.48276636017792
 10
53.23895533608263
 20
-97.71117619084998
 10
53.23895533608263
 20
-97.88480900330659
 10
53.23895533608263
 20
-98.05603024892349
 10
53.21776799884834
 20
-98.28650713688671
 10
53.11648219158199
 20
-98.47908797451218
 97
        0
 97
        0
 92
        1
 93
        1
 72
     4
 94
        3
 73
     0
 74
     1
 95
       17
 96
       13
 40
0.0
 40
0.0
 40
0.0
 40
0.0
 40
1.0
 40
1.0
 40
1.0
 40
2.0
 40
2.0
 40
2.0
 40
3.0
 40
3.0
 40
3.0
 40
4.0
 40
4.0
 40
4.0
 40
4.0
 10
52.71995170122974
 20
-97.25642358679701
 10
52.47087129764618
 20
-97.25642358679701
 10
52.4243625085953
 20
-97.53995494523308
 10
52.4243625085953
 20
-97.88480900330659
 10
52.4243625085953
 20
-98.20416935478924
 10
52.46036375641616
 20
-98.51284991026762
 10
52.71995170122974
 20
-98.51284991026762
 10
52.96679279274789
 20
-98.51284991026762
 10
53.01519638431565
 20
-98.23173011867124
 10
53.01519638431565
 20
-97.88480900330659
 10
53.01519638431565
 20
-97.5651041422754
 10
52.9773003339779
 20
-97.25642358679701
 10
52.71995170122974
 20
-97.25642358679701
 97
        0
 97
        0
 75
     2
 76
     1
 98
        0
  0
ENDBLK
  5
90
330
8D
100
AcDbEntity
  8
0
100
AcDbBlockEnd
  0
BLOCK
  5
A4
330
A2
100
AcDbEntity
  8
0
100
AcDbBlockBegin
  2
block 3
 70
     0
 10
0.0
 20
0.0
 30
0.0
  3
block 3
  1

  0
SPLINE
  5
A6
330
A2
100
AcDbEntity
  8
_U+30EC_U+30A4_U+30E4_U+30FC 1
370
     0
100
AcDbSpline
210
0.0
220
0.0
230
1.0
 70
    11
 71
     3
 72
    62
 73
    58
 74
     0
 42
0.0000000001
 43
0.0000000001
 12
1.0
 22
0.0
 32
0.0
 13
1.0
 23
0.0
 33
0.0
 40
0.0
 40
0.0
 40
0.0
 40
0.0
 40
1.0
 40
1.0
 40
1.0
 40
2.0
 40
2.0
 40
2.0
 40
3.0
 40
3.0
 40
3.0
 40
4.0
 40
4.0
 40
4.0
 40
5.0
 40
5.0
 40
5.0
 40
6.0
 40
6.0
 40
6.0
 40
7.0
 40
7.0
 40
7.0
 40
8.0
 40
8.0
 40
8.0
 40
9.0
 40
9.0
 40
9.0
 40
10.0
 40
10.0
 40
10.0
 40
11.0
 40
11.0
 40
11.0
 40
12.0
 40
12.0
 40
12.0
 40
13.0
 40
13.0
 40
13.0
 40
14.0
 40
14.0
 40
14.0
 40
15.0
 40
15.0
 40
15.0
 40
16.0
 40
16.0
 40
16.0
 40
17.0
 40
17.0
 40
17.0
 40
18.0
 40
18.0
 40
18.0
 40
19.0
 40
19.0
 40
19.0
 40
19.0
 10
77.53807506742103
 20
-94.52205130015422
 30
0.0
 10
77.53807506742103
 20
-94.61679142599858
 30
0.0
 10
77.51705998496102
 20
-94.83417695111785
 30
0.0
 10
77.33102482875752
 20
-94.9588894076839
 30
0.0
 10
77.21871471593838
 20
-95.03261445106824
 30
0.0
 10
77.11949596596318
 20
-95.03674856565054
 30
0.0
 10
77.03474661702604
 20
-95.04122718978137
 30
0.0
 10
77.03474661702604
 20
-95.04122718978137
 30
0.0
 10
77.03474661702604
 20
-94.82143009782243
 30
0.0
 10
77.03474661702604
 20
-94.82143009782243
 30
0.0
 10
77.10881616995891
 20
-94.81936304053127
 30
0.0
 10
77.34342717250442
 20
-94.80902775407553
 30
0.0
 10
77.34342717250442
 20
-94.52618541473652
 30
0.0
 10
77.34342717250442
 20
-94.38907061442357
 30
0.0
 10
77.27383624370238
 20
-94.23714190352405
 30
0.0
 10
77.04542641303031
 20
-94.23714190352405
 30
0.0
 10
76.92898218562887
 20
-94.23714190352405
 30
0.0
 10
76.88040633928685
 20
-94.2750379538618
 30
0.0
 10
76.84871146082254
 20
-94.3067328323261
 30
0.0
 10
76.77464190788967
 20
-94.38045787571045
 30
0.0
 10
76.76189505459425
 20
-94.49655759356337
 30
0.0
 10
76.76189505459425
 20
-94.55133461177884
 30
0.0
 10
76.76189505459425
 20
-94.57062714649624
 30
0.0
 10
76.7639621118854
 20
-94.60645613954283
 30
0.0
 10
76.7680962264677
 20
-94.63367239387631
 30
0.0
 10
76.7680962264677
 20
-94.63367239387631
 30
0.0
 10
76.57344833155109
 20
-94.63367239387631
 30
0.0
 10
76.57344833155109
 20
-94.63367239387631
 30
0.0
 10
76.57999401297306
 20
-94.59577634353856
 30
0.0
 10
76.58206107026422
 20
-94.55374617861851
 30
0.0
 10
76.58206107026422
 20
-94.54720049719654
 30
0.0
 10
76.58206107026422
 20
-94.48174368297678
 30
0.0
 10
76.56070147825567
 20
-94.28365069257492
 30
0.0
 10
76.324023418419
 20
-94.28365069257492
 30
0.0
 10
76.1462564913801
 20
-94.28365069257492
 30
0.0
 10
76.09113496361611
 20
-94.4142198114659
 30
0.0
 10
76.09113496361611
 20
-94.52411835744536
 30
0.0
 10
76.09113496361611
 20
-94.78766816206698
 30
0.0
 10
76.324023418419
 20
-94.7962809007801
 30
0.0
 10
76.39568140451219
 20
-94.8004150153624
 30
0.0
 10
76.39568140451219
 20
-94.8004150153624
 30
0.0
 10
76.39568140451219
 20
-95.00298662989509
 30
0.0
 10
76.39568140451219
 20
-95.00298662989509
 30
0.0
 10
76.27096894794614
 20
-94.99471840073049
 30
0.0
 10
75.89442001140834
 20
-94.9671576368485
 30
0.0
 10
75.89442001140834
 20
-94.51137150414993
 30
0.0
 10
75.89442001140834
 20
-94.28778480715722
 30
0.0
 10
76.02154403481406
 20
-94.04731714228679
 30
0.0
 10
76.31747773699702
 20
-94.04731714228679
 30
0.0
 10
76.50385740274903
 20
-94.04731714228679
 30
0.0
 10
76.58619518484652
 20
-94.14205726813115
 30
0.0
 10
76.64751788448396
 20
-94.24127601810635
 30
0.0
 10
76.67507864836595
 20
-94.1799533184689
 30
0.0
 10
76.75534937317228
 20
-93.99874129594477
 30
0.0
 10
77.03267955973489
 20
-93.99874129594477
 30
0.0
 10
77.37098793638643
 20
-93.99874129594477
 30
0.0
 10
77.53807506742103
 20
-94.24541013268865
 30
0.0
 10
77.53807506742103
 20
-94.52205130015422
 30
0.0
  0
HATCH
  5
A7
330
A2
100
AcDbEntity
  8
_U+30EC_U+30A4_U+30E4_U+30FC 1
 62
   179
420
  2234388
100
AcDbHatch
 10
0.0
 20
0.0
 30
0.0
210
0.0
220
0.0
230
1.0
  2
SOLID
 70
     1
 71
     0
 91
        1
 92
        1
 93
        1
 72
     4
 94
        3
 73
     0
 74
     1
 95
       62
 96
       58
 40
0.0
 40
0.0
 40
0.0
 40
0.0
 40
1.0
 40
1.0
 40
1.0
 40
2.0
 40
2.0
 40
2.0
 40
3.0
 40
3.0
 40
3.0
 40
4.0
 40
4.0
 40
4.0
 40
5.0
 40
5.0
 40
5.0
 40
6.0
 40
6.0
 40
6.0
 40
7.0
 40
7.0
 40
7.0
 40
8.0
 40
8.0
 40
8.0
 40
9.0
 40
9.0
 40
9.0
 40
10.0
 40
10.0
 40
10.0
 40
11.0
 40
11.0
 40
11.0
 40
12.0
 40
12.0
 40
12.0
 40
13.0
 40
13.0
 40
13.0
 40
14.0
 40
14.0
 40
14.0
 40
15.0
 40
15.0
 40
15.0
 40
16.0
 40
16.0
 40
16.0
 40
17.0
 40
17.0
 40
17.0
 40
18.0
 40
18.0
 40
18.0
 40
19.0
 40
19.0
 40
19.0
 40
19.0
 10
77.53807506742103
 20
-94.52205130015422
 10
77.53807506742103
 20
-94.61679142599858
 10
77.51705998496102
 20
-94.83417695111785
 10
77.33102482875752
 20
-94.9588894076839
 10
77.21871471593838
 20
-95.03261445106824
 10
77.11949596596318
 20
-95.03674856565054
 10
77.03474661702604
 20
-95.04122718978137
 10
77.03474661702604
 20
-95.04122718978137
 10
77.03474661702604
 20
-94.82143009782243
 10
77.03474661702604
 20
-94.82143009782243
 10
77.10881616995891
 20
-94.81936304053127
 10
77.34342717250442
 20
-94.80902775407553
 10
77.34342717250442
 20
-94.52618541473652
 10
77.34342717250442
 20
-94.38907061442357
 10
77.27383624370238
 20
-94.23714190352405
 10
77.04542641303031
 20
-94.23714190352405
 10
76.92898218562887
 20
-94.23714190352405
 10
76.88040633928685
 20
-94.2750379538618
 10
76.84871146082254
 20
-94.3067328323261
 10
76.77464190788967
 20
-94.38045787571045
 10
76.76189505459425
 20
-94.49655759356337
 10
76.76189505459425
 20
-94.55133461177884
 10
76.76189505459425
 20
-94.57062714649624
 10
76.7639621118854
 20
-94.60645613954283
 10
76.7680962264677
 20
-94.63367239387631
 10
76.7680962264677
 20
-94.63367239387631
 10
76.57344833155109
 20
-94.63367239387631
 10
76.57344833155109
 20
-94.63367239387631
 10
76.57999401297306
 20
-94.59577634353856
 10
76.58206107026422
 20
-94.55374617861851
 10
76.58206107026422
 20
-94.54720049719654
 10
76.58206107026422
 20
-94.48174368297678
 10
76.56070147825567
 20
-94.28365069257492
 10
76.324023418419
 20
-94.28365069257492
 10
76.1462564913801
 20
-94.28365069257492
 10
76.09113496361611
 20
-94.4142198114659
 10
76.09113496361611
 20
-94.52411835744536
 10
76.09113496361611
 20
-94.78766816206698
 10
76.324023418419
 20
-94.7962809007801
 10
76.39568140451219
 20
-94.8004150153624
 10
76.39568140451219
 20
-94.8004150153624
 10
76.39568140451219
 20
-95.00298662989509
 10
76.39568140451219
 20
-95.00298662989509
 10
76.27096894794614
 20
-94.99471840073049
 10
75.89442001140834
 20
-94.9671576368485
 10
75.89442001140834
 20
-94.51137150414993
 10
75.89442001140834
 20
-94.28778480715722
 10
76.02154403481406
 20
-94.04731714228679
 10
76.31747773699702
 20
-94.04731714228679
 10
76.50385740274903
 20
-94.04731714228679
 10
76.58619518484652
 20
-94.14205726813115
 10
76.64751788448396
 20
-94.24127601810635
 10
76.67507864836595
 20
-94.1799533184689
 10
76.75534937317228
 20
-93.99874129594477
 10
77.03267955973489
 20
-93.99874129594477
 10
77.37098793638643
 20
-93.99874129594477
 10
77.53807506742103
 20
-94.24541013268865
 10
77.53807506742103
 20
-94.52205130015422
 97
        0
 97
        0
 75
     2
 76
     1
 98
        0
  0
POLYLINE
  5
A8
330
A2
100
AcDbEntity
  8
_U+30EC_U+30A4_U+30E4_U+30FC 1
370
     0
100
AcDb2dPolyline
 66
     1
 10
0.0
 20
0.0
 30
0.0
  0
VERTEX
  5
A9
330
A8
100
AcDbEntity
  8
_U+30EC_U+30A4_U+30E4_U+30FC 1
370
     0
100
AcDbVertex
100
AcDb2dVertex
 10
77.48743216378787
 20
-93.7799777326314
 30
0.0
  0
VERTEX
  5
AA
330
A8
100
AcDbEntity
  8
_U+30EC_U+30A4_U+30E4_U+30FC 1
370
     0
100
AcDbVertex
100
AcDb2dVertex
 10
77.2355956838161
 20
-93.7799777326314
 30
0.0
  0
VERTEX
  5
AB
330
A8
100
AcDbEntity
  8
_U+30EC_U+30A4_U+30E4_U+30FC 1
370
     0
100
AcDbVertex
100
AcDb2dVertex
 10
77.2355956838161
 20
-93.52883027175669
 30
0.0
  0
VERTEX
  5
AC
330
A8
100
AcDbEntity
  8
_U+30EC_U+30A4_U+30E4_U+30FC 1
370
     0
100
AcDbVertex
100
AcDb2dVertex
 10
77.48743216378787
 20
-93.52883027175669
 30
0.0
  0
VERTEX
  5
AD
330
A8
100
AcDbEntity
  8
_U+30EC_U+30A4_U+30E4_U+30FC 1
370
     0
100
AcDbVertex
100
AcDb2dVertex
 10
77.48743216378787
 20
-93.7799777326314
 30
0.0
  0
SEQEND
  5
AE
330
A8
100
AcDbEntity
  8
_U+30EC_U+30A4_U+30E4_U+30FC 1
370
     0
  0
HATCH
  5
AF
330
A2
100
AcDbEntity
  8
_U+30EC_U+30A4_U+30E4_U+30FC 1
 62
   179
420
  2234388
100
AcDbHatch
 10
0.0
 20
0.0
 30
0.0
210
0.0
220
0.0
230
1.0
  2
SOLID
 70
     1
 71
     0
 91
        1
 92
        1
 93
        4
 72
     1
 10
77.48743216378787
 20
-93.7799777326314
 11
77.2355956838161
 21
-93.7799777326314
 72
     1
 10
77.2355956838161
 20
-93.7799777326314
 11
77.2355956838161
 21
-93.52883027175669
 72
     1
 10
77.2355956838161
 20
-93.52883027175669
 11
77.48743216378787
 21
-93.52883027175669
 72
     1
 10
77.48743216378787
 20
-93.52883027175669
 11
77.48743216378787
 21
-93.7799777326314
 97
        0
 75
     2
 76
     1
 98
        0
  0
SPLINE
  5
B0
330
A2
100
AcDbEntity
  8
_U+30EC_U+30A4_U+30E4_U+30FC 1
370
     0
100
AcDbSpline
210
0.0
220
0.0
230
1.0
 70
    11
 71
     3
 72
    44
 73
    40
 74
     0
 42
0.0000000001
 43
0.0000000001
 12
1.0
 22
0.0
 32
0.0
 13
1.0
 23
0.0
 33
0.0
 40
0.0
 40
0.0
 40
0.0
 40
0.0
 40
1.0
 40
1.0
 40
1.0
 40
2.0
 40
2.0
 40
2.0
 40
3.0
 40
3.0
 40
3.0
 40
4.0
 40
4.0
 40
4.0
 40
5.0
 40
5.0
 40
5.0
 40
6.0
 40
6.0
 40
6.0
 40
7.0
 40
7.0
 40
7.0
 40
8.0
 40
8.0
 40
8.0
 40
9.0
 40
9.0
 40
9.0
 40
10.0
 40
10.0
 40
10.0
 40
11.0
 40
11.0
 40
11.0
 40
12.0
 40
12.0
 40
12.0
 40
13.0
 40
13.0
 40
13.0
 40
13.0
 10
76.90555553632917
 20
-92.70235186484526
 30
0.0
 10
77.06437443819918
 20
-92.91973738996451
 30
0.0
 10
77.13844399113206
 20
-93.01241045851773
 30
0.0
 10
77.28210447286698
 20
-93.06098630485975
 30
0.0
 10
77.28210447286698
 20
-93.06098630485975
 30
0.0
 10
77.28210447286698
 20
-92.28446178248444
 30
0.0
 10
77.28210447286698
 20
-92.28446178248444
 30
0.0
 10
77.28210447286698
 20
-92.28446178248444
 30
0.0
 10
77.48743216378787
 20
-92.28446178248444
 30
0.0
 10
77.48743216378787
 20
-92.28446178248444
 30
0.0
 10
77.48743216378787
 20
-92.28446178248444
 30
0.0
 10
77.48743216378787
 20
-93.31006670844332
 30
0.0
 10
77.48743216378787
 20
-93.31006670844332
 30
0.0
 10
77.12983125241894
 20
-93.27837182997902
 30
0.0
 10
77.05162758490377
 20
-93.21291501575928
 30
0.0
 10
76.75328231588112
 20
-92.82878686915392
 30
0.0
 10
76.55450030638221
 20
-92.57350529369691
 30
0.0
 10
76.48663192532278
 20
-92.50804847947715
 30
0.0
 10
76.34917261546133
 20
-92.50804847947715
 30
0.0
 10
76.23066133076873
 20
-92.50804847947715
 30
0.0
 10
76.09974770232924
 20
-92.58005097511888
 30
0.0
 10
76.09974770232924
 20
-92.7760769082296
 30
0.0
 10
76.09974770232924
 20
-93.0354925982689
 30
0.0
 10
76.33022459029245
 20
-93.04410533698203
 30
0.0
 10
76.44666881769389
 20
-93.04823945156433
 30
0.0
 10
76.44666881769389
 20
-93.04823945156433
 30
0.0
 10
76.44666881769389
 20
-93.27182614855705
 30
0.0
 10
76.44666881769389
 20
-93.27182614855705
 30
0.0
 10
76.31954479428818
 20
-93.26355791939245
 30
0.0
 10
76.20757919101756
 20
-93.25287812338817
 30
0.0
 10
76.08906790632496
 20
-93.17295190813037
 30
0.0
 10
75.9281819471638
 20
-93.06305336215091
 30
0.0
 10
75.89442001140834
 20
-92.87736271549593
 30
0.0
 10
75.89442001140834
 20
-92.76126299764302
 30
0.0
 10
75.89442001140834
 20
-92.48496633972599
 30
0.0
 10
76.07838811032069
 20
-92.278260610611
 30
0.0
 10
76.35123967275247
 20
-92.278260610611
 30
0.0
 10
76.57999401297306
 20
-92.278260610611
 30
0.0
 10
76.67921276294825
 20
-92.39401581891539
 30
0.0
 10
76.90555553632917
 20
-92.70235186484526
 30
0.0
  0
HATCH
  5
B1
330
A2
100
AcDbEntity
  8
_U+30EC_U+30A4_U+30E4_U+30FC 1
 62
   179
420
  2234388
100
AcDbHatch
 10
0.0
 20
0.0
 30
0.0
210
0.0
220
0.0
230
1.0
  2
SOLID
 70
     1
 71
     0
 91
        1
 92
        1
 93
        1
 72
     4
 94
        3
 73
     0
 74
     1
 95
       44
 96
       40
 40
0.0
 40
0.0
 40
0.0
 40
0.0
 40
1.0
 40
1.0
 40
1.0
 40
2.0
 40
2.0
 40
2.0
 40
3.0
 40
3.0
 40
3.0
 40
4.0
 40
4.0
 40
4.0
 40
5.0
 40
5.0
 40
5.0
 40
6.0
 40
6.0
 40
6.0
 40
7.0
 40
7.0
 40
7.0
 40
8.0
 40
8.0
 40
8.0
 40
9.0
 40
9.0
 40
9.0
 40
10.0
 40
10.0
 40
10.0
 40
11.0
 40
11.0
 40
11.0
 40
12.0
 40
12.0
 40
12.0
 40
13.0
 40
13.0
 40
13.0
 40
13.0
 10
76.90555553632917
 20
-92.70235186484526
 10
77.06437443819918
 20
-92.91973738996451
 10
77.13844399113206
 20
-93.01241045851773
 10
77.28210447286698
 20
-93.06098630485975
 10
77.28210447286698
 20
-93.06098630485975
 10
77.28210447286698
 20
-92.28446178248444
 10
77.28210447286698
 20
-92.28446178248444
 10
77.28210447286698
 20
-92.28446178248444
 10
77.48743216378787
 20
-92.28446178248444
 10
77.48743216378787
 20
-92.28446178248444
 10
77.48743216378787
 20
-92.28446178248444
 10
77.48743216378787
 20
-93.31006670844332
 10
77.48743216378787
 20
-93.31006670844332
 10
77.12983125241894
 20
-93.27837182997902
 10
77.05162758490377
 20
-93.21291501575928
 10
76.75328231588112
 20
-92.82878686915392
 10
76.55450030638221
 20
-92.57350529369691
 10
76.48663192532278
 20
-92.50804847947715
 10
76.34917261546133
 20
-92.50804847947715
 10
76.23066133076873
 20
-92.50804847947715
 10
76.09974770232924
 20
-92.58005097511888
 10
76.09974770232924
 20
-92.7760769082296
 10
76.09974770232924
 20
-93.0354925982689
 10
76.33022459029245
 20
-93.04410533698203
 10
76.44666881769389
 20
-93.04823945156433
 10
76.44666881769389
 20
-93.04823945156433
 10
76.44666881769389
 20
-93.27182614855705
 10
76.44666881769389
 20
-93.27182614855705
 10
76.31954479428818
 20
-93.26355791939245
 10
76.20757919101756
 20
-93.25287812338817
 10
76.08906790632496
 20
-93.17295190813037
 10
75.9281819471638
 20
-93.06305336215091
 10
75.89442001140834
 20
-92.87736271549593
 10
75.89442001140834
 20
-92.76126299764302
 10
75.89442001140834
 20
-92.48496633972599
 10
76.07838811032069
 20
-92.278260610611
 10
76.35123967275247
 20
-92.278260610611
 10
76.57999401297306
 20
-92.278260610611
 10
76.67921276294825
 20
-92.39401581891539
 10
76.90555553632917
 20
-92.70235186484526
 97
        0
 97
        0
 75
     2
 76
     1
 98
        0
  0
ENDBLK
  5
A5
330
A2
100
AcDbEntity
  8
0
100
AcDbBlockEnd
  0
BLOCK
  5
BC
330
BA
100
AcDbEntity
  8
0
100
AcDbBlockBegin
  2
block 4
 70
     0
 10
0.0
 20
0.0
 30
0.0
  3
block 4
  1

  0
SPLINE
  5
BE
330
BA
100
AcDbEntity
  8
_U+30EC_U+30A4_U+30E4_U+30FC 1
370
     0
100
AcDbSpline
210
0.0
220
0.0
230
1.0
 70
    11
 71
     3
 72
    26
 73
    22
 74
     0
 42
0.0000000001
 43
0.0000000001
 12
1.0
 22
0.0
 32
0.0
 13
1.0
 23
0.0
 33
0.0
 40
0.0
 40
0.0
 40
0.0
 40
0.0
 40
1.0
 40
1.0
 40
1.0
 40
2.0
 40
2.0
 40
2.0
 40
3.0
 40
3.0
 40
3.0
 40
4.0
 40
4.0
 40
4.0
 40
5.0
 40
5.0
 40
5.0
 40
6.0
 40
6.0
 40
6.0
 40
7.0
 40
7.0
 40
7.0
 40
7.0
 10
77.48708765423935
 20
-85.67952471816345
 30
0.0
 10
77.48708765423935
 20
-85.67952471816345
 30
0.0
 10
76.38293455121676
 20
-85.67952471816345
 30
0.0
 10
76.38293455121676
 20
-85.67952471816345
 30
0.0
 10
76.38293455121676
 20
-85.67952471816345
 30
0.0
 10
76.38293455121676
 20
-86.00887584655334
 30
0.0
 10
76.38293455121676
 20
-86.00887584655334
 30
0.0
 10
76.38293455121676
 20
-86.00887584655334
 30
0.0
 10
76.23479544535103
 20
-86.00887584655334
 30
0.0
 10
76.23479544535103
 20
-86.00887584655334
 30
0.0
 10
76.21998153476446
 20
-85.6774576608723
 30
0.0
 10
76.05702851831214
 20
-85.63094887182143
 30
0.0
 10
75.94265134820184
 20
-85.6016655601968
 30
0.0
 10
75.94265134820184
 20
-85.6016655601968
 30
0.0
 10
75.94265134820184
 20
-85.45593802117074
 30
0.0
 10
75.94265134820184
 20
-85.45593802117074
 30
0.0
 10
75.94265134820184
 20
-85.45593802117074
 30
0.0
 10
77.48708765423935
 20
-85.45593802117074
 30
0.0
 10
77.48708765423935
 20
-85.45593802117074
 30
0.0
 10
77.48708765423935
 20
-85.45593802117074
 30
0.0
 10
77.48708765423935
 20
-85.67952471816345
 30
0.0
 10
77.48708765423935
 20
-85.67952471816345
 30
0.0
  0
HATCH
  5
BF
330
BA
100
AcDbEntity
  8
_U+30EC_U+30A4_U+30E4_U+30FC 1
 62
   179
420
  2234388
100
AcDbHatch
 10
0.0
 20
0.0
 30
0.0
210
0.0
220
0.0
230
1.0
  2
SOLID
 70
     1
 71
     0
 91
        1
 92
        1
 93
        1
 72
     4
 94
        3
 73
     0
 74
     1
 95
       26
 96
       22
 40
0.0
 40
0.0
 40
0.0
 40
0.0
 40
1.0
 40
1.0
 40
1.0
 40
2.0
 40
2.0
 40
2.0
 40
3.0
 40
3.0
 40
3.0
 40
4.0
 40
4.0
 40
4.0
 40
5.0
 40
5.0
 40
5.0
 40
6.0
 40
6.0
 40
6.0
 40
7.0
 40
7.0
 40
7.0
 40
7.0
 10
77.48708765423935
 20
-85.67952471816345
 10
77.48708765423935
 20
-85.67952471816345
 10
76.38293455121676
 20
-85.67952471816345
 10
76.38293455121676
 20
-85.67952471816345
 10
76.38293455121676
 20
-85.67952471816345
 10
76.38293455121676
 20
-86.00887584655334
 10
76.38293455121676
 20
-86.00887584655334
 10
76.38293455121676
 20
-86.00887584655334
 10
76.23479544535103
 20
-86.00887584655334
 10
76.23479544535103
 20
-86.00887584655334
 10
76.21998153476446
 20
-85.6774576608723
 10
76.05702851831214
 20
-85.63094887182143
 10
75.94265134820184
 20
-85.6016655601968
 10
75.94265134820184
 20
-85.6016655601968
 10
75.94265134820184
 20
-85.45593802117074
 10
75.94265134820184
 20
-85.45593802117074
 10
75.94265134820184
 20
-85.45593802117074
 10
77.48708765423935
 20
-85.45593802117074
 10
77.48708765423935
 20
-85.45593802117074
 10
77.48708765423935
 20
-85.45593802117074
 10
77.48708765423935
 20
-85.67952471816345
 10
77.48708765423935
 20
-85.67952471816345
 97
        0
 97
        0
 75
     2
 76
     1
 98
        0
  0
ENDBLK
  5
BD
330
BA
100
AcDbEntity
  8
0
100
AcDbBlockEnd
  0
BLOCK
  5
CE
330
CC
100
AcDbEntity
  8
0
100
AcDbBlockBegin
  2
block 5
 70
     0
 10
0.0
 20
0.0
 30
0.0
  3
block 5
  1

  0
SPLINE
  5
D0
330
CC
100
AcDbEntity
  8
_U+30EC_U+30A4_U+30E4_U+30FC 1
370
     0
100
AcDbSpline
210
0.0
220
0.0
230
1.0
 70
    11
 71
     3
 72
    44
 73
    40
 74
     0
 42
0.0000000001
 43
0.0000000001
 12
1.0
 22
0.0
 32
0.0
 13
1.0
 23
0.0
 33
0.0
 40
0.0
 40
0.0
 40
0.0
 40
0.0
 40
1.0
 40
1.0
 40
1.0
 40
2.0
 40
2.0
 40
2.0
 40
3.0
 40
3.0
 40
3.0
 40
4.0
 40
4.0
 40
4.0
 40
5.0
 40
5.0
 40
5.0
 40
6.0
 40
6.0
 40
6.0
 40
7.0
 40
7.0
 40
7.0
 40
8.0
 40
8.0
 40
8.0
 40
9.0
 40
9.0
 40
9.0
 40
10.0
 40
10.0
 40
10.0
 40
11.0
 40
11.0
 40
11.0
 40
12.0
 40
12.0
 40
12.0
 40
13.0
 40
13.0
 40
13.0
 40
13.0
 10
61.14045408627739
 20
-79.87505558984027
 30
0.0
 10
60.92306856115813
 20
-80.03370223693602
 30
0.0
 10
60.83022323783064
 20
-80.10777178986889
 30
0.0
 10
60.78164739148862
 20
-80.25160452637807
 30
0.0
 10
60.78164739148862
 20
-80.25160452637807
 30
0.0
 10
61.55799965908967
 20
-80.25160452637807
 30
0.0
 10
61.55799965908967
 20
-80.25160452637807
 30
0.0
 10
61.55799965908967
 20
-80.25160452637807
 30
0.0
 10
61.55799965908967
 20
-80.4567599625247
 30
0.0
 10
61.55799965908967
 20
-80.4567599625247
 30
0.0
 10
61.55799965908967
 20
-80.4567599625247
 30
0.0
 10
60.53273924267932
 20
-80.4567599625247
 30
0.0
 10
60.53273924267932
 20
-80.4567599625247
 30
0.0
 10
60.56426186636936
 20
-80.09915905115577
 30
0.0
 10
60.6297186805891
 20
-80.0209553836406
 30
0.0
 10
61.01367457242019
 20
-79.72261011461796
 30
0.0
 10
61.2689561478772
 20
-79.52382810511905
 30
0.0
 10
61.33441296209696
 20
-79.45613197883388
 30
0.0
 10
61.33441296209696
 20
-79.31867266897243
 30
0.0
 10
61.33441296209696
 20
-79.20016138427982
 30
0.0
 10
61.26275497600376
 20
-79.06907550106607
 30
0.0
 10
61.06655678811878
 20
-79.06907550106607
 30
0.0
 10
60.80696884330521
 20
-79.06907550106607
 30
0.0
 10
60.79852835936634
 20
-79.29955238902929
 30
0.0
 10
60.79422199000978
 20
-79.41599661643073
 30
0.0
 10
60.79422199000978
 20
-79.41599661643073
 30
0.0
 10
60.57063529301707
 20
-79.41599661643073
 30
0.0
 10
60.57063529301707
 20
-79.41599661643073
 30
0.0
 10
60.57907577695592
 20
-79.28904484779927
 30
0.0
 10
60.58958331818594
 20
-79.17690698975439
 30
0.0
 10
60.66985404299226
 20
-79.0583957050618
 30
0.0
 10
60.77958033419747
 20
-78.89768200067489
 30
0.0
 10
60.96527098085244
 20
-78.86374781014518
 30
0.0
 10
61.08119844393109
 20
-78.86374781014518
 30
0.0
 10
61.35783961139666
 20
-78.86374781014518
 30
0.0
 10
61.56454534051164
 20
-79.04788816383179
 30
0.0
 10
61.56454534051164
 20
-79.32073972626357
 30
0.0
 10
61.56454534051164
 20
-79.54914955693563
 30
0.0
 10
61.44844562265872
 20
-79.64871281645935
 30
0.0
 10
61.14045408627739
 20
-79.87505558984027
 30
0.0
  0
HATCH
  5
D1
330
CC
100
AcDbEntity
  8
_U+30EC_U+30A4_U+30E4_U+30FC 1
 62
   179
420
  2234388
100
AcDbHatch
 10
0.0
 20
0.0
 30
0.0
210
0.0
220
0.0
230
1.0
  2
SOLID
 70
     1
 71
     0
 91
        1
 92
        1
 93
        1
 72
     4
 94
        3
 73
     0
 74
     1
 95
       44
 96
       40
 40
0.0
 40
0.0
 40
0.0
 40
0.0
 40
1.0
 40
1.0
 40
1.0
 40
2.0
 40
2.0
 40
2.0
 40
3.0
 40
3.0
 40
3.0
 40
4.0
 40
4.0
 40
4.0
 40
5.0
 40
5.0
 40
5.0
 40
6.0
 40
6.0
 40
6.0
 40
7.0
 40
7.0
 40
7.0
 40
8.0
 40
8.0
 40
8.0
 40
9.0
 40
9.0
 40
9.0
 40
10.0
 40
10.0
 40
10.0
 40
11.0
 40
11.0
 40
11.0
 40
12.0
 40
12.0
 40
12.0
 40
13.0
 40
13.0
 40
13.0
 40
13.0
 10
61.14045408627739
 20
-79.87505558984027
 10
60.92306856115813
 20
-80.03370223693602
 10
60.83022323783064
 20
-80.10777178986889
 10
60.78164739148862
 20
-80.25160452637807
 10
60.78164739148862
 20
-80.25160452637807
 10
61.55799965908967
 20
-80.25160452637807
 10
61.55799965908967
 20
-80.25160452637807
 10
61.55799965908967
 20
-80.25160452637807
 10
61.55799965908967
 20
-80.4567599625247
 10
61.55799965908967
 20
-80.4567599625247
 10
61.55799965908967
 20
-80.4567599625247
 10
60.53273924267932
 20
-80.4567599625247
 10
60.53273924267932
 20
-80.4567599625247
 10
60.56426186636936
 20
-80.09915905115577
 10
60.6297186805891
 20
-80.0209553836406
 10
61.01367457242019
 20
-79.72261011461796
 10
61.2689561478772
 20
-79.52382810511905
 10
61.33441296209696
 20
-79.45613197883388
 10
61.33441296209696
 20
-79.31867266897243
 10
61.33441296209696
 20
-79.20016138427982
 10
61.26275497600376
 20
-79.06907550106607
 10
61.06655678811878
 20
-79.06907550106607
 10
60.80696884330521
 20
-79.06907550106607
 10
60.79852835936634
 20
-79.29955238902929
 10
60.79422199000978
 20
-79.41599661643073
 10
60.79422199000978
 20
-79.41599661643073
 10
60.57063529301707
 20
-79.41599661643073
 10
60.57063529301707
 20
-79.41599661643073
 10
60.57907577695592
 20
-79.28904484779927
 10
60.58958331818594
 20
-79.17690698975439
 10
60.66985404299226
 20
-79.0583957050618
 10
60.77958033419747
 20
-78.89768200067489
 10
60.96527098085244
 20
-78.86374781014518
 10
61.08119844393109
 20
-78.86374781014518
 10
61.35783961139666
 20
-78.86374781014518
 10
61.56454534051164
 20
-79.04788816383179
 10
61.56454534051164
 20
-79.32073972626357
 10
61.56454534051164
 20
-79.54914955693563
 10
61.44844562265872
 20
-79.64871281645935
 10
61.14045408627739
 20
-79.87505558984027
 97
        0
 97
        0
 75
     2
 76
     1
 98
        0
  0
SPLINE
  5
D2
330
CC
100
AcDbEntity
  8
_U+30EC_U+30A4_U+30E4_U+30FC 1
370
     0
100
AcDbSpline
210
0.0
220
0.0
230
1.0
 70
    11
 71
     3
 72
    53
 73
    49
 74
     0
 42
0.0000000001
 43
0.0000000001
 12
1.0
 22
0.0
 32
0.0
 13
1.0
 23
0.0
 33
0.0
 40
0.0
 40
0.0
 40
0.0
 40
0.0
 40
1.0
 40
1.0
 40
1.0
 40
2.0
 40
2.0
 40
2.0
 40
3.0
 40
3.0
 40
3.0
 40
4.0
 40
4.0
 40
4.0
 40
5.0
 40
5.0
 40
5.0
 40
6.0
 40
6.0
 40
6.0
 40
7.0
 40
7.0
 40
7.0
 40
8.0
 40
8.0
 40
8.0
 40
9.0
 40
9.0
 40
9.0
 40
10.0
 40
10.0
 40
10.0
 40
11.0
 40
11.0
 40
11.0
 40
12.0
 40
12.0
 40
12.0
 40
13.0
 40
13.0
 40
13.0
 40
14.0
 40
14.0
 40
14.0
 40
15.0
 40
15.0
 40
15.0
 40
16.0
 40
16.0
 40
16.0
 40
16.0
 10
62.20085447663729
 20
-80.50757512093213
 30
0.0
 10
62.12265080912212
 20
-80.50757512093213
 30
0.0
 10
62.02136500185577
 20
-80.49052189828015
 30
0.0
 10
61.92007919458943
 20
-80.42713214135155
 30
0.0
 10
61.74713540122988
 20
-80.31706134059782
 30
0.0
 10
61.72612031876986
 20
-80.18597545738406
 30
0.0
 10
61.70682778405246
 20
-80.07814396869574
 30
0.0
 10
61.70682778405246
 20
-80.07814396869574
 30
0.0
 10
61.92869193330255
 20
-80.07814396869574
 30
0.0
 10
61.92869193330255
 20
-80.07814396869574
 30
0.0
 10
61.98346895151803
 20
-80.27692597819465
 30
0.0
 10
62.1099039558267
 20
-80.3065537993678
 30
0.0
 10
62.20292153392844
 20
-80.3065537993678
 30
0.0
 10
62.34210339153253
 20
-80.3065537993678
 30
0.0
 10
62.49403210243205
 20
-80.20716279461836
 30
0.0
 10
62.49403210243205
 20
-79.97444659458972
 30
0.0
 10
62.49403210243205
 20
-79.71847600003566
 30
0.0
 10
62.31454262765053
 20
-79.64871281645935
 30
0.0
 10
62.19430879521531
 20
-79.64871281645935
 30
0.0
 10
62.16261391675101
 20
-79.64871281645935
 30
0.0
 10
62.02136500185577
 20
-79.64871281645935
 30
0.0
 10
61.93282604788485
 20
-79.77773164238197
 30
0.0
 10
61.93282604788485
 20
-79.77773164238197
 30
0.0
 10
61.75747068768563
 20
-79.75861136243883
 30
0.0
 10
61.75747068768563
 20
-79.75861136243883
 30
0.0
 10
61.75747068768563
 20
-79.75861136243883
 30
0.0
 10
61.87770452012086
 20
-78.91249591126146
 30
0.0
 10
61.87770452012086
 20
-78.91249591126146
 30
0.0
 10
61.87770452012086
 20
-78.91249591126146
 30
0.0
 10
62.65422904249617
 20
-78.91249591126146
 30
0.0
 10
62.65422904249617
 20
-78.91249591126146
 30
0.0
 10
62.65422904249617
 20
-78.91249591126146
 30
0.0
 10
62.65422904249617
 20
-79.10714380617807
 30
0.0
 10
62.65422904249617
 20
-79.10714380617807
 30
0.0
 10
62.65422904249617
 20
-79.10714380617807
 30
0.0
 10
62.04031302702465
 20
-79.10714380617807
 30
0.0
 10
62.04031302702465
 20
-79.10714380617807
 30
0.0
 10
62.04031302702465
 20
-79.10714380617807
 30
0.0
 10
61.9748562128049
 20
-79.53020153176676
 30
0.0
 10
61.9748562128049
 20
-79.53020153176676
 30
0.0
 10
62.03617891244235
 20
-79.49626734123704
 30
0.0
 10
62.11851669453982
 20
-79.45613197883388
 30
0.0
 10
62.23668346968389
 20
-79.45613197883388
 30
0.0
 10
62.48989798784975
 20
-79.45613197883388
 30
0.0
 10
62.72623153813789
 20
-79.64233938981164
 30
0.0
 10
62.72623153813789
 20
-79.95532631464658
 30
0.0
 10
62.72623153813789
 20
-80.27279186361235
 30
0.0
 10
62.50264484114518
 20
-80.50757512093213
 30
0.0
 10
62.20085447663729
 20
-80.50757512093213
 30
0.0
  0
HATCH
  5
D3
330
CC
100
AcDbEntity
  8
_U+30EC_U+30A4_U+30E4_U+30FC 1
 62
   179
420
  2234388
100
AcDbHatch
 10
0.0
 20
0.0
 30
0.0
210
0.0
220
0.0
230
1.0
  2
SOLID
 70
     1
 71
     0
 91
        1
 92
        1
 93
        1
 72
     4
 94
        3
 73
     0
 74
     1
 95
       53
 96
       49
 40
0.0
 40
0.0
 40
0.0
 40
0.0
 40
1.0
 40
1.0
 40
1.0
 40
2.0
 40
2.0
 40
2.0
 40
3.0
 40
3.0
 40
3.0
 40
4.0
 40
4.0
 40
4.0
 40
5.0
 40
5.0
 40
5.0
 40
6.0
 40
6.0
 40
6.0
 40
7.0
 40
7.0
 40
7.0
 40
8.0
 40
8.0
 40
8.0
 40
9.0
 40
9.0
 40
9.0
 40
10.0
 40
10.0
 40
10.0
 40
11.0
 40
11.0
 40
11.0
 40
12.0
 40
12.0
 40
12.0
 40
13.0
 40
13.0
 40
13.0
 40
14.0
 40
14.0
 40
14.0
 40
15.0
 40
15.0
 40
15.0
 40
16.0
 40
16.0
 40
16.0
 40
16.0
 10
62.20085447663729
 20
-80.50757512093213
 10
62.12265080912212
 20
-80.50757512093213
 10
62.02136500185577
 20
-80.49052189828015
 10
61.92007919458943
 20
-80.42713214135155
 10
61.74713540122988
 20
-80.31706134059782
 10
61.72612031876986
 20
-80.18597545738406
 10
61.70682778405246
 20
-80.07814396869574
 10
61.70682778405246
 20
-80.07814396869574
 10
61.92869193330255
 20
-80.07814396869574
 10
61.92869193330255
 20
-80.07814396869574
 10
61.98346895151803
 20
-80.27692597819465
 10
62.1099039558267
 20
-80.3065537993678
 10
62.20292153392844
 20
-80.3065537993678
 10
62.34210339153253
 20
-80.3065537993678
 10
62.49403210243205
 20
-80.20716279461836
 10
62.49403210243205
 20
-79.97444659458972
 10
62.49403210243205
 20
-79.71847600003566
 10
62.31454262765053
 20
-79.64871281645935
 10
62.19430879521531
 20
-79.64871281645935
 10
62.16261391675101
 20
-79.64871281645935
 10
62.02136500185577
 20
-79.64871281645935
 10
61.93282604788485
 20
-79.77773164238197
 10
61.93282604788485
 20
-79.77773164238197
 10
61.75747068768563
 20
-79.75861136243883
 10
61.75747068768563
 20
-79.75861136243883
 10
61.75747068768563
 20
-79.75861136243883
 10
61.87770452012086
 20
-78.91249591126146
 10
61.87770452012086
 20
-78.91249591126146
 10
61.87770452012086
 20
-78.91249591126146
 10
62.65422904249617
 20
-78.91249591126146
 10
62.65422904249617
 20
-78.91249591126146
 10
62.65422904249617
 20
-78.91249591126146
 10
62.65422904249617
 20
-79.10714380617807
 10
62.65422904249617
 20
-79.10714380617807
 10
62.65422904249617
 20
-79.10714380617807
 10
62.04031302702465
 20
-79.10714380617807
 10
62.04031302702465
 20
-79.10714380617807
 10
62.04031302702465
 20
-79.10714380617807
 10
61.9748562128049
 20
-79.53020153176676
 10
61.9748562128049
 20
-79.53020153176676
 10
62.03617891244235
 20
-79.49626734123704
 10
62.11851669453982
 20
-79.45613197883388
 10
62.23668346968389
 20
-79.45613197883388
 10
62.48989798784975
 20
-79.45613197883388
 10
62.72623153813789
 20
-79.64233938981164
 10
62.72623153813789
 20
-79.95532631464658
 10
62.72623153813789
 20
-80.27279186361235
 10
62.50264484114518
 20
-80.50757512093213
 10
62.20085447663729
 20
-80.50757512093213
 97
        0
 97
        0
 75
     2
 76
     1
 98
        0
  0
ENDBLK
  5
CF
330
CC
100
AcDbEntity
  8
0
100
AcDbBlockEnd
  0
BLOCK
  5
DE
330
DC
100
AcDbEntity
  8
0
100
AcDbBlockBegin
  2
block 6
 70
     0
 10
0.0
 20
0.0
 30
0.0
  3
block 6
  1

  0
SPLINE
  5
E0
330
DC
100
AcDbEntity
  8
_U+30EC_U+30A4_U+30E4_U+30FC 1
370
     0
100
AcDbSpline
210
0.0
220
0.0
230
1.0
 70
    11
 71
     3
 72
    32
 73
    28
 74
     0
 42
0.0000000001
 43
0.0000000001
 12
1.0
 22
0.0
 32
0.0
 13
1.0
 23
0.0
 33
0.0
 40
0.0
 40
0.0
 40
0.0
 40
0.0
 40
1.0
 40
1.0
 40
1.0
 40
2.0
 40
2.0
 40
2.0
 40
3.0
 40
3.0
 40
3.0
 40
4.0
 40
4.0
 40
4.0
 40
5.0
 40
5.0
 40
5.0
 40
6.0
 40
6.0
 40
6.0
 40
7.0
 40
7.0
 40
7.0
 40
8.0
 40
8.0
 40
8.0
 40
9.0
 40
9.0
 40
9.0
 40
9.0
 10
77.53807506742103
 20
-89.09878198727392
 30
0.0
 10
77.53807506742103
 20
-89.61382376231877
 30
0.0
 10
76.98410371339287
 20
-89.62209199148337
 30
0.0
 10
76.77016328375885
 20
-89.62209199148337
 30
0.0
 10
76.53968639579564
 20
-89.62209199148337
 30
0.0
 10
75.89235295411719
 20
-89.60314396631449
 30
0.0
 10
75.89235295411719
 20
-89.06088593693617
 30
0.0
 10
75.89235295411719
 20
-88.88759763402811
 30
0.0
 10
75.96228839246777
 20
-88.64299585457536
 30
0.0
 10
76.29439559724585
 20
-88.60509980423762
 30
0.0
 10
76.29439559724585
 20
-88.60509980423762
 30
0.0
 10
76.29439559724585
 20
-88.81800670522605
 30
0.0
 10
76.29439559724585
 20
-88.81800670522605
 30
0.0
 10
76.23720701219071
 20
-88.82868650123034
 30
0.0
 10
76.08906790632496
 20
-88.86038137969463
 30
0.0
 10
76.08906790632496
 20
-89.06295299422732
 30
0.0
 10
76.08906790632496
 20
-89.35406356273093
 30
0.0
 10
76.41704099652074
 20
-89.39402667035984
 30
0.0
 10
76.62202417789311
 20
-89.40677352365526
 30
0.0
 10
76.54382051037794
 20
-89.31410045510204
 30
0.0
 10
76.48456486803164
 20
-89.24657658359114
 30
0.0
 10
76.48456486803164
 20
-89.06502005151847
 30
0.0
 10
76.48456486803164
 20
-88.88553057673695
 30
0.0
 10
76.59274086626849
 20
-88.58374021222907
 30
0.0
 10
76.99891762397944
 20
-88.58374021222907
 30
0.0
 10
77.3182779754621
 20
-88.58374021222907
 30
0.0
 10
77.53807506742103
 20
-88.78217771217946
 30
0.0
 10
77.53807506742103
 20
-89.09878198727392
 30
0.0
  0
SPLINE
  5
E1
330
DC
100
AcDbEntity
  8
_U+30EC_U+30A4_U+30E4_U+30FC 1
370
     0
100
AcDbSpline
210
0.0
220
0.0
230
1.0
 70
    11
 71
     3
 72
    17
 73
    13
 74
     0
 42
0.0000000001
 43
0.0000000001
 12
1.0
 22
0.0
 32
0.0
 13
1.0
 23
0.0
 33
0.0
 40
0.0
 40
0.0
 40
0.0
 40
0.0
 40
1.0
 40
1.0
 40
1.0
 40
2.0
 40
2.0
 40
2.0
 40
3.0
 40
3.0
 40
3.0
 40
4.0
 40
4.0
 40
4.0
 40
4.0
 10
76.67921276294825
 20
-89.0819010193962
 30
0.0
 10
76.67921276294825
 20
-89.34372827627519
 30
0.0
 10
76.89074162574259
 20
-89.38162432661294
 30
0.0
 10
77.00718585314404
 20
-89.38162432661294
 30
0.0
 10
77.18288572289178
 20
-89.38162432661294
 30
0.0
 10
77.3458387393441
 20
-89.28653969122004
 30
0.0
 10
77.3458387393441
 20
-89.10291610185622
 30
0.0
 10
77.3458387393441
 20
-88.982682269421
 30
0.0
 10
77.2865830969978
 20
-88.80767141877031
 30
0.0
 10
77.0009846812706
 20
-88.80767141877031
 30
0.0
 10
76.77670896518083
 20
-88.80767141877031
 30
0.0
 10
76.67921276294825
 20
-88.9468532763744
 30
0.0
 10
76.67921276294825
 20
-89.0819010193962
 30
0.0
  0
HATCH
  5
E2
330
DC
100
AcDbEntity
  8
_U+30EC_U+30A4_U+30E4_U+30FC 1
 62
   179
420
  2234388
100
AcDbHatch
 10
0.0
 20
0.0
 30
0.0
210
0.0
220
0.0
230
1.0
  2
SOLID
 70
     1
 71
     0
 91
        2
 92
        1
 93
        1
 72
     4
 94
        3
 73
     0
 74
     1
 95
       32
 96
       28
 40
0.0
 40
0.0
 40
0.0
 40
0.0
 40
1.0
 40
1.0
 40
1.0
 40
2.0
 40
2.0
 40
2.0
 40
3.0
 40
3.0
 40
3.0
 40
4.0
 40
4.0
 40
4.0
 40
5.0
 40
5.0
 40
5.0
 40
6.0
 40
6.0
 40
6.0
 40
7.0
 40
7.0
 40
7.0
 40
8.0
 40
8.0
 40
8.0
 40
9.0
 40
9.0
 40
9.0
 40
9.0
 10
77.53807506742103
 20
-89.09878198727392
 10
77.53807506742103
 20
-89.61382376231877
 10
76.98410371339287
 20
-89.62209199148337
 10
76.77016328375885
 20
-89.62209199148337
 10
76.53968639579564
 20
-89.62209199148337
 10
75.89235295411719
 20
-89.60314396631449
 10
75.89235295411719
 20
-89.06088593693617
 10
75.89235295411719
 20
-88.88759763402811
 10
75.96228839246777
 20
-88.64299585457536
 10
76.29439559724585
 20
-88.60509980423762
 10
76.29439559724585
 20
-88.60509980423762
 10
76.29439559724585
 20
-88.81800670522605
 10
76.29439559724585
 20
-88.81800670522605
 10
76.23720701219071
 20
-88.82868650123034
 10
76.08906790632496
 20
-88.86038137969463
 10
76.08906790632496
 20
-89.06295299422732
 10
76.08906790632496
 20
-89.35406356273093
 10
76.41704099652074
 20
-89.39402667035984
 10
76.62202417789311
 20
-89.40677352365526
 10
76.54382051037794
 20
-89.31410045510204
 10
76.48456486803164
 20
-89.24657658359114
 10
76.48456486803164
 20
-89.06502005151847
 10
76.48456486803164
 20
-88.88553057673695
 10
76.59274086626849
 20
-88.58374021222907
 10
76.99891762397944
 20
-88.58374021222907
 10
77.3182779754621
 20
-88.58374021222907
 10
77.53807506742103
 20
-88.78217771217946
 10
77.53807506742103
 20
-89.09878198727392
 97
        0
 97
        0
 92
        1
 93
        1
 72
     4
 94
        3
 73
     0
 74
     1
 95
       17
 96
       13
 40
0.0
 40
0.0
 40
0.0
 40
0.0
 40
1.0
 40
1.0
 40
1.0
 40
2.0
 40
2.0
 40
2.0
 40
3.0
 40
3.0
 40
3.0
 40
4.0
 40
4.0
 40
4.0
 40
4.0
 10
76.67921276294825
 20
-89.0819010193962
 10
76.67921276294825
 20
-89.34372827627519
 10
76.89074162574259
 20
-89.38162432661294
 10
77.00718585314404
 20
-89.38162432661294
 10
77.18288572289178
 20
-89.38162432661294
 10
77.3458387393441
 20
-89.28653969122004
 10
77.3458387393441
 20
-89.10291610185622
 10
77.3458387393441
 20
-88.982682269421
 10
77.2865830969978
 20
-88.80767141877031
 10
77.0009846812706
 20
-88.80767141877031
 10
76.77670896518083
 20
-88.80767141877031
 10
76.67921276294825
 20
-88.9468532763744
 10
76.67921276294825
 20
-89.0819010193962
 97
        0
 97
        0
 75
     2
 76
     1
 98
        0
  0
ENDBLK
  5
DF
330
DC
100
AcDbEntity
  8
0
100
AcDbBlockEnd
  0
ENDSEC
  0
SECTION
  2
ENTITIES
  0
POLYLINE
  5
41
330
1F
100
AcDbEntity
  8
_U+30EC_U+30A4_U+30E4_U+30FC 1
 62
   179
420
  2234388
370
    25
100
AcDb2dPolyline
 66
     1
 10
0.0
 20
0.0
 30
0.0
  0
VERTEX
  5
42
330
41
100
AcDbEntity
  8
_U+30EC_U+30A4_U+30E4_U+30FC 1
 62
   179
420
  2234388
370
    25
100
AcDbVertex
100
AcDb2dVertex
 10
54.13311361894922
 20
-92.10325747697391
 30
0.0
  0
VERTEX
  5
43
330
41
100
AcDbEntity
  8
_U+30EC_U+30A4_U+30E4_U+30FC 1
 62
   179
420
  2234388
370
    25
100
AcDbVertex
100
AcDb2dVertex
 10
57.13310048685762
 20
-92.10325747697391
 30
0.0
  0
SEQEND
  5
44
330
41
100
AcDbEntity
  8
_U+30EC_U+30A4_U+30E4_U+30FC 1
 62
   179
420
  2234388
370
    25
  0
POLYLINE
  5
45
330
1F
100
AcDbEntity
  8
_U+30EC_U+30A4_U+30E4_U+30FC 1
 62
   179
420
  2234388
370
    25
100
AcDb2dPolyline
 66
     1
 10
0.0
 20
0.0
 30
0.0
  0
VERTEX
  5
46
330
45
100
AcDbEntity
  8
_U+30EC_U+30A4_U+30E4_U+30FC 1
 62
   179
420
  2234388
370
    25
100
AcDbVertex
100
AcDb2dVertex
 10
47.1330501864246
 20
-95.30305775395217
 30
0.0
  0
VERTEX
  5
47
330
45
100
AcDbEntity
  8
_U+30EC_U+30A4_U+30E4_U+30FC 1
 62
   179
420
  2234388
370
    25
100
AcDbVertex
100
AcDb2dVertex
 10
57.13310048685762
 20
-95.30305775395217
 30
0.0
  0
SEQEND
  5
48
330
45
100
AcDbEntity
  8
_U+30EC_U+30A4_U+30E4_U+30FC 1
 62
   179
420
  2234388
370
    25
  0
POLYLINE
  5
49
330
1F
100
AcDbEntity
  8
_U+30EC_U+30A4_U+30E4_U+30FC 1
 62
   179
420
  2234388
370
    25
100
AcDb2dPolyline
 66
     1
 10
0.0
 20
0.0
 30
0.0
  0
VERTEX
  5
4A
330
49
100
AcDbEntity
  8
_U+30EC_U+30A4_U+30E4_U+30FC 1
 62
   179
420
  2234388
370
    25
100
AcDbVertex
100
AcDb2dVertex
 10
57.13310048685762
 20
-92.10325747697391
 30
0.0
  0
VERTEX
  5
4B
330
49
100
AcDbEntity
  8
_U+30EC_U+30A4_U+30E4_U+30FC 1
 62
   179
420
  2234388
370
    25
100
AcDbVertex
100
AcDb2dVertex
 10
57.13310048685762
 20
-95.30305775395217
 30
0.0
  0
SEQEND
  5
4C
330
49
100
AcDbEntity
  8
_U+30EC_U+30A4_U+30E4_U+30FC 1
 62
   179
420
  2234388
370
    25
  0
POLYLINE
  5
4D
330
1F
100
AcDbEntity
  8
_U+30EC_U+30A4_U+30E4_U+30FC 1
 62
   179
420
  2234388
370
    25
100
AcDb2dPolyline
 66
     1
 10
0.0
 20
0.0
 30
0.0
  0
VERTEX
  5
4E
330
4D
100
AcDbEntity
  8
_U+30EC_U+30A4_U+30E4_U+30FC 1
 62
   179
420
  2234388
370
    25
100
AcDbVertex
100
AcDb2dVertex
 10
54.13311361894922
 20
-93.1033471989467
 30
0.0
  0
VERTEX
  5
4F
330
4D
100
AcDbEntity
  8
_U+30EC_U+30A4_U+30E4_U+30FC 1
 62
   179
420
  2234388
370
    25
100
AcDbVertex
100
AcDb2dVertex
 10
56.13336356791859
 20
-93.1033471989467
 30
0.0
  0
SEQEND
  5
50
330
4D
100
AcDbEntity
  8
_U+30EC_U+30A4_U+30E4_U+30FC 1
 62
   179
420
  2234388
370
    25
  0
POLYLINE
  5
51
330
1F
100
AcDbEntity
  8
_U+30EC_U+30A4_U+30E4_U+30FC 1
 62
   179
420
  2234388
370
    25
100
AcDb2dPolyline
 66
     1
 10
0.0
 20
0.0
 30
0.0
  0
VERTEX
  5
52
330
51
100
AcDbEntity
  8
_U+30EC_U+30A4_U+30E4_U+30FC 1
 62
   179
420
  2234388
370
    25
100
AcDbVertex
100
AcDb2dVertex
 10
54.13311361894922
 20
-92.10325747697391
 30
0.0
  0
VERTEX
  5
53
330
51
100
AcDbEntity
  8
_U+30EC_U+30A4_U+30E4_U+30FC 1
 62
   179
420
  2234388
370
    25
100
AcDbVertex
100
AcDb2dVertex
 10
54.13311361894922
 20
-93.1033471989467
 30
0.0
  0
SEQEND
  5
54
330
51
100
AcDbEntity
  8
_U+30EC_U+30A4_U+30E4_U+30FC 1
 62
   179
420
  2234388
370
    25
  0
POLYLINE
  5
55
330
1F
100
AcDbEntity
  8
_U+30EC_U+30A4_U+30E4_U+30FC 1
 62
   179
420
  2234388
370
    25
100
AcDb2dPolyline
 66
     1
 10
0.0
 20
0.0
 30
0.0
  0
VERTEX
  5
56
330
55
100
AcDbEntity
  8
_U+30EC_U+30A4_U+30E4_U+30FC 1
 62
   179
420
  2234388
370
    25
100
AcDbVertex
100
AcDb2dVertex
 10
47.1330501864246
 20
-94.30328553197964
 30
0.0
  0
VERTEX
  5
57
330
55
100
AcDbEntity
  8
_U+30EC_U+30A4_U+30E4_U+30FC 1
 62
   179
420
  2234388
370
    25
100
AcDbVertex
100
AcDb2dVertex
 10
47.1330501864246
 20
-95.30305775395217
 30
0.0
  0
SEQEND
  5
58
330
55
100
AcDbEntity
  8
_U+30EC_U+30A4_U+30E4_U+30FC 1
 62
   179
420
  2234388
370
    25
  0
POLYLINE
  5
59
330
1F
100
AcDbEntity
  8
_U+30EC_U+30A4_U+30E4_U+30FC 1
 62
   179
420
  2234388
370
    25
100
AcDb2dPolyline
 66
     1
 10
0.0
 20
0.0
 30
0.0
  0
VERTEX
  5
5A
330
59
100
AcDbEntity
  8
_U+30EC_U+30A4_U+30E4_U+30FC 1
 62
   179
420
  2234388
370
    25
100
AcDbVertex
100
AcDb2dVertex
 10
47.1330501864246
 20
-94.30328553197964
 30
0.0
  0
VERTEX
  5
5B
330
59
100
AcDbEntity
  8
_U+30EC_U+30A4_U+30E4_U+30FC 1
 62
   179
420
  2234388
370
    25
100
AcDbVertex
100
AcDb2dVertex
 10
47.63325378477445
 20
-94.30328553197964
 30
0.0
  0
SEQEND
  5
5C
330
59
100
AcDbEntity
  8
_U+30EC_U+30A4_U+30E4_U+30FC 1
 62
   179
420
  2234388
370
    25
  0
POLYLINE
  5
5D
330
1F
100
AcDbEntity
  8
_U+30EC_U+30A4_U+30E4_U+30FC 1
 62
   179
420
  2234388
370
    25
100
AcDb2dPolyline
 66
     1
 10
0.0
 20
0.0
 30
0.0
  0
VERTEX
  5
5E
330
5D
100
AcDbEntity
  8
_U+30EC_U+30A4_U+30E4_U+30FC 1
 62
   179
420
  2234388
370
    25
100
AcDbVertex
100
AcDb2dVertex
 10
48.64646681448079
 20
-94.30328553197964
 30
0.0
  0
VERTEX
  5
5F
330
5D
100
AcDbEntity
  8
_U+30EC_U+30A4_U+30E4_U+30FC 1
 62
   179
420
  2234388
370
    25
100
AcDbVertex
100
AcDb2dVertex
 10
56.13336356791859
 20
-94.30328553197964
 30
0.0
  0
SEQEND
  5
60
330
5D
100
AcDbEntity
  8
_U+30EC_U+30A4_U+30E4_U+30FC 1
 62
   179
420
  2234388
370
    25
  0
POLYLINE
  5
61
330
1F
100
AcDbEntity
  8
_U+30EC_U+30A4_U+30E4_U+30FC 1
 62
   179
420
  2234388
370
    25
100
AcDb2dPolyline
 66
     1
 10
0.0
 20
0.0
 30
0.0
  0
VERTEX
  5
62
330
61
100
AcDbEntity
  8
_U+30EC_U+30A4_U+30E4_U+30FC 1
 62
   179
420
  2234388
370
    25
100
AcDbVertex
100
AcDb2dVertex
 10
56.13336356791859
 20
-93.1033471989467
 30
0.0
  0
VERTEX
  5
63
330
61
100
AcDbEntity
  8
_U+30EC_U+30A4_U+30E4_U+30FC 1
 62
   179
420
  2234388
370
    25
100
AcDbVertex
100
AcDb2dVertex
 10
56.13336356791859
 20
-94.30328553197964
 30
0.0
  0
SEQEND
  5
64
330
61
100
AcDbEntity
  8
_U+30EC_U+30A4_U+30E4_U+30FC 1
 62
   179
420
  2234388
370
    25
  0
POLYLINE
  5
65
330
1F
100
AcDbEntity
  8
_U+30EC_U+30A4_U+30E4_U+30FC 1
 62
   179
420
  2234388
370
    25
100
AcDb2dPolyline
 66
     1
 10
0.0
 20
0.0
 30
0.0
  0
VERTEX
  5
66
330
65
100
AcDbEntity
  8
_U+30EC_U+30A4_U+30E4_U+30FC 1
 62
   179
420
  2234388
370
    25
100
AcDbVertex
100
AcDb2dVertex
 10
49.98349455814815
 20
-86.10328358958523
 30
0.0
  0
VERTEX
  5
67
330
65
100
AcDbEntity
  8
_U+30EC_U+30A4_U+30E4_U+30FC 1
 62
   179
420
  2234388
370
    25
100
AcDbVertex
100
AcDb2dVertex
 10
74.133284775369
 20
-86.10328358958523
 30
0.0
  0
SEQEND
  5
68
330
65
100
AcDbEntity
  8
_U+30EC_U+30A4_U+30E4_U+30FC 1
 62
   179
420
  2234388
370
    25
  0
POLYLINE
  5
69
330
1F
100
AcDbEntity
  8
_U+30EC_U+30A4_U+30E4_U+30FC 1
 62
   179
420
  2234388
370
    25
100
AcDb2dPolyline
 66
     1
 10
0.0
 20
0.0
 30
0.0
  0
VERTEX
  5
6A
330
69
100
AcDbEntity
  8
_U+30EC_U+30A4_U+30E4_U+30FC 1
 62
   179
420
  2234388
370
    25
100
AcDbVertex
100
AcDb2dVertex
 10
74.133284775369
 20
-85.10315858983525
 30
0.0
  0
VERTEX
  5
6B
330
69
100
AcDbEntity
  8
_U+30EC_U+30A4_U+30E4_U+30FC 1
 62
   179
420
  2234388
370
    25
100
AcDbVertex
100
AcDb2dVertex
 10
74.133284775369
 20
-86.10328358958523
 30
0.0
  0
SEQEND
  5
6C
330
69
100
AcDbEntity
  8
_U+30EC_U+30A4_U+30E4_U+30FC 1
 62
   179
420
  2234388
370
    25
  0
POLYLINE
  5
6D
330
1F
100
AcDbEntity
  8
_U+30EC_U+30A4_U+30E4_U+30FC 1
 62
   179
420
  2234388
370
    25
100
AcDb2dPolyline
 66
     1
 10
0.0
 20
0.0
 30
0.0
  0
VERTEX
  5
6E
330
6D
100
AcDbEntity
  8
_U+30EC_U+30A4_U+30E4_U+30FC 1
 62
   179
420
  2234388
370
    25
100
AcDbVertex
100
AcDb2dVertex
 10
49.13326485761709
 20
-85.10315858983525
 30
0.0
  0
VERTEX
  5
6F
330
6D
100
AcDbEntity
  8
_U+30EC_U+30A4_U+30E4_U+30FC 1
 62
   179
420
  2234388
370
    25
100
AcDbVertex
100
AcDb2dVertex
 10
74.133284775369
 20
-85.10315858983525
 30
0.0
  0
SEQEND
  5
70
330
6D
100
AcDbEntity
  8
_U+30EC_U+30A4_U+30E4_U+30FC 1
 62
   179
420
  2234388
370
    25
  0
POLYLINE
  5
71
330
1F
100
AcDbEntity
  8
_U+30EC_U+30A4_U+30E4_U+30FC 1
 62
   179
420
  2234388
370
    25
100
AcDb2dPolyline
 66
     1
 10
0.0
 20
0.0
 30
0.0
  0
VERTEX
  5
72
330
71
100
AcDbEntity
  8
_U+30EC_U+30A4_U+30E4_U+30FC 1
 62
   179
420
  2234388
370
    25
100
AcDbVertex
100
AcDb2dVertex
 10
49.13326485761709
 20
-85.10315858983525
 30
0.0
  0
VERTEX
  5
73
330
71
100
AcDbEntity
  8
_U+30EC_U+30A4_U+30E4_U+30FC 1
 62
   179
420
  2234388
370
    25
100
AcDbVertex
100
AcDb2dVertex
 10
47.63325378477445
 20
-94.30328553197964
 30
0.0
  0
SEQEND
  5
74
330
71
100
AcDbEntity
  8
_U+30EC_U+30A4_U+30E4_U+30FC 1
 62
   179
420
  2234388
370
    25
  0
POLYLINE
  5
75
330
1F
100
AcDbEntity
  8
_U+30EC_U+30A4_U+30E4_U+30FC 1
 62
   179
420
  2234388
370
    25
100
AcDb2dPolyline
 66
     1
 10
0.0
 20
0.0
 30
0.0
  0
VERTEX
  5
76
330
75
100
AcDbEntity
  8
_U+30EC_U+30A4_U+30E4_U+30FC 1
 62
   179
420
  2234388
370
    25
100
AcDbVertex
100
AcDb2dVertex
 10
49.98349455814815
 20
-86.10328358958523
 30
0.0
  0
VERTEX
  5
77
330
75
100
AcDbEntity
  8
_U+30EC_U+30A4_U+30E4_U+30FC 1
 62
   179
420
  2234388
370
    25
100
AcDbVertex
100
AcDb2dVertex
 10
48.64646681448079
 20
-94.30328553197964
 30
0.0
  0
SEQEND
  5
78
330
75
100
AcDbEntity
  8
_U+30EC_U+30A4_U+30E4_U+30FC 1
 62
   179
420
  2234388
370
    25
  0
SPLINE
  5
79
330
1F
100
AcDbEntity
  8
_U+30EC_U+30A4_U+30E4_U+30FC 1
 62
   179
420
  2234388
370
     9
100
AcDbSpline
210
0.0
220
0.0
230
1.0
 70
    11
 71
     3
 72
    17
 73
    13
 74
     0
 42
0.0000000001
 43
0.0000000001
 12
1.0
 22
0.0
 32
0.0
 13
1.0
 23
0.0
 33
0.0
 40
0.0
 40
0.0
 40
0.0
 40
0.0
 40
1.0
 40
1.0
 40
1.0
 40
2.0
 40
2.0
 40
2.0
 40
3.0
 40
3.0
 40
3.0
 40
4.0
 40
4.0
 40
4.0
 40
4.0
 10
57.23304242875233
 20
-99.30316969739619
 30
0.0
 10
57.23304242875233
 20
-99.24803053074375
 30
0.0
 10
57.18823965211757
 20
-99.20326303075454
 30
0.0
 10
57.13310048685762
 20
-99.20326303075454
 30
0.0
 10
57.07799659937454
 20
-99.20326303075454
 30
0.0
 10
57.03319382273978
 20
-99.24803053074375
 30
0.0
 10
57.03319382273978
 20
-99.30316969739619
 30
0.0
 10
57.03319382273978
 20
-99.35827358627174
 30
0.0
 10
57.07799659937454
 20
-99.40307636403782
 30
0.0
 10
57.13310048685762
 20
-99.40307636403782
 30
0.0
 10
57.18823965211757
 20
-99.40307636403782
 30
0.0
 10
57.23304242875233
 20
-99.35827358627174
 30
0.0
 10
57.23304242875233
 20
-99.30316969739619
 30
0.0
  0
SPLINE
  5
7A
330
1F
100
AcDbEntity
  8
_U+30EC_U+30A4_U+30E4_U+30FC 1
 62
   179
420
  2234388
370
     9
100
AcDbSpline
210
0.0
220
0.0
230
1.0
 70
    11
 71
     3
 72
    17
 73
    13
 74
     0
 42
0.0000000001
 43
0.0000000001
 12
1.0
 22
0.0
 32
0.0
 13
1.0
 23
0.0
 33
0.0
 40
0.0
 40
0.0
 40
0.0
 40
0.0
 40
1.0
 40
1.0
 40
1.0
 40
2.0
 40
2.0
 40
2.0
 40
3.0
 40
3.0
 40
3.0
 40
4.0
 40
4.0
 40
4.0
 40
4.0
 10
47.23327435053434
 20
-99.30316969739619
 30
0.0
 10
47.23327435053434
 20
-99.24803053074375
 30
0.0
 10
47.18850685167645
 20
-99.20326303075454
 30
0.0
 10
47.1330501864246
 20
-99.20326303075454
 30
0.0
 10
47.07791102116465
 20
-99.20326303075454
 30
0.0
 10
47.03314352230677
 20
-99.24803053074375
 30
0.0
 10
47.03314352230677
 20
-99.30316969739619
 30
0.0
 10
47.03314352230677
 20
-99.35827358627174
 30
0.0
 10
47.07791102116465
 20
-99.40307636403782
 30
0.0
 10
47.1330501864246
 20
-99.40307636403782
 30
0.0
 10
47.18850685167645
 20
-99.40307636403782
 30
0.0
 10
47.23327435053434
 20
-99.35827358627174
 30
0.0
 10
47.23327435053434
 20
-99.30316969739619
 30
0.0
  0
SPLINE
  5
7B
330
1F
100
AcDbEntity
  8
_U+30EC_U+30A4_U+30E4_U+30FC 1
 62
   179
420
  2234388
370
     9
100
AcDbSpline
210
0.0
220
0.0
230
1.0
 70
    11
 71
     3
 72
    17
 73
    13
 74
     0
 42
0.0000000001
 43
0.0000000001
 12
1.0
 22
0.0
 32
0.0
 13
1.0
 23
0.0
 33
0.0
 40
0.0
 40
0.0
 40
0.0
 40
0.0
 40
1.0
 40
1.0
 40
1.0
 40
2.0
 40
2.0
 40
2.0
 40
3.0
 40
3.0
 40
3.0
 40
4.0
 40
4.0
 40
4.0
 40
4.0
 10
78.23330328187993
 20
-85.10315858983525
 30
0.0
 10
78.23330328187993
 20
-85.04805470096034
 30
0.0
 10
78.18850050524517
 20
-85.0032519231936
 30
0.0
 10
78.1333966177621
 20
-85.0032519231936
 30
0.0
 10
78.07790467473338
 20
-85.0032519231936
 30
0.0
 10
78.03313717587548
 20
-85.04805470096034
 30
0.0
 10
78.03313717587548
 20
-85.10315858983525
 30
0.0
 10
78.03313717587548
 20
-85.15861525648825
 30
0.0
 10
78.07790467473338
 20
-85.20341803425464
 30
0.0
 10
78.1333966177621
 20
-85.20341803425464
 30
0.0
 10
78.18850050524517
 20
-85.20341803425464
 30
0.0
 10
78.23330328187993
 20
-85.15861525648825
 30
0.0
 10
78.23330328187993
 20
-85.10315858983525
 30
0.0
  0
SPLINE
  5
7C
330
1F
100
AcDbEntity
  8
_U+30EC_U+30A4_U+30E4_U+30FC 1
 62
   179
420
  2234388
370
     9
100
AcDbSpline
210
0.0
220
0.0
230
1.0
 70
    11
 71
     3
 72
    17
 73
    13
 74
     0
 42
0.0000000001
 43
0.0000000001
 12
1.0
 22
0.0
 32
0.0
 13
1.0
 23
0.0
 33
0.0
 40
0.0
 40
0.0
 40
0.0
 40
0.0
 40
1.0
 40
1.0
 40
1.0
 40
2.0
 40
2.0
 40
2.0
 40
3.0
 40
3.0
 40
3.0
 40
4.0
 40
4.0
 40
4.0
 40
4.0
 10
78.23330328187993
 20
-86.10328358958523
 30
0.0
 10
78.23330328187993
 20
-86.04814442293247
 30
0.0
 10
78.18850050524517
 20
-86.00337692294359
 30
0.0
 10
78.1333966177621
 20
-86.00337692294359
 30
0.0
 10
78.07790467473338
 20
-86.00337692294359
 30
0.0
 10
78.03313717587548
 20
-86.04814442293247
 30
0.0
 10
78.03313717587548
 20
-86.10328358958523
 30
0.0
 10
78.03313717587548
 20
-86.15838747846047
 30
0.0
 10
78.07790467473338
 20
-86.20319025622686
 30
0.0
 10
78.1333966177621
 20
-86.20319025622686
 30
0.0
 10
78.18850050524517
 20
-86.20319025622686
 30
0.0
 10
78.23330328187993
 20
-86.15838747846047
 30
0.0
 10
78.23330328187993
 20
-86.10328358958523
 30
0.0
  0
SPLINE
  5
7D
330
1F
100
AcDbEntity
  8
_U+30EC_U+30A4_U+30E4_U+30FC 1
 62
   179
420
  2234388
370
     9
100
AcDbSpline
210
0.0
220
0.0
230
1.0
 70
    11
 71
     3
 72
    17
 73
    13
 74
     0
 42
0.0000000001
 43
0.0000000001
 12
1.0
 22
0.0
 32
0.0
 13
1.0
 23
0.0
 33
0.0
 40
0.0
 40
0.0
 40
0.0
 40
0.0
 40
1.0
 40
1.0
 40
1.0
 40
2.0
 40
2.0
 40
2.0
 40
3.0
 40
3.0
 40
3.0
 40
4.0
 40
4.0
 40
4.0
 40
4.0
 10
78.23330328187993
 20
-92.10325747697391
 30
0.0
 10
78.23330328187993
 20
-92.04811831032148
 30
0.0
 10
78.18850050524517
 20
-92.00335081033228
 30
0.0
 10
78.1333966177621
 20
-92.00335081033228
 30
0.0
 10
78.07790467473338
 20
-92.00335081033228
 30
0.0
 10
78.03313717587548
 20
-92.04811831032148
 30
0.0
 10
78.03313717587548
 20
-92.10325747697391
 30
0.0
 10
78.03313717587548
 20
-92.15836136584947
 30
0.0
 10
78.07790467473338
 20
-92.20316414361619
 30
0.0
 10
78.1333966177621
 20
-92.20316414361619
 30
0.0
 10
78.18850050524517
 20
-92.20316414361619
 30
0.0
 10
78.23330328187993
 20
-92.15836136584947
 30
0.0
 10
78.23330328187993
 20
-92.10325747697391
 30
0.0
  0
SPLINE
  5
7E
330
1F
100
AcDbEntity
  8
_U+30EC_U+30A4_U+30E4_U+30FC 1
 62
   179
420
  2234388
370
     9
100
AcDbSpline
210
0.0
220
0.0
230
1.0
 70
    11
 71
     3
 72
    17
 73
    13
 74
     0
 42
0.0000000001
 43
0.0000000001
 12
1.0
 22
0.0
 32
0.0
 13
1.0
 23
0.0
 33
0.0
 40
0.0
 40
0.0
 40
0.0
 40
0.0
 40
1.0
 40
1.0
 40
1.0
 40
2.0
 40
2.0
 40
2.0
 40
3.0
 40
3.0
 40
3.0
 40
4.0
 40
4.0
 40
4.0
 40
4.0
 10
78.23330328187993
 20
-95.30305775395217
 30
0.0
 10
78.23330328187993
 20
-95.2479185872991
 30
0.0
 10
78.18850050524517
 20
-95.20315108731053
 30
0.0
 10
78.1333966177621
 20
-95.20315108731053
 30
0.0
 10
78.07790467473338
 20
-95.20315108731053
 30
0.0
 10
78.03313717587548
 20
-95.2479185872991
 30
0.0
 10
78.03313717587548
 20
-95.30305775395217
 30
0.0
 10
78.03313717587548
 20
-95.35851442060485
 30
0.0
 10
78.07790467473338
 20
-95.40331719837157
 30
0.0
 10
78.1333966177621
 20
-95.40331719837157
 30
0.0
 10
78.18850050524517
 20
-95.40331719837157
 30
0.0
 10
78.23330328187993
 20
-95.35851442060485
 30
0.0
 10
78.23330328187993
 20
-95.30305775395217
 30
0.0
  0
SPLINE
  5
7F
330
1F
100
AcDbEntity
  8
_U+30EC_U+30A4_U+30E4_U+30FC 1
 62
   179
420
  2234388
370
     9
100
AcDbSpline
210
0.0
220
0.0
230
1.0
 70
    11
 71
     3
 72
    17
 73
    13
 74
     0
 42
0.0000000001
 43
0.0000000001
 12
1.0
 22
0.0
 32
0.0
 13
1.0
 23
0.0
 33
0.0
 40
0.0
 40
0.0
 40
0.0
 40
0.0
 40
1.0
 40
1.0
 40
1.0
 40
2.0
 40
2.0
 40
2.0
 40
3.0
 40
3.0
 40
3.0
 40
4.0
 40
4.0
 40
4.0
 40
4.0
 10
74.23319143948684
 20
-81.10304664639092
 30
0.0
 10
74.23319143948684
 20
-81.04794275751568
 30
0.0
 10
74.18842394062895
 20
-81.00313997974928
 30
0.0
 10
74.133284775369
 20
-81.00313997974928
 30
0.0
 10
74.07818088788594
 20
-81.00313997974928
 30
0.0
 10
74.03337811125117
 20
-81.04794275751568
 30
0.0
 10
74.03337811125117
 20
-81.10304664639092
 30
0.0
 10
74.03337811125117
 20
-81.15853859082144
 30
0.0
 10
74.07818088788594
 20
-81.20295331303257
 30
0.0
 10
74.133284775369
 20
-81.20295331303257
 30
0.0
 10
74.18842394062895
 20
-81.20295331303257
 30
0.0
 10
74.23319143948684
 20
-81.15853859082144
 30
0.0
 10
74.23319143948684
 20
-81.10304664639092
 30
0.0
  0
SPLINE
  5
80
330
1F
100
AcDbEntity
  8
_U+30EC_U+30A4_U+30E4_U+30FC 1
 62
   179
420
  2234388
370
     9
100
AcDbSpline
210
0.0
220
0.0
230
1.0
 70
    11
 71
     3
 72
    17
 73
    13
 74
     0
 42
0.0000000001
 43
0.0000000001
 12
1.0
 22
0.0
 32
0.0
 13
1.0
 23
0.0
 33
0.0
 40
0.0
 40
0.0
 40
0.0
 40
0.0
 40
1.0
 40
1.0
 40
1.0
 40
2.0
 40
2.0
 40
2.0
 40
3.0
 40
3.0
 40
3.0
 40
4.0
 40
4.0
 40
4.0
 40
4.0
 10
49.23317152173493
 20
-81.10304664639092
 30
0.0
 10
49.23317152173493
 20
-81.04794275751568
 30
0.0
 10
49.18836874510016
 20
-81.00313997974928
 30
0.0
 10
49.13326485761709
 20
-81.00313997974928
 30
0.0
 10
49.07812569235715
 20
-81.00313997974928
 30
0.0
 10
49.03335819349926
 20
-81.04794275751568
 30
0.0
 10
49.03335819349926
 20
-81.10304664639092
 30
0.0
 10
49.03335819349926
 20
-81.15853859082144
 30
0.0
 10
49.07812569235715
 20
-81.20295331303257
 30
0.0
 10
49.13326485761709
 20
-81.20295331303257
 30
0.0
 10
49.18836874510016
 20
-81.20295331303257
 30
0.0
 10
49.23317152173493
 20
-81.15853859082144
 30
0.0
 10
49.23317152173493
 20
-81.10304664639092
 30
0.0
  0
POLYLINE
  5
81
330
1F
100
AcDbEntity
  8
_U+30EC_U+30A4_U+30E4_U+30FC 1
 62
   179
420
  2234388
370
     9
100
AcDb2dPolyline
 66
     1
 10
0.0
 20
0.0
 30
0.0
  0
VERTEX
  5
82
330
81
100
AcDbEntity
  8
_U+30EC_U+30A4_U+30E4_U+30FC 1
 62
   179
420
  2234388
370
     9
100
AcDbVertex
100
AcDb2dVertex
 10
47.1330501864246
 20
-99.30316969739619
 30
0.0
  0
VERTEX
  5
83
330
81
100
AcDbEntity
  8
_U+30EC_U+30A4_U+30E4_U+30FC 1
 62
   179
420
  2234388
370
     9
100
AcDbVertex
100
AcDb2dVertex
 10
57.13310048685762
 20
-99.30316969739619
 30
0.0
  0
SEQEND
  5
84
330
81
100
AcDbEntity
  8
_U+30EC_U+30A4_U+30E4_U+30FC 1
 62
   179
420
  2234388
370
     9
  0
POLYLINE
  5
85
330
1F
100
AcDbEntity
  8
_U+30EC_U+30A4_U+30E4_U+30FC 1
 62
   179
420
  2234388
370
     9
100
AcDb2dPolyline
 66
     1
 10
0.0
 20
0.0
 30
0.0
  0
VERTEX
  5
86
330
85
100
AcDbEntity
  8
_U+30EC_U+30A4_U+30E4_U+30FC 1
 62
   179
420
  2234388
370
     9
100
AcDbVertex
100
AcDb2dVertex
 10
47.1330501864246
 20
-97.84312830887247
 30
0.0
  0
VERTEX
  5
87
330
85
100
AcDbEntity
  8
_U+30EC_U+30A4_U+30E4_U+30FC 1
 62
   179
420
  2234388
370
     9
100
AcDbVertex
100
AcDb2dVertex
 10
47.1330501864246
 20
-100.3032594193683
 30
0.0
  0
SEQEND
  5
88
330
85
100
AcDbEntity
  8
_U+30EC_U+30A4_U+30E4_U+30FC 1
 62
   179
420
  2234388
370
     9
  0
POLYLINE
  5
89
330
1F
100
AcDbEntity
  8
_U+30EC_U+30A4_U+30E4_U+30FC 1
 62
   179
420
  2234388
370
     9
100
AcDb2dPolyline
 66
     1
 10
0.0
 20
0.0
 30
0.0
  0
VERTEX
  5
8A
330
89
100
AcDbEntity
  8
_U+30EC_U+30A4_U+30E4_U+30FC 1
 62
   179
420
  2234388
370
     9
100
AcDbVertex
100
AcDb2dVertex
 10
57.13310048685762
 20
-97.84312830887247
 30
0.0
  0
VERTEX
  5
8B
330
89
100
AcDbEntity
  8
_U+30EC_U+30A4_U+30E4_U+30FC 1
 62
   179
420
  2234388
370
     9
100
AcDbVertex
100
AcDb2dVertex
 10
57.13310048685762
 20
-100.3032594193683
 30
0.0
  0
SEQEND
  5
8C
330
89
100
AcDbEntity
  8
_U+30EC_U+30A4_U+30E4_U+30FC 1
 62
   179
420
  2234388
370
     9
  0
INSERT
  5
8E
330
1F
100
AcDbEntity
  8
_U+30EC_U+30A4_U+30E4_U+30FC 1
100
AcDbBlockReference
  2
block 2
 10
0.0
 20
0.0
 30
0.0
  0
POLYLINE
  5
96
330
1F
100
AcDbEntity
  8
_U+30EC_U+30A4_U+30E4_U+30FC 1
 62
   179
420
  2234388
370
     9
100
AcDb2dPolyline
 66
     1
 10
0.0
 20
0.0
 30
0.0
  0
VERTEX
  5
97
330
96
100
AcDbEntity
  8
_U+30EC_U+30A4_U+30E4_U+30FC 1
 62
   179
420
  2234388
370
     9
100
AcDbVertex
100
AcDb2dVertex
 10
78.1333966177621
 20
-92.10325747697391
 30
0.0
  0
VERTEX
  5
98
330
96
100
AcDbEntity
  8
_U+30EC_U+30A4_U+30E4_U+30FC 1
 62
   179
420
  2234388
370
     9
100
AcDbVertex
100
AcDb2dVertex
 10
78.1333966177621
 20
-95.30305775395217
 30
0.0
  0
SEQEND
  5
99
330
96
100
AcDbEntity
  8
_U+30EC_U+30A4_U+30E4_U+30FC 1
 62
   179
420
  2234388
370
     9
  0
POLYLINE
  5
9A
330
1F
100
AcDbEntity
  8
_U+30EC_U+30A4_U+30E4_U+30FC 1
 62
   179
420
  2234388
370
     9
100
AcDb2dPolyline
 66
     1
 10
0.0
 20
0.0
 30
0.0
  0
VERTEX
  5
9B
330
9A
100
AcDbEntity
  8
_U+30EC_U+30A4_U+30E4_U+30FC 1
 62
   179
420
  2234388
370
     9
100
AcDbVertex
100
AcDb2dVertex
 10
59.67317097761057
 20
-92.10325747697391
 30
0.0
  0
VERTEX
  5
9C
330
9A
100
AcDbEntity
  8
_U+30EC_U+30A4_U+30E4_U+30FC 1
 62
   179
420
  2234388
370
     9
100
AcDbVertex
100
AcDb2dVertex
 10
79.133168814478
 20
-92.10325747697391
 30
0.0
  0
SEQEND
  5
9D
330
9A
100
AcDbEntity
  8
_U+30EC_U+30A4_U+30E4_U+30FC 1
 62
   179
420
  2234388
370
     9
  0
POLYLINE
  5
9E
330
1F
100
AcDbEntity
  8
_U+30EC_U+30A4_U+30E4_U+30FC 1
 62
   179
420
  2234388
370
     9
100
AcDb2dPolyline
 66
     1
 10
0.0
 20
0.0
 30
0.0
  0
VERTEX
  5
9F
330
9E
100
AcDbEntity
  8
_U+30EC_U+30A4_U+30E4_U+30FC 1
 62
   179
420
  2234388
370
     9
100
AcDbVertex
100
AcDb2dVertex
 10
59.67317097761057
 20
-95.30305775395217
 30
0.0
  0
VERTEX
  5
A0
330
9E
100
AcDbEntity
  8
_U+30EC_U+30A4_U+30E4_U+30FC 1
 62
   179
420
  2234388
370
     9
100
AcDbVertex
100
AcDb2dVertex
 10
79.133168814478
 20
-95.30305775395217
 30
0.0
  0
SEQEND
  5
A1
330
9E
100
AcDbEntity
  8
_U+30EC_U+30A4_U+30E4_U+30FC 1
 62
   179
420
  2234388
370
     9
  0
INSERT
  5
A3
330
1F
100
AcDbEntity
  8
_U+30EC_U+30A4_U+30E4_U+30FC 1
100
AcDbBlockReference
  2
block 3
 10
0.0
 20
0.0
 30
0.0
  0
POLYLINE
  5
B2
330
1F
100
AcDbEntity
  8
_U+30EC_U+30A4_U+30E4_U+30FC 1
 62
   179
420
  2234388
370
     9
100
AcDb2dPolyline
 66
     1
 10
0.0
 20
0.0
 30
0.0
  0
VERTEX
  5
B3
330
B2
100
AcDbEntity
  8
_U+30EC_U+30A4_U+30E4_U+30FC 1
 62
   179
420
  2234388
370
     9
100
AcDbVertex
100
AcDb2dVertex
 10
78.1333966177621
 20
-86.10328358958523
 30
0.0
  0
VERTEX
  5
B4
330
B2
100
AcDbEntity
  8
_U+30EC_U+30A4_U+30E4_U+30FC 1
 62
   179
420
  2234388
370
     9
100
AcDbVertex
100
AcDb2dVertex
 10
78.1333966177621
 20
-85.10315858983525
 30
0.0
  0
SEQEND
  5
B5
330
B2
100
AcDbEntity
  8
_U+30EC_U+30A4_U+30E4_U+30FC 1
 62
   179
420
  2234388
370
     9
  0
POLYLINE
  5
B6
330
1F
100
AcDbEntity
  8
_U+30EC_U+30A4_U+30E4_U+30FC 1
 62
   179
420
  2234388
370
     9
100
AcDb2dPolyline
 66
     1
 10
0.0
 20
0.0
 30
0.0
  0
VERTEX
  5
B7
330
B6
100
AcDbEntity
  8
_U+30EC_U+30A4_U+30E4_U+30FC 1
 62
   179
420
  2234388
370
     9
100
AcDbVertex
100
AcDb2dVertex
 10
76.67335526612196
 20
-85.10315858983525
 30
0.0
  0
VERTEX
  5
B8
330
B6
100
AcDbEntity
  8
_U+30EC_U+30A4_U+30E4_U+30FC 1
 62
   179
420
  2234388
370
     9
100
AcDbVertex
100
AcDb2dVertex
 10
79.133168814478
 20
-85.10315858983525
 30
0.0
  0
SEQEND
  5
B9
330
B6
100
AcDbEntity
  8
_U+30EC_U+30A4_U+30E4_U+30FC 1
 62
   179
420
  2234388
370
     9
  0
INSERT
  5
BB
330
1F
100
AcDbEntity
  8
_U+30EC_U+30A4_U+30E4_U+30FC 1
100
AcDbBlockReference
  2
block 4
 10
0.0
 20
0.0
 30
0.0
  0
POLYLINE
  5
C0
330
1F
100
AcDbEntity
  8
_U+30EC_U+30A4_U+30E4_U+30FC 1
 62
   179
420
  2234388
370
     9
100
AcDb2dPolyline
 66
     1
 10
0.0
 20
0.0
 30
0.0
  0
VERTEX
  5
C1
330
C0
100
AcDbEntity
  8
_U+30EC_U+30A4_U+30E4_U+30FC 1
 62
   179
420
  2234388
370
     9
100
AcDbVertex
100
AcDb2dVertex
 10
49.13326485761709
 20
-81.10304664639092
 30
0.0
  0
VERTEX
  5
C2
330
C0
100
AcDbEntity
  8
_U+30EC_U+30A4_U+30E4_U+30FC 1
 62
   179
420
  2234388
370
     9
100
AcDbVertex
100
AcDb2dVertex
 10
74.133284775369
 20
-81.10304664639092
 30
0.0
  0
SEQEND
  5
C3
330
C0
100
AcDbEntity
  8
_U+30EC_U+30A4_U+30E4_U+30FC 1
 62
   179
420
  2234388
370
     9
  0
POLYLINE
  5
C4
330
1F
100
AcDbEntity
  8
_U+30EC_U+30A4_U+30E4_U+30FC 1
 62
   179
420
  2234388
370
     9
100
AcDb2dPolyline
 66
     1
 10
0.0
 20
0.0
 30
0.0
  0
VERTEX
  5
C5
330
C4
100
AcDbEntity
  8
_U+30EC_U+30A4_U+30E4_U+30FC 1
 62
   179
420
  2234388
370
     9
100
AcDbVertex
100
AcDb2dVertex
 10
49.13326485761709
 20
-82.56308803491463
 30
0.0
  0
VERTEX
  5
C6
330
C4
100
AcDbEntity
  8
_U+30EC_U+30A4_U+30E4_U+30FC 1
 62
   179
420
  2234388
370
     9
100
AcDbVertex
100
AcDb2dVertex
 10
49.13326485761709
 20
-80.10330970219654
 30
0.0
  0
SEQEND
  5
C7
330
C4
100
AcDbEntity
  8
_U+30EC_U+30A4_U+30E4_U+30FC 1
 62
   179
420
  2234388
370
     9
  0
POLYLINE
  5
C8
330
1F
100
AcDbEntity
  8
_U+30EC_U+30A4_U+30E4_U+30FC 1
 62
   179
420
  2234388
370
     9
100
AcDb2dPolyline
 66
     1
 10
0.0
 20
0.0
 30
0.0
  0
VERTEX
  5
C9
330
C8
100
AcDbEntity
  8
_U+30EC_U+30A4_U+30E4_U+30FC 1
 62
   179
420
  2234388
370
     9
100
AcDbVertex
100
AcDb2dVertex
 10
74.133284775369
 20
-82.56308803491463
 30
0.0
  0
VERTEX
  5
CA
330
C8
100
AcDbEntity
  8
_U+30EC_U+30A4_U+30E4_U+30FC 1
 62
   179
420
  2234388
370
     9
100
AcDbVertex
100
AcDb2dVertex
 10
74.133284775369
 20
-80.10330970219654
 30
0.0
  0
SEQEND
  5
CB
330
C8
100
AcDbEntity
  8
_U+30EC_U+30A4_U+30E4_U+30FC 1
 62
   179
420
  2234388
370
     9
  0
INSERT
  5
CD
330
1F
100
AcDbEntity
  8
_U+30EC_U+30A4_U+30E4_U+30FC 1
100
AcDbBlockReference
  2
block 5
 10
0.0
 20
0.0
 30
0.0
  0
POLYLINE
  5
D4
330
1F
100
AcDbEntity
  8
_U+30EC_U+30A4_U+30E4_U+30FC 1
 62
   179
420
  2234388
370
     9
100
AcDb2dPolyline
 66
     1
 10
0.0
 20
0.0
 30
0.0
  0
VERTEX
  5
D5
330
D4
100
AcDbEntity
  8
_U+30EC_U+30A4_U+30E4_U+30FC 1
 62
   179
420
  2234388
370
     9
100
AcDbVertex
100
AcDb2dVertex
 10
78.1333966177621
 20
-86.10328358958523
 30
0.0
  0
VERTEX
  5
D6
330
D4
100
AcDbEntity
  8
_U+30EC_U+30A4_U+30E4_U+30FC 1
 62
   179
420
  2234388
370
     9
100
AcDbVertex
100
AcDb2dVertex
 10
78.1333966177621
 20
-92.10325747697391
 30
0.0
  0
SEQEND
  5
D7
330
D4
100
AcDbEntity
  8
_U+30EC_U+30A4_U+30E4_U+30FC 1
 62
   179
420
  2234388
370
     9
  0
POLYLINE
  5
D8
330
1F
100
AcDbEntity
  8
_U+30EC_U+30A4_U+30E4_U+30FC 1
 62
   179
420
  2234388
370
     9
100
AcDb2dPolyline
 66
     1
 10
0.0
 20
0.0
 30
0.0
  0
VERTEX
  5
D9
330
D8
100
AcDbEntity
  8
_U+30EC_U+30A4_U+30E4_U+30FC 1
 62
   179
420
  2234388
370
     9
100
AcDbVertex
100
AcDb2dVertex
 10
76.67335526612196
 20
-86.10328358958523
 30
0.0
  0
VERTEX
  5
DA
330
D8
100
AcDbEntity
  8
_U+30EC_U+30A4_U+30E4_U+30FC 1
 62
   179
420
  2234388
370
     9
100
AcDbVertex
100
AcDb2dVertex
 10
79.133168814478
 20
-86.10328358958523
 30
0.0
  0
SEQEND
  5
DB
330
D8
100
AcDbEntity
  8
_U+30EC_U+30A4_U+30E4_U+30FC 1
 62
   179
420
  2234388
370
     9
  0
INSERT
  5
DD
330
1F
100
AcDbEntity
  8
_U+30EC_U+30A4_U+30E4_U+30FC 1
100
AcDbBlockReference
  2
block 6
 10
0.0
 20
0.0
 30
0.0
  0
ENDSEC
  0
SECTION
  2
OBJECTS
  0
DICTIONARY
  5
C
330
0
100
AcDbDictionary
281
     1
  3
ACAD_GROUP
350
D
  3
ACAD_LAYOUT
350
1A
  3
ACAD_MATERIAL
350
3B
  3
ACAD_MLEADERSTYLE
350
E4
  3
ACAD_MLINESTYLE
350
17
  3
ACAD_PLOTSETTINGS
350
19
  3
ACAD_PLOTSTYLENAME
350
E
  3
ACAD_TABLESTYLE
350
E3
  3
ACAD_VISUALSTYLE
350
2A
  0
SUN
  5
3F
330
29
100
AcDbSun
 90
        1
290
     0
 63
     7
421
 16777215
 40
1.0
291
     1
 91
  2455826
 92
 54000000
292
     0
 70
     2
 71
   256
280
     1
  0
DICTIONARY
  5
D
102
{ACAD_REACTORS
330
C
102
}
330
C
100
AcDbDictionary
281
     1
  0
DICTIONARY
  5
1A
102
{ACAD_REACTORS
330
C
102
}
330
C
100
AcDbDictionary
281
     1
  3
Layout1
350
1E
  3
Layout2
350
26
  3
Model
350
22
  0
DICTIONARY
  5
3B
102
{ACAD_REACTORS
330
C
102
}
330
C
100
AcDbDictionary
281
     1
  3
ByBlock
350
3D
  3
ByLayer
350
3C
  3
Global
350
3E
  0
DICTIONARY
  5
E4
102
{ACAD_REACTORS
330
C
102
}
330
C
100
AcDbDictionary
281
     1
  0
DICTIONARY
  5
17
102
{ACAD_REACTORS
330
C
102
}
330
C
100
AcDbDictionary
281
     1
  3
Standard
350
18
  0
DICTIONARY
  5
19
102
{ACAD_REACTORS
330
C
102
}
330
C
100
AcDbDictionary
281
     1
  0
ACDBDICTIONARYWDFLT
  5
E
102
{ACAD_REACTORS
330
C
102
}
330
C
100
AcDbDictionary
281
     1
  3
Normal
350
F
100
AcDbDictionaryWithDefault
340
F
  0
DICTIONARY
  5
E3
102
{ACAD_REACTORS
330
C
102
}
330
C
100
AcDbDictionary
281
     1
  0
DICTIONARY
  5
2A
102
{ACAD_REACTORS
330
C
102
}
330
C
100
AcDbDictionary
281
     1
  3
2dWireframe
350
2F
  3
3D Hidden
350
31
  3
3dWireframe
350
30
  3
Basic
350
32
  3
Brighten
350
36
  3
ColorChange
350
3A
  3
Conceptual
350
34
  3
Dim
350
35
  3
Facepattern
350
39
  3
Flat
350
2B
  3
FlatWithEdges
350
2C
  3
Gouraud
350
2D
  3
GouraudWithEdges
350
2E
  3
Linepattern
350
38
  3
Realistic
350
33
  3
Thicken
350
37
  0
LAYOUT
  5
1E
102
{ACAD_REACTORS
330
1A
102
}
330
1A
100
AcDbPlotSettings
  1

  2
none_device
  4

  6

 40
0.0
 41
0.0
 42
0.0
 43
0.0
 44
0.0
 45
0.0
 46
0.0
 47
0.0
 48
0.0
 49
0.0
140
0.0
141
0.0
142
1.0
143
1.0
 70
   688
 72
     0
 73
     0
 74
     5
  7

 75
    16
 76
     0
 77
     2
 78
   300
147
1.0
148
0.0
149
0.0
100
AcDbLayout
  1
Layout1
 70
     1
 71
     1
 10
0.0
 20
0.0
 11
12.0
 21
9.0
 12
0.0
 22
0.0
 32
0.0
 14
1.000000000000000E+20
 24
1.000000000000000E+20
 34
1.000000000000000E+20
 15
-1.000000000000000E+20
 25
-1.000000000000000E+20
 35
-1.000000000000000E+20
146
0.0
 13
0.0
 23
0.0
 33
0.0
 16
1.0
 26
0.0
 36
0.0
 17
0.0
 27
1.0
 37
0.0
 76
     0
330
1B
  0
LAYOUT
  5
26
102
{ACAD_REACTORS
330
1A
102
}
330
1A
100
AcDbPlotSettings
  1

  2
none_device
  4

  6

 40
0.0
 41
0.0
 42
0.0
 43
0.0
 44
0.0
 45
0.0
 46
0.0
 47
0.0
 48
0.0
 49
0.0
140
0.0
141
0.0
142
1.0
143
1.0
 70
   688
 72
     0
 73
     0
 74
     5
  7

 75
    16
 76
     0
 77
     2
 78
   300
147
1.0
148
0.0
149
0.0
100
AcDbLayout
  1
Layout2
 70
     1
 71
     2
 10
0.0
 20
0.0
 11
0.0
 21
0.0
 12
0.0
 22
0.0
 32
0.0
 14
0.0
 24
0.0
 34
0.0
 15
0.0
 25
0.0
 35
0.0
146
0.0
 13
0.0
 23
0.0
 33
0.0
 16
1.0
 26
0.0
 36
0.0
 17
0.0
 27
1.0
 37
0.0
 76
     0
330
23
  0
LAYOUT
  5
22
102
{ACAD_REACTORS
330
1A
102
}
330
1A
100
AcDbPlotSettings
  1

  2
none_device
  4

  6

 40
0.0
 41
0.0
 42
0.0
 43
0.0
 44
0.0
 45
0.0
 46
0.0
 47
0.0
 48
0.0
 49
0.0
140
0.0
141
0.0
142
1.0
143
1.0
 70
  1712
 72
     0
 73
     0
 74
     0
  7

 75
     0
 76
     0
 77
     2
 78
   300
147
1.0
148
0.0
149
0.0
100
AcDbLayout
  1
Model
 70
     1
 71
     0
 10
0.0
 20
0.0
 11
12.0
 21
9.0
 12
0.0
 22
0.0
 32
0.0
 14
1.000000000000000E+20
 24
1.000000000000000E+20
 34
1.000000000000000E+20
 15
-1.000000000000000E+20
 25
-1.000000000000000E+20
 35
-1.000000000000000E+20
146
0.0
 13
0.0
 23
0.0
 33
0.0
 16
1.0
 26
0.0
 36
0.0
 17
0.0
 27
1.0
 37
0.0
 76
     0
330
1F
331
29
  0
MATERIAL
  5
3D
102
{ACAD_REACTORS
330
3B
102
}
330
3B
100
AcDbMaterial
  1
ByBlock
 72
     1
 94
      127
  0
MATERIAL
  5
3C
102
{ACAD_REACTORS
330
3B
102
}
330
3B
100
AcDbMaterial
  1
ByLayer
 72
     1
 94
      127
  0
MATERIAL
  5
3E
102
{ACAD_REACTORS
330
3B
102
}
330
3B
100
AcDbMaterial
  1
Global
 72
     1
 94
      127
  0
MLINESTYLE
  5
18
102
{ACAD_REACTORS
330
17
102
}
330
17
100
AcDbMlineStyle
  2
Standard
 70
     0
  3

 62
   256
 51
90.0
 52
90.0
 71
     2
 49
0.5
 62
   256
  6
BYLAYER
 49
-0.5
 62
   256
  6
BYLAYER
  0
ACDBPLACEHOLDER
  5
F
102
{ACAD_REACTORS
330
E
102
}
330
E
  0
VISUALSTYLE
  5
2F
102
{ACAD_REACTORS
330
2A
102
}
330
2A
100
AcDbVisualStyle
  2
2dWireframe
 70
     4
177
     2
291
     0
 71
     0
176
     1
 72
     2
176
     1
 73
     0
176
     1
 90
        0
176
     1
 40
-0.6
176
     1
 41
-30.0
176
     1
 62
     5
 63
     7
421
 16777215
176
     1
 74
     1
176
     1
 91
        4
176
     1
 64
     7
176
     1
 65
   257
176
     1
 75
     1
176
     1
175
     1
176
     1
 42
1.0
176
     1
 92
        0
176
     1
 66
   257
176
     1
 43
1.0
176
     1
 76
     1
176
     1
 77
     6
176
     1
 78
     2
176
     1
 67
     7
176
     1
 79
     5
176
     1
170
     0
176
     1
171
     0
176
     1
290
     0
176
     1
 93
        1
176
     1
 44
0.0
176
     1
173
     0
176
     1
  0
VISUALSTYLE
  5
31
102
{ACAD_REACTORS
330
2A
102
}
330
2A
100
AcDbVisualStyle
  2
3D Hidden
 70
     6
177
     2
291
     0
 71
     1
176
     1
 72
     2
176
     1
 73
     2
176
     1
 90
        0
176
     1
 40
-0.6
176
     1
 41
-30.0
176
     1
 62
     5
 63
     7
421
 16777215
176
     1
 74
     2
176
     1
 91
        2
176
     1
 64
     7
176
     1
 65
   257
176
     1
 75
     2
176
     1
175
     1
176
     1
 42
40.0
176
     1
 92
        0
176
     1
 66
   257
176
     1
 43
1.0
176
     1
 76
     1
176
     1
 77
     6
176
     1
 78
     2
176
     1
 67
     7
176
     1
 79
     3
176
     1
170
     0
176
     1
171
     0
176
     1
290
     0
176
     1
 93
        1
176
     1
 44
0.0
176
     1
173
     0
176
     1
  0
VISUALSTYLE
  5
30
102
{ACAD_REACTORS
330
2A
102
}
330
2A
100
AcDbVisualStyle
  2
3dWireframe
 70
     5
177
     2
291
     0
 71
     0
176
     1
 72
     2
176
     1
 73
     0
176
     1
 90
        0
176
     1
 40
-0.6
176
     1
 41
-30.0
176
     1
 62
     5
 63
     7
421
 16777215
176
     1
 74
     1
176
     1
 91
        4
176
     1
 64
     7
176
     1
 65
   257
176
     1
 75
     1
176
     1
175
     1
176
     1
 42
1.0
176
     1
 92
        0
176
     1
 66
   257
176
     1
 43
1.0
176
     1
 76
     1
176
     1
 77
     6
176
     1
 78
     2
176
     1
 67
     7
176
     1
 79
     5
176
     1
170
     0
176
     1
171
     0
176
     1
290
     0
176
     1
 93
        1
176
     1
 44
0.0
176
     1
173
     0
176
     1
  0
VISUALSTYLE
  5
32
102
{ACAD_REACTORS
330
2A
102
}
330
2A
100
AcDbVisualStyle
  2
Basic
 70
     7
177
     2
291
     1
 71
     1
176
     1
 72
     0
176
     1
 73
     1
176
     1
 90
        0
176
     1
 40
-0.6
176
     1
 41
-30.0
176
     1
 62
     5
 63
     7
421
 16777215
176
     1
 74
     0
176
     1
 91
        4
176
     1
 64
     7
176
     1
 65
   257
176
     1
 75
     1
176
     1
175
     1
176
     1
 42
1.0
176
     1
 92
        8
176
     1
 66
     7
176
     1
 43
1.0
176
     1
 76
     1
176
     1
 77
     6
176
     1
 78
     2
176
     1
 67
     7
176
     1
 79
     5
176
     1
170
     0
176
     1
171
     0
176
     1
290
     0
176
     1
 93
        1
176
     1
 44
0.0
176
     1
173
     0
176
     1
  0
VISUALSTYLE
  5
36
102
{ACAD_REACTORS
330
2A
102
}
330
2A
100
AcDbVisualStyle
  2
Brighten
 70
    12
177
     2
291
     1
 71
     2
176
     1
 72
     2
176
     1
 73
     0
176
     1
 90
        0
176
     1
 40
-0.6
176
     1
 41
-30.0
176
     1
 62
     5
 63
     7
421
 16777215
176
     1
 74
     1
176
     1
 91
        4
176
     1
 64
     7
176
     1
 65
   257
176
     1
 75
     1
176
     1
175
     1
176
     1
 42
1.0
176
     1
 92
        8
176
     1
 66
     7
176
     1
 43
1.0
176
     1
 76
     1
176
     1
 77
     6
176
     1
 78
     2
176
     1
 67
     7
176
     1
 79
     5
176
     1
170
     0
176
     1
171
     0
176
     1
290
     0
176
     1
 93
        1
176
     1
 44
50.0
176
     1
173
     0
176
     1
  0
VISUALSTYLE
  5
3A
102
{ACAD_REACTORS
330
2A
102
}
330
2A
100
AcDbVisualStyle
  2
ColorChange
 70
    16
177
     2
291
     1
 71
     2
176
     1
 72
     2
176
     1
 73
     3
176
     1
 90
        0
176
     1
 40
-0.6
176
     1
 41
-30.0
176
     1
 62
     5
 63
     8
421
  8421504
176
     1
 74
     1
176
     1
 91
        4
176
     1
 64
     7
176
     1
 65
   257
176
     1
 75
     1
176
     1
175
     1
176
     1
 42
1.0
176
     1
 92
        8
176
     1
 66
     8
424
  8421504
176
     1
 43
1.0
176
     1
 76
     1
176
     1
 77
     6
176
     1
 78
     2
176
     1
 67
     7
176
     1
 79
     5
176
     1
170
     0
176
     1
171
     0
176
     1
290
     0
176
     1
 93
        1
176
     1
 44
0.0
176
     1
173
     0
176
     1
  0
VISUALSTYLE
  5
34
102
{ACAD_REACTORS
330
2A
102
}
330
2A
100
AcDbVisualStyle
  2
Conceptual
 70
     9
177
     2
291
     0
 71
     3
176
     1
 72
     2
176
     1
 73
     0
176
     1
 90
        0
176
     1
 40
-0.6
176
     1
 41
-30.0
176
     1
 62
     5
 63
     7
421
 16777215
176
     1
 74
     2
176
     1
 91
        2
176
     1
 64
     7
176
     1
 65
   257
176
     1
 75
     1
176
     1
175
     1
176
     1
 42
40.0
176
     1
 92
        8
176
     1
 66
     7
176
     1
 43
1.0
176
     1
 76
     1
176
     1
 77
     6
176
     1
 78
     2
176
     1
 67
     7
176
     1
 79
     3
176
     1
170
     0
176
     1
171
     0
176
     1
290
     0
176
     1
 93
        1
176
     1
 44
0.0
176
     1
173
     0
176
     1
  0
VISUALSTYLE
  5
35
102
{ACAD_REACTORS
330
2A
102
}
330
2A
100
AcDbVisualStyle
  2
Dim
 70
    11
177
     2
291
     1
 71
     2
176
     1
 72
     2
176
     1
 73
     0
176
     1
 90
        0
176
     1
 40
-0.6
176
     1
 41
-30.0
176
     1
 62
     5
 63
     7
421
 16777215
176
     1
 74
     1
176
     1
 91
        4
176
     1
 64
     7
176
     1
 65
   257
176
     1
 75
     1
176
     1
175
     1
176
     1
 42
1.0
176
     1
 92
        8
176
     1
 66
     7
176
     1
 43
1.0
176
     1
 76
     1
176
     1
 77
     6
176
     1
 78
     2
176
     1
 67
     7
176
     1
 79
     5
176
     1
170
     0
176
     1
171
     0
176
     1
290
     0
176
     1
 93
        1
176
     1
 44
-50.0
176
     1
173
     0
176
     1
  0
VISUALSTYLE
  5
39
102
{ACAD_REACTORS
330
2A
102
}
330
2A
100
AcDbVisualStyle
  2
Facepattern
 70
    15
177
     2
291
     1
 71
     2
176
     1
 72
     2
176
     1
 73
     0
176
     1
 90
        0
176
     1
 40
-0.6
176
     1
 41
-30.0
176
     1
 62
     5
 63
     7
421
 16777215
176
     1
 74
     1
176
     1
 91
        4
176
     1
 64
     7
176
     1
 65
   257
176
     1
 75
     1
176
     1
175
     1
176
     1
 42
1.0
176
     1
 92
        8
176
     1
 66
     7
176
     1
 43
1.0
176
     1
 76
     1
176
     1
 77
     6
176
     1
 78
     2
176
     1
 67
     7
176
     1
 79
     5
176
     1
170
     0
176
     1
171
     0
176
     1
290
     0
176
     1
 93
        1
176
     1
 44
0.0
176
     1
173
     0
176
     1
  0
VISUALSTYLE
  5
2B
102
{ACAD_REACTORS
330
2A
102
}
330
2A
100
AcDbVisualStyle
  2
Flat
 70
     0
177
     2
291
     1
 71
     2
176
     1
 72
     1
176
     1
 73
     1
176
     1
 90
        2
176
     1
 40
-0.6
176
     1
 41
30.0
176
     1
 62
     5
 63
     7
421
 16777215
176
     1
 74
     0
176
     1
 91
        4
176
     1
 64
     7
176
     1
 65
   257
176
     1
 75
     1
176
     1
175
     1
176
     1
 42
1.0
176
     1
 92
        8
176
     1
 66
     7
176
     1
 43
1.0
176
     1
 76
     1
176
     1
 77
     6
176
     1
 78
     2
176
     1
 67
     7
176
     1
 79
     5
176
     1
170
     0
176
     1
171
     0
176
     1
290
     0
176
     1
 93
       13
176
     1
 44
0.0
176
     1
173
     0
176
     1
  0
VISUALSTYLE
  5
2C
102
{ACAD_REACTORS
330
2A
102
}
330
2A
100
AcDbVisualStyle
  2
FlatWithEdges
 70
     1
177
     2
291
     1
 71
     2
176
     1
 72
     1
176
     1
 73
     1
176
     1
 90
        2
176
     1
 40
-0.6
176
     1
 41
30.0
176
     1
 62
     5
 63
     7
421
 16777215
176
     1
 74
     1
176
     1
 91
        4
176
     1
 64
     7
176
     1
 65
   257
176
     1
 75
     1
176
     1
175
     1
176
     1
 42
1.0
176
     1
 92
        0
176
     1
 66
   257
176
     1
 43
1.0
176
     1
 76
     1
176
     1
 77
     6
176
     1
 78
     2
176
     1
 67
     7
176
     1
 79
     5
176
     1
170
     0
176
     1
171
     0
176
     1
290
     0
176
     1
 93
       13
176
     1
 44
0.0
176
     1
173
     0
176
     1
  0
VISUALSTYLE
  5
2D
102
{ACAD_REACTORS
330
2A
102
}
330
2A
100
AcDbVisualStyle
  2
Gouraud
 70
     2
177
     2
291
     1
 71
     2
176
     1
 72
     2
176
     1
 73
     1
176
     1
 90
        2
176
     1
 40
-0.6
176
     1
 41
30.0
176
     1
 62
     5
 63
     7
421
 16777215
176
     1
 74
     0
176
     1
 91
        4
176
     1
 64
     7
176
     1
 65
   257
176
     1
 75
     1
176
     1
175
     1
176
     1
 42
1.0
176
     1
 92
        0
176
     1
 66
     7
176
     1
 43
1.0
176
     1
 76
     1
176
     1
 77
     6
176
     1
 78
     2
176
     1
 67
     7
176
     1
 79
     5
176
     1
170
     0
176
     1
171
     0
176
     1
290
     0
176
     1
 93
       13
176
     1
 44
0.0
176
     1
173
     0
176
     1
  0
VISUALSTYLE
  5
2E
102
{ACAD_REACTORS
330
2A
102
}
330
2A
100
AcDbVisualStyle
  2
GouraudWithEdges
 70
     3
177
     2
291
     1
 71
     2
176
     1
 72
     2
176
     1
 73
     1
176
     1
 90
        2
176
     1
 40
-0.6
176
     1
 41
30.0
176
     1
 62
     5
 63
     7
421
 16777215
176
     1
 74
     1
176
     1
 91
        4
176
     1
 64
     7
176
     1
 65
   257
176
     1
 75
     1
176
     1
175
     1
176
     1
 42
1.0
176
     1
 92
        0
176
     1
 66
   257
176
     1
 43
1.0
176
     1
 76
     1
176
     1
 77
     6
176
     1
 78
     2
176
     1
 67
     7
176
     1
 79
     5
176
     1
170
     0
176
     1
171
     0
176
     1
290
     0
176
     1
 93
       13
176
     1
 44
0.0
176
     1
173
     0
176
     1
  0
VISUALSTYLE
  5
38
102
{ACAD_REACTORS
330
2A
102
}
330
2A
100
AcDbVisualStyle
  2
Linepattern
 70
    14
177
     2
291
     1
 71
     2
176
     1
 72
     2
176
     1
 73
     0
176
     1
 90
        0
176
     1
 40
-0.6
176
     1
 41
-30.0
176
     1
 62
     5
 63
     7
421
 16777215
176
     1
 74
     1
176
     1
 91
        4
176
     1
 64
     7
176
     1
 65
   257
176
     1
 75
     7
176
     1
175
     7
176
     1
 42
1.0
176
     1
 92
        8
176
     1
 66
     7
176
     1
 43
1.0
176
     1
 76
     1
176
     1
 77
     6
176
     1
 78
     2
176
     1
 67
     7
176
     1
 79
     5
176
     1
170
     0
176
     1
171
     0
176
     1
290
     0
176
     1
 93
        1
176
     1
 44
0.0
176
     1
173
     0
176
     1
  0
VISUALSTYLE
  5
33
102
{ACAD_REACTORS
330
2A
102
}
330
2A
100
AcDbVisualStyle
  2
Realistic
 70
     8
177
     2
291
     0
 71
     2
176
     1
 72
     2
176
     1
 73
     0
176
     1
 90
        0
176
     1
 40
-0.6
176
     1
 41
-30.0
176
     1
 62
     5
 63
     7
421
 16777215
176
     1
 74
     1
176
     1
 91
        0
176
     1
 64
     7
176
     1
 65
   257
176
     1
 75
     1
176
     1
175
     1
176
     1
 42
1.0
176
     1
 92
        8
176
     1
 66
     8
424
  7895160
176
     1
 43
1.0
176
     1
 76
     1
176
     1
 77
     6
176
     1
 78
     2
176
     1
 67
     7
176
     1
 79
     5
176
     1
170
     0
176
     1
171
     0
176
     1
290
     0
176
     1
 93
       13
176
     1
 44
0.0
176
     1
173
     0
176
     1
  0
VISUALSTYLE
  5
37
102
{ACAD_REACTORS
330
2A
102
}
330
2A
100
AcDbVisualStyle
  2
Thicken
 70
    13
177
     2
291
     1
 71
     2
176
     1
 72
     2
176
     1
 73
     0
176
     1
 90
        0
176
     1
 40
-0.6
176
     1
 41
-30.0
176
     1
 62
     5
 63
     7
421
 16777215
176
     1
 74
     1
176
     1
 91
        4
176
     1
 64
     7
176
     1
 65
   257
176
     1
 75
     1
176
     1
175
     1
176
     1
 42
1.0
176
     1
 92
       12
176
     1
 66
     7
176
     1
 43
1.0
176
     1
 76
     1
176
     1
 77
     6
176
     1
 78
     2
176
     1
 67
     7
176
     1
 79
     5
176
     1
170
     0
176
     1
171
     0
176
     1
290
     0
176
     1
 93
        1
176
     1
 44
0.0
176
     1
173
     0
176
     1
  0
ENDSEC
  0
EOF
