  0
SECTION
  2
HEADER
  9
$ACADVER
  1
AC1024
  9
$ACADMAINTVER
 70
     6
  9
$DWGCODEPAGE
  3
UNDEFINED
  9
$INSBASE
 10
0.0
 20
0.0
 30
0.0
  9
$EXTMIN
 10
1.000000000000000E+20
 20
1.000000000000000E+20
 30
1.000000000000000E+20
  9
$EXTMAX
 10
-1.000000000000000E+20
 20
-1.000000000000000E+20
 30
-1.000000000000000E+20
  9
$LIMMIN
 10
0.0
 20
0.0
  9
$LIMMAX
 10
12.0
 20
9.0
  9
$ORTHOMODE
 70
     0
  9
$REGENMODE
 70
     1
  9
$FILLMODE
 70
     1
  9
$QTEXTMODE
 70
     0
  9
$MIRRTEXT
 70
     1
  9
$LTSCALE
 40
1.0
  9
$ATTMODE
 70
     1
  9
$TEXTSIZE
 40
0.2
  9
$TRACEWID
 40
0.05
  9
$TEXTSTYLE
  7
Standard
  9
$CLAYER
  8
0
  9
$CELTYPE
  6
ByLayer
  9
$CECOLOR
 62
   256
  9
$CELTSCALE
 40
1.0
  9
$DISPSILH
 70
     0
  9
$DIMSCALE
 40
1.0
  9
$DIMASZ
 40
0.18
  9
$DIMEXO
 40
0.0625
  9
$DIMDLI
 40
0.38
  9
$DIMRND
 40
0.0
  9
$DIMDLE
 40
0.0
  9
$DIMEXE
 40
0.18
  9
$DIMTP
 40
0.0
  9
$DIMTM
 40
0.0
  9
$DIMTXT
 40
0.18
  9
$DIMCEN
 40
0.09
  9
$DIMTSZ
 40
0.0
  9
$DIMTOL
 70
     0
  9
$DIMLIM
 70
     0
  9
$DIMTIH
 70
     1
  9
$DIMTOH
 70
     1
  9
$DIMSE1
 70
     0
  9
$DIMSE2
 70
     0
  9
$DIMTAD
 70
     0
  9
$DIMZIN
 70
     0
  9
$DIMBLK
  1

  9
$DIMASO
 70
     1
  9
$DIMSHO
 70
     1
  9
$DIMPOST
  1

  9
$DIMAPOST
  1

  9
$DIMALT
 70
     0
  9
$DIMALTD
 70
     2
  9
$DIMALTF
 40
25.4
  9
$DIMLFAC
 40
1.0
  9
$DIMTOFL
 70
     0
  9
$DIMTVP
 40
0.0
  9
$DIMTIX
 70
     0
  9
$DIMSOXD
 70
     0
  9
$DIMSAH
 70
     0
  9
$DIMBLK1
  1

  9
$DIMBLK2
  1

  9
$DIMSTYLE
  2
Standard
  9
$DIMCLRD
 70
     0
  9
$DIMCLRE
 70
     0
  9
$DIMCLRT
 70
     0
  9
$DIMTFAC
 40
1.0
  9
$DIMGAP
 40
0.09
  9
$DIMJUST
 70
     0
  9
$DIMSD1
 70
     0
  9
$DIMSD2
 70
     0
  9
$DIMTOLJ
 70
     1
  9
$DIMTZIN
 70
     0
  9
$DIMALTZ
 70
     0
  9
$DIMALTTZ
 70
     0
  9
$DIMUPT
 70
     0
  9
$DIMDEC
 70
     4
  9
$DIMTDEC
 70
     4
  9
$DIMALTU
 70
     2
  9
$DIMALTTD
 70
     2
  9
$DIMTXSTY
  7
Standard
  9
$DIMAUNIT
 70
     0
  9
$DIMADEC
 70
     0
  9
$DIMALTRND
 40
0.0
  9
$DIMAZIN
 70
     0
  9
$DIMDSEP
 70
    46
  9
$DIMATFIT
 70
     3
  9
$DIMFRAC
 70
     0
  9
$DIMLDRBLK
  1

  9
$DIMLUNIT
 70
     2
  9
$DIMLWD
 70
    -2
  9
$DIMLWE
 70
    -2
  9
$DIMTMOVE
 70
     0
  9
$DIMFXL
 40
1.0
  9
$DIMFXLON
 70
     0
  9
$DIMJOGANG
 40
0.7853981633974483
  9
$DIMTFILL
 70
     0
  9
$DIMTFILLCLR
 70
     0
  9
$DIMARCSYM
 70
     0
  9
$DIMLTYPE
  6

  9
$DIMLTEX1
  6

  9
$DIMLTEX2
  6

  9
$DIMTXTDIRECTION
 70
     0
  9
$LUNITS
 70
     2
  9
$LUPREC
 70
     4
  9
$SKETCHINC
 40
0.1
  9
$FILLETRAD
 40
0.5
  9
$AUNITS
 70
     0
  9
$AUPREC
 70
     0
  9
$MENU
  1
.
  9
$ELEVATION
 40
0.0
  9
$PELEVATION
 40
0.0
  9
$THICKNESS
 40
0.0
  9
$LIMCHECK
 70
     0
  9
$CHAMFERA
 40
0.5
  9
$CHAMFERB
 40
0.5
  9
$CHAMFERC
 40
1.0
  9
$CHAMFERD
 40
0.0
  9
$SKPOLY
 70
     0
  9
$TDCREATE
 40
2457917.588437488
  9
$TDUCREATE
 40
2457917.2134375
  9
$TDUPDATE
 40
2457917.588437488
  9
$TDUUPDATE
 40
2457917.2134375
  9
$TDINDWG
 40
0.0000000116
  9
$TDUSRTIMER
 40
0.0000000116
  9
$USRTIMER
 70
     1
  9
$ANGBASE
 50
0.0
  9
$ANGDIR
 70
     0
  9
$PDMODE
 70
     0
  9
$PDSIZE
 40
0.0
  9
$PLINEWID
 40
0.0
  9
$SPLFRAME
 70
     0
  9
$SPLINETYPE
 70
     6
  9
$SPLINESEGS
 70
     8
  9
$HANDSEED
  5
F7
  9
$SURFTAB1
 70
     6
  9
$SURFTAB2
 70
     6
  9
$SURFTYPE
 70
     6
  9
$SURFU
 70
     6
  9
$SURFV
 70
     6
  9
$UCSBASE
  2

  9
$UCSNAME
  2

  9
$UCSORG
 10
0.0
 20
0.0
 30
0.0
  9
$UCSXDIR
 10
1.0
 20
0.0
 30
0.0
  9
$UCSYDIR
 10
0.0
 20
1.0
 30
0.0
  9
$UCSORTHOREF
  2

  9
$UCSORTHOVIEW
 70
     0
  9
$UCSORGTOP
 10
0.0
 20
0.0
 30
0.0
  9
$UCSORGBOTTOM
 10
0.0
 20
0.0
 30
0.0
  9
$UCSORGLEFT
 10
0.0
 20
0.0
 30
0.0
  9
$UCSORGRIGHT
 10
0.0
 20
0.0
 30
0.0
  9
$UCSORGFRONT
 10
0.0
 20
0.0
 30
0.0
  9
$UCSORGBACK
 10
0.0
 20
0.0
 30
0.0
  9
$PUCSBASE
  2

  9
$PUCSNAME
  2

  9
$PUCSORG
 10
0.0
 20
0.0
 30
0.0
  9
$PUCSXDIR
 10
1.0
 20
0.0
 30
0.0
  9
$PUCSYDIR
 10
0.0
 20
1.0
 30
0.0
  9
$PUCSORTHOREF
  2

  9
$PUCSORTHOVIEW
 70
     0
  9
$PUCSORGTOP
 10
0.0
 20
0.0
 30
0.0
  9
$PUCSORGBOTTOM
 10
0.0
 20
0.0
 30
0.0
  9
$PUCSORGLEFT
 10
0.0
 20
0.0
 30
0.0
  9
$PUCSORGRIGHT
 10
0.0
 20
0.0
 30
0.0
  9
$PUCSORGFRONT
 10
0.0
 20
0.0
 30
0.0
  9
$PUCSORGBACK
 10
0.0
 20
0.0
 30
0.0
  9
$USERI1
 70
     0
  9
$USERI2
 70
     0
  9
$USERI3
 70
     0
  9
$USERI4
 70
     0
  9
$USERI5
 70
     0
  9
$USERR1
 40
0.0
  9
$USERR2
 40
0.0
  9
$USERR3
 40
0.0
  9
$USERR4
 40
0.0
  9
$USERR5
 40
0.0
  9
$WORLDVIEW
 70
     1
  9
$SHADEDGE
 70
     3
  9
$SHADEDIF
 70
    70
  9
$TILEMODE
 70
     1
  9
$MAXACTVP
 70
    64
  9
$PINSBASE
 10
0.0
 20
0.0
 30
0.0
  9
$PLIMCHECK
 70
     0
  9
$PEXTMIN
 10
1.000000000000000E+20
 20
1.000000000000000E+20
 30
1.000000000000000E+20
  9
$PEXTMAX
 10
-1.000000000000000E+20
 20
-1.000000000000000E+20
 30
-1.000000000000000E+20
  9
$PLIMMIN
 10
0.0
 20
0.0
  9
$PLIMMAX
 10
12.0
 20
9.0
  9
$UNITMODE
 70
     0
  9
$VISRETAIN
 70
     1
  9
$PLINEGEN
 70
     0
  9
$PSLTSCALE
 70
     1
  9
$TREEDEPTH
 70
  3020
  9
$CMLSTYLE
  2
Standard
  9
$CMLJUST
 70
     0
  9
$CMLSCALE
 40
1.0
  9
$PROXYGRAPHICS
 70
     1
  9
$MEASUREMENT
 70
     0
  9
$CELWEIGHT
370
    -1
  9
$ENDCAPS
280
     0
  9
$JOINSTYLE
280
     0
  9
$LWDISPLAY
290
     1
  9
$INSUNITS
 70
     1
  9
$HYPERLINKBASE
  1

  9
$STYLESHEET
  1

  9
$XEDIT
290
     1
  9
$CEPSNTYPE
380
     0
  9
$PSTYLEMODE
290
     1
  9
$FINGERPRINTGUID
  2
{51B2B527-2723-2590-0B51-97C458B3F510}
  9
$VERSIONGUID
  2
{FAEB1C32-E019-11D5-929B-00C0DF256EC4}
  9
$EXTNAMES
290
     1
  9
$PSVPSCALE
 40
0.0
  9
$OLESTARTUP
290
     0
  9
$SORTENTS
280
   127
  9
$INDEXCTL
280
     0
  9
$HIDETEXT
280
     1
  9
$XCLIPFRAME
280
     2
  9
$HALOGAP
280
     0
  9
$OBSCOLOR
 70
   257
  9
$OBSLTYPE
280
     0
  9
$INTERSECTIONDISPLAY
280
     0
  9
$INTERSECTIONCOLOR
 70
   257
  9
$DIMASSOC
280
     2
  9
$PROJECTNAME
  1

  9
$CAMERADISPLAY
290
     0
  9
$LENSLENGTH
 40
50.0
  9
$CAMERAHEIGHT
 40
0.0
  9
$STEPSPERSEC
 40
2.0
  9
$STEPSIZE
 40
6.0
  9
$3DDWFPREC
 40
2.0
  9
$PSOLWIDTH
 40
0.25
  9
$PSOLHEIGHT
 40
4.0
  9
$LOFTANG1
 40
1.570796326794897
  9
$LOFTANG2
 40
1.570796326794897
  9
$LOFTMAG1
 40
0.0
  9
$LOFTMAG2
 40
0.0
  9
$LOFTPARAM
 70
     7
  9
$LOFTNORMALS
280
     1
  9
$LATITUDE
 40
37.795
  9
$LONGITUDE
 40
-122.394
  9
$NORTHDIRECTION
 40
0.0
  9
$TIMEZONE
 70
 -8000
  9
$LIGHTGLYPHDISPLAY
280
     1
  9
$TILEMODELIGHTSYNCH
280
     1
  9
$CMATERIAL
347
3C
  9
$SOLIDHIST
280
     1
  9
$SHOWHIST
280
     1
  9
$DWFFRAME
280
     2
  9
$DGNFRAME
280
     2
  9
$REALWORLDSCALE
290
     1
  9
$INTERFERECOLOR
 62
   256
  9
$CSHADOW
280
     0
  9
$SHADOWPLANELOCATION
 40
0.0
  0
ENDSEC
  0
SECTION
  2
CLASSES
  0
CLASS
  1
ACDBDICTIONARYWDFLT
  2
AcDbDictionaryWithDefault
  3
ObjectDBX Classes
 90
        0
 91
        4
280
     0
281
     0
  0
CLASS
  1
VISUALSTYLE
  2
AcDbVisualStyle
  3
ObjectDBX Classes
 90
     4095
 91
        4
280
     0
281
     0
  0
CLASS
  1
MATERIAL
  2
AcDbMaterial
  3
ObjectDBX Classes
 90
     1153
 91
        4
280
     0
281
     0
  0
CLASS
  1
SUN
  2
AcDbSun
  3
SCENEOE
 90
     1024
 91
        4
280
     0
281
     0
  0
ENDSEC
  0
SECTION
  2
TABLES
  0
TABLE
  2
VPORT
  5
8
330
0
100
AcDbSymbolTable
 70
     1
  0
VPORT
  5
29
330
8
100
AcDbSymbolTableRecord
100
AcDbViewportTableRecord
  2
*Active
 70
     0
 10
0.0
 20
0.0
 11
1.0
 21
1.0
 12
0.0
 22
0.0
 13
0.0
 23
0.0
 14
0.5
 24
0.5
 15
0.5
 25
0.5
 16
0.0
 26
0.0
 36
1.0
 17
63.499999984125
 27
-89.00059456108309
 37
0.0
 40
178.0011891221662
 41
0.7134783795241226
 42
50.0
 43
0.0
 44
0.0
 50
0.0
 51
0.0
 71
     0
 72
   100
 73
     1
 74
     3
 75
     0
 76
     0
 77
     0
 78
     0
281
     0
 65
     1
110
0.0
120
0.0
130
0.0
111
1.0
121
0.0
131
0.0
112
0.0
122
1.0
132
0.0
 79
     0
146
0.0
 60
     3
 61
     5
292
     1
282
     1
141
0.0
142
0.0
 63
   250
361
3F
  0
ENDTAB
  0
TABLE
  2
LTYPE
  5
5
330
0
100
AcDbSymbolTable
 70
     1
  0
LTYPE
  5
14
330
5
100
AcDbSymbolTableRecord
100
AcDbLinetypeTableRecord
  2
ByBlock
 70
     0
  3

 72
    65
 73
     0
 40
0.0
  0
LTYPE
  5
15
330
5
100
AcDbSymbolTableRecord
100
AcDbLinetypeTableRecord
  2
ByLayer
 70
     0
  3

 72
    65
 73
     0
 40
0.0
  0
LTYPE
  5
16
330
5
100
AcDbSymbolTableRecord
100
AcDbLinetypeTableRecord
  2
Continuous
 70
     0
  3
Solid line
 72
    65
 73
     0
 40
0.0
  0
ENDTAB
  0
TABLE
  2
LAYER
  5
2
330
0
100
AcDbSymbolTable
 70
     2
  0
LAYER
  5
10
330
2
100
AcDbSymbolTableRecord
100
AcDbLayerTableRecord
  2
0
 70
     0
 62
     7
  6
Continuous
370
    -3
390
F
347
3E
  0
LAYER
  5
40
330
2
100
AcDbSymbolTableRecord
100
AcDbLayerTableRecord
  2
_U+30EC_U+30A4_U+30E4_U+30FC 1
 70
     0
 62
     7
  6
Continuous
370
    -3
390
F
347
3E
  0
ENDTAB
  0
TABLE
  2
STYLE
  5
3
330
0
100
AcDbSymbolTable
 70
     1
  0
STYLE
  5
11
330
3
100
AcDbSymbolTableRecord
100
AcDbTextStyleTableRecord
  2
Standard
 70
     0
 40
0.0
 41
1.0
 50
0.0
 71
     0
 42
0.2
  3
txt
  4

  0
ENDTAB
  0
TABLE
  2
VIEW
  5
6
330
0
100
AcDbSymbolTable
 70
     0
  0
ENDTAB
  0
TABLE
  2
UCS
  5
7
330
0
100
AcDbSymbolTable
 70
     0
  0
ENDTAB
  0
TABLE
  2
APPID
  5
9
330
0
100
AcDbSymbolTable
 70
     1
  0
APPID
  5
12
330
9
100
AcDbSymbolTableRecord
100
AcDbRegAppTableRecord
  2
ACAD
 70
     0
  0
ENDTAB
  0
TABLE
  2
DIMSTYLE
  5
A
330
0
100
AcDbSymbolTable
 70
     1
100
AcDbDimStyleTable
  0
DIMSTYLE
105
27
330
A
100
AcDbSymbolTableRecord
100
AcDbDimStyleTableRecord
  2
Standard
 70
     0
178
     0
340
11
  0
ENDTAB
  0
TABLE
  2
BLOCK_RECORD
  5
1
330
0
100
AcDbSymbolTable
 70
     6
  0
BLOCK_RECORD
  5
1F
330
1
100
AcDbSymbolTableRecord
100
AcDbBlockTableRecord
  2
*Model_Space
340
22
 70
     0
280
     1
281
     0
  0
BLOCK_RECORD
  5
1B
330
1
100
AcDbSymbolTableRecord
100
AcDbBlockTableRecord
  2
*Paper_Space
340
1E
 70
     0
280
     1
281
     0
  0
BLOCK_RECORD
  5
23
330
1
100
AcDbSymbolTableRecord
100
AcDbBlockTableRecord
  2
*Paper_Space0
340
26
 70
     0
280
     1
281
     0
  0
BLOCK_RECORD
  5
8D
330
1
100
AcDbSymbolTableRecord
100
AcDbBlockTableRecord
  2
block 2
340
0
102
{BLKREFS
331
8E
102
}
 70
     0
280
     1
281
     0
  0
BLOCK_RECORD
  5
A2
330
1
100
AcDbSymbolTableRecord
100
AcDbBlockTableRecord
  2
block 3
340
0
102
{BLKREFS
331
A3
102
}
 70
     0
280
     1
281
     0
  0
BLOCK_RECORD
  5
BA
330
1
100
AcDbSymbolTableRecord
100
AcDbBlockTableRecord
  2
block 4
340
0
102
{BLKREFS
331
BB
102
}
 70
     0
280
     1
281
     0
  0
BLOCK_RECORD
  5
DB
330
1
100
AcDbSymbolTableRecord
100
AcDbBlockTableRecord
  2
block 5
340
0
102
{BLKREFS
331
DC
102
}
 70
     0
280
     1
281
     0
  0
BLOCK_RECORD
  5
ED
330
1
100
AcDbSymbolTableRecord
100
AcDbBlockTableRecord
  2
block 6
340
0
102
{BLKREFS
331
EE
102
}
 70
     0
280
     1
281
     0
  0
ENDTAB
  0
ENDSEC
  0
SECTION
  2
BLOCKS
  0
BLOCK
  5
20
330
1F
100
AcDbEntity
  8
0
100
AcDbBlockBegin
  2
*Model_Space
 70
     0
 10
0.0
 20
0.0
 30
0.0
  3
*Model_Space
  1

  0
ENDBLK
  5
21
330
1F
100
AcDbEntity
  8
0
100
AcDbBlockEnd
  0
BLOCK
  5
1C
330
1B
100
AcDbEntity
 67
     1
  8
0
100
AcDbBlockBegin
  2
*Paper_Space
 70
     0
 10
0.0
 20
0.0
 30
0.0
  3
*Paper_Space
  1

  0
ENDBLK
  5
1D
330
1B
100
AcDbEntity
 67
     1
  8
0
100
AcDbBlockEnd
  0
BLOCK
  5
24
330
23
100
AcDbEntity
  8
0
100
AcDbBlockBegin
  2
*Paper_Space0
 70
     0
 10
0.0
 20
0.0
 30
0.0
  3
*Paper_Space0
  1

  0
ENDBLK
  5
25
330
23
100
AcDbEntity
  8
0
100
AcDbBlockEnd
  0
BLOCK
  5
8F
330
8D
100
AcDbEntity
  8
0
100
AcDbBlockBegin
  2
block 2
 70
     0
 10
0.0
 20
0.0
 30
0.0
  3
block 2
  1

  0
SPLINE
  5
91
330
8D
100
AcDbEntity
  8
_U+30EC_U+30A4_U+30E4_U+30FC 1
370
     0
100
AcDbSpline
210
0.0
220
0.0
230
1.0
 70
    11
 71
     3
 72
    26
 73
    22
 74
     0
 42
0.0000000001
 43
0.0000000001
 12
1.0
 22
0.0
 32
0.0
 13
1.0
 23
0.0
 33
0.0
 40
0.0
 40
0.0
 40
0.0
 40
0.0
 40
1.0
 40
1.0
 40
1.0
 40
2.0
 40
2.0
 40
2.0
 40
3.0
 40
3.0
 40
3.0
 40
4.0
 40
4.0
 40
4.0
 40
5.0
 40
5.0
 40
5.0
 40
6.0
 40
6.0
 40
6.0
 40
7.0
 40
7.0
 40
7.0
 40
7.0
 10
51.38308239817854
 20
-97.5609700276931
 30
0.0
 10
51.38308239817854
 20
-97.5609700276931
 30
0.0
 10
51.38308239817854
 20
-96.45681692467052
 30
0.0
 10
51.38308239817854
 20
-96.45681692467052
 30
0.0
 10
51.38308239817854
 20
-96.45681692467052
 30
0.0
 10
51.05390352456291
 20
-96.45681692467052
 30
0.0
 10
51.05390352456291
 20
-96.45681692467052
 30
0.0
 10
51.05390352456291
 20
-96.45681692467052
 30
0.0
 10
51.05390352456291
 20
-96.30867781880478
 30
0.0
 10
51.05390352456291
 20
-96.30867781880478
 30
0.0
 10
51.38514945546969
 20
-96.2938639082182
 30
0.0
 10
51.4314859897463
 20
-96.1309108917659
 30
0.0
 10
51.46111381091944
 20
-96.01653372165559
 30
0.0
 10
51.46111381091944
 20
-96.01653372165559
 30
0.0
 10
51.60666909517125
 20
-96.01653372165559
 30
0.0
 10
51.60666909517125
 20
-96.01653372165559
 30
0.0
 10
51.60666909517125
 20
-96.01653372165559
 30
0.0
 10
51.60666909517125
 20
-97.5609700276931
 30
0.0
 10
51.60666909517125
 20
-97.5609700276931
 30
0.0
 10
51.60666909517125
 20
-97.5609700276931
 30
0.0
 10
51.38308239817854
 20
-97.5609700276931
 30
0.0
 10
51.38308239817854
 20
-97.5609700276931
 30
0.0
  0
HATCH
  5
92
330
8D
100
AcDbEntity
  8
_U+30EC_U+30A4_U+30E4_U+30FC 1
 62
   179
420
  2234388
100
AcDbHatch
 10
0.0
 20
0.0
 30
0.0
210
0.0
220
0.0
230
1.0
  2
SOLID
 70
     1
 71
     0
 91
        1
 92
        1
 93
        1
 72
     4
 94
        3
 73
     0
 74
     1
 95
       26
 96
       22
 40
0.0
 40
0.0
 40
0.0
 40
0.0
 40
1.0
 40
1.0
 40
1.0
 40
2.0
 40
2.0
 40
2.0
 40
3.0
 40
3.0
 40
3.0
 40
4.0
 40
4.0
 40
4.0
 40
5.0
 40
5.0
 40
5.0
 40
6.0
 40
6.0
 40
6.0
 40
7.0
 40
7.0
 40
7.0
 40
7.0
 10
51.38308239817854
 20
-97.5609700276931
 10
51.38308239817854
 20
-97.5609700276931
 10
51.38308239817854
 20
-96.45681692467052
 10
51.38308239817854
 20
-96.45681692467052
 10
51.38308239817854
 20
-96.45681692467052
 10
51.05390352456291
 20
-96.45681692467052
 10
51.05390352456291
 20
-96.45681692467052
 10
51.05390352456291
 20
-96.45681692467052
 10
51.05390352456291
 20
-96.30867781880478
 10
51.05390352456291
 20
-96.30867781880478
 10
51.38514945546969
 20
-96.2938639082182
 10
51.4314859897463
 20
-96.1309108917659
 10
51.46111381091944
 20
-96.01653372165559
 10
51.46111381091944
 20
-96.01653372165559
 10
51.60666909517125
 20
-96.01653372165559
 10
51.60666909517125
 20
-96.01653372165559
 10
51.60666909517125
 20
-96.01653372165559
 10
51.60666909517125
 20
-97.5609700276931
 10
51.60666909517125
 20
-97.5609700276931
 10
51.60666909517125
 20
-97.5609700276931
 10
51.38308239817854
 20
-97.5609700276931
 10
51.38308239817854
 20
-97.5609700276931
 97
        0
 97
        0
 75
     2
 76
     1
 98
        0
  0
SPLINE
  5
93
330
8D
100
AcDbEntity
  8
_U+30EC_U+30A4_U+30E4_U+30FC 1
370
     0
100
AcDbSpline
210
0.0
220
0.0
230
1.0
 70
    11
 71
     3
 72
    29
 73
    25
 74
     0
 42
0.0000000001
 43
0.0000000001
 12
1.0
 22
0.0
 32
0.0
 13
1.0
 23
0.0
 33
0.0
 40
0.0
 40
0.0
 40
0.0
 40
0.0
 40
1.0
 40
1.0
 40
1.0
 40
2.0
 40
2.0
 40
2.0
 40
3.0
 40
3.0
 40
3.0
 40
4.0
 40
4.0
 40
4.0
 40
5.0
 40
5.0
 40
5.0
 40
6.0
 40
6.0
 40
6.0
 40
7.0
 40
7.0
 40
7.0
 40
8.0
 40
8.0
 40
8.0
 40
8.0
 10
53.00038247372908
 20
-97.3832031006542
 30
0.0
 10
52.89289549458928
 20
-97.5926649061574
 30
0.0
 10
52.71977944645548
 20
-97.61161293132626
 30
0.0
 10
52.60385198337682
 20
-97.61161293132626
 30
0.0
 10
52.44331053376418
 20
-97.61161293132626
 30
0.0
 10
52.30206161886893
 20
-97.5651041422754
 30
0.0
 10
52.20697698347604
 20
-97.3832031006542
 30
0.0
 10
52.10362411891854
 20
-97.18855520573759
 30
0.0
 10
52.08467609374966
 20
-96.9515326363524
 30
0.0
 10
52.08467609374966
 20
-96.7889241294486
 30
0.0
 10
52.08467609374966
 20
-96.64491913816516
 30
0.0
 10
52.10155706162739
 20
-96.3930826581934
 30
0.0
 10
52.20697698347604
 20
-96.19430064869448
 30
0.0
 10
52.3146362173901
 20
-95.99138452461327
 30
0.0
 10
52.47500541222848
 20
-95.96795787531357
 30
0.0
 10
52.60385198337682
 20
-95.96795787531357
 30
0.0
 10
52.76198186614978
 20
-95.96795787531357
 30
0.0
 10
52.90547009311044
 20
-96.01239960707329
 30
0.0
 10
53.00038247372908
 20
-96.19430064869448
 30
0.0
 10
53.09960122370427
 20
-96.38688148631995
 30
0.0
 10
53.12285561822971
 20
-96.61529131699201
 30
0.0
 10
53.12285561822971
 20
-96.7889241294486
 30
0.0
 10
53.12285561822971
 20
-96.96014537506552
 30
0.0
 10
53.10166828099542
 20
-97.19062226302874
 30
0.0
 10
53.00038247372908
 20
-97.3832031006542
 30
0.0
  0
SPLINE
  5
94
330
8D
100
AcDbEntity
  8
_U+30EC_U+30A4_U+30E4_U+30FC 1
370
     0
100
AcDbSpline
210
0.0
220
0.0
230
1.0
 70
    11
 71
     3
 72
    17
 73
    13
 74
     0
 42
0.0000000001
 43
0.0000000001
 12
1.0
 22
0.0
 32
0.0
 13
1.0
 23
0.0
 33
0.0
 40
0.0
 40
0.0
 40
0.0
 40
0.0
 40
1.0
 40
1.0
 40
1.0
 40
2.0
 40
2.0
 40
2.0
 40
3.0
 40
3.0
 40
3.0
 40
4.0
 40
4.0
 40
4.0
 40
4.0
 10
52.60385198337682
 20
-96.16053871293903
 30
0.0
 10
52.35477157979325
 20
-96.16053871293903
 30
0.0
 10
52.30826279074238
 20
-96.4440700713751
 30
0.0
 10
52.30826279074238
 20
-96.7889241294486
 30
0.0
 10
52.30826279074238
 20
-97.10828448093126
 30
0.0
 10
52.34426403856324
 20
-97.41696503640965
 30
0.0
 10
52.60385198337682
 20
-97.41696503640965
 30
0.0
 10
52.85069307489497
 20
-97.41696503640965
 30
0.0
 10
52.89909666646273
 20
-97.13584524481327
 30
0.0
 10
52.89909666646273
 20
-96.7889241294486
 30
0.0
 10
52.89909666646273
 20
-96.46921926841742
 30
0.0
 10
52.86120061612498
 20
-96.16053871293903
 30
0.0
 10
52.60385198337682
 20
-96.16053871293903
 30
0.0
  0
HATCH
  5
95
330
8D
100
AcDbEntity
  8
_U+30EC_U+30A4_U+30E4_U+30FC 1
 62
   179
420
  2234388
100
AcDbHatch
 10
0.0
 20
0.0
 30
0.0
210
0.0
220
0.0
230
1.0
  2
SOLID
 70
     1
 71
     0
 91
        2
 92
        1
 93
        1
 72
     4
 94
        3
 73
     0
 74
     1
 95
       29
 96
       25
 40
0.0
 40
0.0
 40
0.0
 40
0.0
 40
1.0
 40
1.0
 40
1.0
 40
2.0
 40
2.0
 40
2.0
 40
3.0
 40
3.0
 40
3.0
 40
4.0
 40
4.0
 40
4.0
 40
5.0
 40
5.0
 40
5.0
 40
6.0
 40
6.0
 40
6.0
 40
7.0
 40
7.0
 40
7.0
 40
8.0
 40
8.0
 40
8.0
 40
8.0
 10
53.00038247372908
 20
-97.3832031006542
 10
52.89289549458928
 20
-97.5926649061574
 10
52.71977944645548
 20
-97.61161293132626
 10
52.60385198337682
 20
-97.61161293132626
 10
52.44331053376418
 20
-97.61161293132626
 10
52.30206161886893
 20
-97.5651041422754
 10
52.20697698347604
 20
-97.3832031006542
 10
52.10362411891854
 20
-97.18855520573759
 10
52.08467609374966
 20
-96.9515326363524
 10
52.08467609374966
 20
-96.7889241294486
 10
52.08467609374966
 20
-96.64491913816516
 10
52.10155706162739
 20
-96.3930826581934
 10
52.20697698347604
 20
-96.19430064869448
 10
52.3146362173901
 20
-95.99138452461327
 10
52.47500541222848
 20
-95.96795787531357
 10
52.60385198337682
 20
-95.96795787531357
 10
52.76198186614978
 20
-95.96795787531357
 10
52.90547009311044
 20
-96.01239960707329
 10
53.00038247372908
 20
-96.19430064869448
 10
53.09960122370427
 20
-96.38688148631995
 10
53.12285561822971
 20
-96.61529131699201
 10
53.12285561822971
 20
-96.7889241294486
 10
53.12285561822971
 20
-96.96014537506552
 10
53.10166828099542
 20
-97.19062226302874
 10
53.00038247372908
 20
-97.3832031006542
 97
        0
 97
        0
 92
        1
 93
        1
 72
     4
 94
        3
 73
     0
 74
     1
 95
       17
 96
       13
 40
0.0
 40
0.0
 40
0.0
 40
0.0
 40
1.0
 40
1.0
 40
1.0
 40
2.0
 40
2.0
 40
2.0
 40
3.0
 40
3.0
 40
3.0
 40
4.0
 40
4.0
 40
4.0
 40
4.0
 10
52.60385198337682
 20
-96.16053871293903
 10
52.35477157979325
 20
-96.16053871293903
 10
52.30826279074238
 20
-96.4440700713751
 10
52.30826279074238
 20
-96.7889241294486
 10
52.30826279074238
 20
-97.10828448093126
 10
52.34426403856324
 20
-97.41696503640965
 10
52.60385198337682
 20
-97.41696503640965
 10
52.85069307489497
 20
-97.41696503640965
 10
52.89909666646273
 20
-97.13584524481327
 10
52.89909666646273
 20
-96.7889241294486
 10
52.89909666646273
 20
-96.46921926841742
 10
52.86120061612498
 20
-96.16053871293903
 10
52.60385198337682
 20
-96.16053871293903
 97
        0
 97
        0
 75
     2
 76
     1
 98
        0
  0
ENDBLK
  5
90
330
8D
100
AcDbEntity
  8
0
100
AcDbBlockEnd
  0
BLOCK
  5
A4
330
A2
100
AcDbEntity
  8
0
100
AcDbBlockBegin
  2
block 3
 70
     0
 10
0.0
 20
0.0
 30
0.0
  3
block 3
  1

  0
SPLINE
  5
A6
330
A2
100
AcDbEntity
  8
_U+30EC_U+30A4_U+30E4_U+30FC 1
370
     0
100
AcDbSpline
210
0.0
220
0.0
230
1.0
 70
    11
 71
     3
 72
    62
 73
    58
 74
     0
 42
0.0000000001
 43
0.0000000001
 12
1.0
 22
0.0
 32
0.0
 13
1.0
 23
0.0
 33
0.0
 40
0.0
 40
0.0
 40
0.0
 40
0.0
 40
1.0
 40
1.0
 40
1.0
 40
2.0
 40
2.0
 40
2.0
 40
3.0
 40
3.0
 40
3.0
 40
4.0
 40
4.0
 40
4.0
 40
5.0
 40
5.0
 40
5.0
 40
6.0
 40
6.0
 40
6.0
 40
7.0
 40
7.0
 40
7.0
 40
8.0
 40
8.0
 40
8.0
 40
9.0
 40
9.0
 40
9.0
 40
10.0
 40
10.0
 40
10.0
 40
11.0
 40
11.0
 40
11.0
 40
12.0
 40
12.0
 40
12.0
 40
13.0
 40
13.0
 40
13.0
 40
14.0
 40
14.0
 40
14.0
 40
15.0
 40
15.0
 40
15.0
 40
16.0
 40
16.0
 40
16.0
 40
17.0
 40
17.0
 40
17.0
 40
18.0
 40
18.0
 40
18.0
 40
19.0
 40
19.0
 40
19.0
 40
19.0
 10
77.42231985911664
 20
-93.68006996355915
 30
0.0
 10
77.42231985911664
 20
-93.77481008940353
 30
0.0
 10
77.40130477665662
 20
-93.99219561452279
 30
0.0
 10
77.21526962045313
 20
-94.11690807108883
 30
0.0
 10
77.10295950763398
 20
-94.19063311447317
 30
0.0
 10
77.00374075765879
 20
-94.19476722905549
 30
0.0
 10
76.91899140872164
 20
-94.1992458531863
 30
0.0
 10
76.91899140872164
 20
-94.1992458531863
 30
0.0
 10
76.91899140872164
 20
-93.97944876122736
 30
0.0
 10
76.91899140872164
 20
-93.97944876122736
 30
0.0
 10
76.99306096165452
 20
-93.97738170393622
 30
0.0
 10
77.22767196420003
 20
-93.96704641748046
 30
0.0
 10
77.22767196420003
 20
-93.68420407814145
 30
0.0
 10
77.22767196420003
 20
-93.5470892778285
 30
0.0
 10
77.15808103539798
 20
-93.395160566929
 30
0.0
 10
76.92967120472592
 20
-93.395160566929
 30
0.0
 10
76.81322697732448
 20
-93.395160566929
 30
0.0
 10
76.76465113098246
 20
-93.43305661726674
 30
0.0
 10
76.73295625251815
 20
-93.46475149573104
 30
0.0
 10
76.65888669958528
 20
-93.53847653911538
 30
0.0
 10
76.64613984628986
 20
-93.6545762569683
 30
0.0
 10
76.64613984628986
 20
-93.70935327518377
 30
0.0
 10
76.64613984628986
 20
-93.72864580990118
 30
0.0
 10
76.64820690358101
 20
-93.76447480294777
 30
0.0
 10
76.65234101816331
 20
-93.79169105728124
 30
0.0
 10
76.65234101816331
 20
-93.79169105728124
 30
0.0
 10
76.45769312324668
 20
-93.79169105728124
 30
0.0
 10
76.45769312324668
 20
-93.79169105728124
 30
0.0
 10
76.46423880466867
 20
-93.7537950069435
 30
0.0
 10
76.46630586195981
 20
-93.71176484202346
 30
0.0
 10
76.46630586195981
 20
-93.70521916060147
 30
0.0
 10
76.46630586195981
 20
-93.63976234638173
 30
0.0
 10
76.44494626995127
 20
-93.44166935597987
 30
0.0
 10
76.2082682101146
 20
-93.44166935597987
 30
0.0
 10
76.03050128307571
 20
-93.44166935597987
 30
0.0
 10
75.97537975531172
 20
-93.57223847487083
 30
0.0
 10
75.97537975531172
 20
-93.6821370208503
 30
0.0
 10
75.97537975531172
 20
-93.94568682547191
 30
0.0
 10
76.2082682101146
 20
-93.95429956418504
 30
0.0
 10
76.2799261962078
 20
-93.95843367876734
 30
0.0
 10
76.2799261962078
 20
-93.95843367876734
 30
0.0
 10
76.2799261962078
 20
-94.16100529330004
 30
0.0
 10
76.2799261962078
 20
-94.16100529330004
 30
0.0
 10
76.15521373964175
 20
-94.15273706413544
 30
0.0
 10
75.77866480310395
 20
-94.12517630025343
 30
0.0
 10
75.77866480310395
 20
-93.66939016755488
 30
0.0
 10
75.77866480310395
 20
-93.44580347056217
 30
0.0
 10
75.90578882650966
 20
-93.20533580569173
 30
0.0
 10
76.20172252869263
 20
-93.20533580569173
 30
0.0
 10
76.38810219444464
 20
-93.20533580569173
 30
0.0
 10
76.47043997654211
 20
-93.3000759315361
 30
0.0
 10
76.53176267617957
 20
-93.3992946815113
 30
0.0
 10
76.55932344006156
 20
-93.33797198187385
 30
0.0
 10
76.63959416486789
 20
-93.1567599593497
 30
0.0
 10
76.9169243514305
 20
-93.1567599593497
 30
0.0
 10
77.25523272808204
 20
-93.1567599593497
 30
0.0
 10
77.42231985911664
 20
-93.40342879609359
 30
0.0
 10
77.42231985911664
 20
-93.68006996355915
 30
0.0
  0
HATCH
  5
A7
330
A2
100
AcDbEntity
  8
_U+30EC_U+30A4_U+30E4_U+30FC 1
 62
   179
420
  2234388
100
AcDbHatch
 10
0.0
 20
0.0
 30
0.0
210
0.0
220
0.0
230
1.0
  2
SOLID
 70
     1
 71
     0
 91
        1
 92
        1
 93
        1
 72
     4
 94
        3
 73
     0
 74
     1
 95
       62
 96
       58
 40
0.0
 40
0.0
 40
0.0
 40
0.0
 40
1.0
 40
1.0
 40
1.0
 40
2.0
 40
2.0
 40
2.0
 40
3.0
 40
3.0
 40
3.0
 40
4.0
 40
4.0
 40
4.0
 40
5.0
 40
5.0
 40
5.0
 40
6.0
 40
6.0
 40
6.0
 40
7.0
 40
7.0
 40
7.0
 40
8.0
 40
8.0
 40
8.0
 40
9.0
 40
9.0
 40
9.0
 40
10.0
 40
10.0
 40
10.0
 40
11.0
 40
11.0
 40
11.0
 40
12.0
 40
12.0
 40
12.0
 40
13.0
 40
13.0
 40
13.0
 40
14.0
 40
14.0
 40
14.0
 40
15.0
 40
15.0
 40
15.0
 40
16.0
 40
16.0
 40
16.0
 40
17.0
 40
17.0
 40
17.0
 40
18.0
 40
18.0
 40
18.0
 40
19.0
 40
19.0
 40
19.0
 40
19.0
 10
77.42231985911664
 20
-93.68006996355915
 10
77.42231985911664
 20
-93.77481008940353
 10
77.40130477665662
 20
-93.99219561452279
 10
77.21526962045313
 20
-94.11690807108883
 10
77.10295950763398
 20
-94.19063311447317
 10
77.00374075765879
 20
-94.19476722905549
 10
76.91899140872164
 20
-94.1992458531863
 10
76.91899140872164
 20
-94.1992458531863
 10
76.91899140872164
 20
-93.97944876122736
 10
76.91899140872164
 20
-93.97944876122736
 10
76.99306096165452
 20
-93.97738170393622
 10
77.22767196420003
 20
-93.96704641748046
 10
77.22767196420003
 20
-93.68420407814145
 10
77.22767196420003
 20
-93.5470892778285
 10
77.15808103539798
 20
-93.395160566929
 10
76.92967120472592
 20
-93.395160566929
 10
76.81322697732448
 20
-93.395160566929
 10
76.76465113098246
 20
-93.43305661726674
 10
76.73295625251815
 20
-93.46475149573104
 10
76.65888669958528
 20
-93.53847653911538
 10
76.64613984628986
 20
-93.6545762569683
 10
76.64613984628986
 20
-93.70935327518377
 10
76.64613984628986
 20
-93.72864580990118
 10
76.64820690358101
 20
-93.76447480294777
 10
76.65234101816331
 20
-93.79169105728124
 10
76.65234101816331
 20
-93.79169105728124
 10
76.45769312324668
 20
-93.79169105728124
 10
76.45769312324668
 20
-93.79169105728124
 10
76.46423880466867
 20
-93.7537950069435
 10
76.46630586195981
 20
-93.71176484202346
 10
76.46630586195981
 20
-93.70521916060147
 10
76.46630586195981
 20
-93.63976234638173
 10
76.44494626995127
 20
-93.44166935597987
 10
76.2082682101146
 20
-93.44166935597987
 10
76.03050128307571
 20
-93.44166935597987
 10
75.97537975531172
 20
-93.57223847487083
 10
75.97537975531172
 20
-93.6821370208503
 10
75.97537975531172
 20
-93.94568682547191
 10
76.2082682101146
 20
-93.95429956418504
 10
76.2799261962078
 20
-93.95843367876734
 10
76.2799261962078
 20
-93.95843367876734
 10
76.2799261962078
 20
-94.16100529330004
 10
76.2799261962078
 20
-94.16100529330004
 10
76.15521373964175
 20
-94.15273706413544
 10
75.77866480310395
 20
-94.12517630025343
 10
75.77866480310395
 20
-93.66939016755488
 10
75.77866480310395
 20
-93.44580347056217
 10
75.90578882650966
 20
-93.20533580569173
 10
76.20172252869263
 20
-93.20533580569173
 10
76.38810219444464
 20
-93.20533580569173
 10
76.47043997654211
 20
-93.3000759315361
 10
76.53176267617957
 20
-93.3992946815113
 10
76.55932344006156
 20
-93.33797198187385
 10
76.63959416486789
 20
-93.1567599593497
 10
76.9169243514305
 20
-93.1567599593497
 10
77.25523272808204
 20
-93.1567599593497
 10
77.42231985911664
 20
-93.40342879609359
 10
77.42231985911664
 20
-93.68006996355915
 97
        0
 97
        0
 75
     2
 76
     1
 98
        0
  0
POLYLINE
  5
A8
330
A2
100
AcDbEntity
  8
_U+30EC_U+30A4_U+30E4_U+30FC 1
370
     0
100
AcDb2dPolyline
 66
     1
 10
0.0
 20
0.0
 30
0.0
  0
VERTEX
  5
A9
330
A8
100
AcDbEntity
  8
_U+30EC_U+30A4_U+30E4_U+30FC 1
370
     0
100
AcDbVertex
100
AcDb2dVertex
 10
77.37167695548348
 20
-92.93799639603634
 30
0.0
  0
VERTEX
  5
AA
330
A8
100
AcDbEntity
  8
_U+30EC_U+30A4_U+30E4_U+30FC 1
370
     0
100
AcDbVertex
100
AcDb2dVertex
 10
77.11984047551171
 20
-92.93799639603634
 30
0.0
  0
VERTEX
  5
AB
330
A8
100
AcDbEntity
  8
_U+30EC_U+30A4_U+30E4_U+30FC 1
370
     0
100
AcDbVertex
100
AcDb2dVertex
 10
77.11984047551171
 20
-92.68684893516162
 30
0.0
  0
VERTEX
  5
AC
330
A8
100
AcDbEntity
  8
_U+30EC_U+30A4_U+30E4_U+30FC 1
370
     0
100
AcDbVertex
100
AcDb2dVertex
 10
77.37167695548348
 20
-92.68684893516162
 30
0.0
  0
VERTEX
  5
AD
330
A8
100
AcDbEntity
  8
_U+30EC_U+30A4_U+30E4_U+30FC 1
370
     0
100
AcDbVertex
100
AcDb2dVertex
 10
77.37167695548348
 20
-92.93799639603634
 30
0.0
  0
SEQEND
  5
AE
330
A8
100
AcDbEntity
  8
_U+30EC_U+30A4_U+30E4_U+30FC 1
370
     0
  0
HATCH
  5
AF
330
A2
100
AcDbEntity
  8
_U+30EC_U+30A4_U+30E4_U+30FC 1
 62
   179
420
  2234388
100
AcDbHatch
 10
0.0
 20
0.0
 30
0.0
210
0.0
220
0.0
230
1.0
  2
SOLID
 70
     1
 71
     0
 91
        1
 92
        1
 93
        4
 72
     1
 10
77.37167695548348
 20
-92.93799639603634
 11
77.11984047551171
 21
-92.93799639603634
 72
     1
 10
77.11984047551171
 20
-92.93799639603634
 11
77.11984047551171
 21
-92.68684893516162
 72
     1
 10
77.11984047551171
 20
-92.68684893516162
 11
77.37167695548348
 21
-92.68684893516162
 72
     1
 10
77.37167695548348
 20
-92.68684893516162
 11
77.37167695548348
 21
-92.93799639603634
 97
        0
 75
     2
 76
     1
 98
        0
  0
SPLINE
  5
B0
330
A2
100
AcDbEntity
  8
_U+30EC_U+30A4_U+30E4_U+30FC 1
370
     0
100
AcDbSpline
210
0.0
220
0.0
230
1.0
 70
    11
 71
     3
 72
    44
 73
    40
 74
     0
 42
0.0000000001
 43
0.0000000001
 12
1.0
 22
0.0
 32
0.0
 13
1.0
 23
0.0
 33
0.0
 40
0.0
 40
0.0
 40
0.0
 40
0.0
 40
1.0
 40
1.0
 40
1.0
 40
2.0
 40
2.0
 40
2.0
 40
3.0
 40
3.0
 40
3.0
 40
4.0
 40
4.0
 40
4.0
 40
5.0
 40
5.0
 40
5.0
 40
6.0
 40
6.0
 40
6.0
 40
7.0
 40
7.0
 40
7.0
 40
8.0
 40
8.0
 40
8.0
 40
9.0
 40
9.0
 40
9.0
 40
10.0
 40
10.0
 40
10.0
 40
11.0
 40
11.0
 40
11.0
 40
12.0
 40
12.0
 40
12.0
 40
13.0
 40
13.0
 40
13.0
 40
13.0
 10
76.78980032802478
 20
-91.86037052825019
 30
0.0
 10
76.94861922989479
 20
-92.07775605336946
 30
0.0
 10
77.02268878282767
 20
-92.17042912192268
 30
0.0
 10
77.16634926456258
 20
-92.2190049682647
 30
0.0
 10
77.16634926456258
 20
-92.2190049682647
 30
0.0
 10
77.16634926456258
 20
-91.44248044588939
 30
0.0
 10
77.16634926456258
 20
-91.44248044588939
 30
0.0
 10
77.16634926456258
 20
-91.44248044588939
 30
0.0
 10
77.37167695548348
 20
-91.44248044588939
 30
0.0
 10
77.37167695548348
 20
-91.44248044588939
 30
0.0
 10
77.37167695548348
 20
-91.44248044588939
 30
0.0
 10
77.37167695548348
 20
-92.46808537184826
 30
0.0
 10
77.37167695548348
 20
-92.46808537184826
 30
0.0
 10
77.01407604411455
 20
-92.43639049338397
 30
0.0
 10
76.93587237659936
 20
-92.37093367916421
 30
0.0
 10
76.63752710757673
 20
-91.98680553255886
 30
0.0
 10
76.43874509807782
 20
-91.73152395710184
 30
0.0
 10
76.37087671701839
 20
-91.6660671428821
 30
0.0
 10
76.23341740715692
 20
-91.6660671428821
 30
0.0
 10
76.11490612246433
 20
-91.6660671428821
 30
0.0
 10
75.98399249402483
 20
-91.73806963852383
 30
0.0
 10
75.98399249402483
 20
-91.93409557163453
 30
0.0
 10
75.98399249402483
 20
-92.19351126167385
 30
0.0
 10
76.21446938198805
 20
-92.20212400038697
 30
0.0
 10
76.3309136093895
 20
-92.20625811496927
 30
0.0
 10
76.3309136093895
 20
-92.20625811496927
 30
0.0
 10
76.3309136093895
 20
-92.42984481196198
 30
0.0
 10
76.3309136093895
 20
-92.42984481196198
 30
0.0
 10
76.20378958598378
 20
-92.42157658279739
 30
0.0
 10
76.09182398271315
 20
-92.41089678679312
 30
0.0
 10
75.97331269802056
 20
-92.33097057153532
 30
0.0
 10
75.8124267388594
 20
-92.22107202555584
 30
0.0
 10
75.77866480310395
 20
-92.03538137890088
 30
0.0
 10
75.77866480310395
 20
-91.91928166104796
 30
0.0
 10
75.77866480310395
 20
-91.64298500313093
 30
0.0
 10
75.9626329020163
 20
-91.43627927401593
 30
0.0
 10
76.23548446444808
 20
-91.43627927401593
 30
0.0
 10
76.46423880466867
 20
-91.43627927401593
 30
0.0
 10
76.56345755464386
 20
-91.55203448232032
 30
0.0
 10
76.78980032802478
 20
-91.86037052825019
 30
0.0
  0
HATCH
  5
B1
330
A2
100
AcDbEntity
  8
_U+30EC_U+30A4_U+30E4_U+30FC 1
 62
   179
420
  2234388
100
AcDbHatch
 10
0.0
 20
0.0
 30
0.0
210
0.0
220
0.0
230
1.0
  2
SOLID
 70
     1
 71
     0
 91
        1
 92
        1
 93
        1
 72
     4
 94
        3
 73
     0
 74
     1
 95
       44
 96
       40
 40
0.0
 40
0.0
 40
0.0
 40
0.0
 40
1.0
 40
1.0
 40
1.0
 40
2.0
 40
2.0
 40
2.0
 40
3.0
 40
3.0
 40
3.0
 40
4.0
 40
4.0
 40
4.0
 40
5.0
 40
5.0
 40
5.0
 40
6.0
 40
6.0
 40
6.0
 40
7.0
 40
7.0
 40
7.0
 40
8.0
 40
8.0
 40
8.0
 40
9.0
 40
9.0
 40
9.0
 40
10.0
 40
10.0
 40
10.0
 40
11.0
 40
11.0
 40
11.0
 40
12.0
 40
12.0
 40
12.0
 40
13.0
 40
13.0
 40
13.0
 40
13.0
 10
76.78980032802478
 20
-91.86037052825019
 10
76.94861922989479
 20
-92.07775605336946
 10
77.02268878282767
 20
-92.17042912192268
 10
77.16634926456258
 20
-92.2190049682647
 10
77.16634926456258
 20
-92.2190049682647
 10
77.16634926456258
 20
-91.44248044588939
 10
77.16634926456258
 20
-91.44248044588939
 10
77.16634926456258
 20
-91.44248044588939
 10
77.37167695548348
 20
-91.44248044588939
 10
77.37167695548348
 20
-91.44248044588939
 10
77.37167695548348
 20
-91.44248044588939
 10
77.37167695548348
 20
-92.46808537184826
 10
77.37167695548348
 20
-92.46808537184826
 10
77.01407604411455
 20
-92.43639049338397
 10
76.93587237659936
 20
-92.37093367916421
 10
76.63752710757673
 20
-91.98680553255886
 10
76.43874509807782
 20
-91.73152395710184
 10
76.37087671701839
 20
-91.6660671428821
 10
76.23341740715692
 20
-91.6660671428821
 10
76.11490612246433
 20
-91.6660671428821
 10
75.98399249402483
 20
-91.73806963852383
 10
75.98399249402483
 20
-91.93409557163453
 10
75.98399249402483
 20
-92.19351126167385
 10
76.21446938198805
 20
-92.20212400038697
 10
76.3309136093895
 20
-92.20625811496927
 10
76.3309136093895
 20
-92.20625811496927
 10
76.3309136093895
 20
-92.42984481196198
 10
76.3309136093895
 20
-92.42984481196198
 10
76.20378958598378
 20
-92.42157658279739
 10
76.09182398271315
 20
-92.41089678679312
 10
75.97331269802056
 20
-92.33097057153532
 10
75.8124267388594
 20
-92.22107202555584
 10
75.77866480310395
 20
-92.03538137890088
 10
75.77866480310395
 20
-91.91928166104796
 10
75.77866480310395
 20
-91.64298500313093
 10
75.9626329020163
 20
-91.43627927401593
 10
76.23548446444808
 20
-91.43627927401593
 10
76.46423880466867
 20
-91.43627927401593
 10
76.56345755464386
 20
-91.55203448232032
 10
76.78980032802478
 20
-91.86037052825019
 97
        0
 97
        0
 75
     2
 76
     1
 98
        0
  0
ENDBLK
  5
A5
330
A2
100
AcDbEntity
  8
0
100
AcDbBlockEnd
  0
BLOCK
  5
BC
330
BA
100
AcDbEntity
  8
0
100
AcDbBlockBegin
  2
block 4
 70
     0
 10
0.0
 20
0.0
 30
0.0
  3
block 4
  1

  0
POLYLINE
  5
BE
330
BA
100
AcDbEntity
  8
_U+30EC_U+30A4_U+30E4_U+30FC 1
370
     0
100
AcDb2dPolyline
 66
     1
 10
0.0
 20
0.0
 30
0.0
  0
VERTEX
  5
BF
330
BE
100
AcDbEntity
  8
_U+30EC_U+30A4_U+30E4_U+30FC 1
370
     0
100
AcDbVertex
100
AcDb2dVertex
 10
77.02475584011881
 20
-88.67641328078228
 30
0.0
  0
VERTEX
  5
C0
330
BE
100
AcDbEntity
  8
_U+30EC_U+30A4_U+30E4_U+30FC 1
370
     0
100
AcDbVertex
100
AcDb2dVertex
 10
77.37167695548348
 20
-88.67641328078228
 30
0.0
  0
VERTEX
  5
C1
330
BE
100
AcDbEntity
  8
_U+30EC_U+30A4_U+30E4_U+30FC 1
370
     0
100
AcDbVertex
100
AcDb2dVertex
 10
77.37167695548348
 20
-88.89379880590155
 30
0.0
  0
VERTEX
  5
C2
330
BE
100
AcDbEntity
  8
_U+30EC_U+30A4_U+30E4_U+30FC 1
370
     0
100
AcDbVertex
100
AcDb2dVertex
 10
77.02475584011881
 20
-88.89379880590155
 30
0.0
  0
VERTEX
  5
C3
330
BE
100
AcDbEntity
  8
_U+30EC_U+30A4_U+30E4_U+30FC 1
370
     0
100
AcDbVertex
100
AcDb2dVertex
 10
77.02475584011881
 20
-89.54767792900198
 30
0.0
  0
VERTEX
  5
C4
330
BE
100
AcDbEntity
  8
_U+30EC_U+30A4_U+30E4_U+30FC 1
370
     0
100
AcDbVertex
100
AcDb2dVertex
 10
76.80048012402905
 20
-89.54767792900198
 30
0.0
  0
VERTEX
  5
C5
330
BE
100
AcDbEntity
  8
_U+30EC_U+30A4_U+30E4_U+30FC 1
370
     0
100
AcDbVertex
100
AcDb2dVertex
 10
75.82724064944597
 20
-88.87037215660186
 30
0.0
  0
VERTEX
  5
C6
330
BE
100
AcDbEntity
  8
_U+30EC_U+30A4_U+30E4_U+30FC 1
370
     0
100
AcDbVertex
100
AcDb2dVertex
 10
75.82724064944597
 20
-88.67641328078228
 30
0.0
  0
VERTEX
  5
C7
330
BE
100
AcDbEntity
  8
_U+30EC_U+30A4_U+30E4_U+30FC 1
370
     0
100
AcDbVertex
100
AcDb2dVertex
 10
76.8259738306199
 20
-88.67641328078228
 30
0.0
  0
VERTEX
  5
C8
330
BE
100
AcDbEntity
  8
_U+30EC_U+30A4_U+30E4_U+30FC 1
370
     0
100
AcDbVertex
100
AcDb2dVertex
 10
76.8259738306199
 20
-88.46936304211877
 30
0.0
  0
VERTEX
  5
C9
330
BE
100
AcDbEntity
  8
_U+30EC_U+30A4_U+30E4_U+30FC 1
370
     0
100
AcDbVertex
100
AcDb2dVertex
 10
77.02475584011881
 20
-88.46936304211877
 30
0.0
  0
VERTEX
  5
CA
330
BE
100
AcDbEntity
  8
_U+30EC_U+30A4_U+30E4_U+30FC 1
370
     0
100
AcDbVertex
100
AcDb2dVertex
 10
77.02475584011881
 20
-88.67641328078228
 30
0.0
  0
SEQEND
  5
CB
330
BE
100
AcDbEntity
  8
_U+30EC_U+30A4_U+30E4_U+30FC 1
370
     0
  0
POLYLINE
  5
CC
330
BA
100
AcDbEntity
  8
_U+30EC_U+30A4_U+30E4_U+30FC 1
370
     0
100
AcDb2dPolyline
 66
     1
 10
0.0
 20
0.0
 30
0.0
  0
VERTEX
  5
CD
330
CC
100
AcDbEntity
  8
_U+30EC_U+30A4_U+30E4_U+30FC 1
370
     0
100
AcDbVertex
100
AcDb2dVertex
 10
76.17002765022833
 20
-88.89379880590155
 30
0.0
  0
VERTEX
  5
CE
330
CC
100
AcDbEntity
  8
_U+30EC_U+30A4_U+30E4_U+30FC 1
370
     0
100
AcDbVertex
100
AcDb2dVertex
 10
76.8259738306199
 20
-89.34924042905158
 30
0.0
  0
VERTEX
  5
CF
330
CC
100
AcDbEntity
  8
_U+30EC_U+30A4_U+30E4_U+30FC 1
370
     0
100
AcDbVertex
100
AcDb2dVertex
 10
76.8259738306199
 20
-88.89379880590155
 30
0.0
  0
VERTEX
  5
D0
330
CC
100
AcDbEntity
  8
_U+30EC_U+30A4_U+30E4_U+30FC 1
370
     0
100
AcDbVertex
100
AcDb2dVertex
 10
76.17002765022833
 20
-88.89379880590155
 30
0.0
  0
SEQEND
  5
D1
330
CC
100
AcDbEntity
  8
_U+30EC_U+30A4_U+30E4_U+30FC 1
370
     0
  0
HATCH
  5
D2
330
BA
100
AcDbEntity
  8
_U+30EC_U+30A4_U+30E4_U+30FC 1
 62
   179
420
  2234388
100
AcDbHatch
 10
0.0
 20
0.0
 30
0.0
210
0.0
220
0.0
230
1.0
  2
SOLID
 70
     1
 71
     0
 91
        2
 92
        1
 93
       11
 72
     1
 10
77.02475584011881
 20
-88.67641328078228
 11
77.37167695548348
 21
-88.67641328078228
 72
     1
 10
77.37167695548348
 20
-88.67641328078228
 11
77.37167695548348
 21
-88.89379880590155
 72
     1
 10
77.37167695548348
 20
-88.89379880590155
 11
77.02475584011881
 21
-88.89379880590155
 72
     1
 10
77.02475584011881
 20
-88.89379880590155
 11
77.02475584011881
 21
-89.54767792900198
 72
     1
 10
77.02475584011881
 20
-89.54767792900198
 11
76.80048012402905
 21
-89.54767792900198
 72
     1
 10
76.80048012402905
 20
-89.54767792900198
 11
75.82724064944597
 21
-88.87037215660186
 72
     1
 10
75.82724064944597
 20
-88.87037215660186
 11
75.82724064944597
 21
-88.67641328078228
 72
     1
 10
75.82724064944597
 20
-88.67641328078228
 11
76.8259738306199
 21
-88.67641328078228
 72
     1
 10
76.8259738306199
 20
-88.67641328078228
 11
76.8259738306199
 21
-88.46936304211877
 72
     1
 10
76.8259738306199
 20
-88.46936304211877
 11
77.02475584011881
 21
-88.46936304211877
 72
     1
 10
77.02475584011881
 20
-88.46936304211877
 11
77.02475584011881
 21
-88.67641328078228
 97
        0
 92
        1
 93
        3
 72
     1
 10
76.17002765022833
 20
-88.89379880590155
 11
76.8259738306199
 21
-89.34924042905158
 72
     1
 10
76.8259738306199
 20
-89.34924042905158
 11
76.8259738306199
 21
-88.89379880590155
 72
     1
 10
76.8259738306199
 20
-88.89379880590155
 11
76.17002765022833
 21
-88.89379880590155
 97
        0
 75
     2
 76
     1
 98
        0
  0
ENDBLK
  5
BD
330
BA
100
AcDbEntity
  8
0
100
AcDbBlockEnd
  0
BLOCK
  5
DD
330
DB
100
AcDbEntity
  8
0
100
AcDbBlockBegin
  2
block 5
 70
     0
 10
0.0
 20
0.0
 30
0.0
  3
block 5
  1

  0
SPLINE
  5
DF
330
DB
100
AcDbEntity
  8
_U+30EC_U+30A4_U+30E4_U+30FC 1
370
     0
100
AcDbSpline
210
0.0
220
0.0
230
1.0
 70
    11
 71
     3
 72
    26
 73
    22
 74
     0
 42
0.0000000001
 43
0.0000000001
 12
1.0
 22
0.0
 32
0.0
 13
1.0
 23
0.0
 33
0.0
 40
0.0
 40
0.0
 40
0.0
 40
0.0
 40
1.0
 40
1.0
 40
1.0
 40
2.0
 40
2.0
 40
2.0
 40
3.0
 40
3.0
 40
3.0
 40
4.0
 40
4.0
 40
4.0
 40
5.0
 40
5.0
 40
5.0
 40
6.0
 40
6.0
 40
6.0
 40
7.0
 40
7.0
 40
7.0
 40
7.0
 10
77.37167695548348
 20
-86.58386228304154
 30
0.0
 10
77.37167695548348
 20
-86.58386228304154
 30
0.0
 10
76.2675238524609
 20
-86.58386228304154
 30
0.0
 10
76.2675238524609
 20
-86.58386228304154
 30
0.0
 10
76.2675238524609
 20
-86.58386228304154
 30
0.0
 10
76.2675238524609
 20
-86.91321341143143
 30
0.0
 10
76.2675238524609
 20
-86.91321341143143
 30
0.0
 10
76.2675238524609
 20
-86.91321341143143
 30
0.0
 10
76.11938474659516
 20
-86.91321341143143
 30
0.0
 10
76.11938474659516
 20
-86.91321341143143
 30
0.0
 10
76.10457083600858
 20
-86.58179522575038
 30
0.0
 10
75.94161781955627
 20
-86.53528643669952
 30
0.0
 10
75.82724064944597
 20
-86.50565861552637
 30
0.0
 10
75.82724064944597
 20
-86.50565861552637
 30
0.0
 10
75.82724064944597
 20
-86.36027558604883
 30
0.0
 10
75.82724064944597
 20
-86.36027558604883
 30
0.0
 10
75.82724064944597
 20
-86.36027558604883
 30
0.0
 10
77.37167695548348
 20
-86.36027558604883
 30
0.0
 10
77.37167695548348
 20
-86.36027558604883
 30
0.0
 10
77.37167695548348
 20
-86.36027558604883
 30
0.0
 10
77.37167695548348
 20
-86.58386228304154
 30
0.0
 10
77.37167695548348
 20
-86.58386228304154
 30
0.0
  0
HATCH
  5
E0
330
DB
100
AcDbEntity
  8
_U+30EC_U+30A4_U+30E4_U+30FC 1
 62
   179
420
  2234388
100
AcDbHatch
 10
0.0
 20
0.0
 30
0.0
210
0.0
220
0.0
230
1.0
  2
SOLID
 70
     1
 71
     0
 91
        1
 92
        1
 93
        1
 72
     4
 94
        3
 73
     0
 74
     1
 95
       26
 96
       22
 40
0.0
 40
0.0
 40
0.0
 40
0.0
 40
1.0
 40
1.0
 40
1.0
 40
2.0
 40
2.0
 40
2.0
 40
3.0
 40
3.0
 40
3.0
 40
4.0
 40
4.0
 40
4.0
 40
5.0
 40
5.0
 40
5.0
 40
6.0
 40
6.0
 40
6.0
 40
7.0
 40
7.0
 40
7.0
 40
7.0
 10
77.37167695548348
 20
-86.58386228304154
 10
77.37167695548348
 20
-86.58386228304154
 10
76.2675238524609
 20
-86.58386228304154
 10
76.2675238524609
 20
-86.58386228304154
 10
76.2675238524609
 20
-86.58386228304154
 10
76.2675238524609
 20
-86.91321341143143
 10
76.2675238524609
 20
-86.91321341143143
 10
76.2675238524609
 20
-86.91321341143143
 10
76.11938474659516
 20
-86.91321341143143
 10
76.11938474659516
 20
-86.91321341143143
 10
76.10457083600858
 20
-86.58179522575038
 10
75.94161781955627
 20
-86.53528643669952
 10
75.82724064944597
 20
-86.50565861552637
 10
75.82724064944597
 20
-86.50565861552637
 10
75.82724064944597
 20
-86.36027558604883
 10
75.82724064944597
 20
-86.36027558604883
 10
75.82724064944597
 20
-86.36027558604883
 10
77.37167695548348
 20
-86.36027558604883
 10
77.37167695548348
 20
-86.36027558604883
 10
77.37167695548348
 20
-86.36027558604883
 10
77.37167695548348
 20
-86.58386228304154
 10
77.37167695548348
 20
-86.58386228304154
 97
        0
 97
        0
 75
     2
 76
     1
 98
        0
  0
ENDBLK
  5
DE
330
DB
100
AcDbEntity
  8
0
100
AcDbBlockEnd
  0
BLOCK
  5
EF
330
ED
100
AcDbEntity
  8
0
100
AcDbBlockBegin
  2
block 6
 70
     0
 10
0.0
 20
0.0
 30
0.0
  3
block 6
  1

  0
SPLINE
  5
F1
330
ED
100
AcDbEntity
  8
_U+30EC_U+30A4_U+30E4_U+30FC 1
370
     0
100
AcDbSpline
210
0.0
220
0.0
230
1.0
 70
    11
 71
     3
 72
    44
 73
    40
 74
     0
 42
0.0000000001
 43
0.0000000001
 12
1.0
 22
0.0
 32
0.0
 13
1.0
 23
0.0
 33
0.0
 40
0.0
 40
0.0
 40
0.0
 40
0.0
 40
1.0
 40
1.0
 40
1.0
 40
2.0
 40
2.0
 40
2.0
 40
3.0
 40
3.0
 40
3.0
 40
4.0
 40
4.0
 40
4.0
 40
5.0
 40
5.0
 40
5.0
 40
6.0
 40
6.0
 40
6.0
 40
7.0
 40
7.0
 40
7.0
 40
8.0
 40
8.0
 40
8.0
 40
9.0
 40
9.0
 40
9.0
 40
10.0
 40
10.0
 40
10.0
 40
11.0
 40
11.0
 40
11.0
 40
12.0
 40
12.0
 40
12.0
 40
13.0
 40
13.0
 40
13.0
 40
13.0
 10
61.02435436842447
 20
-80.77939315471835
 30
0.0
 10
60.80696884330521
 20
-80.9380398018141
 30
0.0
 10
60.71412351997772
 20
-81.01210935474698
 30
0.0
 10
60.6655476736357
 20
-81.15594209125615
 30
0.0
 10
60.6655476736357
 20
-81.15594209125615
 30
0.0
 10
61.44189994123675
 20
-81.15594209125615
 30
0.0
 10
61.44189994123675
 20
-81.15594209125615
 30
0.0
 10
61.44189994123675
 20
-81.15594209125615
 30
0.0
 10
61.44189994123675
 20
-81.36109752740279
 30
0.0
 10
61.44189994123675
 20
-81.36109752740279
 30
0.0
 10
61.44189994123675
 20
-81.36109752740279
 30
0.0
 10
60.4166395248264
 20
-81.36109752740279
 30
0.0
 10
60.4166395248264
 20
-81.36109752740279
 30
0.0
 10
60.44816214851643
 20
-81.00349661603386
 30
0.0
 10
60.51361896273618
 20
-80.92529294851867
 30
0.0
 10
60.89757485456727
 20
-80.62694767949604
 30
0.0
 10
61.15285643002429
 20
-80.42816566999713
 30
0.0
 10
61.21831324424404
 20
-80.36046954371197
 30
0.0
 10
61.21831324424404
 20
-80.2230102338505
 30
0.0
 10
61.21831324424404
 20
-80.1044989491579
 30
0.0
 10
61.14665525815084
 20
-79.97341306594414
 30
0.0
 10
60.95045707026586
 20
-79.97341306594414
 30
0.0
 10
60.69086912545229
 20
-79.97341306594414
 30
0.0
 10
60.68242864151343
 20
-80.20388995390736
 30
0.0
 10
60.67812227215686
 20
-80.32033418130881
 30
0.0
 10
60.67812227215686
 20
-80.32033418130881
 30
0.0
 10
60.45453557516414
 20
-80.32033418130881
 30
0.0
 10
60.45453557516414
 20
-80.32033418130881
 30
0.0
 10
60.46297605910301
 20
-80.19338241267735
 30
0.0
 10
60.47348360033302
 20
-80.08124455463248
 30
0.0
 10
60.55375432513934
 20
-79.96273326993987
 30
0.0
 10
60.66348061634455
 20
-79.80201956555297
 30
0.0
 10
60.84917126299951
 20
-79.76808537502326
 30
0.0
 10
60.96509872607817
 20
-79.76808537502326
 30
0.0
 10
61.24173989354374
 20
-79.76808537502326
 30
0.0
 10
61.44844562265872
 20
-79.95222572870986
 30
0.0
 10
61.44844562265872
 20
-80.22507729114164
 30
0.0
 10
61.44844562265872
 20
-80.45348712181371
 30
0.0
 10
61.33234590480581
 20
-80.55305038133744
 30
0.0
 10
61.02435436842447
 20
-80.77939315471835
 30
0.0
  0
HATCH
  5
F2
330
ED
100
AcDbEntity
  8
_U+30EC_U+30A4_U+30E4_U+30FC 1
 62
   179
420
  2234388
100
AcDbHatch
 10
0.0
 20
0.0
 30
0.0
210
0.0
220
0.0
230
1.0
  2
SOLID
 70
     1
 71
     0
 91
        1
 92
        1
 93
        1
 72
     4
 94
        3
 73
     0
 74
     1
 95
       44
 96
       40
 40
0.0
 40
0.0
 40
0.0
 40
0.0
 40
1.0
 40
1.0
 40
1.0
 40
2.0
 40
2.0
 40
2.0
 40
3.0
 40
3.0
 40
3.0
 40
4.0
 40
4.0
 40
4.0
 40
5.0
 40
5.0
 40
5.0
 40
6.0
 40
6.0
 40
6.0
 40
7.0
 40
7.0
 40
7.0
 40
8.0
 40
8.0
 40
8.0
 40
9.0
 40
9.0
 40
9.0
 40
10.0
 40
10.0
 40
10.0
 40
11.0
 40
11.0
 40
11.0
 40
12.0
 40
12.0
 40
12.0
 40
13.0
 40
13.0
 40
13.0
 40
13.0
 10
61.02435436842447
 20
-80.77939315471835
 10
60.80696884330521
 20
-80.9380398018141
 10
60.71412351997772
 20
-81.01210935474698
 10
60.6655476736357
 20
-81.15594209125615
 10
60.6655476736357
 20
-81.15594209125615
 10
61.44189994123675
 20
-81.15594209125615
 10
61.44189994123675
 20
-81.15594209125615
 10
61.44189994123675
 20
-81.15594209125615
 10
61.44189994123675
 20
-81.36109752740279
 10
61.44189994123675
 20
-81.36109752740279
 10
61.44189994123675
 20
-81.36109752740279
 10
60.4166395248264
 20
-81.36109752740279
 10
60.4166395248264
 20
-81.36109752740279
 10
60.44816214851643
 20
-81.00349661603386
 10
60.51361896273618
 20
-80.92529294851867
 10
60.89757485456727
 20
-80.62694767949604
 10
61.15285643002429
 20
-80.42816566999713
 10
61.21831324424404
 20
-80.36046954371197
 10
61.21831324424404
 20
-80.2230102338505
 10
61.21831324424404
 20
-80.1044989491579
 10
61.14665525815084
 20
-79.97341306594414
 10
60.95045707026586
 20
-79.97341306594414
 10
60.69086912545229
 20
-79.97341306594414
 10
60.68242864151343
 20
-80.20388995390736
 10
60.67812227215686
 20
-80.32033418130881
 10
60.67812227215686
 20
-80.32033418130881
 10
60.45453557516414
 20
-80.32033418130881
 10
60.45453557516414
 20
-80.32033418130881
 10
60.46297605910301
 20
-80.19338241267735
 10
60.47348360033302
 20
-80.08124455463248
 10
60.55375432513934
 20
-79.96273326993987
 10
60.66348061634455
 20
-79.80201956555297
 10
60.84917126299951
 20
-79.76808537502326
 10
60.96509872607817
 20
-79.76808537502326
 10
61.24173989354374
 20
-79.76808537502326
 10
61.44844562265872
 20
-79.95222572870986
 10
61.44844562265872
 20
-80.22507729114164
 10
61.44844562265872
 20
-80.45348712181371
 10
61.33234590480581
 20
-80.55305038133744
 10
61.02435436842447
 20
-80.77939315471835
 97
        0
 97
        0
 75
     2
 76
     1
 98
        0
  0
SPLINE
  5
F3
330
ED
100
AcDbEntity
  8
_U+30EC_U+30A4_U+30E4_U+30FC 1
370
     0
100
AcDbSpline
210
0.0
220
0.0
230
1.0
 70
    11
 71
     3
 72
    53
 73
    49
 74
     0
 42
0.0000000001
 43
0.0000000001
 12
1.0
 22
0.0
 32
0.0
 13
1.0
 23
0.0
 33
0.0
 40
0.0
 40
0.0
 40
0.0
 40
0.0
 40
1.0
 40
1.0
 40
1.0
 40
2.0
 40
2.0
 40
2.0
 40
3.0
 40
3.0
 40
3.0
 40
4.0
 40
4.0
 40
4.0
 40
5.0
 40
5.0
 40
5.0
 40
6.0
 40
6.0
 40
6.0
 40
7.0
 40
7.0
 40
7.0
 40
8.0
 40
8.0
 40
8.0
 40
9.0
 40
9.0
 40
9.0
 40
10.0
 40
10.0
 40
10.0
 40
11.0
 40
11.0
 40
11.0
 40
12.0
 40
12.0
 40
12.0
 40
13.0
 40
13.0
 40
13.0
 40
14.0
 40
14.0
 40
14.0
 40
15.0
 40
15.0
 40
15.0
 40
16.0
 40
16.0
 40
16.0
 40
16.0
 10
62.08475475878437
 20
-81.41191268581022
 30
0.0
 10
62.00655109126919
 20
-81.41191268581022
 30
0.0
 10
61.90526528400285
 20
-81.39485946315823
 30
0.0
 10
61.80397947673651
 20
-81.33146970622964
 30
0.0
 10
61.63103568337696
 20
-81.22139890547591
 30
0.0
 10
61.61002060091694
 20
-81.09031302226215
 30
0.0
 10
61.59072806619955
 20
-80.98248153357383
 30
0.0
 10
61.59072806619955
 20
-80.98248153357383
 30
0.0
 10
61.81259221544963
 20
-80.98248153357383
 30
0.0
 10
61.81259221544963
 20
-80.98248153357383
 30
0.0
 10
61.8673692336651
 20
-81.18126354307275
 30
0.0
 10
61.99380423797378
 20
-81.2108913642459
 30
0.0
 10
62.08682181607552
 20
-81.2108913642459
 30
0.0
 10
62.22600367367961
 20
-81.2108913642459
 30
0.0
 10
62.37793238457913
 20
-81.11150035949643
 30
0.0
 10
62.37793238457913
 20
-80.87878415946781
 30
0.0
 10
62.37793238457913
 20
-80.62281356491374
 30
0.0
 10
62.19844290979761
 20
-80.55305038133744
 30
0.0
 10
62.07820907736239
 20
-80.55305038133744
 30
0.0
 10
62.04651419889809
 20
-80.55305038133744
 30
0.0
 10
61.90526528400285
 20
-80.55305038133744
 30
0.0
 10
61.81672633003193
 20
-80.68206920726004
 30
0.0
 10
61.81672633003193
 20
-80.68206920726004
 30
0.0
 10
61.64137096983271
 20
-80.6629489273169
 30
0.0
 10
61.64137096983271
 20
-80.6629489273169
 30
0.0
 10
61.64137096983271
 20
-80.6629489273169
 30
0.0
 10
61.76160480226793
 20
-79.81683347613955
 30
0.0
 10
61.76160480226793
 20
-79.81683347613955
 30
0.0
 10
61.76160480226793
 20
-79.81683347613955
 30
0.0
 10
62.53812932464325
 20
-79.81683347613955
 30
0.0
 10
62.53812932464325
 20
-79.81683347613955
 30
0.0
 10
62.53812932464325
 20
-79.81683347613955
 30
0.0
 10
62.53812932464325
 20
-80.01148137105616
 30
0.0
 10
62.53812932464325
 20
-80.01148137105616
 30
0.0
 10
62.53812932464325
 20
-80.01148137105616
 30
0.0
 10
61.92421330917173
 20
-80.01148137105616
 30
0.0
 10
61.92421330917173
 20
-80.01148137105616
 30
0.0
 10
61.92421330917173
 20
-80.01148137105616
 30
0.0
 10
61.85875649495198
 20
-80.43453909664484
 30
0.0
 10
61.85875649495198
 20
-80.43453909664484
 30
0.0
 10
61.92007919458943
 20
-80.40060490611513
 30
0.0
 10
62.0024169766869
 20
-80.36046954371197
 30
0.0
 10
62.12058375183097
 20
-80.36046954371197
 30
0.0
 10
62.37379826999683
 20
-80.36046954371197
 30
0.0
 10
62.61013182028497
 20
-80.54667695468973
 30
0.0
 10
62.61013182028497
 20
-80.85966387952467
 30
0.0
 10
62.61013182028497
 20
-81.17712942849045
 30
0.0
 10
62.38654512329226
 20
-81.41191268581022
 30
0.0
 10
62.08475475878437
 20
-81.41191268581022
 30
0.0
  0
HATCH
  5
F4
330
ED
100
AcDbEntity
  8
_U+30EC_U+30A4_U+30E4_U+30FC 1
 62
   179
420
  2234388
100
AcDbHatch
 10
0.0
 20
0.0
 30
0.0
210
0.0
220
0.0
230
1.0
  2
SOLID
 70
     1
 71
     0
 91
        1
 92
        1
 93
        1
 72
     4
 94
        3
 73
     0
 74
     1
 95
       53
 96
       49
 40
0.0
 40
0.0
 40
0.0
 40
0.0
 40
1.0
 40
1.0
 40
1.0
 40
2.0
 40
2.0
 40
2.0
 40
3.0
 40
3.0
 40
3.0
 40
4.0
 40
4.0
 40
4.0
 40
5.0
 40
5.0
 40
5.0
 40
6.0
 40
6.0
 40
6.0
 40
7.0
 40
7.0
 40
7.0
 40
8.0
 40
8.0
 40
8.0
 40
9.0
 40
9.0
 40
9.0
 40
10.0
 40
10.0
 40
10.0
 40
11.0
 40
11.0
 40
11.0
 40
12.0
 40
12.0
 40
12.0
 40
13.0
 40
13.0
 40
13.0
 40
14.0
 40
14.0
 40
14.0
 40
15.0
 40
15.0
 40
15.0
 40
16.0
 40
16.0
 40
16.0
 40
16.0
 10
62.08475475878437
 20
-81.41191268581022
 10
62.00655109126919
 20
-81.41191268581022
 10
61.90526528400285
 20
-81.39485946315823
 10
61.80397947673651
 20
-81.33146970622964
 10
61.63103568337696
 20
-81.22139890547591
 10
61.61002060091694
 20
-81.09031302226215
 10
61.59072806619955
 20
-80.98248153357383
 10
61.59072806619955
 20
-80.98248153357383
 10
61.81259221544963
 20
-80.98248153357383
 10
61.81259221544963
 20
-80.98248153357383
 10
61.8673692336651
 20
-81.18126354307275
 10
61.99380423797378
 20
-81.2108913642459
 10
62.08682181607552
 20
-81.2108913642459
 10
62.22600367367961
 20
-81.2108913642459
 10
62.37793238457913
 20
-81.11150035949643
 10
62.37793238457913
 20
-80.87878415946781
 10
62.37793238457913
 20
-80.62281356491374
 10
62.19844290979761
 20
-80.55305038133744
 10
62.07820907736239
 20
-80.55305038133744
 10
62.04651419889809
 20
-80.55305038133744
 10
61.90526528400285
 20
-80.55305038133744
 10
61.81672633003193
 20
-80.68206920726004
 10
61.81672633003193
 20
-80.68206920726004
 10
61.64137096983271
 20
-80.6629489273169
 10
61.64137096983271
 20
-80.6629489273169
 10
61.64137096983271
 20
-80.6629489273169
 10
61.76160480226793
 20
-79.81683347613955
 10
61.76160480226793
 20
-79.81683347613955
 10
61.76160480226793
 20
-79.81683347613955
 10
62.53812932464325
 20
-79.81683347613955
 10
62.53812932464325
 20
-79.81683347613955
 10
62.53812932464325
 20
-79.81683347613955
 10
62.53812932464325
 20
-80.01148137105616
 10
62.53812932464325
 20
-80.01148137105616
 10
62.53812932464325
 20
-80.01148137105616
 10
61.92421330917173
 20
-80.01148137105616
 10
61.92421330917173
 20
-80.01148137105616
 10
61.92421330917173
 20
-80.01148137105616
 10
61.85875649495198
 20
-80.43453909664484
 10
61.85875649495198
 20
-80.43453909664484
 10
61.92007919458943
 20
-80.40060490611513
 10
62.0024169766869
 20
-80.36046954371197
 10
62.12058375183097
 20
-80.36046954371197
 10
62.37379826999683
 20
-80.36046954371197
 10
62.61013182028497
 20
-80.54667695468973
 10
62.61013182028497
 20
-80.85966387952467
 10
62.61013182028497
 20
-81.17712942849045
 10
62.38654512329226
 20
-81.41191268581022
 10
62.08475475878437
 20
-81.41191268581022
 97
        0
 97
        0
 75
     2
 76
     1
 98
        0
  0
ENDBLK
  5
F0
330
ED
100
AcDbEntity
  8
0
100
AcDbBlockEnd
  0
ENDSEC
  0
SECTION
  2
ENTITIES
  0
POLYLINE
  5
41
330
1F
100
AcDbEntity
  8
_U+30EC_U+30A4_U+30E4_U+30FC 1
 62
   179
420
  2234388
370
    25
100
AcDb2dPolyline
 66
     1
 10
0.0
 20
0.0
 30
0.0
  0
VERTEX
  5
42
330
41
100
AcDbEntity
  8
_U+30EC_U+30A4_U+30E4_U+30FC 1
 62
   179
420
  2234388
370
    25
100
AcDbVertex
100
AcDb2dVertex
 10
54.01701445524449
 20
-91.00735331058127
 30
0.0
  0
VERTEX
  5
43
330
41
100
AcDbEntity
  8
_U+30EC_U+30A4_U+30E4_U+30FC 1
 62
   179
420
  2234388
370
    25
100
AcDbVertex
100
AcDb2dVertex
 10
57.01700276352339
 20
-91.00735331058127
 30
0.0
  0
SEQEND
  5
44
330
41
100
AcDbEntity
  8
_U+30EC_U+30A4_U+30E4_U+30FC 1
 62
   179
420
  2234388
370
    25
  0
POLYLINE
  5
45
330
1F
100
AcDbEntity
  8
_U+30EC_U+30A4_U+30E4_U+30FC 1
 62
   179
420
  2234388
370
    25
100
AcDb2dPolyline
 66
     1
 10
0.0
 20
0.0
 30
0.0
  0
VERTEX
  5
46
330
45
100
AcDbEntity
  8
_U+30EC_U+30A4_U+30E4_U+30FC 1
 62
   179
420
  2234388
370
    25
100
AcDbVertex
100
AcDb2dVertex
 10
47.01712741160426
 20
-94.20715358755953
 30
0.0
  0
VERTEX
  5
47
330
45
100
AcDbEntity
  8
_U+30EC_U+30A4_U+30E4_U+30FC 1
 62
   179
420
  2234388
370
    25
100
AcDbVertex
100
AcDb2dVertex
 10
57.01700276352339
 20
-94.20715358755953
 30
0.0
  0
SEQEND
  5
48
330
45
100
AcDbEntity
  8
_U+30EC_U+30A4_U+30E4_U+30FC 1
 62
   179
420
  2234388
370
    25
  0
POLYLINE
  5
49
330
1F
100
AcDbEntity
  8
_U+30EC_U+30A4_U+30E4_U+30FC 1
 62
   179
420
  2234388
370
    25
100
AcDb2dPolyline
 66
     1
 10
0.0
 20
0.0
 30
0.0
  0
VERTEX
  5
4A
330
49
100
AcDbEntity
  8
_U+30EC_U+30A4_U+30E4_U+30FC 1
 62
   179
420
  2234388
370
    25
100
AcDbVertex
100
AcDb2dVertex
 10
57.01700276352339
 20
-91.00735331058127
 30
0.0
  0
VERTEX
  5
4B
330
49
100
AcDbEntity
  8
_U+30EC_U+30A4_U+30E4_U+30FC 1
 62
   179
420
  2234388
370
    25
100
AcDbVertex
100
AcDb2dVertex
 10
57.01700276352339
 20
-94.20715358755953
 30
0.0
  0
SEQEND
  5
4C
330
49
100
AcDbEntity
  8
_U+30EC_U+30A4_U+30E4_U+30FC 1
 62
   179
420
  2234388
370
    25
  0
POLYLINE
  5
4D
330
1F
100
AcDbEntity
  8
_U+30EC_U+30A4_U+30E4_U+30FC 1
 62
   179
420
  2234388
370
    25
100
AcDb2dPolyline
 66
     1
 10
0.0
 20
0.0
 30
0.0
  0
VERTEX
  5
4E
330
4D
100
AcDbEntity
  8
_U+30EC_U+30A4_U+30E4_U+30FC 1
 62
   179
420
  2234388
370
    25
100
AcDbVertex
100
AcDb2dVertex
 10
54.01701445524449
 20
-92.00747831033158
 30
0.0
  0
VERTEX
  5
4F
330
4D
100
AcDbEntity
  8
_U+30EC_U+30A4_U+30E4_U+30FC 1
 62
   179
420
  2234388
370
    25
100
AcDbVertex
100
AcDb2dVertex
 10
56.01726440421385
 20
-92.00747831033158
 30
0.0
  0
SEQEND
  5
50
330
4D
100
AcDbEntity
  8
_U+30EC_U+30A4_U+30E4_U+30FC 1
 62
   179
420
  2234388
370
    25
  0
POLYLINE
  5
51
330
1F
100
AcDbEntity
  8
_U+30EC_U+30A4_U+30E4_U+30FC 1
 62
   179
420
  2234388
370
    25
100
AcDb2dPolyline
 66
     1
 10
0.0
 20
0.0
 30
0.0
  0
VERTEX
  5
52
330
51
100
AcDbEntity
  8
_U+30EC_U+30A4_U+30E4_U+30FC 1
 62
   179
420
  2234388
370
    25
100
AcDbVertex
100
AcDb2dVertex
 10
54.01701445524449
 20
-91.00735331058127
 30
0.0
  0
VERTEX
  5
53
330
51
100
AcDbEntity
  8
_U+30EC_U+30A4_U+30E4_U+30FC 1
 62
   179
420
  2234388
370
    25
100
AcDbVertex
100
AcDb2dVertex
 10
54.01701445524449
 20
-92.00747831033158
 30
0.0
  0
SEQEND
  5
54
330
51
100
AcDbEntity
  8
_U+30EC_U+30A4_U+30E4_U+30FC 1
 62
   179
420
  2234388
370
    25
  0
POLYLINE
  5
55
330
1F
100
AcDbEntity
  8
_U+30EC_U+30A4_U+30E4_U+30FC 1
 62
   179
420
  2234388
370
    25
100
AcDb2dPolyline
 66
     1
 10
0.0
 20
0.0
 30
0.0
  0
VERTEX
  5
56
330
55
100
AcDbEntity
  8
_U+30EC_U+30A4_U+30E4_U+30FC 1
 62
   179
420
  2234388
370
    25
100
AcDbVertex
100
AcDb2dVertex
 10
47.01712741160426
 20
-93.20741664336451
 30
0.0
  0
VERTEX
  5
57
330
55
100
AcDbEntity
  8
_U+30EC_U+30A4_U+30E4_U+30FC 1
 62
   179
420
  2234388
370
    25
100
AcDbVertex
100
AcDb2dVertex
 10
47.01712741160426
 20
-94.20715358755953
 30
0.0
  0
SEQEND
  5
58
330
55
100
AcDbEntity
  8
_U+30EC_U+30A4_U+30E4_U+30FC 1
 62
   179
420
  2234388
370
    25
  0
POLYLINE
  5
59
330
1F
100
AcDbEntity
  8
_U+30EC_U+30A4_U+30E4_U+30FC 1
 62
   179
420
  2234388
370
    25
100
AcDb2dPolyline
 66
     1
 10
0.0
 20
0.0
 30
0.0
  0
VERTEX
  5
5A
330
59
100
AcDbEntity
  8
_U+30EC_U+30A4_U+30E4_U+30FC 1
 62
   179
420
  2234388
370
    25
100
AcDbVertex
100
AcDb2dVertex
 10
47.01712741160426
 20
-93.20741664336451
 30
0.0
  0
VERTEX
  5
5B
330
59
100
AcDbEntity
  8
_U+30EC_U+30A4_U+30E4_U+30FC 1
 62
   179
420
  2234388
370
    25
100
AcDbVertex
100
AcDb2dVertex
 10
47.51715462106972
 20
-93.20741664336451
 30
0.0
  0
SEQEND
  5
5C
330
59
100
AcDbEntity
  8
_U+30EC_U+30A4_U+30E4_U+30FC 1
 62
   179
420
  2234388
370
    25
  0
POLYLINE
  5
5D
330
1F
100
AcDbEntity
  8
_U+30EC_U+30A4_U+30E4_U+30FC 1
 62
   179
420
  2234388
370
    25
100
AcDb2dPolyline
 66
     1
 10
0.0
 20
0.0
 30
0.0
  0
VERTEX
  5
5E
330
5D
100
AcDbEntity
  8
_U+30EC_U+30A4_U+30E4_U+30FC 1
 62
   179
420
  2234388
370
    25
100
AcDbVertex
100
AcDb2dVertex
 10
48.53862265056546
 20
-93.20741664336451
 30
0.0
  0
VERTEX
  5
5F
330
5D
100
AcDbEntity
  8
_U+30EC_U+30A4_U+30E4_U+30FC 1
 62
   179
420
  2234388
370
    25
100
AcDbVertex
100
AcDb2dVertex
 10
56.01726440421385
 20
-93.20741664336451
 30
0.0
  0
SEQEND
  5
60
330
5D
100
AcDbEntity
  8
_U+30EC_U+30A4_U+30E4_U+30FC 1
 62
   179
420
  2234388
370
    25
  0
POLYLINE
  5
61
330
1F
100
AcDbEntity
  8
_U+30EC_U+30A4_U+30E4_U+30FC 1
 62
   179
420
  2234388
370
    25
100
AcDb2dPolyline
 66
     1
 10
0.0
 20
0.0
 30
0.0
  0
VERTEX
  5
62
330
61
100
AcDbEntity
  8
_U+30EC_U+30A4_U+30E4_U+30FC 1
 62
   179
420
  2234388
370
    25
100
AcDbVertex
100
AcDb2dVertex
 10
56.01726440421385
 20
-92.00747831033158
 30
0.0
  0
VERTEX
  5
63
330
61
100
AcDbEntity
  8
_U+30EC_U+30A4_U+30E4_U+30FC 1
 62
   179
420
  2234388
370
    25
100
AcDbVertex
100
AcDb2dVertex
 10
56.01726440421385
 20
-93.20741664336451
 30
0.0
  0
SEQEND
  5
64
330
61
100
AcDbEntity
  8
_U+30EC_U+30A4_U+30E4_U+30FC 1
 62
   179
420
  2234388
370
    25
  0
POLYLINE
  5
65
330
1F
100
AcDbEntity
  8
_U+30EC_U+30A4_U+30E4_U+30FC 1
 62
   179
420
  2234388
370
    25
100
AcDb2dPolyline
 66
     1
 10
0.0
 20
0.0
 30
0.0
  0
VERTEX
  5
66
330
65
100
AcDbEntity
  8
_U+30EC_U+30A4_U+30E4_U+30FC 1
 62
   179
420
  2234388
370
    25
100
AcDbVertex
100
AcDb2dVertex
 10
49.83021387643141
 20
-87.00727664491478
 30
0.0
  0
VERTEX
  5
67
330
65
100
AcDbEntity
  8
_U+30EC_U+30A4_U+30E4_U+30FC 1
 62
   179
420
  2234388
370
    25
100
AcDbVertex
100
AcDb2dVertex
 10
74.01718561166427
 20
-87.00727664491478
 30
0.0
  0
SEQEND
  5
68
330
65
100
AcDbEntity
  8
_U+30EC_U+30A4_U+30E4_U+30FC 1
 62
   179
420
  2234388
370
    25
  0
POLYLINE
  5
69
330
1F
100
AcDbEntity
  8
_U+30EC_U+30A4_U+30E4_U+30FC 1
 62
   179
420
  2234388
370
    25
100
AcDb2dPolyline
 66
     1
 10
0.0
 20
0.0
 30
0.0
  0
VERTEX
  5
6A
330
69
100
AcDbEntity
  8
_U+30EC_U+30A4_U+30E4_U+30FC 1
 62
   179
420
  2234388
370
    25
100
AcDbVertex
100
AcDb2dVertex
 10
74.01718561166427
 20
-86.00715164516481
 30
0.0
  0
VERTEX
  5
6B
330
69
100
AcDbEntity
  8
_U+30EC_U+30A4_U+30E4_U+30FC 1
 62
   179
420
  2234388
370
    25
100
AcDbVertex
100
AcDb2dVertex
 10
74.01718561166427
 20
-87.00727664491478
 30
0.0
  0
SEQEND
  5
6C
330
69
100
AcDbEntity
  8
_U+30EC_U+30A4_U+30E4_U+30FC 1
 62
   179
420
  2234388
370
    25
  0
POLYLINE
  5
6D
330
1F
100
AcDbEntity
  8
_U+30EC_U+30A4_U+30E4_U+30FC 1
 62
   179
420
  2234388
370
    25
100
AcDb2dPolyline
 66
     1
 10
0.0
 20
0.0
 30
0.0
  0
VERTEX
  5
6E
330
6D
100
AcDbEntity
  8
_U+30EC_U+30A4_U+30E4_U+30FC 1
 62
   179
420
  2234388
370
    25
100
AcDbVertex
100
AcDb2dVertex
 10
49.01716569391237
 20
-86.00715164516481
 30
0.0
  0
VERTEX
  5
6F
330
6D
100
AcDbEntity
  8
_U+30EC_U+30A4_U+30E4_U+30FC 1
 62
   179
420
  2234388
370
    25
100
AcDbVertex
100
AcDb2dVertex
 10
74.01718561166427
 20
-86.00715164516481
 30
0.0
  0
SEQEND
  5
70
330
6D
100
AcDbEntity
  8
_U+30EC_U+30A4_U+30E4_U+30FC 1
 62
   179
420
  2234388
370
    25
  0
POLYLINE
  5
71
330
1F
100
AcDbEntity
  8
_U+30EC_U+30A4_U+30E4_U+30FC 1
 62
   179
420
  2234388
370
    25
100
AcDb2dPolyline
 66
     1
 10
0.0
 20
0.0
 30
0.0
  0
VERTEX
  5
72
330
71
100
AcDbEntity
  8
_U+30EC_U+30A4_U+30E4_U+30FC 1
 62
   179
420
  2234388
370
    25
100
AcDbVertex
100
AcDb2dVertex
 10
49.01716569391237
 20
-86.00715164516481
 30
0.0
  0
VERTEX
  5
73
330
71
100
AcDbEntity
  8
_U+30EC_U+30A4_U+30E4_U+30FC 1
 62
   179
420
  2234388
370
    25
100
AcDbVertex
100
AcDb2dVertex
 10
47.51715462106972
 20
-93.20741664336451
 30
0.0
  0
SEQEND
  5
74
330
71
100
AcDbEntity
  8
_U+30EC_U+30A4_U+30E4_U+30FC 1
 62
   179
420
  2234388
370
    25
  0
POLYLINE
  5
75
330
1F
100
AcDbEntity
  8
_U+30EC_U+30A4_U+30E4_U+30FC 1
 62
   179
420
  2234388
370
    25
100
AcDb2dPolyline
 66
     1
 10
0.0
 20
0.0
 30
0.0
  0
VERTEX
  5
76
330
75
100
AcDbEntity
  8
_U+30EC_U+30A4_U+30E4_U+30FC 1
 62
   179
420
  2234388
370
    25
100
AcDbVertex
100
AcDb2dVertex
 10
49.83021387643141
 20
-87.00727664491478
 30
0.0
  0
VERTEX
  5
77
330
75
100
AcDbEntity
  8
_U+30EC_U+30A4_U+30E4_U+30FC 1
 62
   179
420
  2234388
370
    25
100
AcDbVertex
100
AcDb2dVertex
 10
48.53862265056546
 20
-93.20741664336451
 30
0.0
  0
SEQEND
  5
78
330
75
100
AcDbEntity
  8
_U+30EC_U+30A4_U+30E4_U+30FC 1
 62
   179
420
  2234388
370
    25
  0
SPLINE
  5
79
330
1F
100
AcDbEntity
  8
_U+30EC_U+30A4_U+30E4_U+30FC 1
 62
   179
420
  2234388
370
     9
100
AcDbSpline
210
0.0
220
0.0
230
1.0
 70
    11
 71
     3
 72
    17
 73
    13
 74
     0
 42
0.0000000001
 43
0.0000000001
 12
1.0
 22
0.0
 32
0.0
 13
1.0
 23
0.0
 33
0.0
 40
0.0
 40
0.0
 40
0.0
 40
0.0
 40
1.0
 40
1.0
 40
1.0
 40
2.0
 40
2.0
 40
2.0
 40
3.0
 40
3.0
 40
3.0
 40
4.0
 40
4.0
 40
4.0
 40
4.0
 10
57.1169432650476
 20
-98.20726553100353
 30
0.0
 10
57.1169432650476
 20
-98.15216164212862
 30
0.0
 10
57.07214048841283
 20
-98.1073588643619
 30
0.0
 10
57.01700276352339
 20
-98.1073588643619
 30
0.0
 10
56.96189743566982
 20
-98.1073588643619
 30
0.0
 10
56.91709465903505
 20
-98.15216164212862
 30
0.0
 10
56.91709465903505
 20
-98.20726553100353
 30
0.0
 10
56.91709465903505
 20
-98.2624046976566
 30
0.0
 10
56.96189743566982
 20
-98.30717219764517
 30
0.0
 10
57.01700276352339
 20
-98.30717219764517
 30
0.0
 10
57.07214048841283
 20
-98.30717219764517
 30
0.0
 10
57.1169432650476
 20
-98.2624046976566
 30
0.0
 10
57.1169432650476
 20
-98.20726553100353
 30
0.0
  0
SPLINE
  5
7A
330
1F
100
AcDbEntity
  8
_U+30EC_U+30A4_U+30E4_U+30FC 1
 62
   179
420
  2234388
370
     9
100
AcDbSpline
210
0.0
220
0.0
230
1.0
 70
    11
 71
     3
 72
    17
 73
    13
 74
     0
 42
0.0000000001
 43
0.0000000001
 12
1.0
 22
0.0
 32
0.0
 13
1.0
 23
0.0
 33
0.0
 40
0.0
 40
0.0
 40
0.0
 40
0.0
 40
1.0
 40
1.0
 40
1.0
 40
2.0
 40
2.0
 40
2.0
 40
3.0
 40
3.0
 40
3.0
 40
4.0
 40
4.0
 40
4.0
 40
4.0
 10
47.11717518682961
 20
-98.20726553100353
 30
0.0
 10
47.11717518682961
 20
-98.15216164212862
 30
0.0
 10
47.07240768797172
 20
-98.1073588643619
 30
0.0
 10
47.01712741160426
 20
-98.1073588643619
 30
0.0
 10
46.96198824634431
 20
-98.1073588643619
 30
0.0
 10
46.91722074748643
 20
-98.15216164212862
 30
0.0
 10
46.91722074748643
 20
-98.20726553100353
 30
0.0
 10
46.91722074748643
 20
-98.2624046976566
 30
0.0
 10
46.96198824634431
 20
-98.30717219764517
 30
0.0
 10
47.01712741160426
 20
-98.30717219764517
 30
0.0
 10
47.07240768797172
 20
-98.30717219764517
 30
0.0
 10
47.11717518682961
 20
-98.2624046976566
 30
0.0
 10
47.11717518682961
 20
-98.20726553100353
 30
0.0
  0
SPLINE
  5
7B
330
1F
100
AcDbEntity
  8
_U+30EC_U+30A4_U+30E4_U+30FC 1
 62
   179
420
  2234388
370
     9
100
AcDbSpline
210
0.0
220
0.0
230
1.0
 70
    11
 71
     3
 72
    17
 73
    13
 74
     0
 42
0.0000000001
 43
0.0000000001
 12
1.0
 22
0.0
 32
0.0
 13
1.0
 23
0.0
 33
0.0
 40
0.0
 40
0.0
 40
0.0
 40
0.0
 40
1.0
 40
1.0
 40
1.0
 40
2.0
 40
2.0
 40
2.0
 40
3.0
 40
3.0
 40
3.0
 40
4.0
 40
4.0
 40
4.0
 40
4.0
 10
78.1172041181752
 20
-86.00715164516481
 30
0.0
 10
78.1172041181752
 20
-85.95204775628989
 30
0.0
 10
78.07240134154044
 20
-85.90724497852317
 30
0.0
 10
78.01729745405737
 20
-85.90724497852317
 30
0.0
 10
77.96180551102864
 20
-85.90724497852317
 30
0.0
 10
77.91703801217075
 20
-85.95204775628989
 30
0.0
 10
77.91703801217075
 20
-86.00715164516481
 30
0.0
 10
77.91703801217075
 20
-86.0626083118178
 30
0.0
 10
77.96180551102864
 20
-86.1074110895842
 30
0.0
 10
78.01729745405737
 20
-86.1074110895842
 30
0.0
 10
78.07240134154044
 20
-86.1074110895842
 30
0.0
 10
78.1172041181752
 20
-86.0626083118178
 30
0.0
 10
78.1172041181752
 20
-86.00715164516481
 30
0.0
  0
SPLINE
  5
7C
330
1F
100
AcDbEntity
  8
_U+30EC_U+30A4_U+30E4_U+30FC 1
 62
   179
420
  2234388
370
     9
100
AcDbSpline
210
0.0
220
0.0
230
1.0
 70
    11
 71
     3
 72
    17
 73
    13
 74
     0
 42
0.0000000001
 43
0.0000000001
 12
1.0
 22
0.0
 32
0.0
 13
1.0
 23
0.0
 33
0.0
 40
0.0
 40
0.0
 40
0.0
 40
0.0
 40
1.0
 40
1.0
 40
1.0
 40
2.0
 40
2.0
 40
2.0
 40
3.0
 40
3.0
 40
3.0
 40
4.0
 40
4.0
 40
4.0
 40
4.0
 10
78.1172041181752
 20
-87.00727664491478
 30
0.0
 10
78.1172041181752
 20
-86.95213747826203
 30
0.0
 10
78.07240134154044
 20
-86.90736997827315
 30
0.0
 10
78.01729745405737
 20
-86.90736997827315
 30
0.0
 10
77.96180551102864
 20
-86.90736997827315
 30
0.0
 10
77.91703801217075
 20
-86.95213747826203
 30
0.0
 10
77.91703801217075
 20
-87.00727664491478
 30
0.0
 10
77.91703801217075
 20
-87.06273331156778
 30
0.0
 10
77.96180551102864
 20
-87.10750081155635
 30
0.0
 10
78.01729745405737
 20
-87.10750081155635
 30
0.0
 10
78.07240134154044
 20
-87.10750081155635
 30
0.0
 10
78.1172041181752
 20
-87.06273331156778
 30
0.0
 10
78.1172041181752
 20
-87.00727664491478
 30
0.0
  0
SPLINE
  5
7D
330
1F
100
AcDbEntity
  8
_U+30EC_U+30A4_U+30E4_U+30FC 1
 62
   179
420
  2234388
370
     9
100
AcDbSpline
210
0.0
220
0.0
230
1.0
 70
    11
 71
     3
 72
    17
 73
    13
 74
     0
 42
0.0000000001
 43
0.0000000001
 12
1.0
 22
0.0
 32
0.0
 13
1.0
 23
0.0
 33
0.0
 40
0.0
 40
0.0
 40
0.0
 40
0.0
 40
1.0
 40
1.0
 40
1.0
 40
2.0
 40
2.0
 40
2.0
 40
3.0
 40
3.0
 40
3.0
 40
4.0
 40
4.0
 40
4.0
 40
4.0
 10
78.1172041181752
 20
-91.00735331058127
 30
0.0
 10
78.1172041181752
 20
-90.95224942170636
 30
0.0
 10
78.07240134154044
 20
-90.90744664393964
 30
0.0
 10
78.01729745405737
 20
-90.90744664393964
 30
0.0
 10
77.96180551102864
 20
-90.90744664393964
 30
0.0
 10
77.91703801217075
 20
-90.95224942170636
 30
0.0
 10
77.91703801217075
 20
-91.00735331058127
 30
0.0
 10
77.91703801217075
 20
-91.06249247723434
 30
0.0
 10
77.96180551102864
 20
-91.10725997722291
 30
0.0
 10
78.01729745405737
 20
-91.10725997722291
 30
0.0
 10
78.07240134154044
 20
-91.10725997722291
 30
0.0
 10
78.1172041181752
 20
-91.06249247723434
 30
0.0
 10
78.1172041181752
 20
-91.00735331058127
 30
0.0
  0
SPLINE
  5
7E
330
1F
100
AcDbEntity
  8
_U+30EC_U+30A4_U+30E4_U+30FC 1
 62
   179
420
  2234388
370
     9
100
AcDbSpline
210
0.0
220
0.0
230
1.0
 70
    11
 71
     3
 72
    17
 73
    13
 74
     0
 42
0.0000000001
 43
0.0000000001
 12
1.0
 22
0.0
 32
0.0
 13
1.0
 23
0.0
 33
0.0
 40
0.0
 40
0.0
 40
0.0
 40
0.0
 40
1.0
 40
1.0
 40
1.0
 40
2.0
 40
2.0
 40
2.0
 40
3.0
 40
3.0
 40
3.0
 40
4.0
 40
4.0
 40
4.0
 40
4.0
 10
78.1172041181752
 20
-94.20715358755953
 30
0.0
 10
78.1172041181752
 20
-94.15204969868397
 30
0.0
 10
78.07240134154044
 20
-94.10724692091789
 30
0.0
 10
78.01729745405737
 20
-94.10724692091789
 30
0.0
 10
77.96180551102864
 20
-94.10724692091789
 30
0.0
 10
77.91703801217075
 20
-94.15204969868397
 30
0.0
 10
77.91703801217075
 20
-94.20715358755953
 30
0.0
 10
77.91703801217075
 20
-94.26264553198973
 30
0.0
 10
77.96180551102864
 20
-94.30741303197892
 30
0.0
 10
78.01729745405737
 20
-94.30741303197892
 30
0.0
 10
78.07240134154044
 20
-94.30741303197892
 30
0.0
 10
78.1172041181752
 20
-94.26264553198973
 30
0.0
 10
78.1172041181752
 20
-94.20715358755953
 30
0.0
  0
SPLINE
  5
7F
330
1F
100
AcDbEntity
  8
_U+30EC_U+30A4_U+30E4_U+30FC 1
 62
   179
420
  2234388
370
     9
100
AcDbSpline
210
0.0
220
0.0
230
1.0
 70
    11
 71
     3
 72
    17
 73
    13
 74
     0
 42
0.0000000001
 43
0.0000000001
 12
1.0
 22
0.0
 32
0.0
 13
1.0
 23
0.0
 33
0.0
 40
0.0
 40
0.0
 40
0.0
 40
0.0
 40
1.0
 40
1.0
 40
1.0
 40
2.0
 40
2.0
 40
2.0
 40
3.0
 40
3.0
 40
3.0
 40
4.0
 40
4.0
 40
4.0
 40
4.0
 10
74.11709227578211
 20
-82.00739247949824
 30
0.0
 10
74.11709227578211
 20
-81.952288590623
 30
0.0
 10
74.07232477692422
 20
-81.9074858128566
 30
0.0
 10
74.01718561166427
 20
-81.9074858128566
 30
0.0
 10
73.9620817241812
 20
-81.9074858128566
 30
0.0
 10
73.91727894754644
 20
-81.952288590623
 30
0.0
 10
73.91727894754644
 20
-82.00739247949824
 30
0.0
 10
73.91727894754644
 20
-82.062531646151
 30
0.0
 10
73.9620817241812
 20
-82.10729914613988
 30
0.0
 10
74.01718561166427
 20
-82.10729914613988
 30
0.0
 10
74.07232477692422
 20
-82.10729914613988
 30
0.0
 10
74.11709227578211
 20
-82.062531646151
 30
0.0
 10
74.11709227578211
 20
-82.00739247949824
 30
0.0
  0
SPLINE
  5
80
330
1F
100
AcDbEntity
  8
_U+30EC_U+30A4_U+30E4_U+30FC 1
 62
   179
420
  2234388
370
     9
100
AcDbSpline
210
0.0
220
0.0
230
1.0
 70
    11
 71
     3
 72
    17
 73
    13
 74
     0
 42
0.0000000001
 43
0.0000000001
 12
1.0
 22
0.0
 32
0.0
 13
1.0
 23
0.0
 33
0.0
 40
0.0
 40
0.0
 40
0.0
 40
0.0
 40
1.0
 40
1.0
 40
1.0
 40
2.0
 40
2.0
 40
2.0
 40
3.0
 40
3.0
 40
3.0
 40
4.0
 40
4.0
 40
4.0
 40
4.0
 10
49.1170723580302
 20
-82.00739247949824
 30
0.0
 10
49.1170723580302
 20
-81.952288590623
 30
0.0
 10
49.07244720995413
 20
-81.9074858128566
 30
0.0
 10
49.01716569391237
 20
-81.9074858128566
 30
0.0
 10
48.96188541754491
 20
-81.9074858128566
 30
0.0
 10
48.91708264091014
 20
-81.952288590623
 30
0.0
 10
48.91708264091014
 20
-82.00739247949824
 30
0.0
 10
48.91708264091014
 20
-82.062531646151
 30
0.0
 10
48.96188541754491
 20
-82.10729914613988
 30
0.0
 10
49.01716569391237
 20
-82.10729914613988
 30
0.0
 10
49.07244720995413
 20
-82.10729914613988
 30
0.0
 10
49.1170723580302
 20
-82.062531646151
 30
0.0
 10
49.1170723580302
 20
-82.00739247949824
 30
0.0
  0
POLYLINE
  5
81
330
1F
100
AcDbEntity
  8
_U+30EC_U+30A4_U+30E4_U+30FC 1
 62
   179
420
  2234388
370
     9
100
AcDb2dPolyline
 66
     1
 10
0.0
 20
0.0
 30
0.0
  0
VERTEX
  5
82
330
81
100
AcDbEntity
  8
_U+30EC_U+30A4_U+30E4_U+30FC 1
 62
   179
420
  2234388
370
     9
100
AcDbVertex
100
AcDb2dVertex
 10
47.01712741160426
 20
-98.20726553100353
 30
0.0
  0
VERTEX
  5
83
330
81
100
AcDbEntity
  8
_U+30EC_U+30A4_U+30E4_U+30FC 1
 62
   179
420
  2234388
370
     9
100
AcDbVertex
100
AcDb2dVertex
 10
57.01700276352339
 20
-98.20726553100353
 30
0.0
  0
SEQEND
  5
84
330
81
100
AcDbEntity
  8
_U+30EC_U+30A4_U+30E4_U+30FC 1
 62
   179
420
  2234388
370
     9
  0
POLYLINE
  5
85
330
1F
100
AcDbEntity
  8
_U+30EC_U+30A4_U+30E4_U+30FC 1
 62
   179
420
  2234388
370
     9
100
AcDb2dPolyline
 66
     1
 10
0.0
 20
0.0
 30
0.0
  0
VERTEX
  5
86
330
85
100
AcDbEntity
  8
_U+30EC_U+30A4_U+30E4_U+30FC 1
 62
   179
420
  2234388
370
     9
100
AcDbVertex
100
AcDb2dVertex
 10
47.01712741160426
 20
-96.74722414247982
 30
0.0
  0
VERTEX
  5
87
330
85
100
AcDbEntity
  8
_U+30EC_U+30A4_U+30E4_U+30FC 1
 62
   179
420
  2234388
370
     9
100
AcDbVertex
100
AcDb2dVertex
 10
47.01712741160426
 20
-99.20739053075384
 30
0.0
  0
SEQEND
  5
88
330
85
100
AcDbEntity
  8
_U+30EC_U+30A4_U+30E4_U+30FC 1
 62
   179
420
  2234388
370
     9
  0
POLYLINE
  5
89
330
1F
100
AcDbEntity
  8
_U+30EC_U+30A4_U+30E4_U+30FC 1
 62
   179
420
  2234388
370
     9
100
AcDb2dPolyline
 66
     1
 10
0.0
 20
0.0
 30
0.0
  0
VERTEX
  5
8A
330
89
100
AcDbEntity
  8
_U+30EC_U+30A4_U+30E4_U+30FC 1
 62
   179
420
  2234388
370
     9
100
AcDbVertex
100
AcDb2dVertex
 10
57.01700276352339
 20
-96.74722414247982
 30
0.0
  0
VERTEX
  5
8B
330
89
100
AcDbEntity
  8
_U+30EC_U+30A4_U+30E4_U+30FC 1
 62
   179
420
  2234388
370
     9
100
AcDbVertex
100
AcDb2dVertex
 10
57.01700276352339
 20
-99.20739053075384
 30
0.0
  0
SEQEND
  5
8C
330
89
100
AcDbEntity
  8
_U+30EC_U+30A4_U+30E4_U+30FC 1
 62
   179
420
  2234388
370
     9
  0
INSERT
  5
8E
330
1F
100
AcDbEntity
  8
_U+30EC_U+30A4_U+30E4_U+30FC 1
100
AcDbBlockReference
  2
block 2
 10
0.0
 20
0.0
 30
0.0
  0
POLYLINE
  5
96
330
1F
100
AcDbEntity
  8
_U+30EC_U+30A4_U+30E4_U+30FC 1
 62
   179
420
  2234388
370
     9
100
AcDb2dPolyline
 66
     1
 10
0.0
 20
0.0
 30
0.0
  0
VERTEX
  5
97
330
96
100
AcDbEntity
  8
_U+30EC_U+30A4_U+30E4_U+30FC 1
 62
   179
420
  2234388
370
     9
100
AcDbVertex
100
AcDb2dVertex
 10
78.01729745405737
 20
-91.00735331058127
 30
0.0
  0
VERTEX
  5
98
330
96
100
AcDbEntity
  8
_U+30EC_U+30A4_U+30E4_U+30FC 1
 62
   179
420
  2234388
370
     9
100
AcDbVertex
100
AcDb2dVertex
 10
78.01729745405737
 20
-94.20715358755953
 30
0.0
  0
SEQEND
  5
99
330
96
100
AcDbEntity
  8
_U+30EC_U+30A4_U+30E4_U+30FC 1
 62
   179
420
  2234388
370
     9
  0
POLYLINE
  5
9A
330
1F
100
AcDbEntity
  8
_U+30EC_U+30A4_U+30E4_U+30FC 1
 62
   179
420
  2234388
370
     9
100
AcDb2dPolyline
 66
     1
 10
0.0
 20
0.0
 30
0.0
  0
VERTEX
  5
9B
330
9A
100
AcDbEntity
  8
_U+30EC_U+30A4_U+30E4_U+30FC 1
 62
   179
420
  2234388
370
     9
100
AcDbVertex
100
AcDb2dVertex
 10
59.55707181390585
 20
-91.00735331058127
 30
0.0
  0
VERTEX
  5
9C
330
9A
100
AcDbEntity
  8
_U+30EC_U+30A4_U+30E4_U+30FC 1
 62
   179
420
  2234388
370
     9
100
AcDbVertex
100
AcDb2dVertex
 10
79.01706965077328
 20
-91.00735331058127
 30
0.0
  0
SEQEND
  5
9D
330
9A
100
AcDbEntity
  8
_U+30EC_U+30A4_U+30E4_U+30FC 1
 62
   179
420
  2234388
370
     9
  0
POLYLINE
  5
9E
330
1F
100
AcDbEntity
  8
_U+30EC_U+30A4_U+30E4_U+30FC 1
 62
   179
420
  2234388
370
     9
100
AcDb2dPolyline
 66
     1
 10
0.0
 20
0.0
 30
0.0
  0
VERTEX
  5
9F
330
9E
100
AcDbEntity
  8
_U+30EC_U+30A4_U+30E4_U+30FC 1
 62
   179
420
  2234388
370
     9
100
AcDbVertex
100
AcDb2dVertex
 10
59.55707181390585
 20
-94.20715358755953
 30
0.0
  0
VERTEX
  5
A0
330
9E
100
AcDbEntity
  8
_U+30EC_U+30A4_U+30E4_U+30FC 1
 62
   179
420
  2234388
370
     9
100
AcDbVertex
100
AcDb2dVertex
 10
79.01706965077328
 20
-94.20715358755953
 30
0.0
  0
SEQEND
  5
A1
330
9E
100
AcDbEntity
  8
_U+30EC_U+30A4_U+30E4_U+30FC 1
 62
   179
420
  2234388
370
     9
  0
INSERT
  5
A3
330
1F
100
AcDbEntity
  8
_U+30EC_U+30A4_U+30E4_U+30FC 1
100
AcDbBlockReference
  2
block 3
 10
0.0
 20
0.0
 30
0.0
  0
POLYLINE
  5
B2
330
1F
100
AcDbEntity
  8
_U+30EC_U+30A4_U+30E4_U+30FC 1
 62
   179
420
  2234388
370
     9
100
AcDb2dPolyline
 66
     1
 10
0.0
 20
0.0
 30
0.0
  0
VERTEX
  5
B3
330
B2
100
AcDbEntity
  8
_U+30EC_U+30A4_U+30E4_U+30FC 1
 62
   179
420
  2234388
370
     9
100
AcDbVertex
100
AcDb2dVertex
 10
78.01729745405737
 20
-87.00727664491478
 30
0.0
  0
VERTEX
  5
B4
330
B2
100
AcDbEntity
  8
_U+30EC_U+30A4_U+30E4_U+30FC 1
 62
   179
420
  2234388
370
     9
100
AcDbVertex
100
AcDb2dVertex
 10
78.01729745405737
 20
-91.00735331058127
 30
0.0
  0
SEQEND
  5
B5
330
B2
100
AcDbEntity
  8
_U+30EC_U+30A4_U+30E4_U+30FC 1
 62
   179
420
  2234388
370
     9
  0
POLYLINE
  5
B6
330
1F
100
AcDbEntity
  8
_U+30EC_U+30A4_U+30E4_U+30FC 1
 62
   179
420
  2234388
370
     9
100
AcDb2dPolyline
 66
     1
 10
0.0
 20
0.0
 30
0.0
  0
VERTEX
  5
B7
330
B6
100
AcDbEntity
  8
_U+30EC_U+30A4_U+30E4_U+30FC 1
 62
   179
420
  2234388
370
     9
100
AcDbVertex
100
AcDb2dVertex
 10
76.55725610241724
 20
-87.00727664491478
 30
0.0
  0
VERTEX
  5
B8
330
B6
100
AcDbEntity
  8
_U+30EC_U+30A4_U+30E4_U+30FC 1
 62
   179
420
  2234388
370
     9
100
AcDbVertex
100
AcDb2dVertex
 10
79.01706965077328
 20
-87.00727664491478
 30
0.0
  0
SEQEND
  5
B9
330
B6
100
AcDbEntity
  8
_U+30EC_U+30A4_U+30E4_U+30FC 1
 62
   179
420
  2234388
370
     9
  0
INSERT
  5
BB
330
1F
100
AcDbEntity
  8
_U+30EC_U+30A4_U+30E4_U+30FC 1
100
AcDbBlockReference
  2
block 4
 10
0.0
 20
0.0
 30
0.0
  0
POLYLINE
  5
D3
330
1F
100
AcDbEntity
  8
_U+30EC_U+30A4_U+30E4_U+30FC 1
 62
   179
420
  2234388
370
     9
100
AcDb2dPolyline
 66
     1
 10
0.0
 20
0.0
 30
0.0
  0
VERTEX
  5
D4
330
D3
100
AcDbEntity
  8
_U+30EC_U+30A4_U+30E4_U+30FC 1
 62
   179
420
  2234388
370
     9
100
AcDbVertex
100
AcDb2dVertex
 10
78.01729745405737
 20
-87.00727664491478
 30
0.0
  0
VERTEX
  5
D5
330
D3
100
AcDbEntity
  8
_U+30EC_U+30A4_U+30E4_U+30FC 1
 62
   179
420
  2234388
370
     9
100
AcDbVertex
100
AcDb2dVertex
 10
78.01729745405737
 20
-86.00715164516481
 30
0.0
  0
SEQEND
  5
D6
330
D3
100
AcDbEntity
  8
_U+30EC_U+30A4_U+30E4_U+30FC 1
 62
   179
420
  2234388
370
     9
  0
POLYLINE
  5
D7
330
1F
100
AcDbEntity
  8
_U+30EC_U+30A4_U+30E4_U+30FC 1
 62
   179
420
  2234388
370
     9
100
AcDb2dPolyline
 66
     1
 10
0.0
 20
0.0
 30
0.0
  0
VERTEX
  5
D8
330
D7
100
AcDbEntity
  8
_U+30EC_U+30A4_U+30E4_U+30FC 1
 62
   179
420
  2234388
370
     9
100
AcDbVertex
100
AcDb2dVertex
 10
76.55725610241724
 20
-86.00715164516481
 30
0.0
  0
VERTEX
  5
D9
330
D7
100
AcDbEntity
  8
_U+30EC_U+30A4_U+30E4_U+30FC 1
 62
   179
420
  2234388
370
     9
100
AcDbVertex
100
AcDb2dVertex
 10
79.01706965077328
 20
-86.00715164516481
 30
0.0
  0
SEQEND
  5
DA
330
D7
100
AcDbEntity
  8
_U+30EC_U+30A4_U+30E4_U+30FC 1
 62
   179
420
  2234388
370
     9
  0
INSERT
  5
DC
330
1F
100
AcDbEntity
  8
_U+30EC_U+30A4_U+30E4_U+30FC 1
100
AcDbBlockReference
  2
block 5
 10
0.0
 20
0.0
 30
0.0
  0
POLYLINE
  5
E1
330
1F
100
AcDbEntity
  8
_U+30EC_U+30A4_U+30E4_U+30FC 1
 62
   179
420
  2234388
370
     9
100
AcDb2dPolyline
 66
     1
 10
0.0
 20
0.0
 30
0.0
  0
VERTEX
  5
E2
330
E1
100
AcDbEntity
  8
_U+30EC_U+30A4_U+30E4_U+30FC 1
 62
   179
420
  2234388
370
     9
100
AcDbVertex
100
AcDb2dVertex
 10
49.01716569391237
 20
-82.00739247949824
 30
0.0
  0
VERTEX
  5
E3
330
E1
100
AcDbEntity
  8
_U+30EC_U+30A4_U+30E4_U+30FC 1
 62
   179
420
  2234388
370
     9
100
AcDbVertex
100
AcDb2dVertex
 10
74.01718561166427
 20
-82.00739247949824
 30
0.0
  0
SEQEND
  5
E4
330
E1
100
AcDbEntity
  8
_U+30EC_U+30A4_U+30E4_U+30FC 1
 62
   179
420
  2234388
370
     9
  0
POLYLINE
  5
E5
330
1F
100
AcDbEntity
  8
_U+30EC_U+30A4_U+30E4_U+30FC 1
 62
   179
420
  2234388
370
     9
100
AcDb2dPolyline
 66
     1
 10
0.0
 20
0.0
 30
0.0
  0
VERTEX
  5
E6
330
E5
100
AcDbEntity
  8
_U+30EC_U+30A4_U+30E4_U+30FC 1
 62
   179
420
  2234388
370
     9
100
AcDbVertex
100
AcDb2dVertex
 10
49.01716569391237
 20
-83.46743386802194
 30
0.0
  0
VERTEX
  5
E7
330
E5
100
AcDbEntity
  8
_U+30EC_U+30A4_U+30E4_U+30FC 1
 62
   179
420
  2234388
370
     9
100
AcDbVertex
100
AcDb2dVertex
 10
49.01716569391237
 20
-81.0073027575261
 30
0.0
  0
SEQEND
  5
E8
330
E5
100
AcDbEntity
  8
_U+30EC_U+30A4_U+30E4_U+30FC 1
 62
   179
420
  2234388
370
     9
  0
POLYLINE
  5
E9
330
1F
100
AcDbEntity
  8
_U+30EC_U+30A4_U+30E4_U+30FC 1
 62
   179
420
  2234388
370
     9
100
AcDb2dPolyline
 66
     1
 10
0.0
 20
0.0
 30
0.0
  0
VERTEX
  5
EA
330
E9
100
AcDbEntity
  8
_U+30EC_U+30A4_U+30E4_U+30FC 1
 62
   179
420
  2234388
370
     9
100
AcDbVertex
100
AcDb2dVertex
 10
74.01718561166427
 20
-83.46743386802194
 30
0.0
  0
VERTEX
  5
EB
330
E9
100
AcDbEntity
  8
_U+30EC_U+30A4_U+30E4_U+30FC 1
 62
   179
420
  2234388
370
     9
100
AcDbVertex
100
AcDb2dVertex
 10
74.01718561166427
 20
-81.0073027575261
 30
0.0
  0
SEQEND
  5
EC
330
E9
100
AcDbEntity
  8
_U+30EC_U+30A4_U+30E4_U+30FC 1
 62
   179
420
  2234388
370
     9
  0
INSERT
  5
EE
330
1F
100
AcDbEntity
  8
_U+30EC_U+30A4_U+30E4_U+30FC 1
100
AcDbBlockReference
  2
block 6
 10
0.0
 20
0.0
 30
0.0
  0
ENDSEC
  0
SECTION
  2
OBJECTS
  0
DICTIONARY
  5
C
330
0
100
AcDbDictionary
281
     1
  3
ACAD_GROUP
350
D
  3
ACAD_LAYOUT
350
1A
  3
ACAD_MATERIAL
350
3B
  3
ACAD_MLEADERSTYLE
350
F6
  3
ACAD_MLINESTYLE
350
17
  3
ACAD_PLOTSETTINGS
350
19
  3
ACAD_PLOTSTYLENAME
350
E
  3
ACAD_TABLESTYLE
350
F5
  3
ACAD_VISUALSTYLE
350
2A
  0
SUN
  5
3F
330
29
100
AcDbSun
 90
        1
290
     0
 63
     7
421
 16777215
 40
1.0
291
     1
 91
  2455826
 92
 54000000
292
     0
 70
     2
 71
   256
280
     1
  0
DICTIONARY
  5
D
102
{ACAD_REACTORS
330
C
102
}
330
C
100
AcDbDictionary
281
     1
  0
DICTIONARY
  5
1A
102
{ACAD_REACTORS
330
C
102
}
330
C
100
AcDbDictionary
281
     1
  3
Layout1
350
1E
  3
Layout2
350
26
  3
Model
350
22
  0
DICTIONARY
  5
3B
102
{ACAD_REACTORS
330
C
102
}
330
C
100
AcDbDictionary
281
     1
  3
ByBlock
350
3D
  3
ByLayer
350
3C
  3
Global
350
3E
  0
DICTIONARY
  5
F6
102
{ACAD_REACTORS
330
C
102
}
330
C
100
AcDbDictionary
281
     1
  0
DICTIONARY
  5
17
102
{ACAD_REACTORS
330
C
102
}
330
C
100
AcDbDictionary
281
     1
  3
Standard
350
18
  0
DICTIONARY
  5
19
102
{ACAD_REACTORS
330
C
102
}
330
C
100
AcDbDictionary
281
     1
  0
ACDBDICTIONARYWDFLT
  5
E
102
{ACAD_REACTORS
330
C
102
}
330
C
100
AcDbDictionary
281
     1
  3
Normal
350
F
100
AcDbDictionaryWithDefault
340
F
  0
DICTIONARY
  5
F5
102
{ACAD_REACTORS
330
C
102
}
330
C
100
AcDbDictionary
281
     1
  0
DICTIONARY
  5
2A
102
{ACAD_REACTORS
330
C
102
}
330
C
100
AcDbDictionary
281
     1
  3
2dWireframe
350
2F
  3
3D Hidden
350
31
  3
3dWireframe
350
30
  3
Basic
350
32
  3
Brighten
350
36
  3
ColorChange
350
3A
  3
Conceptual
350
34
  3
Dim
350
35
  3
Facepattern
350
39
  3
Flat
350
2B
  3
FlatWithEdges
350
2C
  3
Gouraud
350
2D
  3
GouraudWithEdges
350
2E
  3
Linepattern
350
38
  3
Realistic
350
33
  3
Thicken
350
37
  0
LAYOUT
  5
1E
102
{ACAD_REACTORS
330
1A
102
}
330
1A
100
AcDbPlotSettings
  1

  2
none_device
  4

  6

 40
0.0
 41
0.0
 42
0.0
 43
0.0
 44
0.0
 45
0.0
 46
0.0
 47
0.0
 48
0.0
 49
0.0
140
0.0
141
0.0
142
1.0
143
1.0
 70
   688
 72
     0
 73
     0
 74
     5
  7

 75
    16
 76
     0
 77
     2
 78
   300
147
1.0
148
0.0
149
0.0
100
AcDbLayout
  1
Layout1
 70
     1
 71
     1
 10
0.0
 20
0.0
 11
12.0
 21
9.0
 12
0.0
 22
0.0
 32
0.0
 14
1.000000000000000E+20
 24
1.000000000000000E+20
 34
1.000000000000000E+20
 15
-1.000000000000000E+20
 25
-1.000000000000000E+20
 35
-1.000000000000000E+20
146
0.0
 13
0.0
 23
0.0
 33
0.0
 16
1.0
 26
0.0
 36
0.0
 17
0.0
 27
1.0
 37
0.0
 76
     0
330
1B
  0
LAYOUT
  5
26
102
{ACAD_REACTORS
330
1A
102
}
330
1A
100
AcDbPlotSettings
  1

  2
none_device
  4

  6

 40
0.0
 41
0.0
 42
0.0
 43
0.0
 44
0.0
 45
0.0
 46
0.0
 47
0.0
 48
0.0
 49
0.0
140
0.0
141
0.0
142
1.0
143
1.0
 70
   688
 72
     0
 73
     0
 74
     5
  7

 75
    16
 76
     0
 77
     2
 78
   300
147
1.0
148
0.0
149
0.0
100
AcDbLayout
  1
Layout2
 70
     1
 71
     2
 10
0.0
 20
0.0
 11
0.0
 21
0.0
 12
0.0
 22
0.0
 32
0.0
 14
0.0
 24
0.0
 34
0.0
 15
0.0
 25
0.0
 35
0.0
146
0.0
 13
0.0
 23
0.0
 33
0.0
 16
1.0
 26
0.0
 36
0.0
 17
0.0
 27
1.0
 37
0.0
 76
     0
330
23
  0
LAYOUT
  5
22
102
{ACAD_REACTORS
330
1A
102
}
330
1A
100
AcDbPlotSettings
  1

  2
none_device
  4

  6

 40
0.0
 41
0.0
 42
0.0
 43
0.0
 44
0.0
 45
0.0
 46
0.0
 47
0.0
 48
0.0
 49
0.0
140
0.0
141
0.0
142
1.0
143
1.0
 70
  1712
 72
     0
 73
     0
 74
     0
  7

 75
     0
 76
     0
 77
     2
 78
   300
147
1.0
148
0.0
149
0.0
100
AcDbLayout
  1
Model
 70
     1
 71
     0
 10
0.0
 20
0.0
 11
12.0
 21
9.0
 12
0.0
 22
0.0
 32
0.0
 14
1.000000000000000E+20
 24
1.000000000000000E+20
 34
1.000000000000000E+20
 15
-1.000000000000000E+20
 25
-1.000000000000000E+20
 35
-1.000000000000000E+20
146
0.0
 13
0.0
 23
0.0
 33
0.0
 16
1.0
 26
0.0
 36
0.0
 17
0.0
 27
1.0
 37
0.0
 76
     0
330
1F
331
29
  0
MATERIAL
  5
3D
102
{ACAD_REACTORS
330
3B
102
}
330
3B
100
AcDbMaterial
  1
ByBlock
 72
     1
 94
      127
  0
MATERIAL
  5
3C
102
{ACAD_REACTORS
330
3B
102
}
330
3B
100
AcDbMaterial
  1
ByLayer
 72
     1
 94
      127
  0
MATERIAL
  5
3E
102
{ACAD_REACTORS
330
3B
102
}
330
3B
100
AcDbMaterial
  1
Global
 72
     1
 94
      127
  0
MLINESTYLE
  5
18
102
{ACAD_REACTORS
330
17
102
}
330
17
100
AcDbMlineStyle
  2
Standard
 70
     0
  3

 62
   256
 51
90.0
 52
90.0
 71
     2
 49
0.5
 62
   256
  6
BYLAYER
 49
-0.5
 62
   256
  6
BYLAYER
  0
ACDBPLACEHOLDER
  5
F
102
{ACAD_REACTORS
330
E
102
}
330
E
  0
VISUALSTYLE
  5
2F
102
{ACAD_REACTORS
330
2A
102
}
330
2A
100
AcDbVisualStyle
  2
2dWireframe
 70
     4
177
     2
291
     0
 71
     0
176
     1
 72
     2
176
     1
 73
     0
176
     1
 90
        0
176
     1
 40
-0.6
176
     1
 41
-30.0
176
     1
 62
     5
 63
     7
421
 16777215
176
     1
 74
     1
176
     1
 91
        4
176
     1
 64
     7
176
     1
 65
   257
176
     1
 75
     1
176
     1
175
     1
176
     1
 42
1.0
176
     1
 92
        0
176
     1
 66
   257
176
     1
 43
1.0
176
     1
 76
     1
176
     1
 77
     6
176
     1
 78
     2
176
     1
 67
     7
176
     1
 79
     5
176
     1
170
     0
176
     1
171
     0
176
     1
290
     0
176
     1
 93
        1
176
     1
 44
0.0
176
     1
173
     0
176
     1
  0
VISUALSTYLE
  5
31
102
{ACAD_REACTORS
330
2A
102
}
330
2A
100
AcDbVisualStyle
  2
3D Hidden
 70
     6
177
     2
291
     0
 71
     1
176
     1
 72
     2
176
     1
 73
     2
176
     1
 90
        0
176
     1
 40
-0.6
176
     1
 41
-30.0
176
     1
 62
     5
 63
     7
421
 16777215
176
     1
 74
     2
176
     1
 91
        2
176
     1
 64
     7
176
     1
 65
   257
176
     1
 75
     2
176
     1
175
     1
176
     1
 42
40.0
176
     1
 92
        0
176
     1
 66
   257
176
     1
 43
1.0
176
     1
 76
     1
176
     1
 77
     6
176
     1
 78
     2
176
     1
 67
     7
176
     1
 79
     3
176
     1
170
     0
176
     1
171
     0
176
     1
290
     0
176
     1
 93
        1
176
     1
 44
0.0
176
     1
173
     0
176
     1
  0
VISUALSTYLE
  5
30
102
{ACAD_REACTORS
330
2A
102
}
330
2A
100
AcDbVisualStyle
  2
3dWireframe
 70
     5
177
     2
291
     0
 71
     0
176
     1
 72
     2
176
     1
 73
     0
176
     1
 90
        0
176
     1
 40
-0.6
176
     1
 41
-30.0
176
     1
 62
     5
 63
     7
421
 16777215
176
     1
 74
     1
176
     1
 91
        4
176
     1
 64
     7
176
     1
 65
   257
176
     1
 75
     1
176
     1
175
     1
176
     1
 42
1.0
176
     1
 92
        0
176
     1
 66
   257
176
     1
 43
1.0
176
     1
 76
     1
176
     1
 77
     6
176
     1
 78
     2
176
     1
 67
     7
176
     1
 79
     5
176
     1
170
     0
176
     1
171
     0
176
     1
290
     0
176
     1
 93
        1
176
     1
 44
0.0
176
     1
173
     0
176
     1
  0
VISUALSTYLE
  5
32
102
{ACAD_REACTORS
330
2A
102
}
330
2A
100
AcDbVisualStyle
  2
Basic
 70
     7
177
     2
291
     1
 71
     1
176
     1
 72
     0
176
     1
 73
     1
176
     1
 90
        0
176
     1
 40
-0.6
176
     1
 41
-30.0
176
     1
 62
     5
 63
     7
421
 16777215
176
     1
 74
     0
176
     1
 91
        4
176
     1
 64
     7
176
     1
 65
   257
176
     1
 75
     1
176
     1
175
     1
176
     1
 42
1.0
176
     1
 92
        8
176
     1
 66
     7
176
     1
 43
1.0
176
     1
 76
     1
176
     1
 77
     6
176
     1
 78
     2
176
     1
 67
     7
176
     1
 79
     5
176
     1
170
     0
176
     1
171
     0
176
     1
290
     0
176
     1
 93
        1
176
     1
 44
0.0
176
     1
173
     0
176
     1
  0
VISUALSTYLE
  5
36
102
{ACAD_REACTORS
330
2A
102
}
330
2A
100
AcDbVisualStyle
  2
Brighten
 70
    12
177
     2
291
     1
 71
     2
176
     1
 72
     2
176
     1
 73
     0
176
     1
 90
        0
176
     1
 40
-0.6
176
     1
 41
-30.0
176
     1
 62
     5
 63
     7
421
 16777215
176
     1
 74
     1
176
     1
 91
        4
176
     1
 64
     7
176
     1
 65
   257
176
     1
 75
     1
176
     1
175
     1
176
     1
 42
1.0
176
     1
 92
        8
176
     1
 66
     7
176
     1
 43
1.0
176
     1
 76
     1
176
     1
 77
     6
176
     1
 78
     2
176
     1
 67
     7
176
     1
 79
     5
176
     1
170
     0
176
     1
171
     0
176
     1
290
     0
176
     1
 93
        1
176
     1
 44
50.0
176
     1
173
     0
176
     1
  0
VISUALSTYLE
  5
3A
102
{ACAD_REACTORS
330
2A
102
}
330
2A
100
AcDbVisualStyle
  2
ColorChange
 70
    16
177
     2
291
     1
 71
     2
176
     1
 72
     2
176
     1
 73
     3
176
     1
 90
        0
176
     1
 40
-0.6
176
     1
 41
-30.0
176
     1
 62
     5
 63
     8
421
  8421504
176
     1
 74
     1
176
     1
 91
        4
176
     1
 64
     7
176
     1
 65
   257
176
     1
 75
     1
176
     1
175
     1
176
     1
 42
1.0
176
     1
 92
        8
176
     1
 66
     8
424
  8421504
176
     1
 43
1.0
176
     1
 76
     1
176
     1
 77
     6
176
     1
 78
     2
176
     1
 67
     7
176
     1
 79
     5
176
     1
170
     0
176
     1
171
     0
176
     1
290
     0
176
     1
 93
        1
176
     1
 44
0.0
176
     1
173
     0
176
     1
  0
VISUALSTYLE
  5
34
102
{ACAD_REACTORS
330
2A
102
}
330
2A
100
AcDbVisualStyle
  2
Conceptual
 70
     9
177
     2
291
     0
 71
     3
176
     1
 72
     2
176
     1
 73
     0
176
     1
 90
        0
176
     1
 40
-0.6
176
     1
 41
-30.0
176
     1
 62
     5
 63
     7
421
 16777215
176
     1
 74
     2
176
     1
 91
        2
176
     1
 64
     7
176
     1
 65
   257
176
     1
 75
     1
176
     1
175
     1
176
     1
 42
40.0
176
     1
 92
        8
176
     1
 66
     7
176
     1
 43
1.0
176
     1
 76
     1
176
     1
 77
     6
176
     1
 78
     2
176
     1
 67
     7
176
     1
 79
     3
176
     1
170
     0
176
     1
171
     0
176
     1
290
     0
176
     1
 93
        1
176
     1
 44
0.0
176
     1
173
     0
176
     1
  0
VISUALSTYLE
  5
35
102
{ACAD_REACTORS
330
2A
102
}
330
2A
100
AcDbVisualStyle
  2
Dim
 70
    11
177
     2
291
     1
 71
     2
176
     1
 72
     2
176
     1
 73
     0
176
     1
 90
        0
176
     1
 40
-0.6
176
     1
 41
-30.0
176
     1
 62
     5
 63
     7
421
 16777215
176
     1
 74
     1
176
     1
 91
        4
176
     1
 64
     7
176
     1
 65
   257
176
     1
 75
     1
176
     1
175
     1
176
     1
 42
1.0
176
     1
 92
        8
176
     1
 66
     7
176
     1
 43
1.0
176
     1
 76
     1
176
     1
 77
     6
176
     1
 78
     2
176
     1
 67
     7
176
     1
 79
     5
176
     1
170
     0
176
     1
171
     0
176
     1
290
     0
176
     1
 93
        1
176
     1
 44
-50.0
176
     1
173
     0
176
     1
  0
VISUALSTYLE
  5
39
102
{ACAD_REACTORS
330
2A
102
}
330
2A
100
AcDbVisualStyle
  2
Facepattern
 70
    15
177
     2
291
     1
 71
     2
176
     1
 72
     2
176
     1
 73
     0
176
     1
 90
        0
176
     1
 40
-0.6
176
     1
 41
-30.0
176
     1
 62
     5
 63
     7
421
 16777215
176
     1
 74
     1
176
     1
 91
        4
176
     1
 64
     7
176
     1
 65
   257
176
     1
 75
     1
176
     1
175
     1
176
     1
 42
1.0
176
     1
 92
        8
176
     1
 66
     7
176
     1
 43
1.0
176
     1
 76
     1
176
     1
 77
     6
176
     1
 78
     2
176
     1
 67
     7
176
     1
 79
     5
176
     1
170
     0
176
     1
171
     0
176
     1
290
     0
176
     1
 93
        1
176
     1
 44
0.0
176
     1
173
     0
176
     1
  0
VISUALSTYLE
  5
2B
102
{ACAD_REACTORS
330
2A
102
}
330
2A
100
AcDbVisualStyle
  2
Flat
 70
     0
177
     2
291
     1
 71
     2
176
     1
 72
     1
176
     1
 73
     1
176
     1
 90
        2
176
     1
 40
-0.6
176
     1
 41
30.0
176
     1
 62
     5
 63
     7
421
 16777215
176
     1
 74
     0
176
     1
 91
        4
176
     1
 64
     7
176
     1
 65
   257
176
     1
 75
     1
176
     1
175
     1
176
     1
 42
1.0
176
     1
 92
        8
176
     1
 66
     7
176
     1
 43
1.0
176
     1
 76
     1
176
     1
 77
     6
176
     1
 78
     2
176
     1
 67
     7
176
     1
 79
     5
176
     1
170
     0
176
     1
171
     0
176
     1
290
     0
176
     1
 93
       13
176
     1
 44
0.0
176
     1
173
     0
176
     1
  0
VISUALSTYLE
  5
2C
102
{ACAD_REACTORS
330
2A
102
}
330
2A
100
AcDbVisualStyle
  2
FlatWithEdges
 70
     1
177
     2
291
     1
 71
     2
176
     1
 72
     1
176
     1
 73
     1
176
     1
 90
        2
176
     1
 40
-0.6
176
     1
 41
30.0
176
     1
 62
     5
 63
     7
421
 16777215
176
     1
 74
     1
176
     1
 91
        4
176
     1
 64
     7
176
     1
 65
   257
176
     1
 75
     1
176
     1
175
     1
176
     1
 42
1.0
176
     1
 92
        0
176
     1
 66
   257
176
     1
 43
1.0
176
     1
 76
     1
176
     1
 77
     6
176
     1
 78
     2
176
     1
 67
     7
176
     1
 79
     5
176
     1
170
     0
176
     1
171
     0
176
     1
290
     0
176
     1
 93
       13
176
     1
 44
0.0
176
     1
173
     0
176
     1
  0
VISUALSTYLE
  5
2D
102
{ACAD_REACTORS
330
2A
102
}
330
2A
100
AcDbVisualStyle
  2
Gouraud
 70
     2
177
     2
291
     1
 71
     2
176
     1
 72
     2
176
     1
 73
     1
176
     1
 90
        2
176
     1
 40
-0.6
176
     1
 41
30.0
176
     1
 62
     5
 63
     7
421
 16777215
176
     1
 74
     0
176
     1
 91
        4
176
     1
 64
     7
176
     1
 65
   257
176
     1
 75
     1
176
     1
175
     1
176
     1
 42
1.0
176
     1
 92
        0
176
     1
 66
     7
176
     1
 43
1.0
176
     1
 76
     1
176
     1
 77
     6
176
     1
 78
     2
176
     1
 67
     7
176
     1
 79
     5
176
     1
170
     0
176
     1
171
     0
176
     1
290
     0
176
     1
 93
       13
176
     1
 44
0.0
176
     1
173
     0
176
     1
  0
VISUALSTYLE
  5
2E
102
{ACAD_REACTORS
330
2A
102
}
330
2A
100
AcDbVisualStyle
  2
GouraudWithEdges
 70
     3
177
     2
291
     1
 71
     2
176
     1
 72
     2
176
     1
 73
     1
176
     1
 90
        2
176
     1
 40
-0.6
176
     1
 41
30.0
176
     1
 62
     5
 63
     7
421
 16777215
176
     1
 74
     1
176
     1
 91
        4
176
     1
 64
     7
176
     1
 65
   257
176
     1
 75
     1
176
     1
175
     1
176
     1
 42
1.0
176
     1
 92
        0
176
     1
 66
   257
176
     1
 43
1.0
176
     1
 76
     1
176
     1
 77
     6
176
     1
 78
     2
176
     1
 67
     7
176
     1
 79
     5
176
     1
170
     0
176
     1
171
     0
176
     1
290
     0
176
     1
 93
       13
176
     1
 44
0.0
176
     1
173
     0
176
     1
  0
VISUALSTYLE
  5
38
102
{ACAD_REACTORS
330
2A
102
}
330
2A
100
AcDbVisualStyle
  2
Linepattern
 70
    14
177
     2
291
     1
 71
     2
176
     1
 72
     2
176
     1
 73
     0
176
     1
 90
        0
176
     1
 40
-0.6
176
     1
 41
-30.0
176
     1
 62
     5
 63
     7
421
 16777215
176
     1
 74
     1
176
     1
 91
        4
176
     1
 64
     7
176
     1
 65
   257
176
     1
 75
     7
176
     1
175
     7
176
     1
 42
1.0
176
     1
 92
        8
176
     1
 66
     7
176
     1
 43
1.0
176
     1
 76
     1
176
     1
 77
     6
176
     1
 78
     2
176
     1
 67
     7
176
     1
 79
     5
176
     1
170
     0
176
     1
171
     0
176
     1
290
     0
176
     1
 93
        1
176
     1
 44
0.0
176
     1
173
     0
176
     1
  0
VISUALSTYLE
  5
33
102
{ACAD_REACTORS
330
2A
102
}
330
2A
100
AcDbVisualStyle
  2
Realistic
 70
     8
177
     2
291
     0
 71
     2
176
     1
 72
     2
176
     1
 73
     0
176
     1
 90
        0
176
     1
 40
-0.6
176
     1
 41
-30.0
176
     1
 62
     5
 63
     7
421
 16777215
176
     1
 74
     1
176
     1
 91
        0
176
     1
 64
     7
176
     1
 65
   257
176
     1
 75
     1
176
     1
175
     1
176
     1
 42
1.0
176
     1
 92
        8
176
     1
 66
     8
424
  7895160
176
     1
 43
1.0
176
     1
 76
     1
176
     1
 77
     6
176
     1
 78
     2
176
     1
 67
     7
176
     1
 79
     5
176
     1
170
     0
176
     1
171
     0
176
     1
290
     0
176
     1
 93
       13
176
     1
 44
0.0
176
     1
173
     0
176
     1
  0
VISUALSTYLE
  5
37
102
{ACAD_REACTORS
330
2A
102
}
330
2A
100
AcDbVisualStyle
  2
Thicken
 70
    13
177
     2
291
     1
 71
     2
176
     1
 72
     2
176
     1
 73
     0
176
     1
 90
        0
176
     1
 40
-0.6
176
     1
 41
-30.0
176
     1
 62
     5
 63
     7
421
 16777215
176
     1
 74
     1
176
     1
 91
        4
176
     1
 64
     7
176
     1
 65
   257
176
     1
 75
     1
176
     1
175
     1
176
     1
 42
1.0
176
     1
 92
       12
176
     1
 66
     7
176
     1
 43
1.0
176
     1
 76
     1
176
     1
 77
     6
176
     1
 78
     2
176
     1
 67
     7
176
     1
 79
     5
176
     1
170
     0
176
     1
171
     0
176
     1
290
     0
176
     1
 93
        1
176
     1
 44
0.0
176
     1
173
     0
176
     1
  0
ENDSEC
  0
EOF
