  0
SECTION
  2
HEADER
  9
$ACADVER
  1
AC1024
  9
$ACADMAINTVER
 70
     6
  9
$DWGCODEPAGE
  3
UNDEFINED
  9
$INSBASE
 10
0.0
 20
0.0
 30
0.0
  9
$EXTMIN
 10
1.000000000000000E+20
 20
1.000000000000000E+20
 30
1.000000000000000E+20
  9
$EXTMAX
 10
-1.000000000000000E+20
 20
-1.000000000000000E+20
 30
-1.000000000000000E+20
  9
$LIMMIN
 10
0.0
 20
0.0
  9
$LIMMAX
 10
12.0
 20
9.0
  9
$ORTHOMODE
 70
     0
  9
$REGENMODE
 70
     1
  9
$FILLMODE
 70
     1
  9
$QTEXTMODE
 70
     0
  9
$MIRRTEXT
 70
     1
  9
$LTSCALE
 40
1.0
  9
$ATTMODE
 70
     1
  9
$TEXTSIZE
 40
0.2
  9
$TRACEWID
 40
0.05
  9
$TEXTSTYLE
  7
Standard
  9
$CLAYER
  8
0
  9
$CELTYPE
  6
ByLayer
  9
$CECOLOR
 62
   256
  9
$CELTSCALE
 40
1.0
  9
$DISPSILH
 70
     0
  9
$DIMSCALE
 40
1.0
  9
$DIMASZ
 40
0.18
  9
$DIMEXO
 40
0.0625
  9
$DIMDLI
 40
0.38
  9
$DIMRND
 40
0.0
  9
$DIMDLE
 40
0.0
  9
$DIMEXE
 40
0.18
  9
$DIMTP
 40
0.0
  9
$DIMTM
 40
0.0
  9
$DIMTXT
 40
0.18
  9
$DIMCEN
 40
0.09
  9
$DIMTSZ
 40
0.0
  9
$DIMTOL
 70
     0
  9
$DIMLIM
 70
     0
  9
$DIMTIH
 70
     1
  9
$DIMTOH
 70
     1
  9
$DIMSE1
 70
     0
  9
$DIMSE2
 70
     0
  9
$DIMTAD
 70
     0
  9
$DIMZIN
 70
     0
  9
$DIMBLK
  1

  9
$DIMASO
 70
     1
  9
$DIMSHO
 70
     1
  9
$DIMPOST
  1

  9
$DIMAPOST
  1

  9
$DIMALT
 70
     0
  9
$DIMALTD
 70
     2
  9
$DIMALTF
 40
25.4
  9
$DIMLFAC
 40
1.0
  9
$DIMTOFL
 70
     0
  9
$DIMTVP
 40
0.0
  9
$DIMTIX
 70
     0
  9
$DIMSOXD
 70
     0
  9
$DIMSAH
 70
     0
  9
$DIMBLK1
  1

  9
$DIMBLK2
  1

  9
$DIMSTYLE
  2
Standard
  9
$DIMCLRD
 70
     0
  9
$DIMCLRE
 70
     0
  9
$DIMCLRT
 70
     0
  9
$DIMTFAC
 40
1.0
  9
$DIMGAP
 40
0.09
  9
$DIMJUST
 70
     0
  9
$DIMSD1
 70
     0
  9
$DIMSD2
 70
     0
  9
$DIMTOLJ
 70
     1
  9
$DIMTZIN
 70
     0
  9
$DIMALTZ
 70
     0
  9
$DIMALTTZ
 70
     0
  9
$DIMUPT
 70
     0
  9
$DIMDEC
 70
     4
  9
$DIMTDEC
 70
     4
  9
$DIMALTU
 70
     2
  9
$DIMALTTD
 70
     2
  9
$DIMTXSTY
  7
Standard
  9
$DIMAUNIT
 70
     0
  9
$DIMADEC
 70
     0
  9
$DIMALTRND
 40
0.0
  9
$DIMAZIN
 70
     0
  9
$DIMDSEP
 70
    46
  9
$DIMATFIT
 70
     3
  9
$DIMFRAC
 70
     0
  9
$DIMLDRBLK
  1

  9
$DIMLUNIT
 70
     2
  9
$DIMLWD
 70
    -2
  9
$DIMLWE
 70
    -2
  9
$DIMTMOVE
 70
     0
  9
$DIMFXL
 40
1.0
  9
$DIMFXLON
 70
     0
  9
$DIMJOGANG
 40
0.7853981633974483
  9
$DIMTFILL
 70
     0
  9
$DIMTFILLCLR
 70
     0
  9
$DIMARCSYM
 70
     0
  9
$DIMLTYPE
  6

  9
$DIMLTEX1
  6

  9
$DIMLTEX2
  6

  9
$DIMTXTDIRECTION
 70
     0
  9
$LUNITS
 70
     2
  9
$LUPREC
 70
     4
  9
$SKETCHINC
 40
0.1
  9
$FILLETRAD
 40
0.5
  9
$AUNITS
 70
     0
  9
$AUPREC
 70
     0
  9
$MENU
  1
.
  9
$ELEVATION
 40
0.0
  9
$PELEVATION
 40
0.0
  9
$THICKNESS
 40
0.0
  9
$LIMCHECK
 70
     0
  9
$CHAMFERA
 40
0.5
  9
$CHAMFERB
 40
0.5
  9
$CHAMFERC
 40
1.0
  9
$CHAMFERD
 40
0.0
  9
$SKPOLY
 70
     0
  9
$TDCREATE
 40
2457917.588402778
  9
$TDUCREATE
 40
2457917.213402778
  9
$TDUPDATE
 40
2457917.588402778
  9
$TDUUPDATE
 40
2457917.213402778
  9
$TDINDWG
 40
0.0000000116
  9
$TDUSRTIMER
 40
0.0000000116
  9
$USRTIMER
 70
     1
  9
$ANGBASE
 50
0.0
  9
$ANGDIR
 70
     0
  9
$PDMODE
 70
     0
  9
$PDSIZE
 40
0.0
  9
$PLINEWID
 40
0.0
  9
$SPLFRAME
 70
     0
  9
$SPLINETYPE
 70
     6
  9
$SPLINESEGS
 70
     8
  9
$HANDSEED
  5
DF
  9
$SURFTAB1
 70
     6
  9
$SURFTAB2
 70
     6
  9
$SURFTYPE
 70
     6
  9
$SURFU
 70
     6
  9
$SURFV
 70
     6
  9
$UCSBASE
  2

  9
$UCSNAME
  2

  9
$UCSORG
 10
0.0
 20
0.0
 30
0.0
  9
$UCSXDIR
 10
1.0
 20
0.0
 30
0.0
  9
$UCSYDIR
 10
0.0
 20
1.0
 30
0.0
  9
$UCSORTHOREF
  2

  9
$UCSORTHOVIEW
 70
     0
  9
$UCSORGTOP
 10
0.0
 20
0.0
 30
0.0
  9
$UCSORGBOTTOM
 10
0.0
 20
0.0
 30
0.0
  9
$UCSORGLEFT
 10
0.0
 20
0.0
 30
0.0
  9
$UCSORGRIGHT
 10
0.0
 20
0.0
 30
0.0
  9
$UCSORGFRONT
 10
0.0
 20
0.0
 30
0.0
  9
$UCSORGBACK
 10
0.0
 20
0.0
 30
0.0
  9
$PUCSBASE
  2

  9
$PUCSNAME
  2

  9
$PUCSORG
 10
0.0
 20
0.0
 30
0.0
  9
$PUCSXDIR
 10
1.0
 20
0.0
 30
0.0
  9
$PUCSYDIR
 10
0.0
 20
1.0
 30
0.0
  9
$PUCSORTHOREF
  2

  9
$PUCSORTHOVIEW
 70
     0
  9
$PUCSORGTOP
 10
0.0
 20
0.0
 30
0.0
  9
$PUCSORGBOTTOM
 10
0.0
 20
0.0
 30
0.0
  9
$PUCSORGLEFT
 10
0.0
 20
0.0
 30
0.0
  9
$PUCSORGRIGHT
 10
0.0
 20
0.0
 30
0.0
  9
$PUCSORGFRONT
 10
0.0
 20
0.0
 30
0.0
  9
$PUCSORGBACK
 10
0.0
 20
0.0
 30
0.0
  9
$USERI1
 70
     0
  9
$USERI2
 70
     0
  9
$USERI3
 70
     0
  9
$USERI4
 70
     0
  9
$USERI5
 70
     0
  9
$USERR1
 40
0.0
  9
$USERR2
 40
0.0
  9
$USERR3
 40
0.0
  9
$USERR4
 40
0.0
  9
$USERR5
 40
0.0
  9
$WORLDVIEW
 70
     1
  9
$SHADEDGE
 70
     3
  9
$SHADEDIF
 70
    70
  9
$TILEMODE
 70
     1
  9
$MAXACTVP
 70
    64
  9
$PINSBASE
 10
0.0
 20
0.0
 30
0.0
  9
$PLIMCHECK
 70
     0
  9
$PEXTMIN
 10
1.000000000000000E+20
 20
1.000000000000000E+20
 30
1.000000000000000E+20
  9
$PEXTMAX
 10
-1.000000000000000E+20
 20
-1.000000000000000E+20
 30
-1.000000000000000E+20
  9
$PLIMMIN
 10
0.0
 20
0.0
  9
$PLIMMAX
 10
12.0
 20
9.0
  9
$UNITMODE
 70
     0
  9
$VISRETAIN
 70
     1
  9
$PLINEGEN
 70
     0
  9
$PSLTSCALE
 70
     1
  9
$TREEDEPTH
 70
  3020
  9
$CMLSTYLE
  2
Standard
  9
$CMLJUST
 70
     0
  9
$CMLSCALE
 40
1.0
  9
$PROXYGRAPHICS
 70
     1
  9
$MEASUREMENT
 70
     0
  9
$CELWEIGHT
370
    -1
  9
$ENDCAPS
280
     0
  9
$JOINSTYLE
280
     0
  9
$LWDISPLAY
290
     1
  9
$INSUNITS
 70
     1
  9
$HYPERLINKBASE
  1

  9
$STYLESHEET
  1

  9
$XEDIT
290
     1
  9
$CEPSNTYPE
380
     0
  9
$PSTYLEMODE
290
     1
  9
$FINGERPRINTGUID
  2
{0A8A7EF0-CC52-EF92-3798-3BD5560BB6EB}
  9
$VERSIONGUID
  2
{FAEB1C32-E019-11D5-929B-00C0DF256EC4}
  9
$EXTNAMES
290
     1
  9
$PSVPSCALE
 40
0.0
  9
$OLESTARTUP
290
     0
  9
$SORTENTS
280
   127
  9
$INDEXCTL
280
     0
  9
$HIDETEXT
280
     1
  9
$XCLIPFRAME
280
     2
  9
$HALOGAP
280
     0
  9
$OBSCOLOR
 70
   257
  9
$OBSLTYPE
280
     0
  9
$INTERSECTIONDISPLAY
280
     0
  9
$INTERSECTIONCOLOR
 70
   257
  9
$DIMASSOC
280
     2
  9
$PROJECTNAME
  1

  9
$CAMERADISPLAY
290
     0
  9
$LENSLENGTH
 40
50.0
  9
$CAMERAHEIGHT
 40
0.0
  9
$STEPSPERSEC
 40
2.0
  9
$STEPSIZE
 40
6.0
  9
$3DDWFPREC
 40
2.0
  9
$PSOLWIDTH
 40
0.25
  9
$PSOLHEIGHT
 40
4.0
  9
$LOFTANG1
 40
1.570796326794897
  9
$LOFTANG2
 40
1.570796326794897
  9
$LOFTMAG1
 40
0.0
  9
$LOFTMAG2
 40
0.0
  9
$LOFTPARAM
 70
     7
  9
$LOFTNORMALS
280
     1
  9
$LATITUDE
 40
37.795
  9
$LONGITUDE
 40
-122.394
  9
$NORTHDIRECTION
 40
0.0
  9
$TIMEZONE
 70
 -8000
  9
$LIGHTGLYPHDISPLAY
280
     1
  9
$TILEMODELIGHTSYNCH
280
     1
  9
$CMATERIAL
347
3C
  9
$SOLIDHIST
280
     1
  9
$SHOWHIST
280
     1
  9
$DWFFRAME
280
     2
  9
$DGNFRAME
280
     2
  9
$REALWORLDSCALE
290
     1
  9
$INTERFERECOLOR
 62
   256
  9
$CSHADOW
280
     0
  9
$SHADOWPLANELOCATION
 40
0.0
  0
ENDSEC
  0
SECTION
  2
CLASSES
  0
CLASS
  1
ACDBDICTIONARYWDFLT
  2
AcDbDictionaryWithDefault
  3
ObjectDBX Classes
 90
        0
 91
        4
280
     0
281
     0
  0
CLASS
  1
VISUALSTYLE
  2
AcDbVisualStyle
  3
ObjectDBX Classes
 90
     4095
 91
        4
280
     0
281
     0
  0
CLASS
  1
MATERIAL
  2
AcDbMaterial
  3
ObjectDBX Classes
 90
     1153
 91
        4
280
     0
281
     0
  0
CLASS
  1
SUN
  2
AcDbSun
  3
SCENEOE
 90
     1024
 91
        4
280
     0
281
     0
  0
ENDSEC
  0
SECTION
  2
TABLES
  0
TABLE
  2
VPORT
  5
8
330
0
100
AcDbSymbolTable
 70
     1
  0
VPORT
  5
29
330
8
100
AcDbSymbolTableRecord
100
AcDbViewportTableRecord
  2
*Active
 70
     0
 10
0.0
 20
0.0
 11
1.0
 21
1.0
 12
0.0
 22
0.0
 13
0.0
 23
0.0
 14
0.5
 24
0.5
 15
0.5
 25
0.5
 16
0.0
 26
0.0
 36
1.0
 17
63.499999984125
 27
-89.00059456108309
 37
0.0
 40
178.0011891221662
 41
0.7134783795241226
 42
50.0
 43
0.0
 44
0.0
 50
0.0
 51
0.0
 71
     0
 72
   100
 73
     1
 74
     3
 75
     0
 76
     0
 77
     0
 78
     0
281
     0
 65
     1
110
0.0
120
0.0
130
0.0
111
1.0
121
0.0
131
0.0
112
0.0
122
1.0
132
0.0
 79
     0
146
0.0
 60
     3
 61
     5
292
     1
282
     1
141
0.0
142
0.0
 63
   250
361
3F
  0
ENDTAB
  0
TABLE
  2
LTYPE
  5
5
330
0
100
AcDbSymbolTable
 70
     1
  0
LTYPE
  5
14
330
5
100
AcDbSymbolTableRecord
100
AcDbLinetypeTableRecord
  2
ByBlock
 70
     0
  3

 72
    65
 73
     0
 40
0.0
  0
LTYPE
  5
15
330
5
100
AcDbSymbolTableRecord
100
AcDbLinetypeTableRecord
  2
ByLayer
 70
     0
  3

 72
    65
 73
     0
 40
0.0
  0
LTYPE
  5
16
330
5
100
AcDbSymbolTableRecord
100
AcDbLinetypeTableRecord
  2
Continuous
 70
     0
  3
Solid line
 72
    65
 73
     0
 40
0.0
  0
ENDTAB
  0
TABLE
  2
LAYER
  5
2
330
0
100
AcDbSymbolTable
 70
     2
  0
LAYER
  5
10
330
2
100
AcDbSymbolTableRecord
100
AcDbLayerTableRecord
  2
0
 70
     0
 62
     7
  6
Continuous
370
    -3
390
F
347
3E
  0
LAYER
  5
40
330
2
100
AcDbSymbolTableRecord
100
AcDbLayerTableRecord
  2
_U+30EC_U+30A4_U+30E4_U+30FC 1
 70
     0
 62
     7
  6
Continuous
370
    -3
390
F
347
3E
  0
ENDTAB
  0
TABLE
  2
STYLE
  5
3
330
0
100
AcDbSymbolTable
 70
     1
  0
STYLE
  5
11
330
3
100
AcDbSymbolTableRecord
100
AcDbTextStyleTableRecord
  2
Standard
 70
     0
 40
0.0
 41
1.0
 50
0.0
 71
     0
 42
0.2
  3
txt
  4

  0
ENDTAB
  0
TABLE
  2
VIEW
  5
6
330
0
100
AcDbSymbolTable
 70
     0
  0
ENDTAB
  0
TABLE
  2
UCS
  5
7
330
0
100
AcDbSymbolTable
 70
     0
  0
ENDTAB
  0
TABLE
  2
APPID
  5
9
330
0
100
AcDbSymbolTable
 70
     1
  0
APPID
  5
12
330
9
100
AcDbSymbolTableRecord
100
AcDbRegAppTableRecord
  2
ACAD
 70
     0
  0
ENDTAB
  0
TABLE
  2
DIMSTYLE
  5
A
330
0
100
AcDbSymbolTable
 70
     1
100
AcDbDimStyleTable
  0
DIMSTYLE
105
27
330
A
100
AcDbSymbolTableRecord
100
AcDbDimStyleTableRecord
  2
Standard
 70
     0
178
     0
340
11
  0
ENDTAB
  0
TABLE
  2
BLOCK_RECORD
  5
1
330
0
100
AcDbSymbolTable
 70
     7
  0
BLOCK_RECORD
  5
1F
330
1
100
AcDbSymbolTableRecord
100
AcDbBlockTableRecord
  2
*Model_Space
340
22
 70
     0
280
     1
281
     0
  0
BLOCK_RECORD
  5
1B
330
1
100
AcDbSymbolTableRecord
100
AcDbBlockTableRecord
  2
*Paper_Space
340
1E
 70
     0
280
     1
281
     0
  0
BLOCK_RECORD
  5
23
330
1
100
AcDbSymbolTableRecord
100
AcDbBlockTableRecord
  2
*Paper_Space0
340
26
 70
     0
280
     1
281
     0
  0
BLOCK_RECORD
  5
41
330
1
100
AcDbSymbolTableRecord
100
AcDbBlockTableRecord
  2
block 2
340
0
102
{BLKREFS
331
42
102
}
 70
     0
280
     1
281
     0
  0
BLOCK_RECORD
  5
91
330
1
100
AcDbSymbolTableRecord
100
AcDbBlockTableRecord
  2
block 3
340
0
102
{BLKREFS
331
92
102
}
 70
     0
280
     1
281
     0
  0
BLOCK_RECORD
  5
A5
330
1
100
AcDbSymbolTableRecord
100
AcDbBlockTableRecord
  2
block 4
340
0
102
{BLKREFS
331
A6
102
}
 70
     0
280
     1
281
     0
  0
BLOCK_RECORD
  5
B3
330
1
100
AcDbSymbolTableRecord
100
AcDbBlockTableRecord
  2
block 5
340
0
102
{BLKREFS
331
B4
102
}
 70
     0
280
     1
281
     0
  0
BLOCK_RECORD
  5
C5
330
1
100
AcDbSymbolTableRecord
100
AcDbBlockTableRecord
  2
block 6
340
0
102
{BLKREFS
331
C6
102
}
 70
     0
280
     1
281
     0
  0
BLOCK_RECORD
  5
D5
330
1
100
AcDbSymbolTableRecord
100
AcDbBlockTableRecord
  2
block 7
340
0
102
{BLKREFS
331
D6
102
}
 70
     0
280
     1
281
     0
  0
ENDTAB
  0
ENDSEC
  0
SECTION
  2
BLOCKS
  0
BLOCK
  5
20
330
1F
100
AcDbEntity
  8
0
100
AcDbBlockBegin
  2
*Model_Space
 70
     0
 10
0.0
 20
0.0
 30
0.0
  3
*Model_Space
  1

  0
ENDBLK
  5
21
330
1F
100
AcDbEntity
  8
0
100
AcDbBlockEnd
  0
BLOCK
  5
1C
330
1B
100
AcDbEntity
 67
     1
  8
0
100
AcDbBlockBegin
  2
*Paper_Space
 70
     0
 10
0.0
 20
0.0
 30
0.0
  3
*Paper_Space
  1

  0
ENDBLK
  5
1D
330
1B
100
AcDbEntity
 67
     1
  8
0
100
AcDbBlockEnd
  0
BLOCK
  5
24
330
23
100
AcDbEntity
  8
0
100
AcDbBlockBegin
  2
*Paper_Space0
 70
     0
 10
0.0
 20
0.0
 30
0.0
  3
*Paper_Space0
  1

  0
ENDBLK
  5
25
330
23
100
AcDbEntity
  8
0
100
AcDbBlockEnd
  0
BLOCK
  5
43
330
41
100
AcDbEntity
  8
0
100
AcDbBlockBegin
  2
block 2
 70
     0
 10
0.0
 20
0.0
 30
0.0
  3
block 2
  1

  0
POLYLINE
  5
45
330
41
100
AcDbEntity
  8
_U+30EC_U+30A4_U+30E4_U+30FC 1
 62
     7
420
 16777215
370
    25
100
AcDb2dPolyline
 66
     1
 10
0.0
 20
0.0
 30
0.0
  0
VERTEX
  5
46
330
45
100
AcDbEntity
  8
_U+30EC_U+30A4_U+30E4_U+30FC 1
 62
     7
420
 16777215
370
    25
100
AcDbVertex
100
AcDb2dVertex
 10
58.98380793964214
 20
-95.72646164273498
 30
0.0
  0
VERTEX
  5
47
330
45
100
AcDbEntity
  8
_U+30EC_U+30A4_U+30E4_U+30FC 1
 62
     7
420
 16777215
370
    25
100
AcDbVertex
100
AcDb2dVertex
 10
61.98379480755054
 20
-95.72646164273498
 30
0.0
  0
SEQEND
  5
48
330
45
100
AcDbEntity
  8
_U+30EC_U+30A4_U+30E4_U+30FC 1
 62
     7
420
 16777215
370
    25
  0
POLYLINE
  5
49
330
41
100
AcDbEntity
  8
_U+30EC_U+30A4_U+30E4_U+30FC 1
 62
     7
420
 16777215
370
    25
100
AcDb2dPolyline
 66
     1
 10
0.0
 20
0.0
 30
0.0
  0
VERTEX
  5
4A
330
49
100
AcDbEntity
  8
_U+30EC_U+30A4_U+30E4_U+30FC 1
 62
     7
420
 16777215
370
    25
100
AcDbVertex
100
AcDb2dVertex
 10
46.98386046800852
 20
-98.92626191971259
 30
0.0
  0
VERTEX
  5
4B
330
49
100
AcDbEntity
  8
_U+30EC_U+30A4_U+30E4_U+30FC 1
 62
     7
420
 16777215
370
    25
100
AcDbVertex
100
AcDb2dVertex
 10
61.98379480755054
 20
-98.92626191971259
 30
0.0
  0
SEQEND
  5
4C
330
49
100
AcDbEntity
  8
_U+30EC_U+30A4_U+30E4_U+30FC 1
 62
     7
420
 16777215
370
    25
  0
POLYLINE
  5
4D
330
41
100
AcDbEntity
  8
_U+30EC_U+30A4_U+30E4_U+30FC 1
 62
     7
420
 16777215
370
    25
100
AcDb2dPolyline
 66
     1
 10
0.0
 20
0.0
 30
0.0
  0
VERTEX
  5
4E
330
4D
100
AcDbEntity
  8
_U+30EC_U+30A4_U+30E4_U+30FC 1
 62
     7
420
 16777215
370
    25
100
AcDbVertex
100
AcDb2dVertex
 10
61.98379480755054
 20
-95.72646164273498
 30
0.0
  0
VERTEX
  5
4F
330
4D
100
AcDbEntity
  8
_U+30EC_U+30A4_U+30E4_U+30FC 1
 62
     7
420
 16777215
370
    25
100
AcDbVertex
100
AcDb2dVertex
 10
61.98379480755054
 20
-98.92626191971259
 30
0.0
  0
SEQEND
  5
50
330
4D
100
AcDbEntity
  8
_U+30EC_U+30A4_U+30E4_U+30FC 1
 62
     7
420
 16777215
370
    25
  0
POLYLINE
  5
51
330
41
100
AcDbEntity
  8
_U+30EC_U+30A4_U+30E4_U+30FC 1
 62
     7
420
 16777215
370
    25
100
AcDb2dPolyline
 66
     1
 10
0.0
 20
0.0
 30
0.0
  0
VERTEX
  5
52
330
51
100
AcDbEntity
  8
_U+30EC_U+30A4_U+30E4_U+30FC 1
 62
     7
420
 16777215
370
    25
100
AcDbVertex
100
AcDb2dVertex
 10
58.98380793964214
 20
-96.7265513647071
 30
0.0
  0
VERTEX
  5
53
330
51
100
AcDbEntity
  8
_U+30EC_U+30A4_U+30E4_U+30FC 1
 62
     7
420
 16777215
370
    25
100
AcDbVertex
100
AcDb2dVertex
 10
60.98405788861151
 20
-96.7265513647071
 30
0.0
  0
SEQEND
  5
54
330
51
100
AcDbEntity
  8
_U+30EC_U+30A4_U+30E4_U+30FC 1
 62
     7
420
 16777215
370
    25
  0
POLYLINE
  5
55
330
41
100
AcDbEntity
  8
_U+30EC_U+30A4_U+30E4_U+30FC 1
 62
     7
420
 16777215
370
    25
100
AcDb2dPolyline
 66
     1
 10
0.0
 20
0.0
 30
0.0
  0
VERTEX
  5
56
330
55
100
AcDbEntity
  8
_U+30EC_U+30A4_U+30E4_U+30FC 1
 62
     7
420
 16777215
370
    25
100
AcDbVertex
100
AcDb2dVertex
 10
58.98380793964214
 20
-95.72646164273498
 30
0.0
  0
VERTEX
  5
57
330
55
100
AcDbEntity
  8
_U+30EC_U+30A4_U+30E4_U+30FC 1
 62
     7
420
 16777215
370
    25
100
AcDbVertex
100
AcDb2dVertex
 10
58.98380793964214
 20
-96.7265513647071
 30
0.0
  0
SEQEND
  5
58
330
55
100
AcDbEntity
  8
_U+30EC_U+30A4_U+30E4_U+30FC 1
 62
     7
420
 16777215
370
    25
  0
POLYLINE
  5
59
330
41
100
AcDbEntity
  8
_U+30EC_U+30A4_U+30E4_U+30FC 1
 62
     7
420
 16777215
370
    25
100
AcDb2dPolyline
 66
     1
 10
0.0
 20
0.0
 30
0.0
  0
VERTEX
  5
5A
330
59
100
AcDbEntity
  8
_U+30EC_U+30A4_U+30E4_U+30FC 1
 62
     7
420
 16777215
370
    25
100
AcDbVertex
100
AcDb2dVertex
 10
46.98386046800852
 20
-97.92648969774069
 30
0.0
  0
VERTEX
  5
5B
330
59
100
AcDbEntity
  8
_U+30EC_U+30A4_U+30E4_U+30FC 1
 62
     7
420
 16777215
370
    25
100
AcDbVertex
100
AcDb2dVertex
 10
46.98386046800852
 20
-98.92626191971259
 30
0.0
  0
SEQEND
  5
5C
330
59
100
AcDbEntity
  8
_U+30EC_U+30A4_U+30E4_U+30FC 1
 62
     7
420
 16777215
370
    25
  0
POLYLINE
  5
5D
330
41
100
AcDbEntity
  8
_U+30EC_U+30A4_U+30E4_U+30FC 1
 62
     7
420
 16777215
370
    25
100
AcDb2dPolyline
 66
     1
 10
0.0
 20
0.0
 30
0.0
  0
VERTEX
  5
5E
330
5D
100
AcDbEntity
  8
_U+30EC_U+30A4_U+30E4_U+30FC 1
 62
     7
420
 16777215
370
    25
100
AcDbVertex
100
AcDb2dVertex
 10
46.98386046800852
 20
-97.92648969774069
 30
0.0
  0
VERTEX
  5
5F
330
5D
100
AcDbEntity
  8
_U+30EC_U+30A4_U+30E4_U+30FC 1
 62
     7
420
 16777215
370
    25
100
AcDbVertex
100
AcDb2dVertex
 10
47.48409934413526
 20
-97.92648969774069
 30
0.0
  0
SEQEND
  5
60
330
5D
100
AcDbEntity
  8
_U+30EC_U+30A4_U+30E4_U+30FC 1
 62
     7
420
 16777215
370
    25
  0
POLYLINE
  5
61
330
41
100
AcDbEntity
  8
_U+30EC_U+30A4_U+30E4_U+30FC 1
 62
     7
420
 16777215
370
    25
100
AcDb2dPolyline
 66
     1
 10
0.0
 20
0.0
 30
0.0
  0
VERTEX
  5
62
330
61
100
AcDbEntity
  8
_U+30EC_U+30A4_U+30E4_U+30FC 1
 62
     7
420
 16777215
370
    25
100
AcDbVertex
100
AcDb2dVertex
 10
48.48835181851464
 20
-97.92648969774069
 30
0.0
  0
VERTEX
  5
63
330
61
100
AcDbEntity
  8
_U+30EC_U+30A4_U+30E4_U+30FC 1
 62
     7
420
 16777215
370
    25
100
AcDbVertex
100
AcDb2dVertex
 10
60.98437538860341
 20
-97.92648969774069
 30
0.0
  0
SEQEND
  5
64
330
61
100
AcDbEntity
  8
_U+30EC_U+30A4_U+30E4_U+30FC 1
 62
     7
420
 16777215
370
    25
  0
POLYLINE
  5
65
330
41
100
AcDbEntity
  8
_U+30EC_U+30A4_U+30E4_U+30FC 1
 62
     7
420
 16777215
370
    25
100
AcDb2dPolyline
 66
     1
 10
0.0
 20
0.0
 30
0.0
  0
VERTEX
  5
66
330
65
100
AcDbEntity
  8
_U+30EC_U+30A4_U+30E4_U+30FC 1
 62
     7
420
 16777215
370
    25
100
AcDbVertex
100
AcDb2dVertex
 10
60.98405788861151
 20
-96.7265513647071
 30
0.0
  0
VERTEX
  5
67
330
65
100
AcDbEntity
  8
_U+30EC_U+30A4_U+30E4_U+30FC 1
 62
     7
420
 16777215
370
    25
100
AcDbVertex
100
AcDb2dVertex
 10
60.98405788861151
 20
-97.92648969774069
 30
0.0
  0
SEQEND
  5
68
330
65
100
AcDbEntity
  8
_U+30EC_U+30A4_U+30E4_U+30FC 1
 62
     7
420
 16777215
370
    25
  0
POLYLINE
  5
69
330
41
100
AcDbEntity
  8
_U+30EC_U+30A4_U+30E4_U+30FC 1
 62
     7
420
 16777215
370
    25
100
AcDb2dPolyline
 66
     1
 10
0.0
 20
0.0
 30
0.0
  0
VERTEX
  5
6A
330
69
100
AcDbEntity
  8
_U+30EC_U+30A4_U+30E4_U+30FC 1
 62
     7
420
 16777215
370
    25
100
AcDbVertex
100
AcDb2dVertex
 10
49.89565289372251
 20
-82.7263888682073
 30
0.0
  0
VERTEX
  5
6B
330
69
100
AcDbEntity
  8
_U+30EC_U+30A4_U+30E4_U+30FC 1
 62
     7
420
 16777215
370
    25
100
AcDbVertex
100
AcDb2dVertex
 10
73.98413033472981
 20
-82.7263888682073
 30
0.0
  0
SEQEND
  5
6C
330
69
100
AcDbEntity
  8
_U+30EC_U+30A4_U+30E4_U+30FC 1
 62
     7
420
 16777215
370
    25
  0
POLYLINE
  5
6D
330
41
100
AcDbEntity
  8
_U+30EC_U+30A4_U+30E4_U+30FC 1
 62
     7
420
 16777215
370
    25
100
AcDb2dPolyline
 66
     1
 10
0.0
 20
0.0
 30
0.0
  0
VERTEX
  5
6E
330
6D
100
AcDbEntity
  8
_U+30EC_U+30A4_U+30E4_U+30FC 1
 62
     7
420
 16777215
370
    25
100
AcDbVertex
100
AcDb2dVertex
 10
73.98413033472981
 20
-81.72626386845731
 30
0.0
  0
VERTEX
  5
6F
330
6D
100
AcDbEntity
  8
_U+30EC_U+30A4_U+30E4_U+30FC 1
 62
     7
420
 16777215
370
    25
100
AcDbVertex
100
AcDb2dVertex
 10
73.98413033472981
 20
-82.7263888682073
 30
0.0
  0
SEQEND
  5
70
330
6D
100
AcDbEntity
  8
_U+30EC_U+30A4_U+30E4_U+30FC 1
 62
     7
420
 16777215
370
    25
  0
POLYLINE
  5
71
330
41
100
AcDbEntity
  8
_U+30EC_U+30A4_U+30E4_U+30FC 1
 62
     7
420
 16777215
370
    25
100
AcDb2dPolyline
 66
     1
 10
0.0
 20
0.0
 30
0.0
  0
VERTEX
  5
72
330
71
100
AcDbEntity
  8
_U+30EC_U+30A4_U+30E4_U+30FC 1
 62
     7
420
 16777215
370
    25
100
AcDbVertex
100
AcDb2dVertex
 10
48.98407513920102
 20
-81.72626386845731
 30
0.0
  0
VERTEX
  5
73
330
71
100
AcDbEntity
  8
_U+30EC_U+30A4_U+30E4_U+30FC 1
 62
     7
420
 16777215
370
    25
100
AcDbVertex
100
AcDb2dVertex
 10
73.98413033472981
 20
-81.72626386845731
 30
0.0
  0
SEQEND
  5
74
330
71
100
AcDbEntity
  8
_U+30EC_U+30A4_U+30E4_U+30FC 1
 62
     7
420
 16777215
370
    25
  0
POLYLINE
  5
75
330
41
100
AcDbEntity
  8
_U+30EC_U+30A4_U+30E4_U+30FC 1
 62
     7
420
 16777215
370
    25
100
AcDb2dPolyline
 66
     1
 10
0.0
 20
0.0
 30
0.0
  0
VERTEX
  5
76
330
75
100
AcDbEntity
  8
_U+30EC_U+30A4_U+30E4_U+30FC 1
 62
     7
420
 16777215
370
    25
100
AcDbVertex
100
AcDb2dVertex
 10
48.98407513920102
 20
-81.72626386845731
 30
0.0
  0
VERTEX
  5
77
330
75
100
AcDbEntity
  8
_U+30EC_U+30A4_U+30E4_U+30FC 1
 62
     7
420
 16777215
370
    25
100
AcDbVertex
100
AcDb2dVertex
 10
47.48409934413526
 20
-97.92648969774069
 30
0.0
  0
SEQEND
  5
78
330
75
100
AcDbEntity
  8
_U+30EC_U+30A4_U+30E4_U+30FC 1
 62
     7
420
 16777215
370
    25
  0
POLYLINE
  5
79
330
41
100
AcDbEntity
  8
_U+30EC_U+30A4_U+30E4_U+30FC 1
 62
     7
420
 16777215
370
    25
100
AcDb2dPolyline
 66
     1
 10
0.0
 20
0.0
 30
0.0
  0
VERTEX
  5
7A
330
79
100
AcDbEntity
  8
_U+30EC_U+30A4_U+30E4_U+30FC 1
 62
     7
420
 16777215
370
    25
100
AcDbVertex
100
AcDb2dVertex
 10
49.89565289372251
 20
-82.7263888682073
 30
0.0
  0
VERTEX
  5
7B
330
79
100
AcDbEntity
  8
_U+30EC_U+30A4_U+30E4_U+30FC 1
 62
     7
420
 16777215
370
    25
100
AcDbVertex
100
AcDb2dVertex
 10
48.48835181851464
 20
-97.92648969774069
 30
0.0
  0
SEQEND
  5
7C
330
79
100
AcDbEntity
  8
_U+30EC_U+30A4_U+30E4_U+30FC 1
 62
     7
420
 16777215
370
    25
  0
ENDBLK
  5
44
330
41
100
AcDbEntity
  8
0
100
AcDbBlockEnd
  0
BLOCK
  5
93
330
91
100
AcDbEntity
  8
0
100
AcDbBlockBegin
  2
block 3
 70
     0
 10
0.0
 20
0.0
 30
0.0
  3
block 3
  1

  0
SPLINE
  5
95
330
91
100
AcDbEntity
  8
_U+30EC_U+30A4_U+30E4_U+30FC 1
370
     0
100
AcDbSpline
210
0.0
220
0.0
230
1.0
 70
    11
 71
     3
 72
    26
 73
    22
 74
     0
 42
0.0000000001
 43
0.0000000001
 12
1.0
 22
0.0
 32
0.0
 13
1.0
 23
0.0
 33
0.0
 40
0.0
 40
0.0
 40
0.0
 40
0.0
 40
1.0
 40
1.0
 40
1.0
 40
2.0
 40
2.0
 40
2.0
 40
3.0
 40
3.0
 40
3.0
 40
4.0
 40
4.0
 40
4.0
 40
5.0
 40
5.0
 40
5.0
 40
6.0
 40
6.0
 40
6.0
 40
7.0
 40
7.0
 40
7.0
 40
7.0
 10
53.84994302039168
 20
-102.2804063329368
 30
0.0
 10
53.84994302039168
 20
-102.2804063329368
 30
0.0
 10
53.84994302039168
 20
-101.1762532299143
 30
0.0
 10
53.84994302039168
 20
-101.1762532299143
 30
0.0
 10
53.84994302039168
 20
-101.1762532299143
 30
0.0
 10
53.52076414677606
 20
-101.1762532299143
 30
0.0
 10
53.52076414677606
 20
-101.1762532299143
 30
0.0
 10
53.52076414677606
 20
-101.1762532299143
 30
0.0
 10
53.52076414677606
 20
-101.0281141240485
 30
0.0
 10
53.52076414677606
 20
-101.0281141240485
 30
0.0
 10
53.85201007768283
 20
-101.013300213462
 30
0.0
 10
53.89834661195945
 20
-100.8503471970096
 30
0.0
 10
53.92797443313259
 20
-100.7359700268994
 30
0.0
 10
53.92797443313259
 20
-100.7359700268994
 30
0.0
 10
54.0735297173844
 20
-100.7359700268994
 30
0.0
 10
54.0735297173844
 20
-100.7359700268994
 30
0.0
 10
54.0735297173844
 20
-100.7359700268994
 30
0.0
 10
54.0735297173844
 20
-102.2804063329368
 30
0.0
 10
54.0735297173844
 20
-102.2804063329368
 30
0.0
 10
54.0735297173844
 20
-102.2804063329368
 30
0.0
 10
53.84994302039168
 20
-102.2804063329368
 30
0.0
 10
53.84994302039168
 20
-102.2804063329368
 30
0.0
  0
HATCH
  5
96
330
91
100
AcDbEntity
  8
_U+30EC_U+30A4_U+30E4_U+30FC 1
 62
     7
420
 16777215
100
AcDbHatch
 10
0.0
 20
0.0
 30
0.0
210
0.0
220
0.0
230
1.0
  2
SOLID
 70
     1
 71
     0
 91
        1
 92
        1
 93
        1
 72
     4
 94
        3
 73
     0
 74
     1
 95
       26
 96
       22
 40
0.0
 40
0.0
 40
0.0
 40
0.0
 40
1.0
 40
1.0
 40
1.0
 40
2.0
 40
2.0
 40
2.0
 40
3.0
 40
3.0
 40
3.0
 40
4.0
 40
4.0
 40
4.0
 40
5.0
 40
5.0
 40
5.0
 40
6.0
 40
6.0
 40
6.0
 40
7.0
 40
7.0
 40
7.0
 40
7.0
 10
53.84994302039168
 20
-102.2804063329368
 10
53.84994302039168
 20
-102.2804063329368
 10
53.84994302039168
 20
-101.1762532299143
 10
53.84994302039168
 20
-101.1762532299143
 10
53.84994302039168
 20
-101.1762532299143
 10
53.52076414677606
 20
-101.1762532299143
 10
53.52076414677606
 20
-101.1762532299143
 10
53.52076414677606
 20
-101.1762532299143
 10
53.52076414677606
 20
-101.0281141240485
 10
53.52076414677606
 20
-101.0281141240485
 10
53.85201007768283
 20
-101.013300213462
 10
53.89834661195945
 20
-100.8503471970096
 10
53.92797443313259
 20
-100.7359700268994
 10
53.92797443313259
 20
-100.7359700268994
 10
54.0735297173844
 20
-100.7359700268994
 10
54.0735297173844
 20
-100.7359700268994
 10
54.0735297173844
 20
-100.7359700268994
 10
54.0735297173844
 20
-102.2804063329368
 10
54.0735297173844
 20
-102.2804063329368
 10
54.0735297173844
 20
-102.2804063329368
 10
53.84994302039168
 20
-102.2804063329368
 10
53.84994302039168
 20
-102.2804063329368
 97
        0
 97
        0
 75
     2
 76
     1
 98
        0
  0
SPLINE
  5
97
330
91
100
AcDbEntity
  8
_U+30EC_U+30A4_U+30E4_U+30FC 1
370
     0
100
AcDbSpline
210
0.0
220
0.0
230
1.0
 70
    11
 71
     3
 72
    53
 73
    49
 74
     0
 42
0.0000000001
 43
0.0000000001
 12
1.0
 22
0.0
 32
0.0
 13
1.0
 23
0.0
 33
0.0
 40
0.0
 40
0.0
 40
0.0
 40
0.0
 40
1.0
 40
1.0
 40
1.0
 40
2.0
 40
2.0
 40
2.0
 40
3.0
 40
3.0
 40
3.0
 40
4.0
 40
4.0
 40
4.0
 40
5.0
 40
5.0
 40
5.0
 40
6.0
 40
6.0
 40
6.0
 40
7.0
 40
7.0
 40
7.0
 40
8.0
 40
8.0
 40
8.0
 40
9.0
 40
9.0
 40
9.0
 40
10.0
 40
10.0
 40
10.0
 40
11.0
 40
11.0
 40
11.0
 40
12.0
 40
12.0
 40
12.0
 40
13.0
 40
13.0
 40
13.0
 40
14.0
 40
14.0
 40
14.0
 40
15.0
 40
15.0
 40
15.0
 40
16.0
 40
16.0
 40
16.0
 40
16.0
 10
55.05159232564683
 20
-102.33104923657
 30
0.0
 10
54.97356091290592
 20
-102.33104923657
 30
0.0
 10
54.87227510563957
 20
-102.3141682686923
 30
0.0
 10
54.77098929837323
 20
-102.2507785117637
 30
0.0
 10
54.59804550501369
 20
-102.1408799657842
 30
0.0
 10
54.5768581677794
 20
-102.0096218277962
 30
0.0
 10
54.55791014261052
 20
-101.9017903391079
 30
0.0
 10
54.55791014261052
 20
-101.9017903391079
 30
0.0
 10
54.77942978231209
 20
-101.9017903391079
 30
0.0
 10
54.77942978231209
 20
-101.9017903391079
 30
0.0
 10
54.83437905530182
 20
-102.1005723486068
 30
0.0
 10
54.96081405961049
 20
-102.13020016978
 30
0.0
 10
55.05383163771224
 20
-102.13020016978
 30
0.0
 10
55.19301349531633
 20
-102.13020016978
 30
0.0
 10
55.34494220621585
 20
-102.0306369102562
 30
0.0
 10
55.34494220621585
 20
-101.7980929650019
 30
0.0
 10
55.34494220621585
 20
-101.5421223704478
 30
0.0
 10
55.1656249862086
 20
-101.4721869320972
 30
0.0
 10
55.04521889899912
 20
-101.4721869320972
 30
0.0
 10
55.01369627530908
 20
-101.4721869320972
 30
0.0
 10
54.87227510563957
 20
-101.4721869320972
 30
0.0
 10
54.78373615166865
 20
-101.6013780127941
 30
0.0
 10
54.78373615166865
 20
-101.6013780127941
 30
0.0
 10
54.6085530462437
 20
-101.5824299876252
 30
0.0
 10
54.6085530462437
 20
-101.5824299876252
 30
0.0
 10
54.6085530462437
 20
-101.5824299876252
 30
0.0
 10
54.72878687867892
 20
-100.7359700268994
 30
0.0
 10
54.72878687867892
 20
-100.7359700268994
 30
0.0
 10
54.72878687867892
 20
-100.7359700268994
 30
0.0
 10
55.50531140105423
 20
-100.7359700268994
 30
0.0
 10
55.50531140105423
 20
-100.7359700268994
 30
0.0
 10
55.50531140105423
 20
-100.7359700268994
 30
0.0
 10
55.50531140105423
 20
-100.930617921816
 30
0.0
 10
55.50531140105423
 20
-100.930617921816
 30
0.0
 10
55.50531140105423
 20
-100.930617921816
 30
0.0
 10
54.89122313080845
 20
-100.930617921816
 30
0.0
 10
54.89122313080845
 20
-100.930617921816
 30
0.0
 10
54.89122313080845
 20
-100.930617921816
 30
0.0
 10
54.8257663165887
 20
-101.3536756474046
 30
0.0
 10
54.8257663165887
 20
-101.3536756474046
 30
0.0
 10
54.88708901622615
 20
-101.3199137116492
 30
0.0
 10
54.96942679832362
 20
-101.2796060944718
 30
0.0
 10
55.08759357346769
 20
-101.2796060944718
 30
0.0
 10
55.34080809163355
 20
-101.2796060944718
 30
0.0
 10
55.57714164192169
 20
-101.4659857602238
 30
0.0
 10
55.57714164192169
 20
-101.779144939833
 30
0.0
 10
55.57714164192169
 20
-102.0964382340245
 30
0.0
 10
55.35338269015471
 20
-102.33104923657
 30
0.0
 10
55.05159232564683
 20
-102.33104923657
 30
0.0
  0
HATCH
  5
98
330
91
100
AcDbEntity
  8
_U+30EC_U+30A4_U+30E4_U+30FC 1
 62
     7
420
 16777215
100
AcDbHatch
 10
0.0
 20
0.0
 30
0.0
210
0.0
220
0.0
230
1.0
  2
SOLID
 70
     1
 71
     0
 91
        1
 92
        1
 93
        1
 72
     4
 94
        3
 73
     0
 74
     1
 95
       53
 96
       49
 40
0.0
 40
0.0
 40
0.0
 40
0.0
 40
1.0
 40
1.0
 40
1.0
 40
2.0
 40
2.0
 40
2.0
 40
3.0
 40
3.0
 40
3.0
 40
4.0
 40
4.0
 40
4.0
 40
5.0
 40
5.0
 40
5.0
 40
6.0
 40
6.0
 40
6.0
 40
7.0
 40
7.0
 40
7.0
 40
8.0
 40
8.0
 40
8.0
 40
9.0
 40
9.0
 40
9.0
 40
10.0
 40
10.0
 40
10.0
 40
11.0
 40
11.0
 40
11.0
 40
12.0
 40
12.0
 40
12.0
 40
13.0
 40
13.0
 40
13.0
 40
14.0
 40
14.0
 40
14.0
 40
15.0
 40
15.0
 40
15.0
 40
16.0
 40
16.0
 40
16.0
 40
16.0
 10
55.05159232564683
 20
-102.33104923657
 10
54.97356091290592
 20
-102.33104923657
 10
54.87227510563957
 20
-102.3141682686923
 10
54.77098929837323
 20
-102.2507785117637
 10
54.59804550501369
 20
-102.1408799657842
 10
54.5768581677794
 20
-102.0096218277962
 10
54.55791014261052
 20
-101.9017903391079
 10
54.55791014261052
 20
-101.9017903391079
 10
54.77942978231209
 20
-101.9017903391079
 10
54.77942978231209
 20
-101.9017903391079
 10
54.83437905530182
 20
-102.1005723486068
 10
54.96081405961049
 20
-102.13020016978
 10
55.05383163771224
 20
-102.13020016978
 10
55.19301349531633
 20
-102.13020016978
 10
55.34494220621585
 20
-102.0306369102562
 10
55.34494220621585
 20
-101.7980929650019
 10
55.34494220621585
 20
-101.5421223704478
 10
55.1656249862086
 20
-101.4721869320972
 10
55.04521889899912
 20
-101.4721869320972
 10
55.01369627530908
 20
-101.4721869320972
 10
54.87227510563957
 20
-101.4721869320972
 10
54.78373615166865
 20
-101.6013780127941
 10
54.78373615166865
 20
-101.6013780127941
 10
54.6085530462437
 20
-101.5824299876252
 10
54.6085530462437
 20
-101.5824299876252
 10
54.6085530462437
 20
-101.5824299876252
 10
54.72878687867892
 20
-100.7359700268994
 10
54.72878687867892
 20
-100.7359700268994
 10
54.72878687867892
 20
-100.7359700268994
 10
55.50531140105423
 20
-100.7359700268994
 10
55.50531140105423
 20
-100.7359700268994
 10
55.50531140105423
 20
-100.7359700268994
 10
55.50531140105423
 20
-100.930617921816
 10
55.50531140105423
 20
-100.930617921816
 10
55.50531140105423
 20
-100.930617921816
 10
54.89122313080845
 20
-100.930617921816
 10
54.89122313080845
 20
-100.930617921816
 10
54.89122313080845
 20
-100.930617921816
 10
54.8257663165887
 20
-101.3536756474046
 10
54.8257663165887
 20
-101.3536756474046
 10
54.88708901622615
 20
-101.3199137116492
 10
54.96942679832362
 20
-101.2796060944718
 10
55.08759357346769
 20
-101.2796060944718
 10
55.34080809163355
 20
-101.2796060944718
 10
55.57714164192169
 20
-101.4659857602238
 10
55.57714164192169
 20
-101.779144939833
 10
55.57714164192169
 20
-102.0964382340245
 10
55.35338269015471
 20
-102.33104923657
 10
55.05159232564683
 20
-102.33104923657
 97
        0
 97
        0
 75
     2
 76
     1
 98
        0
  0
ENDBLK
  5
94
330
91
100
AcDbEntity
  8
0
100
AcDbBlockEnd
  0
BLOCK
  5
A7
330
A5
100
AcDbEntity
  8
0
100
AcDbBlockBegin
  2
block 4
 70
     0
 10
0.0
 20
0.0
 30
0.0
  3
block 4
  1

  0
SPLINE
  5
A9
330
A5
100
AcDbEntity
  8
_U+30EC_U+30A4_U+30E4_U+30FC 1
370
     0
100
AcDbSpline
210
0.0
220
0.0
230
1.0
 70
    11
 71
     3
 72
    62
 73
    58
 74
     0
 42
0.0000000001
 43
0.0000000001
 12
1.0
 22
0.0
 32
0.0
 13
1.0
 23
0.0
 33
0.0
 40
0.0
 40
0.0
 40
0.0
 40
0.0
 40
1.0
 40
1.0
 40
1.0
 40
2.0
 40
2.0
 40
2.0
 40
3.0
 40
3.0
 40
3.0
 40
4.0
 40
4.0
 40
4.0
 40
5.0
 40
5.0
 40
5.0
 40
6.0
 40
6.0
 40
6.0
 40
7.0
 40
7.0
 40
7.0
 40
8.0
 40
8.0
 40
8.0
 40
9.0
 40
9.0
 40
9.0
 40
10.0
 40
10.0
 40
10.0
 40
11.0
 40
11.0
 40
11.0
 40
12.0
 40
12.0
 40
12.0
 40
13.0
 40
13.0
 40
13.0
 40
14.0
 40
14.0
 40
14.0
 40
15.0
 40
15.0
 40
15.0
 40
16.0
 40
16.0
 40
16.0
 40
17.0
 40
17.0
 40
17.0
 40
18.0
 40
18.0
 40
18.0
 40
19.0
 40
19.0
 40
19.0
 40
19.0
 10
76.65475258500298
 20
-97.43591306157853
 30
0.0
 10
76.65475258500298
 20
-97.5306531874229
 30
0.0
 10
76.63373750254296
 20
-97.74803871254215
 30
0.0
 10
76.44770234633947
 20
-97.8727511691082
 30
0.0
 10
76.33539223352032
 20
-97.94647621249256
 30
0.0
 10
76.23617348354513
 20
-97.95061032707486
 30
0.0
 10
76.15142413460798
 20
-97.95508895120568
 30
0.0
 10
76.15142413460798
 20
-97.95508895120568
 30
0.0
 10
76.15142413460798
 20
-97.73529185924674
 30
0.0
 10
76.15142413460798
 20
-97.73529185924674
 30
0.0
 10
76.22549368754085
 20
-97.73322480195559
 30
0.0
 10
76.46010469008637
 20
-97.72288951549984
 30
0.0
 10
76.46010469008637
 20
-97.44004717616083
 30
0.0
 10
76.46010469008637
 20
-97.30293237584789
 30
0.0
 10
76.39051376128432
 20
-97.15100366494836
 30
0.0
 10
76.16210393061226
 20
-97.15100366494836
 30
0.0
 10
76.04565970321082
 20
-97.15100366494836
 30
0.0
 10
75.99708385686878
 20
-97.18889971528611
 30
0.0
 10
75.96538897840449
 20
-97.2205945937504
 30
0.0
 10
75.89131942547162
 20
-97.29431963713476
 30
0.0
 10
75.8785725721762
 20
-97.41041935498768
 30
0.0
 10
75.8785725721762
 20
-97.46519637320316
 30
0.0
 10
75.8785725721762
 20
-97.48448890792055
 30
0.0
 10
75.88063962946734
 20
-97.52031790096714
 30
0.0
 10
75.88477374404964
 20
-97.54753415530062
 30
0.0
 10
75.88477374404964
 20
-97.54753415530062
 30
0.0
 10
75.69012584913303
 20
-97.54753415530062
 30
0.0
 10
75.69012584913303
 20
-97.54753415530062
 30
0.0
 10
75.69667153055501
 20
-97.50963810496287
 30
0.0
 10
75.69873858784615
 20
-97.46760794004283
 30
0.0
 10
75.69873858784615
 20
-97.46106225862086
 30
0.0
 10
75.69873858784615
 20
-97.3956054444011
 30
0.0
 10
75.6773789958376
 20
-97.19751245399924
 30
0.0
 10
75.44070093600094
 20
-97.19751245399924
 30
0.0
 10
75.26293400896205
 20
-97.19751245399924
 30
0.0
 10
75.20781248119805
 20
-97.32808157289021
 30
0.0
 10
75.20781248119805
 20
-97.43798011886967
 30
0.0
 10
75.20781248119805
 20
-97.7015299234913
 30
0.0
 10
75.44070093600094
 20
-97.71014266220442
 30
0.0
 10
75.51235892209414
 20
-97.71427677678672
 30
0.0
 10
75.51235892209414
 20
-97.71427677678672
 30
0.0
 10
75.51235892209414
 20
-97.9168483913194
 30
0.0
 10
75.51235892209414
 20
-97.9168483913194
 30
0.0
 10
75.38764646552809
 20
-97.9085801621548
 30
0.0
 10
75.01109752899029
 20
-97.88101939827281
 30
0.0
 10
75.01109752899029
 20
-97.42523326557425
 30
0.0
 10
75.01109752899029
 20
-97.20164656858154
 30
0.0
 10
75.138221552396
 20
-96.9611789037111
 30
0.0
 10
75.43415525457897
 20
-96.9611789037111
 30
0.0
 10
75.62053492033098
 20
-96.9611789037111
 30
0.0
 10
75.70287270242845
 20
-97.05591902955547
 30
0.0
 10
75.7641954020659
 20
-97.15513777953066
 30
0.0
 10
75.7917561659479
 20
-97.09381507989322
 30
0.0
 10
75.87202689075421
 20
-96.91260305736908
 30
0.0
 10
76.14935707731684
 20
-96.91260305736908
 30
0.0
 10
76.48766545396836
 20
-96.91260305736908
 30
0.0
 10
76.65475258500298
 20
-97.15927189411296
 30
0.0
 10
76.65475258500298
 20
-97.43591306157853
 30
0.0
  0
HATCH
  5
AA
330
A5
100
AcDbEntity
  8
_U+30EC_U+30A4_U+30E4_U+30FC 1
 62
     7
420
 16777215
100
AcDbHatch
 10
0.0
 20
0.0
 30
0.0
210
0.0
220
0.0
230
1.0
  2
SOLID
 70
     1
 71
     0
 91
        1
 92
        1
 93
        1
 72
     4
 94
        3
 73
     0
 74
     1
 95
       62
 96
       58
 40
0.0
 40
0.0
 40
0.0
 40
0.0
 40
1.0
 40
1.0
 40
1.0
 40
2.0
 40
2.0
 40
2.0
 40
3.0
 40
3.0
 40
3.0
 40
4.0
 40
4.0
 40
4.0
 40
5.0
 40
5.0
 40
5.0
 40
6.0
 40
6.0
 40
6.0
 40
7.0
 40
7.0
 40
7.0
 40
8.0
 40
8.0
 40
8.0
 40
9.0
 40
9.0
 40
9.0
 40
10.0
 40
10.0
 40
10.0
 40
11.0
 40
11.0
 40
11.0
 40
12.0
 40
12.0
 40
12.0
 40
13.0
 40
13.0
 40
13.0
 40
14.0
 40
14.0
 40
14.0
 40
15.0
 40
15.0
 40
15.0
 40
16.0
 40
16.0
 40
16.0
 40
17.0
 40
17.0
 40
17.0
 40
18.0
 40
18.0
 40
18.0
 40
19.0
 40
19.0
 40
19.0
 40
19.0
 10
76.65475258500298
 20
-97.43591306157853
 10
76.65475258500298
 20
-97.5306531874229
 10
76.63373750254296
 20
-97.74803871254215
 10
76.44770234633947
 20
-97.8727511691082
 10
76.33539223352032
 20
-97.94647621249256
 10
76.23617348354513
 20
-97.95061032707486
 10
76.15142413460798
 20
-97.95508895120568
 10
76.15142413460798
 20
-97.95508895120568
 10
76.15142413460798
 20
-97.73529185924674
 10
76.15142413460798
 20
-97.73529185924674
 10
76.22549368754085
 20
-97.73322480195559
 10
76.46010469008637
 20
-97.72288951549984
 10
76.46010469008637
 20
-97.44004717616083
 10
76.46010469008637
 20
-97.30293237584789
 10
76.39051376128432
 20
-97.15100366494836
 10
76.16210393061226
 20
-97.15100366494836
 10
76.04565970321082
 20
-97.15100366494836
 10
75.99708385686878
 20
-97.18889971528611
 10
75.96538897840449
 20
-97.2205945937504
 10
75.89131942547162
 20
-97.29431963713476
 10
75.8785725721762
 20
-97.41041935498768
 10
75.8785725721762
 20
-97.46519637320316
 10
75.8785725721762
 20
-97.48448890792055
 10
75.88063962946734
 20
-97.52031790096714
 10
75.88477374404964
 20
-97.54753415530062
 10
75.88477374404964
 20
-97.54753415530062
 10
75.69012584913303
 20
-97.54753415530062
 10
75.69012584913303
 20
-97.54753415530062
 10
75.69667153055501
 20
-97.50963810496287
 10
75.69873858784615
 20
-97.46760794004283
 10
75.69873858784615
 20
-97.46106225862086
 10
75.69873858784615
 20
-97.3956054444011
 10
75.6773789958376
 20
-97.19751245399924
 10
75.44070093600094
 20
-97.19751245399924
 10
75.26293400896205
 20
-97.19751245399924
 10
75.20781248119805
 20
-97.32808157289021
 10
75.20781248119805
 20
-97.43798011886967
 10
75.20781248119805
 20
-97.7015299234913
 10
75.44070093600094
 20
-97.71014266220442
 10
75.51235892209414
 20
-97.71427677678672
 10
75.51235892209414
 20
-97.71427677678672
 10
75.51235892209414
 20
-97.9168483913194
 10
75.51235892209414
 20
-97.9168483913194
 10
75.38764646552809
 20
-97.9085801621548
 10
75.01109752899029
 20
-97.88101939827281
 10
75.01109752899029
 20
-97.42523326557425
 10
75.01109752899029
 20
-97.20164656858154
 10
75.138221552396
 20
-96.9611789037111
 10
75.43415525457897
 20
-96.9611789037111
 10
75.62053492033098
 20
-96.9611789037111
 10
75.70287270242845
 20
-97.05591902955547
 10
75.7641954020659
 20
-97.15513777953066
 10
75.7917561659479
 20
-97.09381507989322
 10
75.87202689075421
 20
-96.91260305736908
 10
76.14935707731684
 20
-96.91260305736908
 10
76.48766545396836
 20
-96.91260305736908
 10
76.65475258500298
 20
-97.15927189411296
 10
76.65475258500298
 20
-97.43591306157853
 97
        0
 97
        0
 75
     2
 76
     1
 98
        0
  0
ENDBLK
  5
A8
330
A5
100
AcDbEntity
  8
0
100
AcDbBlockEnd
  0
BLOCK
  5
B5
330
B3
100
AcDbEntity
  8
0
100
AcDbBlockBegin
  2
block 5
 70
     0
 10
0.0
 20
0.0
 30
0.0
  3
block 5
  1

  0
SPLINE
  5
B7
330
B3
100
AcDbEntity
  8
_U+30EC_U+30A4_U+30E4_U+30FC 1
370
     0
100
AcDbSpline
210
0.0
220
0.0
230
1.0
 70
    11
 71
     3
 72
    26
 73
    22
 74
     0
 42
0.0000000001
 43
0.0000000001
 12
1.0
 22
0.0
 32
0.0
 13
1.0
 23
0.0
 33
0.0
 40
0.0
 40
0.0
 40
0.0
 40
0.0
 40
1.0
 40
1.0
 40
1.0
 40
2.0
 40
2.0
 40
2.0
 40
3.0
 40
3.0
 40
3.0
 40
4.0
 40
4.0
 40
4.0
 40
5.0
 40
5.0
 40
5.0
 40
6.0
 40
6.0
 40
6.0
 40
7.0
 40
7.0
 40
7.0
 40
7.0
 10
77.23249509787938
 20
-79.9093342899185
 30
0.0
 10
77.23249509787938
 20
-79.9093342899185
 30
0.0
 10
76.12834199485681
 20
-79.9093342899185
 30
0.0
 10
76.12834199485681
 20
-79.9093342899185
 30
0.0
 10
76.12834199485681
 20
-79.9093342899185
 30
0.0
 10
76.12834199485681
 20
-80.23868541830839
 30
0.0
 10
76.12834199485681
 20
-80.23868541830839
 30
0.0
 10
76.12834199485681
 20
-80.23868541830839
 30
0.0
 10
75.98020288899106
 20
-80.23868541830839
 30
0.0
 10
75.98020288899106
 20
-80.23868541830839
 30
0.0
 10
75.96538897840449
 20
-79.90726723262735
 30
0.0
 10
75.80243596195217
 20
-79.86075844357649
 30
0.0
 10
75.68805879184188
 20
-79.83113062240334
 30
0.0
 10
75.68805879184188
 20
-79.83113062240334
 30
0.0
 10
75.68805879184188
 20
-79.6857475929258
 30
0.0
 10
75.68805879184188
 20
-79.6857475929258
 30
0.0
 10
75.68805879184188
 20
-79.6857475929258
 30
0.0
 10
77.23249509787938
 20
-79.6857475929258
 30
0.0
 10
77.23249509787938
 20
-79.6857475929258
 30
0.0
 10
77.23249509787938
 20
-79.6857475929258
 30
0.0
 10
77.23249509787938
 20
-79.9093342899185
 30
0.0
 10
77.23249509787938
 20
-79.9093342899185
 30
0.0
  0
HATCH
  5
B8
330
B3
100
AcDbEntity
  8
_U+30EC_U+30A4_U+30E4_U+30FC 1
 62
     7
420
 16777215
100
AcDbHatch
 10
0.0
 20
0.0
 30
0.0
210
0.0
220
0.0
230
1.0
  2
SOLID
 70
     1
 71
     0
 91
        1
 92
        1
 93
        1
 72
     4
 94
        3
 73
     0
 74
     1
 95
       26
 96
       22
 40
0.0
 40
0.0
 40
0.0
 40
0.0
 40
1.0
 40
1.0
 40
1.0
 40
2.0
 40
2.0
 40
2.0
 40
3.0
 40
3.0
 40
3.0
 40
4.0
 40
4.0
 40
4.0
 40
5.0
 40
5.0
 40
5.0
 40
6.0
 40
6.0
 40
6.0
 40
7.0
 40
7.0
 40
7.0
 40
7.0
 10
77.23249509787938
 20
-79.9093342899185
 10
77.23249509787938
 20
-79.9093342899185
 10
76.12834199485681
 20
-79.9093342899185
 10
76.12834199485681
 20
-79.9093342899185
 10
76.12834199485681
 20
-79.9093342899185
 10
76.12834199485681
 20
-80.23868541830839
 10
76.12834199485681
 20
-80.23868541830839
 10
76.12834199485681
 20
-80.23868541830839
 10
75.98020288899106
 20
-80.23868541830839
 10
75.98020288899106
 20
-80.23868541830839
 10
75.96538897840449
 20
-79.90726723262735
 10
75.80243596195217
 20
-79.86075844357649
 10
75.68805879184188
 20
-79.83113062240334
 10
75.68805879184188
 20
-79.83113062240334
 10
75.68805879184188
 20
-79.6857475929258
 10
75.68805879184188
 20
-79.6857475929258
 10
75.68805879184188
 20
-79.6857475929258
 10
77.23249509787938
 20
-79.6857475929258
 10
77.23249509787938
 20
-79.6857475929258
 10
77.23249509787938
 20
-79.6857475929258
 10
77.23249509787938
 20
-79.9093342899185
 10
77.23249509787938
 20
-79.9093342899185
 97
        0
 97
        0
 75
     2
 76
     1
 98
        0
  0
ENDBLK
  5
B6
330
B3
100
AcDbEntity
  8
0
100
AcDbBlockEnd
  0
BLOCK
  5
C7
330
C5
100
AcDbEntity
  8
0
100
AcDbBlockBegin
  2
block 6
 70
     0
 10
0.0
 20
0.0
 30
0.0
  3
block 6
  1

  0
SPLINE
  5
C9
330
C5
100
AcDbEntity
  8
_U+30EC_U+30A4_U+30E4_U+30FC 1
370
     0
100
AcDbSpline
210
0.0
220
0.0
230
1.0
 70
    11
 71
     3
 72
    44
 73
    40
 74
     0
 42
0.0000000001
 43
0.0000000001
 12
1.0
 22
0.0
 32
0.0
 13
1.0
 23
0.0
 33
0.0
 40
0.0
 40
0.0
 40
0.0
 40
0.0
 40
1.0
 40
1.0
 40
1.0
 40
2.0
 40
2.0
 40
2.0
 40
3.0
 40
3.0
 40
3.0
 40
4.0
 40
4.0
 40
4.0
 40
5.0
 40
5.0
 40
5.0
 40
6.0
 40
6.0
 40
6.0
 40
7.0
 40
7.0
 40
7.0
 40
8.0
 40
8.0
 40
8.0
 40
9.0
 40
9.0
 40
9.0
 40
10.0
 40
10.0
 40
10.0
 40
11.0
 40
11.0
 40
11.0
 40
12.0
 40
12.0
 40
12.0
 40
13.0
 40
13.0
 40
13.0
 40
13.0
 10
60.99145370654033
 20
-76.49886201429543
 30
0.0
 10
60.77406818142107
 20
-76.65750866139118
 30
0.0
 10
60.68122285809358
 20
-76.73157821432406
 30
0.0
 10
60.63264701175157
 20
-76.87541095083323
 30
0.0
 10
60.63264701175157
 20
-76.87541095083323
 30
0.0
 10
61.40899927935261
 20
-76.87541095083323
 30
0.0
 10
61.40899927935261
 20
-76.87541095083323
 30
0.0
 10
61.40899927935261
 20
-76.87541095083323
 30
0.0
 10
61.40899927935261
 20
-77.08056638697987
 30
0.0
 10
61.40899927935261
 20
-77.08056638697987
 30
0.0
 10
61.40899927935261
 20
-77.08056638697987
 30
0.0
 10
60.38373886294226
 20
-77.08056638697987
 30
0.0
 10
60.38373886294226
 20
-77.08056638697987
 30
0.0
 10
60.4152614866323
 20
-76.72296547561093
 30
0.0
 10
60.48071830085205
 20
-76.64476180809575
 30
0.0
 10
60.86467419268314
 20
-76.34641653907312
 30
0.0
 10
61.11995576814015
 20
-76.1476345295742
 30
0.0
 10
61.1854125823599
 20
-76.07993840328905
 30
0.0
 10
61.1854125823599
 20
-75.94247909342758
 30
0.0
 10
61.1854125823599
 20
-75.82396780873498
 30
0.0
 10
61.1137545962667
 20
-75.69288192552122
 30
0.0
 10
60.91755640838173
 20
-75.69288192552122
 30
0.0
 10
60.65796846356815
 20
-75.69288192552122
 30
0.0
 10
60.64952797962929
 20
-75.92335881348444
 30
0.0
 10
60.64522161027273
 20
-76.03980304088589
 30
0.0
 10
60.64522161027273
 20
-76.03980304088589
 30
0.0
 10
60.42163491328001
 20
-76.03980304088589
 30
0.0
 10
60.42163491328001
 20
-76.03980304088589
 30
0.0
 10
60.43007539721887
 20
-75.91285127225443
 30
0.0
 10
60.44058293844888
 20
-75.80071341420955
 30
0.0
 10
60.5208536632552
 20
-75.68220212951695
 30
0.0
 10
60.63057995446042
 20
-75.52148842513004
 30
0.0
 10
60.81627060111538
 20
-75.48755423460034
 30
0.0
 10
60.93219806419404
 20
-75.48755423460034
 30
0.0
 10
61.2088392316596
 20
-75.48755423460034
 30
0.0
 10
61.41554496077459
 20
-75.67169458828694
 30
0.0
 10
61.41554496077459
 20
-75.94454615071872
 30
0.0
 10
61.41554496077459
 20
-76.17295598139079
 30
0.0
 10
61.29944524292167
 20
-76.27251924091452
 30
0.0
 10
60.99145370654033
 20
-76.49886201429543
 30
0.0
  0
HATCH
  5
CA
330
C5
100
AcDbEntity
  8
_U+30EC_U+30A4_U+30E4_U+30FC 1
 62
     7
420
 16777215
100
AcDbHatch
 10
0.0
 20
0.0
 30
0.0
210
0.0
220
0.0
230
1.0
  2
SOLID
 70
     1
 71
     0
 91
        1
 92
        1
 93
        1
 72
     4
 94
        3
 73
     0
 74
     1
 95
       44
 96
       40
 40
0.0
 40
0.0
 40
0.0
 40
0.0
 40
1.0
 40
1.0
 40
1.0
 40
2.0
 40
2.0
 40
2.0
 40
3.0
 40
3.0
 40
3.0
 40
4.0
 40
4.0
 40
4.0
 40
5.0
 40
5.0
 40
5.0
 40
6.0
 40
6.0
 40
6.0
 40
7.0
 40
7.0
 40
7.0
 40
8.0
 40
8.0
 40
8.0
 40
9.0
 40
9.0
 40
9.0
 40
10.0
 40
10.0
 40
10.0
 40
11.0
 40
11.0
 40
11.0
 40
12.0
 40
12.0
 40
12.0
 40
13.0
 40
13.0
 40
13.0
 40
13.0
 10
60.99145370654033
 20
-76.49886201429543
 10
60.77406818142107
 20
-76.65750866139118
 10
60.68122285809358
 20
-76.73157821432406
 10
60.63264701175157
 20
-76.87541095083323
 10
60.63264701175157
 20
-76.87541095083323
 10
61.40899927935261
 20
-76.87541095083323
 10
61.40899927935261
 20
-76.87541095083323
 10
61.40899927935261
 20
-76.87541095083323
 10
61.40899927935261
 20
-77.08056638697987
 10
61.40899927935261
 20
-77.08056638697987
 10
61.40899927935261
 20
-77.08056638697987
 10
60.38373886294226
 20
-77.08056638697987
 10
60.38373886294226
 20
-77.08056638697987
 10
60.4152614866323
 20
-76.72296547561093
 10
60.48071830085205
 20
-76.64476180809575
 10
60.86467419268314
 20
-76.34641653907312
 10
61.11995576814015
 20
-76.1476345295742
 10
61.1854125823599
 20
-76.07993840328905
 10
61.1854125823599
 20
-75.94247909342758
 10
61.1854125823599
 20
-75.82396780873498
 10
61.1137545962667
 20
-75.69288192552122
 10
60.91755640838173
 20
-75.69288192552122
 10
60.65796846356815
 20
-75.69288192552122
 10
60.64952797962929
 20
-75.92335881348444
 10
60.64522161027273
 20
-76.03980304088589
 10
60.64522161027273
 20
-76.03980304088589
 10
60.42163491328001
 20
-76.03980304088589
 10
60.42163491328001
 20
-76.03980304088589
 10
60.43007539721887
 20
-75.91285127225443
 10
60.44058293844888
 20
-75.80071341420955
 10
60.5208536632552
 20
-75.68220212951695
 10
60.63057995446042
 20
-75.52148842513004
 10
60.81627060111538
 20
-75.48755423460034
 10
60.93219806419404
 20
-75.48755423460034
 10
61.2088392316596
 20
-75.48755423460034
 10
61.41554496077459
 20
-75.67169458828694
 10
61.41554496077459
 20
-75.94454615071872
 10
61.41554496077459
 20
-76.17295598139079
 10
61.29944524292167
 20
-76.27251924091452
 10
60.99145370654033
 20
-76.49886201429543
 97
        0
 97
        0
 75
     2
 76
     1
 98
        0
  0
SPLINE
  5
CB
330
C5
100
AcDbEntity
  8
_U+30EC_U+30A4_U+30E4_U+30FC 1
370
     0
100
AcDbSpline
210
0.0
220
0.0
230
1.0
 70
    11
 71
     3
 72
    53
 73
    49
 74
     0
 42
0.0000000001
 43
0.0000000001
 12
1.0
 22
0.0
 32
0.0
 13
1.0
 23
0.0
 33
0.0
 40
0.0
 40
0.0
 40
0.0
 40
0.0
 40
1.0
 40
1.0
 40
1.0
 40
2.0
 40
2.0
 40
2.0
 40
3.0
 40
3.0
 40
3.0
 40
4.0
 40
4.0
 40
4.0
 40
5.0
 40
5.0
 40
5.0
 40
6.0
 40
6.0
 40
6.0
 40
7.0
 40
7.0
 40
7.0
 40
8.0
 40
8.0
 40
8.0
 40
9.0
 40
9.0
 40
9.0
 40
10.0
 40
10.0
 40
10.0
 40
11.0
 40
11.0
 40
11.0
 40
12.0
 40
12.0
 40
12.0
 40
13.0
 40
13.0
 40
13.0
 40
14.0
 40
14.0
 40
14.0
 40
15.0
 40
15.0
 40
15.0
 40
16.0
 40
16.0
 40
16.0
 40
16.0
 10
62.05185409690024
 20
-77.1313815453873
 30
0.0
 10
61.97365042938506
 20
-77.1313815453873
 30
0.0
 10
61.87236462211872
 20
-77.1143283227353
 30
0.0
 10
61.77107881485237
 20
-77.05093856580672
 30
0.0
 10
61.59813502149283
 20
-76.94086776505299
 30
0.0
 10
61.57711993903281
 20
-76.80978188183923
 30
0.0
 10
61.5578274043154
 20
-76.70195039315091
 30
0.0
 10
61.5578274043154
 20
-76.70195039315091
 30
0.0
 10
61.7796915535655
 20
-76.70195039315091
 30
0.0
 10
61.7796915535655
 20
-76.70195039315091
 30
0.0
 10
61.83446857178097
 20
-76.90073240264982
 30
0.0
 10
61.96090357608963
 20
-76.93036022382297
 30
0.0
 10
62.05392115419139
 20
-76.93036022382297
 30
0.0
 10
62.19310301179548
 20
-76.93036022382297
 30
0.0
 10
62.345031722695
 20
-76.83096921907351
 30
0.0
 10
62.345031722695
 20
-76.59825301904489
 30
0.0
 10
62.345031722695
 20
-76.34228242449082
 30
0.0
 10
62.16554224791348
 20
-76.27251924091452
 30
0.0
 10
62.04530841547826
 20
-76.27251924091452
 30
0.0
 10
62.01361353701396
 20
-76.27251924091452
 30
0.0
 10
61.87236462211872
 20
-76.27251924091452
 30
0.0
 10
61.7838256681478
 20
-76.40153806683712
 30
0.0
 10
61.7838256681478
 20
-76.40153806683712
 30
0.0
 10
61.60847030794858
 20
-76.38241778689398
 30
0.0
 10
61.60847030794858
 20
-76.38241778689398
 30
0.0
 10
61.60847030794858
 20
-76.38241778689398
 30
0.0
 10
61.7287041403838
 20
-75.53630233571663
 30
0.0
 10
61.7287041403838
 20
-75.53630233571663
 30
0.0
 10
61.7287041403838
 20
-75.53630233571663
 30
0.0
 10
62.50522866275912
 20
-75.53630233571663
 30
0.0
 10
62.50522866275912
 20
-75.53630233571663
 30
0.0
 10
62.50522866275912
 20
-75.53630233571663
 30
0.0
 10
62.50522866275912
 20
-75.73095023063324
 30
0.0
 10
62.50522866275912
 20
-75.73095023063324
 30
0.0
 10
62.50522866275912
 20
-75.73095023063324
 30
0.0
 10
61.89131264728759
 20
-75.73095023063324
 30
0.0
 10
61.89131264728759
 20
-75.73095023063324
 30
0.0
 10
61.89131264728759
 20
-75.73095023063324
 30
0.0
 10
61.82585583306784
 20
-76.15400795622192
 30
0.0
 10
61.82585583306784
 20
-76.15400795622192
 30
0.0
 10
61.88717853270529
 20
-76.12007376569221
 30
0.0
 10
61.96951631480276
 20
-76.07993840328905
 30
0.0
 10
62.08768308994683
 20
-76.07993840328905
 30
0.0
 10
62.3408976081127
 20
-76.07993840328905
 30
0.0
 10
62.57723115840083
 20
-76.2661458142668
 30
0.0
 10
62.57723115840083
 20
-76.57913273910175
 30
0.0
 10
62.57723115840083
 20
-76.89659828806752
 30
0.0
 10
62.35364446140812
 20
-77.1313815453873
 30
0.0
 10
62.05185409690024
 20
-77.1313815453873
 30
0.0
  0
HATCH
  5
CC
330
C5
100
AcDbEntity
  8
_U+30EC_U+30A4_U+30E4_U+30FC 1
 62
     7
420
 16777215
100
AcDbHatch
 10
0.0
 20
0.0
 30
0.0
210
0.0
220
0.0
230
1.0
  2
SOLID
 70
     1
 71
     0
 91
        1
 92
        1
 93
        1
 72
     4
 94
        3
 73
     0
 74
     1
 95
       53
 96
       49
 40
0.0
 40
0.0
 40
0.0
 40
0.0
 40
1.0
 40
1.0
 40
1.0
 40
2.0
 40
2.0
 40
2.0
 40
3.0
 40
3.0
 40
3.0
 40
4.0
 40
4.0
 40
4.0
 40
5.0
 40
5.0
 40
5.0
 40
6.0
 40
6.0
 40
6.0
 40
7.0
 40
7.0
 40
7.0
 40
8.0
 40
8.0
 40
8.0
 40
9.0
 40
9.0
 40
9.0
 40
10.0
 40
10.0
 40
10.0
 40
11.0
 40
11.0
 40
11.0
 40
12.0
 40
12.0
 40
12.0
 40
13.0
 40
13.0
 40
13.0
 40
14.0
 40
14.0
 40
14.0
 40
15.0
 40
15.0
 40
15.0
 40
16.0
 40
16.0
 40
16.0
 40
16.0
 10
62.05185409690024
 20
-77.1313815453873
 10
61.97365042938506
 20
-77.1313815453873
 10
61.87236462211872
 20
-77.1143283227353
 10
61.77107881485237
 20
-77.05093856580672
 10
61.59813502149283
 20
-76.94086776505299
 10
61.57711993903281
 20
-76.80978188183923
 10
61.5578274043154
 20
-76.70195039315091
 10
61.5578274043154
 20
-76.70195039315091
 10
61.7796915535655
 20
-76.70195039315091
 10
61.7796915535655
 20
-76.70195039315091
 10
61.83446857178097
 20
-76.90073240264982
 10
61.96090357608963
 20
-76.93036022382297
 10
62.05392115419139
 20
-76.93036022382297
 10
62.19310301179548
 20
-76.93036022382297
 10
62.345031722695
 20
-76.83096921907351
 10
62.345031722695
 20
-76.59825301904489
 10
62.345031722695
 20
-76.34228242449082
 10
62.16554224791348
 20
-76.27251924091452
 10
62.04530841547826
 20
-76.27251924091452
 10
62.01361353701396
 20
-76.27251924091452
 10
61.87236462211872
 20
-76.27251924091452
 10
61.7838256681478
 20
-76.40153806683712
 10
61.7838256681478
 20
-76.40153806683712
 10
61.60847030794858
 20
-76.38241778689398
 10
61.60847030794858
 20
-76.38241778689398
 10
61.60847030794858
 20
-76.38241778689398
 10
61.7287041403838
 20
-75.53630233571663
 10
61.7287041403838
 20
-75.53630233571663
 10
61.7287041403838
 20
-75.53630233571663
 10
62.50522866275912
 20
-75.53630233571663
 10
62.50522866275912
 20
-75.53630233571663
 10
62.50522866275912
 20
-75.53630233571663
 10
62.50522866275912
 20
-75.73095023063324
 10
62.50522866275912
 20
-75.73095023063324
 10
62.50522866275912
 20
-75.73095023063324
 10
61.89131264728759
 20
-75.73095023063324
 10
61.89131264728759
 20
-75.73095023063324
 10
61.89131264728759
 20
-75.73095023063324
 10
61.82585583306784
 20
-76.15400795622192
 10
61.82585583306784
 20
-76.15400795622192
 10
61.88717853270529
 20
-76.12007376569221
 10
61.96951631480276
 20
-76.07993840328905
 10
62.08768308994683
 20
-76.07993840328905
 10
62.3408976081127
 20
-76.07993840328905
 10
62.57723115840083
 20
-76.2661458142668
 10
62.57723115840083
 20
-76.57913273910175
 10
62.57723115840083
 20
-76.89659828806752
 10
62.35364446140812
 20
-77.1313815453873
 10
62.05185409690024
 20
-77.1313815453873
 97
        0
 97
        0
 75
     2
 76
     1
 98
        0
  0
ENDBLK
  5
C8
330
C5
100
AcDbEntity
  8
0
100
AcDbBlockEnd
  0
BLOCK
  5
D7
330
D5
100
AcDbEntity
  8
0
100
AcDbBlockBegin
  2
block 7
 70
     0
 10
0.0
 20
0.0
 30
0.0
  3
block 7
  1

  0
SPLINE
  5
D9
330
D5
100
AcDbEntity
  8
_U+30EC_U+30A4_U+30E4_U+30FC 1
370
     0
100
AcDbSpline
210
0.0
220
0.0
230
1.0
 70
    11
 71
     3
 72
    26
 73
    22
 74
     0
 42
0.0000000001
 43
0.0000000001
 12
1.0
 22
0.0
 32
0.0
 13
1.0
 23
0.0
 33
0.0
 40
0.0
 40
0.0
 40
0.0
 40
0.0
 40
1.0
 40
1.0
 40
1.0
 40
2.0
 40
2.0
 40
2.0
 40
3.0
 40
3.0
 40
3.0
 40
4.0
 40
4.0
 40
4.0
 40
5.0
 40
5.0
 40
5.0
 40
6.0
 40
6.0
 40
6.0
 40
7.0
 40
7.0
 40
7.0
 40
7.0
 10
76.6041096813698
 20
-89.961778406329
 30
0.0
 10
76.6041096813698
 20
-89.961778406329
 30
0.0
 10
75.49995657834724
 20
-89.961778406329
 30
0.0
 10
75.49995657834724
 20
-89.961778406329
 30
0.0
 10
75.49995657834724
 20
-89.961778406329
 30
0.0
 10
75.49995657834724
 20
-90.29112953471889
 30
0.0
 10
75.49995657834724
 20
-90.29112953471889
 30
0.0
 10
75.49995657834724
 20
-90.29112953471889
 30
0.0
 10
75.3518174724815
 20
-90.29112953471889
 30
0.0
 10
75.3518174724815
 20
-90.29112953471889
 30
0.0
 10
75.33700356189492
 20
-89.95971134903786
 30
0.0
 10
75.1740505454426
 20
-89.91320255998698
 30
0.0
 10
75.05967337533231
 20
-89.88391924836236
 30
0.0
 10
75.05967337533231
 20
-89.88391924836236
 30
0.0
 10
75.05967337533231
 20
-89.73819170933629
 30
0.0
 10
75.05967337533231
 20
-89.73819170933629
 30
0.0
 10
75.05967337533231
 20
-89.73819170933629
 30
0.0
 10
76.6041096813698
 20
-89.73819170933629
 30
0.0
 10
76.6041096813698
 20
-89.73819170933629
 30
0.0
 10
76.6041096813698
 20
-89.73819170933629
 30
0.0
 10
76.6041096813698
 20
-89.961778406329
 30
0.0
 10
76.6041096813698
 20
-89.961778406329
 30
0.0
  0
HATCH
  5
DA
330
D5
100
AcDbEntity
  8
_U+30EC_U+30A4_U+30E4_U+30FC 1
 62
     7
420
 16777215
100
AcDbHatch
 10
0.0
 20
0.0
 30
0.0
210
0.0
220
0.0
230
1.0
  2
SOLID
 70
     1
 71
     0
 91
        1
 92
        1
 93
        1
 72
     4
 94
        3
 73
     0
 74
     1
 95
       26
 96
       22
 40
0.0
 40
0.0
 40
0.0
 40
0.0
 40
1.0
 40
1.0
 40
1.0
 40
2.0
 40
2.0
 40
2.0
 40
3.0
 40
3.0
 40
3.0
 40
4.0
 40
4.0
 40
4.0
 40
5.0
 40
5.0
 40
5.0
 40
6.0
 40
6.0
 40
6.0
 40
7.0
 40
7.0
 40
7.0
 40
7.0
 10
76.6041096813698
 20
-89.961778406329
 10
76.6041096813698
 20
-89.961778406329
 10
75.49995657834724
 20
-89.961778406329
 10
75.49995657834724
 20
-89.961778406329
 10
75.49995657834724
 20
-89.961778406329
 10
75.49995657834724
 20
-90.29112953471889
 10
75.49995657834724
 20
-90.29112953471889
 10
75.49995657834724
 20
-90.29112953471889
 10
75.3518174724815
 20
-90.29112953471889
 10
75.3518174724815
 20
-90.29112953471889
 10
75.33700356189492
 20
-89.95971134903786
 10
75.1740505454426
 20
-89.91320255998698
 10
75.05967337533231
 20
-89.88391924836236
 10
75.05967337533231
 20
-89.88391924836236
 10
75.05967337533231
 20
-89.73819170933629
 10
75.05967337533231
 20
-89.73819170933629
 10
75.05967337533231
 20
-89.73819170933629
 10
76.6041096813698
 20
-89.73819170933629
 10
76.6041096813698
 20
-89.73819170933629
 10
76.6041096813698
 20
-89.73819170933629
 10
76.6041096813698
 20
-89.961778406329
 10
76.6041096813698
 20
-89.961778406329
 97
        0
 97
        0
 75
     2
 76
     1
 98
        0
  0
SPLINE
  5
DB
330
D5
100
AcDbEntity
  8
_U+30EC_U+30A4_U+30E4_U+30FC 1
370
     0
100
AcDbSpline
210
0.0
220
0.0
230
1.0
 70
    11
 71
     3
 72
    62
 73
    58
 74
     0
 42
0.0000000001
 43
0.0000000001
 12
1.0
 22
0.0
 32
0.0
 13
1.0
 23
0.0
 33
0.0
 40
0.0
 40
0.0
 40
0.0
 40
0.0
 40
1.0
 40
1.0
 40
1.0
 40
2.0
 40
2.0
 40
2.0
 40
3.0
 40
3.0
 40
3.0
 40
4.0
 40
4.0
 40
4.0
 40
5.0
 40
5.0
 40
5.0
 40
6.0
 40
6.0
 40
6.0
 40
7.0
 40
7.0
 40
7.0
 40
8.0
 40
8.0
 40
8.0
 40
9.0
 40
9.0
 40
9.0
 40
10.0
 40
10.0
 40
10.0
 40
11.0
 40
11.0
 40
11.0
 40
12.0
 40
12.0
 40
12.0
 40
13.0
 40
13.0
 40
13.0
 40
14.0
 40
14.0
 40
14.0
 40
15.0
 40
15.0
 40
15.0
 40
16.0
 40
16.0
 40
16.0
 40
17.0
 40
17.0
 40
17.0
 40
18.0
 40
18.0
 40
18.0
 40
19.0
 40
19.0
 40
19.0
 40
19.0
 10
76.65475258500298
 20
-88.74944930506959
 30
0.0
 10
76.65475258500298
 20
-88.84418943091396
 30
0.0
 10
76.63373750254296
 20
-89.06157495603323
 30
0.0
 10
76.44770234633947
 20
-89.18628741259927
 30
0.0
 10
76.33539223352032
 20
-89.26001245598361
 30
0.0
 10
76.23617348354513
 20
-89.26414657056591
 30
0.0
 10
76.15142413460798
 20
-89.26862519469674
 30
0.0
 10
76.15142413460798
 20
-89.26862519469674
 30
0.0
 10
76.15142413460798
 20
-89.0488281027378
 30
0.0
 10
76.15142413460798
 20
-89.0488281027378
 30
0.0
 10
76.22549368754085
 20
-89.04676104544664
 30
0.0
 10
76.46010469008637
 20
-89.0364257589909
 30
0.0
 10
76.46010469008637
 20
-88.75358341965189
 30
0.0
 10
76.46010469008637
 20
-88.61646861933895
 30
0.0
 10
76.39051376128432
 20
-88.46453990843942
 30
0.0
 10
76.16210393061226
 20
-88.46453990843942
 30
0.0
 10
76.04565970321082
 20
-88.46453990843942
 30
0.0
 10
75.99708385686878
 20
-88.50243595877717
 30
0.0
 10
75.96538897840449
 20
-88.53413083724148
 30
0.0
 10
75.89131942547162
 20
-88.60785588062582
 30
0.0
 10
75.8785725721762
 20
-88.72395559847874
 30
0.0
 10
75.8785725721762
 20
-88.77873261669421
 30
0.0
 10
75.8785725721762
 20
-88.79802515141161
 30
0.0
 10
75.88063962946734
 20
-88.8338541444582
 30
0.0
 10
75.88477374404964
 20
-88.86107039879168
 30
0.0
 10
75.88477374404964
 20
-88.86107039879168
 30
0.0
 10
75.69012584913303
 20
-88.86107039879168
 30
0.0
 10
75.69012584913303
 20
-88.86107039879168
 30
0.0
 10
75.69667153055501
 20
-88.82317434845393
 30
0.0
 10
75.69873858784615
 20
-88.78114418353388
 30
0.0
 10
75.69873858784615
 20
-88.77459850211191
 30
0.0
 10
75.69873858784615
 20
-88.70914168789216
 30
0.0
 10
75.6773789958376
 20
-88.5110486974903
 30
0.0
 10
75.44070093600094
 20
-88.5110486974903
 30
0.0
 10
75.26293400896205
 20
-88.5110486974903
 30
0.0
 10
75.20781248119805
 20
-88.64161781638127
 30
0.0
 10
75.20781248119805
 20
-88.75151636236073
 30
0.0
 10
75.20781248119805
 20
-89.01506616698235
 30
0.0
 10
75.44070093600094
 20
-89.02367890569548
 30
0.0
 10
75.51235892209414
 20
-89.02781302027778
 30
0.0
 10
75.51235892209414
 20
-89.02781302027778
 30
0.0
 10
75.51235892209414
 20
-89.23038463481046
 30
0.0
 10
75.51235892209414
 20
-89.23038463481046
 30
0.0
 10
75.38764646552809
 20
-89.22211640564586
 30
0.0
 10
75.01109752899029
 20
-89.19455564176387
 30
0.0
 10
75.01109752899029
 20
-88.7387695090653
 30
0.0
 10
75.01109752899029
 20
-88.5151828120726
 30
0.0
 10
75.138221552396
 20
-88.27471514720216
 30
0.0
 10
75.43415525457897
 20
-88.27471514720216
 30
0.0
 10
75.62053492033098
 20
-88.27471514720216
 30
0.0
 10
75.70287270242845
 20
-88.36945527304653
 30
0.0
 10
75.7641954020659
 20
-88.46867402302172
 30
0.0
 10
75.7917561659479
 20
-88.40735132338428
 30
0.0
 10
75.87202689075421
 20
-88.22613930086014
 30
0.0
 10
76.14935707731684
 20
-88.22613930086014
 30
0.0
 10
76.48766545396836
 20
-88.22613930086014
 30
0.0
 10
76.65475258500298
 20
-88.47280813760402
 30
0.0
 10
76.65475258500298
 20
-88.74944930506959
 30
0.0
  0
HATCH
  5
DC
330
D5
100
AcDbEntity
  8
_U+30EC_U+30A4_U+30E4_U+30FC 1
 62
     7
420
 16777215
100
AcDbHatch
 10
0.0
 20
0.0
 30
0.0
210
0.0
220
0.0
230
1.0
  2
SOLID
 70
     1
 71
     0
 91
        1
 92
        1
 93
        1
 72
     4
 94
        3
 73
     0
 74
     1
 95
       62
 96
       58
 40
0.0
 40
0.0
 40
0.0
 40
0.0
 40
1.0
 40
1.0
 40
1.0
 40
2.0
 40
2.0
 40
2.0
 40
3.0
 40
3.0
 40
3.0
 40
4.0
 40
4.0
 40
4.0
 40
5.0
 40
5.0
 40
5.0
 40
6.0
 40
6.0
 40
6.0
 40
7.0
 40
7.0
 40
7.0
 40
8.0
 40
8.0
 40
8.0
 40
9.0
 40
9.0
 40
9.0
 40
10.0
 40
10.0
 40
10.0
 40
11.0
 40
11.0
 40
11.0
 40
12.0
 40
12.0
 40
12.0
 40
13.0
 40
13.0
 40
13.0
 40
14.0
 40
14.0
 40
14.0
 40
15.0
 40
15.0
 40
15.0
 40
16.0
 40
16.0
 40
16.0
 40
17.0
 40
17.0
 40
17.0
 40
18.0
 40
18.0
 40
18.0
 40
19.0
 40
19.0
 40
19.0
 40
19.0
 10
76.65475258500298
 20
-88.74944930506959
 10
76.65475258500298
 20
-88.84418943091396
 10
76.63373750254296
 20
-89.06157495603323
 10
76.44770234633947
 20
-89.18628741259927
 10
76.33539223352032
 20
-89.26001245598361
 10
76.23617348354513
 20
-89.26414657056591
 10
76.15142413460798
 20
-89.26862519469674
 10
76.15142413460798
 20
-89.26862519469674
 10
76.15142413460798
 20
-89.0488281027378
 10
76.15142413460798
 20
-89.0488281027378
 10
76.22549368754085
 20
-89.04676104544664
 10
76.46010469008637
 20
-89.0364257589909
 10
76.46010469008637
 20
-88.75358341965189
 10
76.46010469008637
 20
-88.61646861933895
 10
76.39051376128432
 20
-88.46453990843942
 10
76.16210393061226
 20
-88.46453990843942
 10
76.04565970321082
 20
-88.46453990843942
 10
75.99708385686878
 20
-88.50243595877717
 10
75.96538897840449
 20
-88.53413083724148
 10
75.89131942547162
 20
-88.60785588062582
 10
75.8785725721762
 20
-88.72395559847874
 10
75.8785725721762
 20
-88.77873261669421
 10
75.8785725721762
 20
-88.79802515141161
 10
75.88063962946734
 20
-88.8338541444582
 10
75.88477374404964
 20
-88.86107039879168
 10
75.88477374404964
 20
-88.86107039879168
 10
75.69012584913303
 20
-88.86107039879168
 10
75.69012584913303
 20
-88.86107039879168
 10
75.69667153055501
 20
-88.82317434845393
 10
75.69873858784615
 20
-88.78114418353388
 10
75.69873858784615
 20
-88.77459850211191
 10
75.69873858784615
 20
-88.70914168789216
 10
75.6773789958376
 20
-88.5110486974903
 10
75.44070093600094
 20
-88.5110486974903
 10
75.26293400896205
 20
-88.5110486974903
 10
75.20781248119805
 20
-88.64161781638127
 10
75.20781248119805
 20
-88.75151636236073
 10
75.20781248119805
 20
-89.01506616698235
 10
75.44070093600094
 20
-89.02367890569548
 10
75.51235892209414
 20
-89.02781302027778
 10
75.51235892209414
 20
-89.02781302027778
 10
75.51235892209414
 20
-89.23038463481046
 10
75.51235892209414
 20
-89.23038463481046
 10
75.38764646552809
 20
-89.22211640564586
 10
75.01109752899029
 20
-89.19455564176387
 10
75.01109752899029
 20
-88.7387695090653
 10
75.01109752899029
 20
-88.5151828120726
 10
75.138221552396
 20
-88.27471514720216
 10
75.43415525457897
 20
-88.27471514720216
 10
75.62053492033098
 20
-88.27471514720216
 10
75.70287270242845
 20
-88.36945527304653
 10
75.7641954020659
 20
-88.46867402302172
 10
75.7917561659479
 20
-88.40735132338428
 10
75.87202689075421
 20
-88.22613930086014
 10
76.14935707731684
 20
-88.22613930086014
 10
76.48766545396836
 20
-88.22613930086014
 10
76.65475258500298
 20
-88.47280813760402
 10
76.65475258500298
 20
-88.74944930506959
 97
        0
 97
        0
 75
     2
 76
     1
 98
        0
  0
ENDBLK
  5
D8
330
D5
100
AcDbEntity
  8
0
100
AcDbBlockEnd
  0
ENDSEC
  0
SECTION
  2
ENTITIES
  0
INSERT
  5
42
330
1F
100
AcDbEntity
  8
_U+30EC_U+30A4_U+30E4_U+30FC 1
100
AcDbBlockReference
  2
block 2
 10
0.0
 20
0.0
 30
0.0
  0
SPLINE
  5
7D
330
1F
100
AcDbEntity
  8
_U+30EC_U+30A4_U+30E4_U+30FC 1
 62
     7
420
 16777215
370
     9
100
AcDbSpline
210
0.0
220
0.0
230
1.0
 70
    11
 71
     3
 72
    17
 73
    13
 74
     0
 42
0.0000000001
 43
0.0000000001
 12
1.0
 22
0.0
 32
0.0
 13
1.0
 23
0.0
 33
0.0
 40
0.0
 40
0.0
 40
0.0
 40
0.0
 40
1.0
 40
1.0
 40
1.0
 40
2.0
 40
2.0
 40
2.0
 40
3.0
 40
3.0
 40
3.0
 40
4.0
 40
4.0
 40
4.0
 40
4.0
 10
62.18364341356309
 20
-102.9263738631572
 30
0.0
 10
62.18364341356309
 20
-102.8712346965042
 30
0.0
 10
62.13884063692833
 20
-102.8264671965156
 30
0.0
 10
62.08373674944525
 20
-102.8264671965156
 30
0.0
 10
62.02859758418531
 20
-102.8264671965156
 30
0.0
 10
61.98379480755054
 20
-102.8712346965042
 30
0.0
 10
61.98379480755054
 20
-102.9263738631572
 30
0.0
 10
61.98379480755054
 20
-102.9814777520321
 30
0.0
 10
62.02859758418531
 20
-103.0262805297989
 30
0.0
 10
62.08373674944525
 20
-103.0262805297989
 30
0.0
 10
62.13884063692833
 20
-103.0262805297989
 30
0.0
 10
62.18364341356309
 20
-102.9814777520321
 30
0.0
 10
62.18364341356309
 20
-102.9263738631572
 30
0.0
  0
SPLINE
  5
7E
330
1F
100
AcDbEntity
  8
_U+30EC_U+30A4_U+30E4_U+30FC 1
 62
     7
420
 16777215
370
     9
100
AcDbSpline
210
0.0
220
0.0
230
1.0
 70
    11
 71
     3
 72
    17
 73
    13
 74
     0
 42
0.0000000001
 43
0.0000000001
 12
1.0
 22
0.0
 32
0.0
 13
1.0
 23
0.0
 33
0.0
 40
0.0
 40
0.0
 40
0.0
 40
0.0
 40
1.0
 40
1.0
 40
1.0
 40
2.0
 40
2.0
 40
2.0
 40
3.0
 40
3.0
 40
3.0
 40
4.0
 40
4.0
 40
4.0
 40
4.0
 10
47.08411990989514
 20
-102.9263738631572
 30
0.0
 10
47.08411990989514
 20
-102.8712346965042
 30
0.0
 10
47.03931713326038
 20
-102.8264671965156
 30
0.0
 10
46.98386046800852
 20
-102.8264671965156
 30
0.0
 10
46.92875658052545
 20
-102.8264671965156
 30
0.0
 10
46.88395380389069
 20
-102.8712346965042
 30
0.0
 10
46.88395380389069
 20
-102.9263738631572
 30
0.0
 10
46.88395380389069
 20
-102.9814777520321
 30
0.0
 10
46.92875658052545
 20
-103.0262805297989
 30
0.0
 10
46.98386046800852
 20
-103.0262805297989
 30
0.0
 10
47.03931713326038
 20
-103.0262805297989
 30
0.0
 10
47.08411990989514
 20
-102.9814777520321
 30
0.0
 10
47.08411990989514
 20
-102.9263738631572
 30
0.0
  0
SPLINE
  5
7F
330
1F
100
AcDbEntity
  8
_U+30EC_U+30A4_U+30E4_U+30FC 1
 62
     7
420
 16777215
370
     9
100
AcDbSpline
210
0.0
220
0.0
230
1.0
 70
    11
 71
     3
 72
    17
 73
    13
 74
     0
 42
0.0000000001
 43
0.0000000001
 12
1.0
 22
0.0
 32
0.0
 13
1.0
 23
0.0
 33
0.0
 40
0.0
 40
0.0
 40
0.0
 40
0.0
 40
1.0
 40
1.0
 40
1.0
 40
2.0
 40
2.0
 40
2.0
 40
3.0
 40
3.0
 40
3.0
 40
4.0
 40
4.0
 40
4.0
 40
4.0
 10
78.08411356346386
 20
-81.82617053509895
 30
0.0
 10
78.08411356346386
 20
-81.77106664622403
 30
0.0
 10
78.03934606460597
 20
-81.72626386845731
 30
0.0
 10
77.98420689934602
 20
-81.72626386845731
 30
0.0
 10
77.92875023409417
 20
-81.72626386845731
 30
0.0
 10
77.88394745745941
 20
-81.77106664622403
 30
0.0
 10
77.88394745745941
 20
-81.82617053509895
 30
0.0
 10
77.88394745745941
 20
-81.88130970175203
 30
0.0
 10
77.92875023409417
 20
-81.92607720174058
 30
0.0
 10
77.98420689934602
 20
-81.92607720174058
 30
0.0
 10
78.03934606460597
 20
-81.92607720174058
 30
0.0
 10
78.08411356346386
 20
-81.88130970175203
 30
0.0
 10
78.08411356346386
 20
-81.82617053509895
 30
0.0
  0
SPLINE
  5
80
330
1F
100
AcDbEntity
  8
_U+30EC_U+30A4_U+30E4_U+30FC 1
 62
     7
420
 16777215
370
     9
100
AcDbSpline
210
0.0
220
0.0
230
1.0
 70
    11
 71
     3
 72
    17
 73
    13
 74
     0
 42
0.0000000001
 43
0.0000000001
 12
1.0
 22
0.0
 32
0.0
 13
1.0
 23
0.0
 33
0.0
 40
0.0
 40
0.0
 40
0.0
 40
0.0
 40
1.0
 40
1.0
 40
1.0
 40
2.0
 40
2.0
 40
2.0
 40
3.0
 40
3.0
 40
3.0
 40
4.0
 40
4.0
 40
4.0
 40
4.0
 10
78.08411356346386
 20
-82.82629553484894
 30
0.0
 10
78.08411356346386
 20
-82.77119164597401
 30
0.0
 10
78.03934606460597
 20
-82.7263888682073
 30
0.0
 10
77.98420689934602
 20
-82.7263888682073
 30
0.0
 10
77.92875023409417
 20
-82.7263888682073
 30
0.0
 10
77.88394745745941
 20
-82.77119164597401
 30
0.0
 10
77.88394745745941
 20
-82.82629553484894
 30
0.0
 10
77.88394745745941
 20
-82.88175220150194
 30
0.0
 10
77.92875023409417
 20
-82.92655497926833
 30
0.0
 10
77.98420689934602
 20
-82.92655497926833
 30
0.0
 10
78.03934606460597
 20
-82.92655497926833
 30
0.0
 10
78.08411356346386
 20
-82.88175220150194
 30
0.0
 10
78.08411356346386
 20
-82.82629553484894
 30
0.0
  0
SPLINE
  5
81
330
1F
100
AcDbEntity
  8
_U+30EC_U+30A4_U+30E4_U+30FC 1
 62
     7
420
 16777215
370
     9
100
AcDbSpline
210
0.0
220
0.0
230
1.0
 70
    11
 71
     3
 72
    17
 73
    13
 74
     0
 42
0.0000000001
 43
0.0000000001
 12
1.0
 22
0.0
 32
0.0
 13
1.0
 23
0.0
 33
0.0
 40
0.0
 40
0.0
 40
0.0
 40
0.0
 40
1.0
 40
1.0
 40
1.0
 40
2.0
 40
2.0
 40
2.0
 40
3.0
 40
3.0
 40
3.0
 40
4.0
 40
4.0
 40
4.0
 40
4.0
 10
78.08411356346386
 20
-95.8263683093766
 30
0.0
 10
78.08411356346386
 20
-95.77122914272417
 30
0.0
 10
78.03934606460597
 20
-95.72646164273498
 30
0.0
 10
77.98420689934602
 20
-95.72646164273498
 30
0.0
 10
77.92875023409417
 20
-95.72646164273498
 30
0.0
 10
77.88394745745941
 20
-95.77122914272417
 30
0.0
 10
77.88394745745941
 20
-95.8263683093766
 30
0.0
 10
77.88394745745941
 20
-95.88147219825217
 30
0.0
 10
77.92875023409417
 20
-95.92627497601825
 30
0.0
 10
77.98420689934602
 20
-95.92627497601825
 30
0.0
 10
78.03934606460597
 20
-95.92627497601825
 30
0.0
 10
78.08411356346386
 20
-95.88147219825217
 30
0.0
 10
78.08411356346386
 20
-95.8263683093766
 30
0.0
  0
SPLINE
  5
82
330
1F
100
AcDbEntity
  8
_U+30EC_U+30A4_U+30E4_U+30FC 1
 62
     7
420
 16777215
370
     9
100
AcDbSpline
210
0.0
220
0.0
230
1.0
 70
    11
 71
     3
 72
    17
 73
    13
 74
     0
 42
0.0000000001
 43
0.0000000001
 12
1.0
 22
0.0
 32
0.0
 13
1.0
 23
0.0
 33
0.0
 40
0.0
 40
0.0
 40
0.0
 40
0.0
 40
1.0
 40
1.0
 40
1.0
 40
2.0
 40
2.0
 40
2.0
 40
3.0
 40
3.0
 40
3.0
 40
4.0
 40
4.0
 40
4.0
 40
4.0
 10
78.08411356346386
 20
-98.92626191971259
 30
0.0
 10
78.08411356346386
 20
-98.87112275306015
 30
0.0
 10
78.03934606460597
 20
-98.82635525307096
 30
0.0
 10
77.98420689934602
 20
-98.82635525307096
 30
0.0
 10
77.92875023409417
 20
-98.82635525307096
 30
0.0
 10
77.88394745745941
 20
-98.87112275306015
 30
0.0
 10
77.88394745745941
 20
-98.92626191971259
 30
0.0
 10
77.88394745745941
 20
-98.98171858636591
 30
0.0
 10
77.92875023409417
 20
-99.026521364132
 30
0.0
 10
77.98420689934602
 20
-99.026521364132
 30
0.0
 10
78.03934606460597
 20
-99.026521364132
 30
0.0
 10
78.08411356346386
 20
-98.98171858636591
 30
0.0
 10
78.08411356346386
 20
-98.92626191971259
 30
0.0
  0
SPLINE
  5
83
330
1F
100
AcDbEntity
  8
_U+30EC_U+30A4_U+30E4_U+30FC 1
 62
     7
420
 16777215
370
     9
100
AcDbSpline
210
0.0
220
0.0
230
1.0
 70
    11
 71
     3
 72
    17
 73
    13
 74
     0
 42
0.0000000001
 43
0.0000000001
 12
1.0
 22
0.0
 32
0.0
 13
1.0
 23
0.0
 33
0.0
 40
0.0
 40
0.0
 40
0.0
 40
0.0
 40
1.0
 40
1.0
 40
1.0
 40
2.0
 40
2.0
 40
2.0
 40
3.0
 40
3.0
 40
3.0
 40
4.0
 40
4.0
 40
4.0
 40
4.0
 10
74.08403887036803
 20
-77.72618720279083
 30
0.0
 10
74.08403887036803
 20
-77.67104803613775
 30
0.0
 10
74.0392360926013
 20
-77.62628053614887
 30
0.0
 10
73.98413033472981
 20
-77.62628053614887
 30
0.0
 10
73.92899116946985
 20
-77.62628053614887
 30
0.0
 10
73.8841883928351
 20
-77.67104803613775
 30
0.0
 10
73.8841883928351
 20
-77.72618720279083
 30
0.0
 10
73.8841883928351
 20
-77.78164386944351
 30
0.0
 10
73.92899116946985
 20
-77.8264466472099
 30
0.0
 10
73.98413033472981
 20
-77.8264466472099
 30
0.0
 10
74.0392360926013
 20
-77.8264466472099
 30
0.0
 10
74.08403887036803
 20
-77.78164386944351
 30
0.0
 10
74.08403887036803
 20
-77.72618720279083
 30
0.0
  0
SPLINE
  5
84
330
1F
100
AcDbEntity
  8
_U+30EC_U+30A4_U+30E4_U+30FC 1
 62
     7
420
 16777215
370
     9
100
AcDbSpline
210
0.0
220
0.0
230
1.0
 70
    11
 71
     3
 72
    17
 73
    13
 74
     0
 42
0.0000000001
 43
0.0000000001
 12
1.0
 22
0.0
 32
0.0
 13
1.0
 23
0.0
 33
0.0
 40
0.0
 40
0.0
 40
0.0
 40
0.0
 40
1.0
 40
1.0
 40
1.0
 40
2.0
 40
2.0
 40
2.0
 40
3.0
 40
3.0
 40
3.0
 40
4.0
 40
4.0
 40
4.0
 40
4.0
 10
49.08398180331886
 20
-77.72618720279083
 30
0.0
 10
49.08398180331886
 20
-77.67104803613775
 30
0.0
 10
49.03921430446097
 20
-77.62628053614887
 30
0.0
 10
48.98407513920102
 20
-77.62628053614887
 30
0.0
 10
48.92897125171795
 20
-77.62628053614887
 30
0.0
 10
48.88416847508319
 20
-77.67104803613775
 30
0.0
 10
48.88416847508319
 20
-77.72618720279083
 30
0.0
 10
48.88416847508319
 20
-77.78164386944351
 30
0.0
 10
48.92897125171795
 20
-77.8264466472099
 30
0.0
 10
48.98407513920102
 20
-77.8264466472099
 30
0.0
 10
49.03921430446097
 20
-77.8264466472099
 30
0.0
 10
49.08398180331886
 20
-77.78164386944351
 30
0.0
 10
49.08398180331886
 20
-77.72618720279083
 30
0.0
  0
POLYLINE
  5
85
330
1F
100
AcDbEntity
  8
_U+30EC_U+30A4_U+30E4_U+30FC 1
 62
     7
420
 16777215
370
     9
100
AcDb2dPolyline
 66
     1
 10
0.0
 20
0.0
 30
0.0
  0
VERTEX
  5
86
330
85
100
AcDbEntity
  8
_U+30EC_U+30A4_U+30E4_U+30FC 1
 62
     7
420
 16777215
370
     9
100
AcDbVertex
100
AcDb2dVertex
 10
46.98386046800852
 20
-102.9263738631572
 30
0.0
  0
VERTEX
  5
87
330
85
100
AcDbEntity
  8
_U+30EC_U+30A4_U+30E4_U+30FC 1
 62
     7
420
 16777215
370
     9
100
AcDbVertex
100
AcDb2dVertex
 10
61.98379480755054
 20
-102.9263738631572
 30
0.0
  0
SEQEND
  5
88
330
85
100
AcDbEntity
  8
_U+30EC_U+30A4_U+30E4_U+30FC 1
 62
     7
420
 16777215
370
     9
  0
POLYLINE
  5
89
330
1F
100
AcDbEntity
  8
_U+30EC_U+30A4_U+30E4_U+30FC 1
 62
     7
420
 16777215
370
     9
100
AcDb2dPolyline
 66
     1
 10
0.0
 20
0.0
 30
0.0
  0
VERTEX
  5
8A
330
89
100
AcDbEntity
  8
_U+30EC_U+30A4_U+30E4_U+30FC 1
 62
     7
420
 16777215
370
     9
100
AcDbVertex
100
AcDb2dVertex
 10
46.98386046800852
 20
-101.4663324746335
 30
0.0
  0
VERTEX
  5
8B
330
89
100
AcDbEntity
  8
_U+30EC_U+30A4_U+30E4_U+30FC 1
 62
     7
420
 16777215
370
     9
100
AcDbVertex
100
AcDb2dVertex
 10
46.98386046800852
 20
-103.9264635851294
 30
0.0
  0
SEQEND
  5
8C
330
89
100
AcDbEntity
  8
_U+30EC_U+30A4_U+30E4_U+30FC 1
 62
     7
420
 16777215
370
     9
  0
POLYLINE
  5
8D
330
1F
100
AcDbEntity
  8
_U+30EC_U+30A4_U+30E4_U+30FC 1
 62
     7
420
 16777215
370
     9
100
AcDb2dPolyline
 66
     1
 10
0.0
 20
0.0
 30
0.0
  0
VERTEX
  5
8E
330
8D
100
AcDbEntity
  8
_U+30EC_U+30A4_U+30E4_U+30FC 1
 62
     7
420
 16777215
370
     9
100
AcDbVertex
100
AcDb2dVertex
 10
62.08373674944525
 20
-101.4663324746335
 30
0.0
  0
VERTEX
  5
8F
330
8D
100
AcDbEntity
  8
_U+30EC_U+30A4_U+30E4_U+30FC 1
 62
     7
420
 16777215
370
     9
100
AcDbVertex
100
AcDb2dVertex
 10
62.08373674944525
 20
-103.9264635851294
 30
0.0
  0
SEQEND
  5
90
330
8D
100
AcDbEntity
  8
_U+30EC_U+30A4_U+30E4_U+30FC 1
 62
     7
420
 16777215
370
     9
  0
INSERT
  5
92
330
1F
100
AcDbEntity
  8
_U+30EC_U+30A4_U+30E4_U+30FC 1
100
AcDbBlockReference
  2
block 3
 10
0.0
 20
0.0
 30
0.0
  0
POLYLINE
  5
99
330
1F
100
AcDbEntity
  8
_U+30EC_U+30A4_U+30E4_U+30FC 1
 62
     7
420
 16777215
370
     9
100
AcDb2dPolyline
 66
     1
 10
0.0
 20
0.0
 30
0.0
  0
VERTEX
  5
9A
330
99
100
AcDbEntity
  8
_U+30EC_U+30A4_U+30E4_U+30FC 1
 62
     7
420
 16777215
370
     9
100
AcDbVertex
100
AcDb2dVertex
 10
77.98420689934602
 20
-95.92627497601825
 30
0.0
  0
VERTEX
  5
9B
330
99
100
AcDbEntity
  8
_U+30EC_U+30A4_U+30E4_U+30FC 1
 62
     7
420
 16777215
370
     9
100
AcDbVertex
100
AcDb2dVertex
 10
77.98420689934602
 20
-98.92626191971259
 30
0.0
  0
SEQEND
  5
9C
330
99
100
AcDbEntity
  8
_U+30EC_U+30A4_U+30E4_U+30FC 1
 62
     7
420
 16777215
370
     9
  0
POLYLINE
  5
9D
330
1F
100
AcDbEntity
  8
_U+30EC_U+30A4_U+30E4_U+30FC 1
 62
     7
420
 16777215
370
     9
100
AcDb2dPolyline
 66
     1
 10
0.0
 20
0.0
 30
0.0
  0
VERTEX
  5
9E
330
9D
100
AcDbEntity
  8
_U+30EC_U+30A4_U+30E4_U+30FC 1
 62
     7
420
 16777215
370
     9
100
AcDbVertex
100
AcDb2dVertex
 10
64.48393085487787
 20
-95.8263683093766
 30
0.0
  0
VERTEX
  5
9F
330
9D
100
AcDbEntity
  8
_U+30EC_U+30A4_U+30E4_U+30FC 1
 62
     7
420
 16777215
370
     9
100
AcDbVertex
100
AcDb2dVertex
 10
78.98397909606193
 20
-95.8263683093766
 30
0.0
  0
SEQEND
  5
A0
330
9D
100
AcDbEntity
  8
_U+30EC_U+30A4_U+30E4_U+30FC 1
 62
     7
420
 16777215
370
     9
  0
POLYLINE
  5
A1
330
1F
100
AcDbEntity
  8
_U+30EC_U+30A4_U+30E4_U+30FC 1
 62
     7
420
 16777215
370
     9
100
AcDb2dPolyline
 66
     1
 10
0.0
 20
0.0
 30
0.0
  0
VERTEX
  5
A2
330
A1
100
AcDbEntity
  8
_U+30EC_U+30A4_U+30E4_U+30FC 1
 62
     7
420
 16777215
370
     9
100
AcDbVertex
100
AcDb2dVertex
 10
64.48393085487787
 20
-98.92626191971259
 30
0.0
  0
VERTEX
  5
A3
330
A1
100
AcDbEntity
  8
_U+30EC_U+30A4_U+30E4_U+30FC 1
 62
     7
420
 16777215
370
     9
100
AcDbVertex
100
AcDb2dVertex
 10
78.98397909606193
 20
-98.92626191971259
 30
0.0
  0
SEQEND
  5
A4
330
A1
100
AcDbEntity
  8
_U+30EC_U+30A4_U+30E4_U+30FC 1
 62
     7
420
 16777215
370
     9
  0
INSERT
  5
A6
330
1F
100
AcDbEntity
  8
_U+30EC_U+30A4_U+30E4_U+30FC 1
100
AcDbBlockReference
  2
block 4
 10
0.0
 20
0.0
 30
0.0
  0
POLYLINE
  5
AB
330
1F
100
AcDbEntity
  8
_U+30EC_U+30A4_U+30E4_U+30FC 1
 62
     7
420
 16777215
370
     9
100
AcDb2dPolyline
 66
     1
 10
0.0
 20
0.0
 30
0.0
  0
VERTEX
  5
AC
330
AB
100
AcDbEntity
  8
_U+30EC_U+30A4_U+30E4_U+30FC 1
 62
     7
420
 16777215
370
     9
100
AcDbVertex
100
AcDb2dVertex
 10
77.98420689934602
 20
-82.82629553484894
 30
0.0
  0
VERTEX
  5
AD
330
AB
100
AcDbEntity
  8
_U+30EC_U+30A4_U+30E4_U+30FC 1
 62
     7
420
 16777215
370
     9
100
AcDbVertex
100
AcDb2dVertex
 10
77.98420689934602
 20
-77.8264466472099
 30
0.0
  0
SEQEND
  5
AE
330
AB
100
AcDbEntity
  8
_U+30EC_U+30A4_U+30E4_U+30FC 1
 62
     7
420
 16777215
370
     9
  0
POLYLINE
  5
AF
330
1F
100
AcDbEntity
  8
_U+30EC_U+30A4_U+30E4_U+30FC 1
 62
     7
420
 16777215
370
     9
100
AcDb2dPolyline
 66
     1
 10
0.0
 20
0.0
 30
0.0
  0
VERTEX
  5
B0
330
AF
100
AcDbEntity
  8
_U+30EC_U+30A4_U+30E4_U+30FC 1
 62
     7
420
 16777215
370
     9
100
AcDbVertex
100
AcDb2dVertex
 10
76.52416554770589
 20
-81.82617053509895
 30
0.0
  0
VERTEX
  5
B1
330
AF
100
AcDbEntity
  8
_U+30EC_U+30A4_U+30E4_U+30FC 1
 62
     7
420
 16777215
370
     9
100
AcDbVertex
100
AcDb2dVertex
 10
78.98397909606193
 20
-81.82617053509895
 30
0.0
  0
SEQEND
  5
B2
330
AF
100
AcDbEntity
  8
_U+30EC_U+30A4_U+30E4_U+30FC 1
 62
     7
420
 16777215
370
     9
  0
INSERT
  5
B4
330
1F
100
AcDbEntity
  8
_U+30EC_U+30A4_U+30E4_U+30FC 1
100
AcDbBlockReference
  2
block 5
 10
0.0
 20
0.0
 30
0.0
  0
POLYLINE
  5
B9
330
1F
100
AcDbEntity
  8
_U+30EC_U+30A4_U+30E4_U+30FC 1
 62
     7
420
 16777215
370
     9
100
AcDb2dPolyline
 66
     1
 10
0.0
 20
0.0
 30
0.0
  0
VERTEX
  5
BA
330
B9
100
AcDbEntity
  8
_U+30EC_U+30A4_U+30E4_U+30FC 1
 62
     7
420
 16777215
370
     9
100
AcDbVertex
100
AcDb2dVertex
 10
48.98407513920102
 20
-77.72618720279083
 30
0.0
  0
VERTEX
  5
BB
330
B9
100
AcDbEntity
  8
_U+30EC_U+30A4_U+30E4_U+30FC 1
 62
     7
420
 16777215
370
     9
100
AcDbVertex
100
AcDb2dVertex
 10
73.98413033472981
 20
-77.72618720279083
 30
0.0
  0
SEQEND
  5
BC
330
B9
100
AcDbEntity
  8
_U+30EC_U+30A4_U+30E4_U+30FC 1
 62
     7
420
 16777215
370
     9
  0
POLYLINE
  5
BD
330
1F
100
AcDbEntity
  8
_U+30EC_U+30A4_U+30E4_U+30FC 1
 62
     7
420
 16777215
370
     9
100
AcDb2dPolyline
 66
     1
 10
0.0
 20
0.0
 30
0.0
  0
VERTEX
  5
BE
330
BD
100
AcDbEntity
  8
_U+30EC_U+30A4_U+30E4_U+30FC 1
 62
     7
420
 16777215
370
     9
100
AcDbVertex
100
AcDb2dVertex
 10
48.98407513920102
 20
-79.18619331353669
 30
0.0
  0
VERTEX
  5
BF
330
BD
100
AcDbEntity
  8
_U+30EC_U+30A4_U+30E4_U+30FC 1
 62
     7
420
 16777215
370
     9
100
AcDbVertex
100
AcDb2dVertex
 10
48.98407513920102
 20
-76.72641498081829
 30
0.0
  0
SEQEND
  5
C0
330
BD
100
AcDbEntity
  8
_U+30EC_U+30A4_U+30E4_U+30FC 1
 62
     7
420
 16777215
370
     9
  0
POLYLINE
  5
C1
330
1F
100
AcDbEntity
  8
_U+30EC_U+30A4_U+30E4_U+30FC 1
 62
     7
420
 16777215
370
     9
100
AcDb2dPolyline
 66
     1
 10
0.0
 20
0.0
 30
0.0
  0
VERTEX
  5
C2
330
C1
100
AcDbEntity
  8
_U+30EC_U+30A4_U+30E4_U+30FC 1
 62
     7
420
 16777215
370
     9
100
AcDbVertex
100
AcDb2dVertex
 10
73.98413033472981
 20
-79.18619331353669
 30
0.0
  0
VERTEX
  5
C3
330
C1
100
AcDbEntity
  8
_U+30EC_U+30A4_U+30E4_U+30FC 1
 62
     7
420
 16777215
370
     9
100
AcDbVertex
100
AcDb2dVertex
 10
73.98413033472981
 20
-76.72641498081829
 30
0.0
  0
SEQEND
  5
C4
330
C1
100
AcDbEntity
  8
_U+30EC_U+30A4_U+30E4_U+30FC 1
 62
     7
420
 16777215
370
     9
  0
INSERT
  5
C6
330
1F
100
AcDbEntity
  8
_U+30EC_U+30A4_U+30E4_U+30FC 1
100
AcDbBlockReference
  2
block 6
 10
0.0
 20
0.0
 30
0.0
  0
POLYLINE
  5
CD
330
1F
100
AcDbEntity
  8
_U+30EC_U+30A4_U+30E4_U+30FC 1
 62
     7
420
 16777215
370
     9
100
AcDb2dPolyline
 66
     1
 10
0.0
 20
0.0
 30
0.0
  0
VERTEX
  5
CE
330
CD
100
AcDbEntity
  8
_U+30EC_U+30A4_U+30E4_U+30FC 1
 62
     7
420
 16777215
370
     9
100
AcDbVertex
100
AcDb2dVertex
 10
77.98420689934602
 20
-95.8263683093766
 30
0.0
  0
VERTEX
  5
CF
330
CD
100
AcDbEntity
  8
_U+30EC_U+30A4_U+30E4_U+30FC 1
 62
     7
420
 16777215
370
     9
100
AcDbVertex
100
AcDb2dVertex
 10
77.98420689934602
 20
-82.82629553484894
 30
0.0
  0
SEQEND
  5
D0
330
CD
100
AcDbEntity
  8
_U+30EC_U+30A4_U+30E4_U+30FC 1
 62
     7
420
 16777215
370
     9
  0
POLYLINE
  5
D1
330
1F
100
AcDbEntity
  8
_U+30EC_U+30A4_U+30E4_U+30FC 1
 62
     7
420
 16777215
370
     9
100
AcDb2dPolyline
 66
     1
 10
0.0
 20
0.0
 30
0.0
  0
VERTEX
  5
D2
330
D1
100
AcDbEntity
  8
_U+30EC_U+30A4_U+30E4_U+30FC 1
 62
     7
420
 16777215
370
     9
100
AcDbVertex
100
AcDb2dVertex
 10
76.52416554770589
 20
-82.82629553484894
 30
0.0
  0
VERTEX
  5
D3
330
D1
100
AcDbEntity
  8
_U+30EC_U+30A4_U+30E4_U+30FC 1
 62
     7
420
 16777215
370
     9
100
AcDbVertex
100
AcDb2dVertex
 10
78.98397909606193
 20
-82.82629553484894
 30
0.0
  0
SEQEND
  5
D4
330
D1
100
AcDbEntity
  8
_U+30EC_U+30A4_U+30E4_U+30FC 1
 62
     7
420
 16777215
370
     9
  0
INSERT
  5
D6
330
1F
100
AcDbEntity
  8
_U+30EC_U+30A4_U+30E4_U+30FC 1
100
AcDbBlockReference
  2
block 7
 10
0.0
 20
0.0
 30
0.0
  0
ENDSEC
  0
SECTION
  2
OBJECTS
  0
DICTIONARY
  5
C
330
0
100
AcDbDictionary
281
     1
  3
ACAD_GROUP
350
D
  3
ACAD_LAYOUT
350
1A
  3
ACAD_MATERIAL
350
3B
  3
ACAD_MLEADERSTYLE
350
DE
  3
ACAD_MLINESTYLE
350
17
  3
ACAD_PLOTSETTINGS
350
19
  3
ACAD_PLOTSTYLENAME
350
E
  3
ACAD_TABLESTYLE
350
DD
  3
ACAD_VISUALSTYLE
350
2A
  0
SUN
  5
3F
330
29
100
AcDbSun
 90
        1
290
     0
 63
     7
421
 16777215
 40
1.0
291
     1
 91
  2455826
 92
 54000000
292
     0
 70
     2
 71
   256
280
     1
  0
DICTIONARY
  5
D
102
{ACAD_REACTORS
330
C
102
}
330
C
100
AcDbDictionary
281
     1
  0
DICTIONARY
  5
1A
102
{ACAD_REACTORS
330
C
102
}
330
C
100
AcDbDictionary
281
     1
  3
Layout1
350
1E
  3
Layout2
350
26
  3
Model
350
22
  0
DICTIONARY
  5
3B
102
{ACAD_REACTORS
330
C
102
}
330
C
100
AcDbDictionary
281
     1
  3
ByBlock
350
3D
  3
ByLayer
350
3C
  3
Global
350
3E
  0
DICTIONARY
  5
DE
102
{ACAD_REACTORS
330
C
102
}
330
C
100
AcDbDictionary
281
     1
  0
DICTIONARY
  5
17
102
{ACAD_REACTORS
330
C
102
}
330
C
100
AcDbDictionary
281
     1
  3
Standard
350
18
  0
DICTIONARY
  5
19
102
{ACAD_REACTORS
330
C
102
}
330
C
100
AcDbDictionary
281
     1
  0
ACDBDICTIONARYWDFLT
  5
E
102
{ACAD_REACTORS
330
C
102
}
330
C
100
AcDbDictionary
281
     1
  3
Normal
350
F
100
AcDbDictionaryWithDefault
340
F
  0
DICTIONARY
  5
DD
102
{ACAD_REACTORS
330
C
102
}
330
C
100
AcDbDictionary
281
     1
  0
DICTIONARY
  5
2A
102
{ACAD_REACTORS
330
C
102
}
330
C
100
AcDbDictionary
281
     1
  3
2dWireframe
350
2F
  3
3D Hidden
350
31
  3
3dWireframe
350
30
  3
Basic
350
32
  3
Brighten
350
36
  3
ColorChange
350
3A
  3
Conceptual
350
34
  3
Dim
350
35
  3
Facepattern
350
39
  3
Flat
350
2B
  3
FlatWithEdges
350
2C
  3
Gouraud
350
2D
  3
GouraudWithEdges
350
2E
  3
Linepattern
350
38
  3
Realistic
350
33
  3
Thicken
350
37
  0
LAYOUT
  5
1E
102
{ACAD_REACTORS
330
1A
102
}
330
1A
100
AcDbPlotSettings
  1

  2
none_device
  4

  6

 40
0.0
 41
0.0
 42
0.0
 43
0.0
 44
0.0
 45
0.0
 46
0.0
 47
0.0
 48
0.0
 49
0.0
140
0.0
141
0.0
142
1.0
143
1.0
 70
   688
 72
     0
 73
     0
 74
     5
  7

 75
    16
 76
     0
 77
     2
 78
   300
147
1.0
148
0.0
149
0.0
100
AcDbLayout
  1
Layout1
 70
     1
 71
     1
 10
0.0
 20
0.0
 11
12.0
 21
9.0
 12
0.0
 22
0.0
 32
0.0
 14
1.000000000000000E+20
 24
1.000000000000000E+20
 34
1.000000000000000E+20
 15
-1.000000000000000E+20
 25
-1.000000000000000E+20
 35
-1.000000000000000E+20
146
0.0
 13
0.0
 23
0.0
 33
0.0
 16
1.0
 26
0.0
 36
0.0
 17
0.0
 27
1.0
 37
0.0
 76
     0
330
1B
  0
LAYOUT
  5
26
102
{ACAD_REACTORS
330
1A
102
}
330
1A
100
AcDbPlotSettings
  1

  2
none_device
  4

  6

 40
0.0
 41
0.0
 42
0.0
 43
0.0
 44
0.0
 45
0.0
 46
0.0
 47
0.0
 48
0.0
 49
0.0
140
0.0
141
0.0
142
1.0
143
1.0
 70
   688
 72
     0
 73
     0
 74
     5
  7

 75
    16
 76
     0
 77
     2
 78
   300
147
1.0
148
0.0
149
0.0
100
AcDbLayout
  1
Layout2
 70
     1
 71
     2
 10
0.0
 20
0.0
 11
0.0
 21
0.0
 12
0.0
 22
0.0
 32
0.0
 14
0.0
 24
0.0
 34
0.0
 15
0.0
 25
0.0
 35
0.0
146
0.0
 13
0.0
 23
0.0
 33
0.0
 16
1.0
 26
0.0
 36
0.0
 17
0.0
 27
1.0
 37
0.0
 76
     0
330
23
  0
LAYOUT
  5
22
102
{ACAD_REACTORS
330
1A
102
}
330
1A
100
AcDbPlotSettings
  1

  2
none_device
  4

  6

 40
0.0
 41
0.0
 42
0.0
 43
0.0
 44
0.0
 45
0.0
 46
0.0
 47
0.0
 48
0.0
 49
0.0
140
0.0
141
0.0
142
1.0
143
1.0
 70
  1712
 72
     0
 73
     0
 74
     0
  7

 75
     0
 76
     0
 77
     2
 78
   300
147
1.0
148
0.0
149
0.0
100
AcDbLayout
  1
Model
 70
     1
 71
     0
 10
0.0
 20
0.0
 11
12.0
 21
9.0
 12
0.0
 22
0.0
 32
0.0
 14
1.000000000000000E+20
 24
1.000000000000000E+20
 34
1.000000000000000E+20
 15
-1.000000000000000E+20
 25
-1.000000000000000E+20
 35
-1.000000000000000E+20
146
0.0
 13
0.0
 23
0.0
 33
0.0
 16
1.0
 26
0.0
 36
0.0
 17
0.0
 27
1.0
 37
0.0
 76
     0
330
1F
331
29
  0
MATERIAL
  5
3D
102
{ACAD_REACTORS
330
3B
102
}
330
3B
100
AcDbMaterial
  1
ByBlock
 72
     1
 94
      127
  0
MATERIAL
  5
3C
102
{ACAD_REACTORS
330
3B
102
}
330
3B
100
AcDbMaterial
  1
ByLayer
 72
     1
 94
      127
  0
MATERIAL
  5
3E
102
{ACAD_REACTORS
330
3B
102
}
330
3B
100
AcDbMaterial
  1
Global
 72
     1
 94
      127
  0
MLINESTYLE
  5
18
102
{ACAD_REACTORS
330
17
102
}
330
17
100
AcDbMlineStyle
  2
Standard
 70
     0
  3

 62
   256
 51
90.0
 52
90.0
 71
     2
 49
0.5
 62
   256
  6
BYLAYER
 49
-0.5
 62
   256
  6
BYLAYER
  0
ACDBPLACEHOLDER
  5
F
102
{ACAD_REACTORS
330
E
102
}
330
E
  0
VISUALSTYLE
  5
2F
102
{ACAD_REACTORS
330
2A
102
}
330
2A
100
AcDbVisualStyle
  2
2dWireframe
 70
     4
177
     2
291
     0
 71
     0
176
     1
 72
     2
176
     1
 73
     0
176
     1
 90
        0
176
     1
 40
-0.6
176
     1
 41
-30.0
176
     1
 62
     5
 63
     7
421
 16777215
176
     1
 74
     1
176
     1
 91
        4
176
     1
 64
     7
176
     1
 65
   257
176
     1
 75
     1
176
     1
175
     1
176
     1
 42
1.0
176
     1
 92
        0
176
     1
 66
   257
176
     1
 43
1.0
176
     1
 76
     1
176
     1
 77
     6
176
     1
 78
     2
176
     1
 67
     7
176
     1
 79
     5
176
     1
170
     0
176
     1
171
     0
176
     1
290
     0
176
     1
 93
        1
176
     1
 44
0.0
176
     1
173
     0
176
     1
  0
VISUALSTYLE
  5
31
102
{ACAD_REACTORS
330
2A
102
}
330
2A
100
AcDbVisualStyle
  2
3D Hidden
 70
     6
177
     2
291
     0
 71
     1
176
     1
 72
     2
176
     1
 73
     2
176
     1
 90
        0
176
     1
 40
-0.6
176
     1
 41
-30.0
176
     1
 62
     5
 63
     7
421
 16777215
176
     1
 74
     2
176
     1
 91
        2
176
     1
 64
     7
176
     1
 65
   257
176
     1
 75
     2
176
     1
175
     1
176
     1
 42
40.0
176
     1
 92
        0
176
     1
 66
   257
176
     1
 43
1.0
176
     1
 76
     1
176
     1
 77
     6
176
     1
 78
     2
176
     1
 67
     7
176
     1
 79
     3
176
     1
170
     0
176
     1
171
     0
176
     1
290
     0
176
     1
 93
        1
176
     1
 44
0.0
176
     1
173
     0
176
     1
  0
VISUALSTYLE
  5
30
102
{ACAD_REACTORS
330
2A
102
}
330
2A
100
AcDbVisualStyle
  2
3dWireframe
 70
     5
177
     2
291
     0
 71
     0
176
     1
 72
     2
176
     1
 73
     0
176
     1
 90
        0
176
     1
 40
-0.6
176
     1
 41
-30.0
176
     1
 62
     5
 63
     7
421
 16777215
176
     1
 74
     1
176
     1
 91
        4
176
     1
 64
     7
176
     1
 65
   257
176
     1
 75
     1
176
     1
175
     1
176
     1
 42
1.0
176
     1
 92
        0
176
     1
 66
   257
176
     1
 43
1.0
176
     1
 76
     1
176
     1
 77
     6
176
     1
 78
     2
176
     1
 67
     7
176
     1
 79
     5
176
     1
170
     0
176
     1
171
     0
176
     1
290
     0
176
     1
 93
        1
176
     1
 44
0.0
176
     1
173
     0
176
     1
  0
VISUALSTYLE
  5
32
102
{ACAD_REACTORS
330
2A
102
}
330
2A
100
AcDbVisualStyle
  2
Basic
 70
     7
177
     2
291
     1
 71
     1
176
     1
 72
     0
176
     1
 73
     1
176
     1
 90
        0
176
     1
 40
-0.6
176
     1
 41
-30.0
176
     1
 62
     5
 63
     7
421
 16777215
176
     1
 74
     0
176
     1
 91
        4
176
     1
 64
     7
176
     1
 65
   257
176
     1
 75
     1
176
     1
175
     1
176
     1
 42
1.0
176
     1
 92
        8
176
     1
 66
     7
176
     1
 43
1.0
176
     1
 76
     1
176
     1
 77
     6
176
     1
 78
     2
176
     1
 67
     7
176
     1
 79
     5
176
     1
170
     0
176
     1
171
     0
176
     1
290
     0
176
     1
 93
        1
176
     1
 44
0.0
176
     1
173
     0
176
     1
  0
VISUALSTYLE
  5
36
102
{ACAD_REACTORS
330
2A
102
}
330
2A
100
AcDbVisualStyle
  2
Brighten
 70
    12
177
     2
291
     1
 71
     2
176
     1
 72
     2
176
     1
 73
     0
176
     1
 90
        0
176
     1
 40
-0.6
176
     1
 41
-30.0
176
     1
 62
     5
 63
     7
421
 16777215
176
     1
 74
     1
176
     1
 91
        4
176
     1
 64
     7
176
     1
 65
   257
176
     1
 75
     1
176
     1
175
     1
176
     1
 42
1.0
176
     1
 92
        8
176
     1
 66
     7
176
     1
 43
1.0
176
     1
 76
     1
176
     1
 77
     6
176
     1
 78
     2
176
     1
 67
     7
176
     1
 79
     5
176
     1
170
     0
176
     1
171
     0
176
     1
290
     0
176
     1
 93
        1
176
     1
 44
50.0
176
     1
173
     0
176
     1
  0
VISUALSTYLE
  5
3A
102
{ACAD_REACTORS
330
2A
102
}
330
2A
100
AcDbVisualStyle
  2
ColorChange
 70
    16
177
     2
291
     1
 71
     2
176
     1
 72
     2
176
     1
 73
     3
176
     1
 90
        0
176
     1
 40
-0.6
176
     1
 41
-30.0
176
     1
 62
     5
 63
     8
421
  8421504
176
     1
 74
     1
176
     1
 91
        4
176
     1
 64
     7
176
     1
 65
   257
176
     1
 75
     1
176
     1
175
     1
176
     1
 42
1.0
176
     1
 92
        8
176
     1
 66
     8
424
  8421504
176
     1
 43
1.0
176
     1
 76
     1
176
     1
 77
     6
176
     1
 78
     2
176
     1
 67
     7
176
     1
 79
     5
176
     1
170
     0
176
     1
171
     0
176
     1
290
     0
176
     1
 93
        1
176
     1
 44
0.0
176
     1
173
     0
176
     1
  0
VISUALSTYLE
  5
34
102
{ACAD_REACTORS
330
2A
102
}
330
2A
100
AcDbVisualStyle
  2
Conceptual
 70
     9
177
     2
291
     0
 71
     3
176
     1
 72
     2
176
     1
 73
     0
176
     1
 90
        0
176
     1
 40
-0.6
176
     1
 41
-30.0
176
     1
 62
     5
 63
     7
421
 16777215
176
     1
 74
     2
176
     1
 91
        2
176
     1
 64
     7
176
     1
 65
   257
176
     1
 75
     1
176
     1
175
     1
176
     1
 42
40.0
176
     1
 92
        8
176
     1
 66
     7
176
     1
 43
1.0
176
     1
 76
     1
176
     1
 77
     6
176
     1
 78
     2
176
     1
 67
     7
176
     1
 79
     3
176
     1
170
     0
176
     1
171
     0
176
     1
290
     0
176
     1
 93
        1
176
     1
 44
0.0
176
     1
173
     0
176
     1
  0
VISUALSTYLE
  5
35
102
{ACAD_REACTORS
330
2A
102
}
330
2A
100
AcDbVisualStyle
  2
Dim
 70
    11
177
     2
291
     1
 71
     2
176
     1
 72
     2
176
     1
 73
     0
176
     1
 90
        0
176
     1
 40
-0.6
176
     1
 41
-30.0
176
     1
 62
     5
 63
     7
421
 16777215
176
     1
 74
     1
176
     1
 91
        4
176
     1
 64
     7
176
     1
 65
   257
176
     1
 75
     1
176
     1
175
     1
176
     1
 42
1.0
176
     1
 92
        8
176
     1
 66
     7
176
     1
 43
1.0
176
     1
 76
     1
176
     1
 77
     6
176
     1
 78
     2
176
     1
 67
     7
176
     1
 79
     5
176
     1
170
     0
176
     1
171
     0
176
     1
290
     0
176
     1
 93
        1
176
     1
 44
-50.0
176
     1
173
     0
176
     1
  0
VISUALSTYLE
  5
39
102
{ACAD_REACTORS
330
2A
102
}
330
2A
100
AcDbVisualStyle
  2
Facepattern
 70
    15
177
     2
291
     1
 71
     2
176
     1
 72
     2
176
     1
 73
     0
176
     1
 90
        0
176
     1
 40
-0.6
176
     1
 41
-30.0
176
     1
 62
     5
 63
     7
421
 16777215
176
     1
 74
     1
176
     1
 91
        4
176
     1
 64
     7
176
     1
 65
   257
176
     1
 75
     1
176
     1
175
     1
176
     1
 42
1.0
176
     1
 92
        8
176
     1
 66
     7
176
     1
 43
1.0
176
     1
 76
     1
176
     1
 77
     6
176
     1
 78
     2
176
     1
 67
     7
176
     1
 79
     5
176
     1
170
     0
176
     1
171
     0
176
     1
290
     0
176
     1
 93
        1
176
     1
 44
0.0
176
     1
173
     0
176
     1
  0
VISUALSTYLE
  5
2B
102
{ACAD_REACTORS
330
2A
102
}
330
2A
100
AcDbVisualStyle
  2
Flat
 70
     0
177
     2
291
     1
 71
     2
176
     1
 72
     1
176
     1
 73
     1
176
     1
 90
        2
176
     1
 40
-0.6
176
     1
 41
30.0
176
     1
 62
     5
 63
     7
421
 16777215
176
     1
 74
     0
176
     1
 91
        4
176
     1
 64
     7
176
     1
 65
   257
176
     1
 75
     1
176
     1
175
     1
176
     1
 42
1.0
176
     1
 92
        8
176
     1
 66
     7
176
     1
 43
1.0
176
     1
 76
     1
176
     1
 77
     6
176
     1
 78
     2
176
     1
 67
     7
176
     1
 79
     5
176
     1
170
     0
176
     1
171
     0
176
     1
290
     0
176
     1
 93
       13
176
     1
 44
0.0
176
     1
173
     0
176
     1
  0
VISUALSTYLE
  5
2C
102
{ACAD_REACTORS
330
2A
102
}
330
2A
100
AcDbVisualStyle
  2
FlatWithEdges
 70
     1
177
     2
291
     1
 71
     2
176
     1
 72
     1
176
     1
 73
     1
176
     1
 90
        2
176
     1
 40
-0.6
176
     1
 41
30.0
176
     1
 62
     5
 63
     7
421
 16777215
176
     1
 74
     1
176
     1
 91
        4
176
     1
 64
     7
176
     1
 65
   257
176
     1
 75
     1
176
     1
175
     1
176
     1
 42
1.0
176
     1
 92
        0
176
     1
 66
   257
176
     1
 43
1.0
176
     1
 76
     1
176
     1
 77
     6
176
     1
 78
     2
176
     1
 67
     7
176
     1
 79
     5
176
     1
170
     0
176
     1
171
     0
176
     1
290
     0
176
     1
 93
       13
176
     1
 44
0.0
176
     1
173
     0
176
     1
  0
VISUALSTYLE
  5
2D
102
{ACAD_REACTORS
330
2A
102
}
330
2A
100
AcDbVisualStyle
  2
Gouraud
 70
     2
177
     2
291
     1
 71
     2
176
     1
 72
     2
176
     1
 73
     1
176
     1
 90
        2
176
     1
 40
-0.6
176
     1
 41
30.0
176
     1
 62
     5
 63
     7
421
 16777215
176
     1
 74
     0
176
     1
 91
        4
176
     1
 64
     7
176
     1
 65
   257
176
     1
 75
     1
176
     1
175
     1
176
     1
 42
1.0
176
     1
 92
        0
176
     1
 66
     7
176
     1
 43
1.0
176
     1
 76
     1
176
     1
 77
     6
176
     1
 78
     2
176
     1
 67
     7
176
     1
 79
     5
176
     1
170
     0
176
     1
171
     0
176
     1
290
     0
176
     1
 93
       13
176
     1
 44
0.0
176
     1
173
     0
176
     1
  0
VISUALSTYLE
  5
2E
102
{ACAD_REACTORS
330
2A
102
}
330
2A
100
AcDbVisualStyle
  2
GouraudWithEdges
 70
     3
177
     2
291
     1
 71
     2
176
     1
 72
     2
176
     1
 73
     1
176
     1
 90
        2
176
     1
 40
-0.6
176
     1
 41
30.0
176
     1
 62
     5
 63
     7
421
 16777215
176
     1
 74
     1
176
     1
 91
        4
176
     1
 64
     7
176
     1
 65
   257
176
     1
 75
     1
176
     1
175
     1
176
     1
 42
1.0
176
     1
 92
        0
176
     1
 66
   257
176
     1
 43
1.0
176
     1
 76
     1
176
     1
 77
     6
176
     1
 78
     2
176
     1
 67
     7
176
     1
 79
     5
176
     1
170
     0
176
     1
171
     0
176
     1
290
     0
176
     1
 93
       13
176
     1
 44
0.0
176
     1
173
     0
176
     1
  0
VISUALSTYLE
  5
38
102
{ACAD_REACTORS
330
2A
102
}
330
2A
100
AcDbVisualStyle
  2
Linepattern
 70
    14
177
     2
291
     1
 71
     2
176
     1
 72
     2
176
     1
 73
     0
176
     1
 90
        0
176
     1
 40
-0.6
176
     1
 41
-30.0
176
     1
 62
     5
 63
     7
421
 16777215
176
     1
 74
     1
176
     1
 91
        4
176
     1
 64
     7
176
     1
 65
   257
176
     1
 75
     7
176
     1
175
     7
176
     1
 42
1.0
176
     1
 92
        8
176
     1
 66
     7
176
     1
 43
1.0
176
     1
 76
     1
176
     1
 77
     6
176
     1
 78
     2
176
     1
 67
     7
176
     1
 79
     5
176
     1
170
     0
176
     1
171
     0
176
     1
290
     0
176
     1
 93
        1
176
     1
 44
0.0
176
     1
173
     0
176
     1
  0
VISUALSTYLE
  5
33
102
{ACAD_REACTORS
330
2A
102
}
330
2A
100
AcDbVisualStyle
  2
Realistic
 70
     8
177
     2
291
     0
 71
     2
176
     1
 72
     2
176
     1
 73
     0
176
     1
 90
        0
176
     1
 40
-0.6
176
     1
 41
-30.0
176
     1
 62
     5
 63
     7
421
 16777215
176
     1
 74
     1
176
     1
 91
        0
176
     1
 64
     7
176
     1
 65
   257
176
     1
 75
     1
176
     1
175
     1
176
     1
 42
1.0
176
     1
 92
        8
176
     1
 66
     8
424
  7895160
176
     1
 43
1.0
176
     1
 76
     1
176
     1
 77
     6
176
     1
 78
     2
176
     1
 67
     7
176
     1
 79
     5
176
     1
170
     0
176
     1
171
     0
176
     1
290
     0
176
     1
 93
       13
176
     1
 44
0.0
176
     1
173
     0
176
     1
  0
VISUALSTYLE
  5
37
102
{ACAD_REACTORS
330
2A
102
}
330
2A
100
AcDbVisualStyle
  2
Thicken
 70
    13
177
     2
291
     1
 71
     2
176
     1
 72
     2
176
     1
 73
     0
176
     1
 90
        0
176
     1
 40
-0.6
176
     1
 41
-30.0
176
     1
 62
     5
 63
     7
421
 16777215
176
     1
 74
     1
176
     1
 91
        4
176
     1
 64
     7
176
     1
 65
   257
176
     1
 75
     1
176
     1
175
     1
176
     1
 42
1.0
176
     1
 92
       12
176
     1
 66
     7
176
     1
 43
1.0
176
     1
 76
     1
176
     1
 77
     6
176
     1
 78
     2
176
     1
 67
     7
176
     1
 79
     5
176
     1
170
     0
176
     1
171
     0
176
     1
290
     0
176
     1
 93
        1
176
     1
 44
0.0
176
     1
173
     0
176
     1
  0
ENDSEC
  0
EOF
